  0
SECTION
  2
HEADER
  9
$ACADVER
  1
AC1015
  9
$ACADMAINTVER
 70
    20
  9
$DWGCODEPAGE
  3
ANSI_932
  9
$INSBASE
 10
0.0
 20
0.0
 30
0.0
  9
$EXTMIN
 10
9.9999975266385
 20
10.0
 30
0.0
  9
$EXTMAX
 10
428.8423392165642
 20
200.5054177905715
 30
0.0
  9
$LIMMIN
 10
0.0000015376081137
 20
-0.0000001931532552
  9
$LIMMAX
 10
495.0000015376081
 20
341.2499998068465
  9
$ORTHOMODE
 70
     1
  9
$REGENMODE
 70
     1
  9
$FILLMODE
 70
     1
  9
$QTEXTMODE
 70
     0
  9
$MIRRTEXT
 70
     1
  9
$LTSCALE
 40
1.0
  9
$ATTMODE
 70
     1
  9
$TEXTSIZE
 40
2.5
  9
$TRACEWID
 40
1.0
  9
$TEXTSTYLE
  7
STANDARD
  9
$CLAYER
  8
0
  9
$CELTYPE
  6
CONTINUOUS
  9
$CECOLOR
 62
   256
  9
$CELTSCALE
 40
1.0
  9
$DISPSILH
 70
     0
  9
$DIMSCALE
 40
1.0
  9
$DIMASZ
 40
3.0
  9
$DIMEXO
 40
1.0
  9
$DIMDLI
 40
10.0
  9
$DIMRND
 40
0.0
  9
$DIMDLE
 40
0.0
  9
$DIMEXE
 40
1.0
  9
$DIMTP
 40
0.0
  9
$DIMTM
 40
0.0
  9
$DIMTXT
 40
3.2
  9
$DIMCEN
 40
0.0
  9
$DIMTSZ
 40
0.0
  9
$DIMTOL
 70
     0
  9
$DIMLIM
 70
     0
  9
$DIMTIH
 70
     0
  9
$DIMTOH
 70
     0
  9
$DIMSE1
 70
     0
  9
$DIMSE2
 70
     0
  9
$DIMTAD
 70
     3
  9
$DIMZIN
 70
     8
  9
$DIMBLK
  1

  9
$DIMASO
 70
     1
  9
$DIMSHO
 70
     1
  9
$DIMPOST
  1

  9
$DIMAPOST
  1

  9
$DIMALT
 70
     0
  9
$DIMALTD
 70
     2
  9
$DIMALTF
 40
25.4
  9
$DIMLFAC
 40
1.0
  9
$DIMTOFL
 70
     1
  9
$DIMTVP
 40
0.0
  9
$DIMTIX
 70
     0
  9
$DIMSOXD
 70
     0
  9
$DIMSAH
 70
     1
  9
$DIMBLK1
  1
OPEN
  9
$DIMBLK2
  1
OPEN
  9
$DIMSTYLE
  2
STANDARD
  9
$DIMCLRD
 70
     0
  9
$DIMCLRE
 70
     0
  9
$DIMCLRT
 70
     0
  9
$DIMTFAC
 40
1.0
  9
$DIMGAP
 40
1.0
  9
$DIMJUST
 70
     0
  9
$DIMSD1
 70
     0
  9
$DIMSD2
 70
     0
  9
$DIMTOLJ
 70
     1
  9
$DIMTZIN
 70
     0
  9
$DIMALTZ
 70
     0
  9
$DIMALTTZ
 70
     0
  9
$DIMUPT
 70
     0
  9
$DIMDEC
 70
     4
  9
$DIMTDEC
 70
     4
  9
$DIMALTU
 70
     2
  9
$DIMALTTD
 70
     2
  9
$DIMTXSTY
  7
STANDARD
  9
$DIMAUNIT
 70
     0
  9
$DIMADEC
 70
     0
  9
$DIMALTRND
 40
0.0
  9
$DIMAZIN
 70
     0
  9
$DIMDSEP
 70
    46
  9
$DIMATFIT
 70
     3
  9
$DIMFRAC
 70
     0
  9
$DIMLDRBLK
  1

  9
$DIMLUNIT
 70
     2
  9
$DIMLWD
 70
    -2
  9
$DIMLWE
 70
    -2
  9
$DIMTMOVE
 70
     0
  9
$LUNITS
 70
     2
  9
$LUPREC
 70
     4
  9
$SKETCHINC
 40
1.0
  9
$FILLETRAD
 40
2.0
  9
$AUNITS
 70
     0
  9
$AUPREC
 70
     0
  9
$MENU
  1
acad
  9
$ELEVATION
 40
0.0
  9
$PELEVATION
 40
0.0
  9
$THICKNESS
 40
0.0
  9
$LIMCHECK
 70
     0
  9
$CHAMFERA
 40
10.0
  9
$CHAMFERB
 40
10.0
  9
$CHAMFERC
 40
20.0
  9
$CHAMFERD
 40
0.0
  9
$SKPOLY
 70
     0
  9
$TDCREATE
 40
2457037.397066574
  9
$TDUCREATE
 40
2457037.022066574
  9
$TDUPDATE
 40
2457192.602764456
  9
$TDUUPDATE
 40
2457192.227764456
  9
$TDINDWG
 40
0.2801302199
  9
$TDUSRTIMER
 40
0.2801301620
  9
$USRTIMER
 70
     1
  9
$ANGBASE
 50
0.0
  9
$ANGDIR
 70
     0
  9
$PDMODE
 70
     0
  9
$PDSIZE
 40
0.0
  9
$PLINEWID
 40
0.0
  9
$SPLFRAME
 70
     0
  9
$SPLINETYPE
 70
     6
  9
$SPLINESEGS
 70
     8
  9
$HANDSEED
  5
529F
  9
$SURFTAB1
 70
     6
  9
$SURFTAB2
 70
     6
  9
$SURFTYPE
 70
     6
  9
$SURFU
 70
     6
  9
$SURFV
 70
     6
  9
$UCSBASE
  2

  9
$UCSNAME
  2

  9
$UCSORG
 10
0.0
 20
0.0
 30
0.0
  9
$UCSXDIR
 10
1.0
 20
0.0
 30
0.0
  9
$UCSYDIR
 10
0.0
 20
1.0
 30
0.0
  9
$UCSORTHOREF
  2

  9
$UCSORTHOVIEW
 70
     0
  9
$UCSORGTOP
 10
0.0
 20
0.0
 30
0.0
  9
$UCSORGBOTTOM
 10
0.0
 20
0.0
 30
0.0
  9
$UCSORGLEFT
 10
0.0
 20
0.0
 30
0.0
  9
$UCSORGRIGHT
 10
0.0
 20
0.0
 30
0.0
  9
$UCSORGFRONT
 10
0.0
 20
0.0
 30
0.0
  9
$UCSORGBACK
 10
0.0
 20
0.0
 30
0.0
  9
$PUCSBASE
  2

  9
$PUCSNAME
  2

  9
$PUCSORG
 10
0.0
 20
0.0
 30
0.0
  9
$PUCSXDIR
 10
1.0
 20
0.0
 30
0.0
  9
$PUCSYDIR
 10
0.0
 20
1.0
 30
0.0
  9
$PUCSORTHOREF
  2

  9
$PUCSORTHOVIEW
 70
     0
  9
$PUCSORGTOP
 10
0.0
 20
0.0
 30
0.0
  9
$PUCSORGBOTTOM
 10
0.0
 20
0.0
 30
0.0
  9
$PUCSORGLEFT
 10
0.0
 20
0.0
 30
0.0
  9
$PUCSORGRIGHT
 10
0.0
 20
0.0
 30
0.0
  9
$PUCSORGFRONT
 10
0.0
 20
0.0
 30
0.0
  9
$PUCSORGBACK
 10
0.0
 20
0.0
 30
0.0
  9
$USERI1
 70
     0
  9
$USERI2
 70
     0
  9
$USERI3
 70
     0
  9
$USERI4
 70
     0
  9
$USERI5
 70
     0
  9
$USERR1
 40
0.0
  9
$USERR2
 40
0.0
  9
$USERR3
 40
0.0
  9
$USERR4
 40
0.0
  9
$USERR5
 40
0.0
  9
$WORLDVIEW
 70
     1
  9
$SHADEDGE
 70
     3
  9
$SHADEDIF
 70
    70
  9
$TILEMODE
 70
     1
  9
$MAXACTVP
 70
    48
  9
$PINSBASE
 10
0.0
 20
0.0
 30
0.0
  9
$PLIMCHECK
 70
     0
  9
$PEXTMIN
 10
1.000000000000000E+20
 20
1.000000000000000E+20
 30
1.000000000000000E+20
  9
$PEXTMAX
 10
-1.000000000000000E+20
 20
-1.000000000000000E+20
 30
-1.000000000000000E+20
  9
$PLIMMIN
 10
0.0
 20
0.0
  9
$PLIMMAX
 10
420.0
 20
297.0
  9
$UNITMODE
 70
     0
  9
$VISRETAIN
 70
     1
  9
$PLINEGEN
 70
     0
  9
$PSLTSCALE
 70
     1
  9
$TREEDEPTH
 70
  3020
  9
$CMLSTYLE
  2
STANDARD
  9
$CMLJUST
 70
     0
  9
$CMLSCALE
 40
20.0
  9
$PROXYGRAPHICS
 70
     1
  9
$MEASUREMENT
 70
     1
  9
$CELWEIGHT
370
    -1
  9
$ENDCAPS
280
     0
  9
$JOINSTYLE
280
     0
  9
$LWDISPLAY
290
     0
  9
$INSUNITS
 70
     0
  9
$HYPERLINKBASE
  1

  9
$STYLESHEET
  1
STD_栃木屋様.CTB
  9
$XEDIT
290
     1
  9
$CEPSNTYPE
380
     0
  9
$PSTYLEMODE
290
     1
  9
$FINGERPRINTGUID
  2
{99A69F8C-88E0-4272-97EE-0856A863FC17}
  9
$VERSIONGUID
  2
{2642B528-4C90-44D3-BA5B-C57AEC550A8E}
  9
$EXTNAMES
290
     1
  9
$PSVPSCALE
 40
0.0
  9
$OLESTARTUP
290
     0
  0
ENDSEC
  0
SECTION
  2
CLASSES
  0
CLASS
  1
ACDBDICTIONARYWDFLT
  2
AcDbDictionaryWithDefault
  3
ObjectDBX Classes
 90
        0
280
     0
281
     0
  0
CLASS
  1
MATERIAL
  2
AcDbMaterial
  3
ObjectDBX Classes
 90
     1153
280
     0
281
     0
  0
CLASS
  1
VISUALSTYLE
  2
AcDbVisualStyle
  3
ObjectDBX Classes
 90
     4095
280
     0
281
     0
  0
CLASS
  1
TABLESTYLE
  2
AcDbTableStyle
  3
ObjectDBX Classes
 90
     4095
280
     0
281
     0
  0
CLASS
  1
SCALE
  2
AcDbScale
  3
ObjectDBX Classes
 90
     1153
280
     0
281
     0
  0
CLASS
  1
MLEADERSTYLE
  2
AcDbMLeaderStyle
  3
ACDB_MLEADERSTYLE_CLASS
 90
     4095
280
     0
281
     0
  0
CLASS
  1
ACDBSECTIONVIEWSTYLE
  2
AcDbSectionViewStyle
  3
ObjectDBX Classes
 90
     1025
280
     0
281
     0
  0
CLASS
  1
ACDBDETAILVIEWSTYLE
  2
AcDbDetailViewStyle
  3
ObjectDBX Classes
 90
     1025
280
     0
281
     0
  0
CLASS
  1
CELLSTYLEMAP
  2
AcDbCellStyleMap
  3
ObjectDBX Classes
 90
     1152
280
     0
281
     0
  0
CLASS
  1
DICTIONARYVAR
  2
AcDbDictionaryVar
  3
ObjectDBX Classes
 90
        0
280
     0
281
     0
  0
CLASS
  1
SORTENTSTABLE
  2
AcDbSortentsTable
  3
ObjectDBX Classes
 90
        0
280
     0
281
     0
  0
CLASS
  1
ACDBPLACEHOLDER
  2
AcDbPlaceHolder
  3
ObjectDBX Classes
 90
        0
280
     0
281
     0
  0
CLASS
  1
LAYOUT
  2
AcDbLayout
  3
ObjectDBX Classes
 90
        0
280
     0
281
     0
  0
ENDSEC
  0
SECTION
  2
TABLES
  0
TABLE
  2
VPORT
  5
8
102
{ACAD_XDICTIONARY
360
5167
102
}
330
0
100
AcDbSymbolTable
 70
     1
  0
VPORT
  5
90
330
8
100
AcDbSymbolTableRecord
100
AcDbViewportTableRecord
  2
*ACTIVE
 70
     0
 10
0.0
 20
0.0
 11
1.0
 21
1.0
 12
229.098267955931
 22
105.2390615595249
 13
0.0
 23
0.0
 14
10.0
 24
10.0
 15
10.0
 25
10.0
 16
0.0
 26
0.0
 36
1.0
 17
0.0
 27
0.0
 37
0.0
 40
192.0310540222645
 41
1.899603698811096
 42
50.0
 43
0.0
 44
0.0
 50
0.0
 51
0.0
 71
     0
 72
   100
 73
     1
 74
     0
 75
     0
 76
     0
 77
     0
 78
     0
281
     0
 65
     1
110
0.0
120
0.0
130
0.0
111
1.0
121
0.0
131
0.0
112
0.0
122
1.0
132
0.0
 79
     0
146
0.0
1001
ACAD_NAV_VCDISPLAY
1070
     3
  0
ENDTAB
  0
TABLE
  2
LTYPE
  5
5
330
0
100
AcDbSymbolTable
 70
     4
  0
LTYPE
  5
12
330
5
100
AcDbSymbolTableRecord
100
AcDbLinetypeTableRecord
  2
BYBLOCK
 70
     0
  3

 72
    65
 73
     0
 40
0.0
  0
LTYPE
  5
13
330
5
100
AcDbSymbolTableRecord
100
AcDbLinetypeTableRecord
  2
BYLAYER
 70
     0
  3

 72
    65
 73
     0
 40
0.0
  0
LTYPE
  5
14
330
5
100
AcDbSymbolTableRecord
100
AcDbLinetypeTableRecord
  2
CONTINUOUS
 70
     0
  3
Solid line
 72
    65
 73
     0
 40
0.0
  0
LTYPE
  5
4B
330
5
100
AcDbSymbolTableRecord
100
AcDbLinetypeTableRecord
  2
DASHED
 70
     0
  3
Dashed __ __ __ __ __ __ __ __ __ __ __ __ __ _
 72
    65
 73
     2
 40
19.05
 49
12.7
 74
     0
 49
-6.349999999999998
 74
     0
  0
LTYPE
  5
4C
330
5
100
AcDbSymbolTableRecord
100
AcDbLinetypeTableRecord
  2
CENTER
 70
     0
  3
Center ____ _ ____ _ ____ _ ____ _ ____ _ ____
 72
    65
 73
     4
 40
50.8
 49
31.75
 74
     0
 49
-6.349999999999998
 74
     0
 49
6.349999999999998
 74
     0
 49
-6.349999999999998
 74
     0
  0
LTYPE
  5
4D
330
5
100
AcDbSymbolTableRecord
100
AcDbLinetypeTableRecord
  2
PHANTOM
 70
     0
  3
Phantom ______  __  __  ______  __  __  ______
 72
    65
 73
     6
 40
63.5
 49
31.75
 74
     0
 49
-6.349999999999998
 74
     0
 49
6.349999999999998
 74
     0
 49
-6.349999999999998
 74
     0
 49
6.349999999999998
 74
     0
 49
-6.349999999999998
 74
     0
  0
ENDTAB
  0
TABLE
  2
LAYER
  5
2
330
0
100
AcDbSymbolTable
 70
     8
  0
LAYER
  5
E
102
{ACAD_XDICTIONARY
360
99A
102
}
330
2
100
AcDbSymbolTableRecord
100
AcDbLayerTableRecord
  2
0
 70
     0
 62
     7
  6
CONTINUOUS
370
    -3
390
93
  0
LAYER
  5
4E
102
{ACAD_XDICTIONARY
360
99E
102
}
330
2
100
AcDbSymbolTableRecord
100
AcDbLayerTableRecord
  2
4
 70
     0
 62
     1
  6
CENTER
370
    -3
390
93
  0
LAYER
  5
4F
102
{ACAD_XDICTIONARY
360
9A0
102
}
330
2
100
AcDbSymbolTableRecord
100
AcDbLayerTableRecord
  2
5
 70
     0
 62
     6
  6
PHANTOM
370
    -3
390
93
  0
LAYER
  5
50
102
{ACAD_XDICTIONARY
360
9A2
102
}
330
2
100
AcDbSymbolTableRecord
100
AcDbLayerTableRecord
  2
1
 70
     0
 62
     7
  6
CONTINUOUS
370
    -3
390
93
  0
LAYER
  5
51
102
{ACAD_XDICTIONARY
360
9A4
102
}
330
2
100
AcDbSymbolTableRecord
100
AcDbLayerTableRecord
  2
2
 70
     0
 62
     4
  6
CONTINUOUS
370
    -3
390
93
  0
LAYER
  5
52
102
{ACAD_XDICTIONARY
360
9A6
102
}
330
2
100
AcDbSymbolTableRecord
100
AcDbLayerTableRecord
  2
3
 70
     0
 62
     2
  6
DASHED
370
    -3
390
93
  0
LAYER
  5
53
102
{ACAD_XDICTIONARY
360
9A8
102
}
330
2
100
AcDbSymbolTableRecord
100
AcDbLayerTableRecord
  2
6
 70
     0
 62
     5
  6
CONTINUOUS
370
    -3
390
93
  0
LAYER
  5
54
102
{ACAD_XDICTIONARY
360
9AA
102
}
330
2
100
AcDbSymbolTableRecord
100
AcDbLayerTableRecord
  2
7
 70
     0
 62
     3
  6
CONTINUOUS
370
    -3
390
93
  0
ENDTAB
  0
TABLE
  2
STYLE
  5
3
330
0
100
AcDbSymbolTable
 70
     1
  0
STYLE
  5
F
330
3
100
AcDbSymbolTableRecord
100
AcDbTextStyleTableRecord
  2
STANDARD
 70
     0
 40
0.0
 41
1.0
 50
0.0
 71
     0
 42
2.5
  3
simplex.shx
  4

  0
ENDTAB
  0
TABLE
  2
VIEW
  5
6
330
0
100
AcDbSymbolTable
 70
     0
  0
ENDTAB
  0
TABLE
  2
UCS
  5
7
330
0
100
AcDbSymbolTable
 70
     0
  0
ENDTAB
  0
TABLE
  2
APPID
  5
9
330
0
100
AcDbSymbolTable
 70
     8
  0
APPID
  5
10
330
9
100
AcDbSymbolTableRecord
100
AcDbRegAppTableRecord
  2
ACAD
 70
     0
  0
APPID
  5
3E
330
9
100
AcDbSymbolTableRecord
100
AcDbRegAppTableRecord
  2
CONTENTTABDATA
 70
     0
  0
APPID
  5
3F
330
9
100
AcDbSymbolTableRecord
100
AcDbRegAppTableRecord
  2
CONTENTCURRENTTAB
 70
     0
  0
APPID
  5
157
330
9
100
AcDbSymbolTableRecord
100
AcDbRegAppTableRecord
  2
ACAD_NAV_VCDISPLAY
 70
     0
  0
APPID
  5
998
330
9
100
AcDbSymbolTableRecord
100
AcDbRegAppTableRecord
  2
ACAD_EXEMPT_FROM_CAD_STANDARDS
 70
     0
  0
APPID
  5
10DB
330
9
100
AcDbSymbolTableRecord
100
AcDbRegAppTableRecord
  2
ACAD_DSTYLE_DIMRADIAL_EXTENSION
 70
     0
  0
APPID
  5
29FB
330
9
100
AcDbSymbolTableRecord
100
AcDbRegAppTableRecord
  2
ACAD_PSEXT
 70
     0
  0
APPID
  5
519D
330
9
100
AcDbSymbolTableRecord
100
AcDbRegAppTableRecord
  2
ACAD_MLEADERVER
 70
     0
  0
ENDTAB
  0
TABLE
  2
DIMSTYLE
  5
A
330
0
100
AcDbSymbolTable
 70
     1
100
AcDbDimStyleTable
 71
     1
340
1D
  0
DIMSTYLE
105
1D
330
A
100
AcDbSymbolTableRecord
100
AcDbDimStyleTableRecord
  2
STANDARD
 70
     0
 41
3.0
 42
1.0
 43
10.0
 44
1.0
 73
     0
 74
     0
 77
     3
 78
     8
140
3.2
141
0.0
147
1.0
172
     1
173
     1
340
F
341
2E
343
2E
344
2E
  0
ENDTAB
  0
TABLE
  2
BLOCK_RECORD
  5
1
330
0
100
AcDbSymbolTable
 70
     1
  0
BLOCK_RECORD
  5
18
102
{ACAD_XDICTIONARY
360
A14
102
}
330
1
100
AcDbSymbolTableRecord
100
AcDbBlockTableRecord
  2
*MODEL_SPACE
340
E3
  0
BLOCK_RECORD
  5
15
330
1
100
AcDbSymbolTableRecord
100
AcDbBlockTableRecord
  2
*PAPER_SPACE
340
E4
  0
BLOCK_RECORD
  5
2E
330
1
100
AcDbSymbolTableRecord
100
AcDbBlockTableRecord
  2
_OPEN
340
0
  0
ENDTAB
  0
ENDSEC
  0
SECTION
  2
BLOCKS
  0
BLOCK
  5
19
330
18
100
AcDbEntity
  8
0
100
AcDbBlockBegin
  2
*MODEL_SPACE
 70
     0
 10
0.0
 20
0.0
 30
0.0
  3
*MODEL_SPACE
  1

  0
ENDBLK
  5
1A
330
18
100
AcDbEntity
  8
0
100
AcDbBlockEnd
  0
BLOCK
  5
16
330
15
100
AcDbEntity
 67
     1
  8
0
100
AcDbBlockBegin
  2
*PAPER_SPACE
 70
     0
 10
0.0
 20
0.0
 30
0.0
  3
*PAPER_SPACE
  1

  0
ENDBLK
  5
17
330
15
100
AcDbEntity
 67
     1
  8
0
100
AcDbBlockEnd
  0
BLOCK
  5
2F
330
2E
100
AcDbEntity
  8
0
100
AcDbBlockBegin
  2
_OPEN
 70
     0
 10
0.0
 20
0.0
 30
0.0
  3
_OPEN
  1

  0
LINE
  5
30
330
2E
100
AcDbEntity
  8
0
  6
ByBlock
 62
     0
100
AcDbLine
 10
-1.0
 20
0.1666666666666666
 30
0.0
 11
0.0
 21
0.0
 31
0.0
  0
LINE
  5
31
330
2E
100
AcDbEntity
  8
0
  6
ByBlock
 62
     0
100
AcDbLine
 10
0.0
 20
0.0
 30
0.0
 11
-1.0
 21
-0.1666666666666666
 31
0.0
  0
LINE
  5
32
330
2E
100
AcDbEntity
  8
0
  6
ByBlock
 62
     0
100
AcDbLine
 10
0.0
 20
0.0
 30
0.0
 11
-1.0
 21
0.0
 31
0.0
  0
ENDBLK
  5
33
330
2E
100
AcDbEntity
  8
0
100
AcDbBlockEnd
  0
ENDSEC
  0
SECTION
  2
ENTITIES
  0
TEXT
  5
63
330
18
100
AcDbEntity
  8
4
  6
CENTER
 48
0.25
100
AcDbText
 10
23.9795085266385
 20
10.0
 30
0.0
 40
1.399999999999999
  1
4
100
AcDbText
  0
TEXT
  5
64
330
18
100
AcDbEntity
  8
7
  6
Continuous
 48
0.25
100
AcDbText
 10
9.999997526638502
 20
26.0000007607689
 30
0.0
 40
3.0
  1
CODE No.11073
100
AcDbText
  0
TEXT
  5
65
330
18
100
AcDbEntity
  8
7
  6
Continuous
 48
0.25
100
AcDbText
 10
9.999997526638502
 20
18.0000007607689
 30
0.0
 40
3.0
  1
TYPE No.TL-396
100
AcDbText
  0
TEXT
  5
66
330
18
100
AcDbEntity
  8
1
  6
Continuous
 48
0.25
100
AcDbText
 10
9.999997526638502
 20
10.0000007607689
 30
0.0
 40
1.399999999999999
  1
LAYER
100
AcDbText
  0
TEXT
  5
67
330
18
100
AcDbEntity
  8
2
  6
Continuous
 48
0.25
100
AcDbText
 10
19.9795085266385
 20
10.0
 30
0.0
 40
1.399999999999999
  1
2
100
AcDbText
  0
TEXT
  5
68
330
18
100
AcDbEntity
  8
3
  6
DASHED
 48
0.25
100
AcDbText
 10
21.9795085266385
 20
10.0
 30
0.0
 40
1.399999999999999
  1
3
100
AcDbText
  0
TEXT
  5
69
330
18
100
AcDbEntity
  8
1
  6
Continuous
 48
0.25
100
AcDbText
 10
17.9795085266385
 20
10.0
 30
0.0
 40
1.399999999999999
  1
1
100
AcDbText
  0
TEXT
  5
6A
330
18
100
AcDbEntity
  8
5
  6
PHANTOM
 48
0.25
100
AcDbText
 10
25.9795085266385
 20
10.0
 30
0.0
 40
1.399999999999999
  1
5
100
AcDbText
  0
TEXT
  5
6B
330
18
100
AcDbEntity
  8
6
  6
Continuous
 48
0.25
100
AcDbText
 10
27.9795085266385
 20
10.0
 30
0.0
 40
1.399999999999999
  1
6
100
AcDbText
  0
TEXT
  5
6C
330
18
100
AcDbEntity
  8
7
  6
Continuous
 48
0.25
100
AcDbText
 10
29.9795085266385
 20
10.0
 30
0.0
 40
1.399999999999999
  1
7
100
AcDbText
  0
CIRCLE
  5
57A
330
18
100
AcDbEntity
  8
1
  6
Continuous
 48
0.25
100
AcDbCircle
 10
199.5199466244706
 20
140.1111596851823
 30
0.0
 40
1.6
  0
CIRCLE
  5
57B
330
18
100
AcDbEntity
  8
1
  6
Continuous
 48
0.25
100
AcDbCircle
 10
189.5199466244705
 20
140.1111596851823
 30
0.0
 40
1.6
  0
CIRCLE
  5
57C
330
18
100
AcDbEntity
  8
1
  6
Continuous
 48
0.25
100
AcDbCircle
 10
199.5199466244706
 20
140.1111596851823
 30
0.0
 40
3.500000000009698
  0
CIRCLE
  5
57D
330
18
100
AcDbEntity
  8
1
  6
Continuous
 48
0.25
100
AcDbCircle
 10
189.5199466244705
 20
140.1111596851823
 30
0.0
 40
3.500000000009698
  0
LINE
  5
5AA
330
18
100
AcDbEntity
  8
1
  6
Continuous
 48
0.25
100
AcDbLine
 10
204.5199466244707
 20
132.6111596851824
 30
0.0
 11
184.5199466244705
 21
132.6111596851824
 31
0.0
  0
LINE
  5
5AB
330
18
100
AcDbEntity
  8
1
  6
Continuous
 48
0.25
100
AcDbLine
 10
185.5199466244705
 20
136.0756257793784
 30
0.0
 11
203.5199466244707
 21
136.0756257793784
 31
0.0
  0
LINE
  5
5AC
330
18
100
AcDbEntity
  8
1
  6
Continuous
 48
0.25
100
AcDbLine
 10
185.5199466244705
 20
134.6614122170024
 30
0.0
 11
203.5199466244707
 21
134.6614122170024
 31
0.0
  0
ARC
  5
5AD
330
18
100
AcDbEntity
  8
1
  6
Continuous
 48
0.25
100
AcDbCircle
 10
294.8417583996128
 20
136.1111596853092
 30
0.0
 40
1.5
100
AcDbArc
 50
224.999999999999
 51
269.9999999999674
  0
ARC
  5
5AE
330
18
100
AcDbEntity
  8
1
  6
Continuous
 48
0.25
100
AcDbCircle
 10
296.6417583994865
 20
136.1111596853082
 30
0.0
 40
1.5
100
AcDbArc
 50
269.9999999999674
 51
359.9999999999968
  0
ARC
  5
5AF
330
18
100
AcDbEntity
  8
1
  6
Continuous
 48
0.25
100
AcDbCircle
 10
294.8417583996128
 20
136.1111596853092
 30
0.0
 40
3.5
100
AcDbArc
 50
224.999999999999
 51
269.9999999999674
  0
ARC
  5
5B0
330
18
100
AcDbEntity
  8
1
  6
Continuous
 48
0.25
100
AcDbCircle
 10
296.641758399487
 20
136.1111596853082
 30
0.0
 40
3.5
100
AcDbArc
 50
269.9999999999674
 51
0.0
  0
LINE
  5
5B1
330
18
100
AcDbEntity
  8
1
  6
Continuous
 48
0.25
100
AcDbLine
 10
300.1417583994775
 20
145.1111596850375
 30
0.0
 11
298.1417583994963
 21
145.1111596850375
 31
0.0
  0
LINE
  5
5B2
330
18
100
AcDbEntity
  8
1
  6
Continuous
 48
0.25
100
AcDbLine
 10
291.3417583994871
 20
134.6614122171291
 30
0.0
 11
292.7559719618571
 21
136.0756257795051
 31
0.0
  0
LINE
  5
5B3
330
18
100
AcDbEntity
  8
1
  6
Continuous
 48
0.25
100
AcDbLine
 10
294.841758399612
 20
134.6111596853092
 30
0.0
 11
296.6417583994855
 21
134.6111596853082
 31
0.0
  0
LINE
  5
5B4
330
18
100
AcDbEntity
  8
1
  6
Continuous
 48
0.25
100
AcDbLine
 10
296.6417583994852
 20
132.6111596853082
 30
0.0
 11
294.8417583996108
 21
132.6111596853092
 31
0.0
  0
LINE
  5
5B5
330
18
100
AcDbEntity
  8
1
  6
Continuous
 48
0.25
100
AcDbLine
 10
204.5199466244707
 20
132.6111596851824
 30
0.0
 11
204.5199466244707
 21
141.3448476245238
 31
0.0
  0
LINE
  5
5B6
330
18
100
AcDbEntity
  8
1
  6
Continuous
 48
0.25
100
AcDbLine
 10
184.5199466244705
 20
132.6111596851824
 30
0.0
 11
184.5199466244705
 21
141.3448476245257
 31
0.0
  0
LINE
  5
5B7
330
18
100
AcDbEntity
  8
1
  6
Continuous
 48
0.25
100
AcDbLine
 10
298.1417583994865
 20
136.1111596853081
 30
0.0
 11
298.1417583994975
 21
145.1111596850375
 31
0.0
  0
LINE
  5
5B8
330
18
100
AcDbEntity
  8
1
  6
Continuous
 48
0.25
100
AcDbLine
 10
300.1417583994871
 20
136.1111596853082
 30
0.0
 11
300.1417583994775
 21
145.1111596850375
 31
0.0
  0
LINE
  5
5B9
330
18
100
AcDbEntity
  8
4
  6
CENTER
 48
0.25
100
AcDbLine
 10
189.5199466244706
 20
144.611159685192
 30
0.0
 11
189.5199466244706
 21
135.6111596851726
 31
0.0
  0
LINE
  5
5BA
330
18
100
AcDbEntity
  8
4
  6
CENTER
 48
0.25
100
AcDbLine
 10
199.5199466244706
 20
144.611159685192
 30
0.0
 11
199.5199466244706
 21
135.6111596851726
 31
0.0
  0
LINE
  5
5BB
330
18
100
AcDbEntity
  8
4
  6
CENTER
 48
0.25
100
AcDbLine
 10
185.0199466244609
 20
140.1111596851823
 30
0.0
 11
204.0199466244803
 21
140.1111596851823
 31
0.0
  0
LINE
  5
5BC
330
18
100
AcDbEntity
  8
4
  6
CENTER
 48
0.25
100
AcDbLine
 10
194.5199466243828
 20
130.6111596851824
 30
0.0
 11
194.5199466243828
 21
147.1111596849107
 31
0.0
  0
LINE
  5
5BD
330
18
100
AcDbEntity
  8
4
  6
CENTER
 48
0.25
100
AcDbLine
 10
302.1417583994828
 20
140.111159685309
 30
0.0
 11
296.1417583994914
 21
140.111159685309
 31
0.0
  0
LINE
  5
5BE
330
18
100
AcDbEntity
  8
1
  6
Continuous
 48
0.25
100
AcDbLine
 10
292.7559719618573
 20
136.0756257795052
 30
0.0
 11
293.781098227833
 21
135.0504995135294
 31
0.0
  0
LINE
  5
5BF
330
18
100
AcDbEntity
  8
1
  6
Continuous
 48
0.25
100
AcDbLine
 10
291.3417583994871
 20
134.6614122171292
 30
0.0
 11
292.3668846654597
 21
133.6362859511564
 31
0.0
  0
ARC
  5
988
330
18
100
AcDbEntity
  8
1
  6
Continuous
 48
0.25
100
AcDbCircle
 10
194.5199466244686
 20
124.1111596849107
 30
0.0
 40
21.0
100
AcDbArc
 50
65.09893762962509
 51
114.9010623703605
  0
ARC
  5
989
330
18
100
AcDbEntity
  8
1
  6
Continuous
 48
0.25
100
AcDbCircle
 10
186.5199466244705
 20
141.3448476245257
 30
0.0
 40
2.0
100
AcDbArc
 50
114.9010623703605
 51
180.0
  0
ARC
  5
98A
330
18
100
AcDbEntity
  8
1
  6
Continuous
 48
0.25
100
AcDbCircle
 10
202.5199466244706
 20
141.3448476245238
 30
0.0
 40
2.0
100
AcDbArc
 50
0.0
 51
65.09893762962509
  0
ARC
  5
A13
330
18
100
AcDbEntity
  8
1
  6
Continuous
 48
0.25
100
AcDbCircle
 10
203.5199466244707
 20
133.6614122170024
 30
0.0
 40
1.0
100
AcDbArc
 50
0.0
 51
90.0
  0
ARC
  5
A16
330
18
100
AcDbEntity
  8
1
  6
Continuous
 48
0.25
100
AcDbCircle
 10
203.5199466244707
 20
135.0756257793784
 30
0.0
 40
1.0
100
AcDbArc
 50
0.0
 51
90.0
  0
ARC
  5
A17
330
18
100
AcDbEntity
  8
1
  6
Continuous
 48
0.25
100
AcDbCircle
 10
185.5199466244705
 20
133.6614122170024
 30
0.0
 40
1.0
100
AcDbArc
 50
90.0
 51
180.0
  0
ARC
  5
A18
330
18
100
AcDbEntity
  8
1
  6
Continuous
 48
0.25
100
AcDbCircle
 10
185.5199466244705
 20
135.0756257793784
 30
0.0
 40
1.0
100
AcDbArc
 50
90.0
 51
180.0
  0
LINE
  5
E96
330
18
100
AcDbEntity
  8
1
  6
Continuous
 48
0.25
100
AcDbLine
 10
204.5199456391753
 20
188.7054177905756
 30
0.0
 11
204.5199456391753
 21
197.5054177905822
 31
0.0
  0
LINE
  5
E97
330
18
100
AcDbEntity
  8
1
  6
Continuous
 48
0.25
100
AcDbLine
 10
184.5199456391751
 20
188.7054177905756
 30
0.0
 11
184.5199456391751
 21
197.5054177905608
 31
0.0
  0
LINE
  5
E98
330
18
100
AcDbEntity
  8
4
  6
CENTER
 48
0.25
100
AcDbLine
 10
194.5199456390875
 20
185.7054177905757
 30
0.0
 11
194.5199456390875
 21
200.5054177905715
 31
0.0
  0
LINE
  5
E99
330
18
100
AcDbEntity
  8
1
  6
Continuous
 48
0.25
100
AcDbLine
 10
204.5199456391753
 20
195.5054177905675
 30
0.0
 11
184.5199456391751
 21
195.505417790592
 31
0.0
  0
LINE
  5
E9A
330
18
100
AcDbEntity
  8
1
  6
Continuous
 48
0.25
100
AcDbLine
 10
204.5199456391753
 20
197.5054177905822
 30
0.0
 11
184.5199456391751
 21
197.5054177905608
 31
0.0
  0
LINE
  5
E9B
330
18
100
AcDbEntity
  8
1
  6
Continuous
 48
0.25
100
AcDbLine
 10
204.5199456391754
 20
190.1196313529459
 30
0.0
 11
184.5199456391751
 21
190.1196313529459
 31
0.0
  0
LINE
  5
E9C
330
18
100
AcDbEntity
  8
1
  6
Continuous
 48
0.25
100
AcDbLine
 10
204.5199456391754
 20
188.7054177905756
 30
0.0
 11
184.5199456391751
 21
188.7054177905756
 31
0.0
  0
LINE
  5
E9D
330
18
100
AcDbEntity
  8
1
  6
Continuous
 48
0.25
100
AcDbLine
 10
203.5199456391754
 20
192.2054177907006
 30
0.0
 11
185.5199456391751
 21
192.2054177907006
 31
0.0
  0
LINE
  5
E9E
330
18
100
AcDbEntity
  8
1
  6
Continuous
 48
0.25
100
AcDbLine
 10
204.519945958906
 20
43.75751798079399
 30
0.0
 11
204.519945958906
 21
34.9575179807875
 31
0.0
  0
LINE
  5
E9F
330
18
100
AcDbEntity
  8
1
  6
Continuous
 48
0.25
100
AcDbLine
 10
184.5199459589059
 20
43.75751798079401
 30
0.0
 11
184.5199459589059
 21
34.95751798080885
 31
0.0
  0
LINE
  5
EA0
330
18
100
AcDbEntity
  8
4
  6
CENTER
 48
0.25
100
AcDbLine
 10
194.5199459588181
 20
45.75751798079399
 30
0.0
 11
194.5199459588181
 21
32.95751798079816
 31
0.0
  0
LINE
  5
EA2
330
18
100
AcDbEntity
  8
1
  6
Continuous
 48
0.25
100
AcDbLine
 10
204.519945958906
 20
34.9575179807875
 30
0.0
 11
184.5199459589059
 21
34.95751798080885
 31
0.0
  0
LINE
  5
EA4
330
18
100
AcDbEntity
  8
1
  6
Continuous
 48
0.25
100
AcDbLine
 10
204.519945958906
 20
43.75751798079399
 30
0.0
 11
184.5199459589059
 21
43.75751798079401
 31
0.0
  0
LINE
  5
1151
330
18
100
AcDbEntity
  8
4
  6
CENTER
 48
0.25
100
AcDbLine
 10
189.5199456391751
 20
199.5054177905662
 30
0.0
 11
189.5199456391751
 21
193.505417790586
 31
0.0
  0
LINE
  5
1152
330
18
100
AcDbEntity
  8
4
  6
CENTER
 48
0.25
100
AcDbLine
 10
199.5199456391752
 20
199.5054177905768
 30
0.0
 11
199.5199456391752
 21
193.5054177905737
 31
0.0
  0
LINE
  5
1223
330
18
100
AcDbEntity
  8
4
  6
CENTER
 48
0.25
100
AcDbLine
 10
189.5199459589059
 20
32.95751798084622
 30
0.0
 11
189.5199459589059
 21
38.95751798082637
 31
0.0
  0
LINE
  5
1224
330
18
100
AcDbEntity
  8
4
  6
CENTER
 48
0.25
100
AcDbLine
 10
199.5199459589059
 20
32.95751798083556
 30
0.0
 11
199.5199459589059
 21
38.95751798083868
 31
0.0
  0
ARC
  5
2E75
330
18
100
AcDbEntity
  8
1
  6
Continuous
 48
0.25
100
AcDbCircle
 10
164.020922024631
 20
128.6109652918715
 30
0.0
 40
41.15393139987571
100
AcDbArc
 50
163.3543112912809
 51
180.0498244082471
  0
ARC
  5
2E76
330
18
100
AcDbEntity
  8
1
  6
Continuous
 48
0.25
100
AcDbCircle
 10
125.0190947428739
 20
128.6109899086577
 30
0.0
 40
41.15380591075602
100
AcDbArc
 50
359.9534391654314
 51
16.64570716208473
  0
ARC
  5
2E77
330
18
100
AcDbEntity
  8
1
  6
Continuous
 48
0.25
100
AcDbCircle
 10
144.5199466243879
 20
122.6110134982229
 30
0.0
 40
27.15304689932813
100
AcDbArc
 50
45.95683644192603
 51
134.0431640381563
  0
ARC
  5
2E78
330
18
100
AcDbEntity
  8
1
  6
Continuous
 48
0.25
100
AcDbCircle
 10
161.3189186756077
 20
96.78251971044511
 30
0.0
 40
38.45191497143478
100
AcDbArc
 50
179.9794208975663
 51
181.7384124102422
  0
ARC
  5
2E79
330
18
100
AcDbEntity
  8
1
  6
Continuous
 48
0.25
100
AcDbCircle
 10
127.625111674992
 20
96.78395689148551
 30
0.0
 40
38.54777737532297
100
AcDbArc
 50
358.2637749318357
 51
0.0183917603618246
  0
ARC
  5
2E7A
330
18
100
AcDbEntity
  8
1
  6
Continuous
 48
0.25
100
AcDbCircle
 10
135.2199466243481
 20
87.23494669177659
 30
0.0
 40
0.5000000000000119
100
AcDbArc
 50
270.0
 51
0.0000000000113991
  0
ARC
  5
2E7B
330
18
100
AcDbEntity
  8
1
  6
Continuous
 48
0.25
100
AcDbCircle
 10
153.8199466243353
 20
87.23494669177659
 30
0.0
 40
0.5000000000000119
100
AcDbArc
 50
179.9999999999886
 51
270.0
  0
ARC
  5
2E7C
330
18
100
AcDbEntity
  8
1
  6
Continuous
 48
0.25
100
AcDbCircle
 10
154.5179253801182
 20
103.0915624147124
 30
0.0
 40
16.35700965113197
100
AcDbArc
 50
294.245533959713
 51
307.7459066152362
  0
ARC
  5
2E7D
330
18
100
AcDbEntity
  8
1
  6
Continuous
 48
0.25
100
AcDbCircle
 10
154.5197619997069
 20
103.0873800469752
 30
0.0
 40
16.35244198938817
100
AcDbArc
 50
273.5006377149282
 51
294.2456841370727
  0
ARC
  5
2E7E
330
18
100
AcDbEntity
  8
1
  6
Continuous
 48
0.25
100
AcDbCircle
 10
154.5199461850344
 20
103.0859802761109
 30
0.0
 40
16.35103358433438
100
AcDbArc
 50
270.0000015395472
 51
273.5002930083685
  0
ARC
  5
2E7F
330
18
100
AcDbEntity
  8
1
  6
Continuous
 48
0.25
100
AcDbCircle
 10
134.5199855474981
 20
103.0865402872484
 30
0.0
 40
16.35159359551819
100
AcDbArc
 50
253.0945200429234
 51
269.9998636139135
  0
ARC
  5
2E80
330
18
100
AcDbEntity
  8
1
  6
Continuous
 48
0.25
100
AcDbCircle
 10
134.5213477324596
 20
103.0905680653888
 30
0.0
 40
16.35584343169691
100
AcDbArc
 50
232.2535433597548
 51
253.0940574032147
  0
ARC
  5
2E81
330
18
100
AcDbEntity
  8
1
  6
Continuous
 48
0.25
100
AcDbCircle
 10
152.31994662442
 20
134.4111596856041
 30
0.0
 40
0.9999999999999698
100
AcDbArc
 50
0.0000000004168817
 51
90.00000000068395
  0
ARC
  5
2E82
330
18
100
AcDbEntity
  8
1
  6
Continuous
 48
0.25
100
AcDbCircle
 10
136.7199466243536
 20
134.4111596854183
 30
0.0
 40
0.9999999999997475
100
AcDbArc
 50
90.00000000067092
 51
179.9999999992444
  0
LINE
  5
2E83
330
18
100
AcDbEntity
  8
1
  6
Continuous
 48
0.25
100
AcDbLine
 10
122.8670061844209
 20
128.575177838797
 30
0.0
 11
122.8670061844235
 21
96.7963306034372
 31
0.0
  0
LINE
  5
2E84
330
18
100
AcDbEntity
  8
1
  6
Continuous
 48
0.25
100
AcDbLine
 10
166.1728870643542
 20
96.79633060343737
 30
0.0
 11
166.1728870643542
 21
128.5775466890983
 31
0.0
  0
LINE
  5
2E85
330
18
100
AcDbEntity
  8
1
  6
Continuous
 48
0.25
100
AcDbLine
 10
166.0804965777141
 20
93.19700870066515
 30
0.0
 11
166.1551919181726
 21
95.6160283706057
 31
0.0
  0
LINE
  5
2E86
330
18
100
AcDbEntity
  8
1
  6
Continuous
 48
0.25
100
AcDbLine
 10
122.8847013306068
 20
95.61602837060439
 30
0.0
 11
122.9593966577911
 21
93.19700913055873
 31
0.0
  0
LINE
  5
2E87
330
18
100
AcDbEntity
  8
1
  6
Continuous
 48
0.25
100
AcDbLine
 10
134.5199466243889
 20
86.7349466917766
 30
0.0
 11
135.2199466243481
 21
86.7349466917766
 31
0.0
  0
LINE
  5
2E88
330
18
100
AcDbEntity
  8
1
  6
Continuous
 48
0.25
100
AcDbLine
 10
153.8199466243353
 20
86.7349466917766
 30
0.0
 11
154.5199466243891
 21
86.7349466917766
 31
0.0
  0
LINE
  5
2E89
330
18
100
AcDbEntity
  8
1
  6
Continuous
 48
0.25
100
AcDbLine
 10
135.9199466244247
 20
101.0111596852474
 30
0.0
 11
135.7199466243456
 21
101.0111596852474
 31
0.0
  0
LINE
  5
2E8A
330
18
100
AcDbEntity
  8
1
  6
Continuous
 48
0.25
100
AcDbLine
 10
153.3199466245126
 20
101.0111596852474
 30
0.0
 11
153.1199466244795
 21
101.0111596852474
 31
0.0
  0
LINE
  5
2E8B
330
18
100
AcDbEntity
  8
1
  6
Continuous
 48
0.25
100
AcDbLine
 10
135.9199466244281
 20
107.0111596852032
 30
0.0
 11
135.7199466243858
 21
107.0111596852032
 31
0.0
  0
LINE
  5
2E8C
330
18
100
AcDbEntity
  8
1
  6
Continuous
 48
0.25
100
AcDbLine
 10
153.3199466244875
 20
107.0111596852032
 30
0.0
 11
153.1199466244744
 21
107.0111596852032
 31
0.0
  0
LINE
  5
2E8D
330
18
100
AcDbEntity
  8
1
  6
Continuous
 48
0.25
100
AcDbLine
 10
153.1199466244769
 20
104.0111596852032
 30
0.0
 11
153.3199466245
 21
104.0111596852032
 31
0.0
  0
LINE
  5
2E8E
330
18
100
AcDbEntity
  8
1
  6
Continuous
 48
0.25
100
AcDbLine
 10
135.7199466243858
 20
104.0111596852032
 30
0.0
 11
135.9199466244265
 21
104.0111596852032
 31
0.0
  0
LINE
  5
2E8F
330
18
100
AcDbEntity
  8
1
  6
Continuous
 48
0.25
100
AcDbLine
 10
135.7199466242867
 20
129.4111596854818
 30
0.0
 11
153.3199466244565
 21
129.4111596854818
 31
0.0
  0
LINE
  5
2E90
330
18
100
AcDbEntity
  8
1
  6
Continuous
 48
0.25
100
AcDbLine
 10
136.9199466244545
 20
127.1111596852598
 30
0.0
 11
135.9199466243272
 21
127.1111596852598
 31
0.0
  0
LINE
  5
2E91
330
18
100
AcDbEntity
  8
1
  6
Continuous
 48
0.25
100
AcDbLine
 10
153.1199466244485
 20
127.1111596852598
 30
0.0
 11
152.1199466243213
 21
127.1111596852598
 31
0.0
  0
ARC
  5
2E92
330
18
100
AcDbEntity
  8
1
  6
Continuous
 48
0.25
100
AcDbCircle
 10
151.6199466241275
 20
117.3111596852002
 30
0.0
 40
2.5
100
AcDbArc
 50
47.15635694377851
 51
53.13010234750574
  0
ARC
  5
2E93
330
18
100
AcDbEntity
  8
1
  6
Continuous
 48
0.25
100
AcDbCircle
 10
151.6199466241275
 20
117.3111596852002
 30
0.0
 40
2.5
100
AcDbArc
 50
306.8698976524943
 51
312.8436430570569
  0
ARC
  5
2E94
330
18
100
AcDbEntity
  8
1
  6
Continuous
 48
0.25
100
AcDbCircle
 10
137.4199466239262
 20
117.3111596851974
 30
0.0
 40
2.5
100
AcDbArc
 50
227.156356961828
 51
233.1301023615765
  0
ARC
  5
2E95
330
18
100
AcDbEntity
  8
1
  6
Continuous
 48
0.25
100
AcDbCircle
 10
137.4199466239262
 20
117.3111596851974
 30
0.0
 40
2.5
100
AcDbArc
 50
126.8698976383873
 51
132.8436430366324
  0
ARC
  5
2E96
330
18
100
AcDbEntity
  8
1
  6
Continuous
 48
0.25
100
AcDbCircle
 10
151.6199466242844
 20
123.1111596852233
 30
0.0
 40
2.5
100
AcDbArc
 50
47.15635695000665
 51
53.13010234750574
  0
ARC
  5
2E97
330
18
100
AcDbEntity
  8
1
  6
Continuous
 48
0.25
100
AcDbCircle
 10
151.6199466242844
 20
123.1111596852233
 30
0.0
 40
2.5
100
AcDbArc
 50
306.8698976524943
 51
312.8436430508287
  0
ARC
  5
2E98
330
18
100
AcDbEntity
  8
1
  6
Continuous
 48
0.25
100
AcDbCircle
 10
137.4199466240832
 20
123.1111596852206
 30
0.0
 40
2.5
100
AcDbArc
 50
227.1563569593565
 51
233.1301023615765
  0
ARC
  5
2E99
330
18
100
AcDbEntity
  8
1
  6
Continuous
 48
0.25
100
AcDbCircle
 10
137.4199466240832
 20
123.1111596852206
 30
0.0
 40
2.5
100
AcDbArc
 50
126.8698976383873
 51
132.8436430391063
  0
LINE
  5
2E9A
330
18
100
AcDbEntity
  8
1
  6
Continuous
 48
0.25
100
AcDbLine
 10
137.0199466243439
 20
124.6111596852233
 30
0.0
 11
136.9199466244545
 21
124.6111596852233
 31
0.0
  0
LINE
  5
2E9B
330
18
100
AcDbEntity
  8
1
  6
Continuous
 48
0.25
100
AcDbLine
 10
151.019946624432
 20
124.6111596852233
 30
0.0
 11
138.019946624311
 21
124.6111596852233
 31
0.0
  0
LINE
  5
2E9C
330
18
100
AcDbEntity
  8
1
  6
Continuous
 48
0.25
100
AcDbLine
 10
152.1199466243213
 20
124.6111596852233
 30
0.0
 11
152.0199466243991
 21
124.6111596852233
 31
0.0
  0
LINE
  5
2E9D
330
18
100
AcDbEntity
  8
1
  6
Continuous
 48
0.25
100
AcDbLine
 10
139.0199466243247
 20
127.1111596852299
 30
0.0
 11
139.0199466243247
 21
124.6111596852233
 31
0.0
  0
LINE
  5
2E9E
330
18
100
AcDbEntity
  8
1
  6
Continuous
 48
0.25
100
AcDbLine
 10
150.019946624451
 20
124.6111596852233
 30
0.0
 11
150.0199466244511
 21
127.1111596852299
 31
0.0
  0
LINE
  5
2E9F
330
18
100
AcDbEntity
  8
1
  6
Continuous
 48
0.25
100
AcDbLine
 10
138.0199466243144
 20
127.1111596852156
 30
0.0
 11
138.0199466243144
 21
122.1111596852599
 31
0.0
  0
LINE
  5
2EA0
330
18
100
AcDbEntity
  8
1
  6
Continuous
 48
0.25
100
AcDbLine
 10
137.0199466243472
 20
122.1111596852599
 30
0.0
 11
137.0199466243472
 21
127.1111596852139
 31
0.0
  0
LINE
  5
2EA1
330
18
100
AcDbEntity
  8
1
  6
Continuous
 48
0.25
100
AcDbLine
 10
151.0199466244286
 20
122.1111596852599
 30
0.0
 11
151.0199466244286
 21
127.1111596852378
 31
0.0
  0
ARC
  5
2EA3
330
18
100
AcDbEntity
  8
1
  6
Continuous
 48
0.25
100
AcDbCircle
 10
266.1854509384866
 20
145.5176364405155
 30
0.0
 40
4.0002642657333
100
AcDbArc
 50
95.05575282964001
 51
125.9542740567521
  0
ARC
  5
2EA4
330
18
100
AcDbEntity
  8
1
  6
Continuous
 48
0.25
100
AcDbCircle
 10
268.8417583995799
 20
149.264060397551
 30
0.0
 40
0.5000000000000119
100
AcDbArc
 50
0.0
 51
94.99999999999976
  0
ARC
  5
2EA5
330
18
100
AcDbEntity
  8
1
  6
Continuous
 48
0.25
100
AcDbCircle
 10
259.6417583994729
 20
91.27648438128799
 30
0.0
 40
4.0
100
AcDbArc
 50
180.0
 51
265.0000000000002
  0
ARC
  5
2EA6
330
18
100
AcDbEntity
  8
1
  6
Continuous
 48
0.25
100
AcDbCircle
 10
265.6787492143253
 20
87.23494669177659
 30
0.0
 40
0.5000000000000119
100
AcDbArc
 50
265.0000000000002
 51
340.5599651718288
  0
ARC
  5
2EA7
330
18
100
AcDbEntity
  8
1
  6
Continuous
 48
0.25
100
AcDbCircle
 10
275.6417583994729
 20
132.6111596852488
 30
0.0
 40
19.99999999999994
100
AcDbArc
 50
156.9584257109626
 51
180.0
  0
ARC
  5
2EA8
330
18
100
AcDbEntity
  8
1
  6
Continuous
 48
0.25
100
AcDbCircle
 10
265.3417583995799
 20
96.79633060343737
 30
0.0
 40
4.0
100
AcDbArc
 50
340.5599651718309
 51
0.0
  0
LINE
  5
2EA9
330
18
100
AcDbEntity
  8
1
  6
Continuous
 48
0.25
100
AcDbLine
 10
268.7981805282061
 20
149.7621577465969
 30
0.0
 11
265.8342603019419
 21
149.5028483272036
 31
0.0
  0
LINE
  5
2EAA
330
18
100
AcDbEntity
  8
1
  6
Continuous
 48
0.25
100
AcDbLine
 10
265.6351713429515
 20
86.73684934273069
 30
0.0
 11
259.2931354284823
 21
87.29170558892098
 31
0.0
  0
ARC
  5
2EAB
330
18
100
AcDbEntity
  8
1
  6
Continuous
 48
0.25
100
AcDbCircle
 10
267.14175839958
 20
86.61115968522343
 30
0.0
 40
1.0
100
AcDbArc
 50
270.0
 51
0.0
  0
ARC
  5
2EAC
330
18
100
AcDbEntity
  8
1
  6
Continuous
 48
0.25
100
AcDbCircle
 10
265.4417583995889
 20
117.3111596852455
 30
0.0
 40
4.0
100
AcDbArc
 50
347.1614318584343
 51
12.83856814156405
  0
LINE
  5
2EAD
330
18
100
AcDbEntity
  8
1
  6
Continuous
 48
0.25
100
AcDbLine
 10
268.1417583995799
 20
86.61115968522343
 30
0.0
 11
268.1417583995799
 21
92.711159685223
 31
0.0
  0
ARC
  5
2EAE
330
18
100
AcDbEntity
  8
1
  6
Continuous
 48
0.25
100
AcDbCircle
 10
269.1417583995584
 20
95.11115968522336
 30
0.0
 40
0.2
100
AcDbArc
 50
204.4137437923551
 51
270.0000000000033
  0
LINE
  5
2EAF
330
18
100
AcDbEntity
  8
1
  6
Continuous
 48
0.25
100
AcDbLine
 10
269.9417583995585
 20
95.11115968518813
 30
0.0
 11
269.9417583995585
 21
94.91115968522342
 31
0.0
  0
LINE
  5
2EB0
330
18
100
AcDbEntity
  8
1
  6
Continuous
 48
0.25
100
AcDbLine
 10
269.3417583995799
 20
127.1111596852267
 30
0.0
 11
270.1417583995584
 21
127.1111596852267
 31
0.0
  0
LINE
  5
2EB1
330
18
100
AcDbEntity
  8
1
  6
Continuous
 48
0.25
100
AcDbLine
 10
270.1417583995584
 20
127.1111596852361
 30
0.0
 11
270.1417583995584
 21
95.11115968523821
 31
0.0
  0
ARC
  5
2EB4
330
18
100
AcDbEntity
  8
1
  6
Continuous
 48
0.25
100
AcDbCircle
 10
161.3546355177803
 20
187.0054177904807
 30
0.0
 40
4.0
100
AcDbArc
 50
270.0
 51
354.9999999999986
  0
ARC
  5
2EB5
330
18
100
AcDbEntity
  8
1
  6
Continuous
 48
0.25
100
AcDbCircle
 10
127.6852557606048
 20
187.0054177904807
 30
0.0
 40
4.0
100
AcDbArc
 50
185.0000000000013
 51
270.0
  0
ARC
  5
2EB6
330
18
100
AcDbEntity
  8
1
  6
Continuous
 48
0.25
100
AcDbCircle
 10
135.2199466243297
 20
183.5054177904807
 30
0.0
 40
0.5
100
AcDbArc
 50
270.0000000005992
 51
321.8122211618975
  0
ARC
  5
2EB7
330
18
100
AcDbEntity
  8
1
  6
Continuous
 48
0.25
100
AcDbCircle
 10
153.8199466244408
 20
183.5054177904807
 30
0.0
 40
0.5
100
AcDbArc
 50
218.2050202428804
 51
270.0
  0
ARC
  5
2EB8
330
18
100
AcDbEntity
  8
1
  6
Continuous
 48
0.25
100
AcDbCircle
 10
123.3669906247552
 20
196.2054177905877
 30
0.0
 40
0.5000000000000119
100
AcDbArc
 50
90.0
 51
184.9999999999997
  0
ARC
  5
2EB9
330
18
100
AcDbEntity
  8
1
  6
Continuous
 48
0.25
100
AcDbCircle
 10
165.6729006536299
 20
196.2054177905877
 30
0.0
 40
0.5000000000000119
100
AcDbArc
 50
355.0000000000003
 51
90.0
  0
LINE
  5
2EBA
330
18
100
AcDbEntity
  8
1
  6
Continuous
 48
0.25
100
AcDbLine
 10
161.3546355177803
 20
183.0054177904807
 30
0.0
 11
161.1337754857979
 21
183.0054177904807
 31
0.0
  0
LINE
  5
2EBB
330
18
100
AcDbEntity
  8
1
  6
Continuous
 48
0.25
100
AcDbLine
 10
127.9061177517861
 20
183.0054177904807
 30
0.0
 11
127.6852557606048
 21
183.0054177904807
 31
0.0
  0
LINE
  5
2EBC
330
18
100
AcDbEntity
  8
1
  6
Continuous
 48
0.25
100
AcDbLine
 10
136.719946624337
 20
183.2866769368535
 30
0.0
 11
152.3199466244032
 21
183.2866769368854
 31
0.0
  0
LINE
  5
2EBD
330
18
100
AcDbEntity
  8
1
  6
Continuous
 48
0.25
100
AcDbLine
 10
122.8688932757093
 20
196.1618399192139
 30
0.0
 11
123.7004769682377
 21
186.65679481949
 31
0.0
  0
LINE
  5
2EBE
330
18
100
AcDbEntity
  8
1
  6
Continuous
 48
0.25
100
AcDbLine
 10
165.3394143101472
 20
186.65679481949
 30
0.0
 11
166.1709980026756
 21
196.1618399192139
 31
0.0
  0
LINE
  5
2EBF
330
18
100
AcDbEntity
  8
1
  6
Continuous
 48
0.25
100
AcDbLine
 10
135.7199466242377
 20
183.2140542439054
 30
0.0
 11
135.7199466242377
 21
183.0054177906951
 31
0.0
  0
LINE
  5
2EC0
330
18
100
AcDbEntity
  8
1
  6
Continuous
 48
0.25
100
AcDbLine
 10
153.319946624538
 20
183.0054177906951
 30
0.0
 11
153.319946624538
 21
183.2146047356039
 31
0.0
  0
ARC
  5
2EC1
330
18
100
AcDbEntity
  8
1
  6
Continuous
 48
0.25
100
AcDbCircle
 10
152.1199466243432
 20
184.0054177905877
 30
0.0
 40
1.0
100
AcDbArc
 50
270.0000000007328
 51
313.0136760678676
  0
ARC
  5
2EC2
330
18
100
AcDbEntity
  8
1
  6
Continuous
 48
0.25
100
AcDbCircle
 10
136.9199466244366
 20
184.0054177905877
 30
0.0
 40
1.0
100
AcDbArc
 50
227.3178538102906
 51
270.0000000006677
  0
LINE
  5
2EC3
330
18
100
AcDbEntity
  8
1
  6
Continuous
 48
0.25
100
AcDbLine
 10
153.1199466244485
 20
196.8054177905967
 30
0.0
 11
152.1199466243213
 21
196.8054177905967
 31
0.0
  0
LINE
  5
2EC4
330
18
100
AcDbEntity
  8
1
  6
Continuous
 48
0.25
100
AcDbLine
 10
153.1199466244485
 20
196.8054177905967
 30
0.0
 11
153.1199466244485
 21
196.7054177905877
 31
0.0
  0
LINE
  5
2EC5
330
18
100
AcDbEntity
  8
1
  6
Continuous
 48
0.25
100
AcDbLine
 10
152.1199466243213
 20
196.8054177905967
 30
0.0
 11
152.1199466243213
 21
196.7054177905877
 31
0.0
  0
LINE
  5
2EC6
330
18
100
AcDbEntity
  8
1
  6
Continuous
 48
0.25
100
AcDbLine
 10
136.9199466244545
 20
196.8054177905967
 30
0.0
 11
135.9199466243272
 21
196.8054177905967
 31
0.0
  0
LINE
  5
2EC7
330
18
100
AcDbEntity
  8
1
  6
Continuous
 48
0.25
100
AcDbLine
 10
136.9199466244545
 20
196.8054177905967
 30
0.0
 11
136.9199466244545
 21
196.7054177905877
 31
0.0
  0
LINE
  5
2EC8
330
18
100
AcDbEntity
  8
1
  6
Continuous
 48
0.25
100
AcDbLine
 10
135.9199466243272
 20
196.8054177905967
 30
0.0
 11
135.9199466243272
 21
196.7054177905877
 31
0.0
  0
LINE
  5
2EC9
330
18
100
AcDbEntity
  8
1
  6
Continuous
 48
0.25
100
AcDbLine
 10
136.9199466244482
 20
183.0054177905877
 30
0.0
 11
152.1199466243559
 21
183.0054177905877
 31
0.0
  0
ARC
  5
2ECA
330
18
100
AcDbEntity
  8
1
  6
Continuous
 48
0.25
100
AcDbCircle
 10
150.0199466245035
 20
196.505417790566
 30
0.0
 40
1.0
100
AcDbArc
 50
11.53695903407802
 51
90.0
  0
ARC
  5
2ECB
330
18
100
AcDbEntity
  8
1
  6
Continuous
 48
0.25
100
AcDbCircle
 10
139.0199466244063
 20
196.505417790566
 30
0.0
 40
1.0
100
AcDbArc
 50
90.0
 51
168.4630409659219
  0
LINE
  5
2ECC
330
18
100
AcDbEntity
  8
1
  6
Continuous
 48
0.25
100
AcDbLine
 10
139.0199466244063
 20
197.505417790566
 30
0.0
 11
150.0199466245035
 21
197.505417790566
 31
0.0
  0
ARC
  5
2ECD
330
18
100
AcDbEntity
  8
1
  6
Continuous
 48
0.25
100
AcDbCircle
 10
140.1199466244134
 20
46.75751798070617
 30
0.0
 40
1.0
100
AcDbArc
 50
90.0
 51
180.0000000000016
  0
ARC
  5
2ECE
330
18
100
AcDbEntity
  8
1
  6
Continuous
 48
0.25
100
AcDbCircle
 10
148.9199466243988
 20
46.75751798070617
 30
0.0
 40
1.0
100
AcDbArc
 50
359.9999999999984
 51
90.0
  0
LINE
  5
2ECF
330
18
100
AcDbEntity
  8
1
  6
Continuous
 48
0.25
100
AcDbLine
 10
139.1199466243621
 20
36.65751798077656
 30
0.0
 11
140.1199466244243
 21
36.65751798077656
 31
0.0
  0
LINE
  5
2ED0
330
18
100
AcDbEntity
  8
1
  6
Continuous
 48
0.25
100
AcDbLine
 10
148.9199466243514
 20
36.65751798077656
 30
0.0
 11
149.9199466244136
 21
36.65751798077656
 31
0.0
  0
LINE
  5
2ED1
330
18
100
AcDbEntity
  8
1
  6
Continuous
 48
0.25
100
AcDbLine
 10
140.1199466244134
 20
47.75751798070618
 30
0.0
 11
148.9199466243988
 21
47.75751798070618
 31
0.0
  0
LINE
  5
2ED2
330
18
100
AcDbEntity
  8
1
  6
Continuous
 48
0.25
100
AcDbLine
 10
140.1199466244243
 20
46.75751798070617
 30
0.0
 11
148.9199466243514
 21
46.75751798070622
 31
0.0
  0
LINE
  5
2ED3
330
18
100
AcDbEntity
  8
1
  6
Continuous
 48
0.25
100
AcDbLine
 10
149.9199466244136
 20
37.75751798070621
 30
0.0
 11
148.9199466243514
 21
37.75751798070621
 31
0.0
  0
LINE
  5
2ED4
330
18
100
AcDbEntity
  8
1
  6
Continuous
 48
0.25
100
AcDbLine
 10
140.1199466244243
 20
37.75751798070621
 30
0.0
 11
139.1199466243621
 21
37.75751798070621
 31
0.0
  0
LINE
  5
2EDB
330
18
100
AcDbEntity
  8
1
  6
Continuous
 48
0.25
100
AcDbLine
 10
134.2199466243451
 20
38.5614375256335
 30
0.0
 11
132.5576652770273
 21
38.51668020782978
 31
0.0
  0
LINE
  5
2EDC
330
18
100
AcDbEntity
  8
1
  6
Continuous
 48
0.25
100
AcDbLine
 10
132.5576652770273
 20
38.51668020782975
 30
0.0
 11
130.9199466242066
 21
38.40663518877355
 31
0.0
  0
LINE
  5
2EDD
330
18
100
AcDbEntity
  8
1
  6
Continuous
 48
0.25
100
AcDbLine
 10
158.1199466244768
 20
38.40663518878189
 30
0.0
 11
156.4822279716555
 21
38.51668020783421
 31
0.0
  0
LINE
  5
2EDE
330
18
100
AcDbEntity
  8
1
  6
Continuous
 48
0.25
100
AcDbLine
 10
156.4822279716555
 20
38.51668020783421
 30
0.0
 11
154.8199466243383
 21
38.56143752563418
 31
0.0
  0
ARC
  5
2EDF
330
18
100
AcDbEntity
  8
1
  6
Continuous
 48
0.25
100
AcDbCircle
 10
127.8199466242182
 20
36.25751798077658
 30
0.0
 40
0.5000000000000119
100
AcDbArc
 50
270.0
 51
0.0000000000032569
  0
ARC
  5
2EE0
330
18
100
AcDbEntity
  8
1
  6
Continuous
 48
0.25
100
AcDbCircle
 10
161.2199466245574
 20
36.25751798077664
 30
0.0
 40
0.5000000000000119
100
AcDbArc
 50
180.0
 51
270.0
  0
ARC
  5
2EE1
330
18
100
AcDbEntity
  8
1
  6
Continuous
 48
0.25
100
AcDbCircle
 10
131.5199466243104
 20
36.25751798077661
 30
0.0
 40
0.5
100
AcDbArc
 50
270.0
 51
0.0000000000032569
  0
ARC
  5
2EE2
330
18
100
AcDbEntity
  8
1
  6
Continuous
 48
0.25
100
AcDbCircle
 10
157.5199466244653
 20
36.25751798077664
 30
0.0
 40
0.5
100
AcDbArc
 50
180.0
 51
270.0
  0
ARC
  5
2EE3
330
18
100
AcDbEntity
  8
1
  6
Continuous
 48
0.25
100
AcDbCircle
 10
130.0199466242183
 20
36.25751798077658
 30
0.0
 40
0.5
100
AcDbArc
 50
179.9999999999935
 51
270.0
  0
ARC
  5
2EE4
330
18
100
AcDbEntity
  8
1
  6
Continuous
 48
0.25
100
AcDbCircle
 10
159.0199466245574
 20
36.25751798077664
 30
0.0
 40
0.5
100
AcDbArc
 50
270.0
 51
0.0
  0
ARC
  5
2EE5
330
18
100
AcDbEntity
  8
1
  6
Continuous
 48
0.25
100
AcDbCircle
 10
154.8270534056599
 20
36.25751798077658
 30
0.0
 40
0.5
100
AcDbArc
 50
224.9999999999908
 51
270.0
  0
ARC
  5
2EE6
330
18
100
AcDbEntity
  8
1
  6
Continuous
 48
0.25
100
AcDbCircle
 10
155.8199466244728
 20
36.25751798077658
 30
0.0
 40
0.5
100
AcDbArc
 50
270.0
 51
0.0
  0
ARC
  5
2EE7
330
18
100
AcDbEntity
  8
1
  6
Continuous
 48
0.25
100
AcDbCircle
 10
133.2199466243029
 20
36.25751798077658
 30
0.0
 40
0.5
100
AcDbArc
 50
180.0
 51
270.0
  0
ARC
  5
2EE8
330
18
100
AcDbEntity
  8
1
  6
Continuous
 48
0.25
100
AcDbCircle
 10
134.2128398431157
 20
36.25751798077658
 30
0.0
 40
0.5
100
AcDbArc
 50
270.0
 51
315.0000000000092
  0
ARC
  5
2EE9
330
18
100
AcDbEntity
  8
1
  6
Continuous
 48
0.25
100
AcDbCircle
 10
123.8689161031952
 20
36.25751798077658
 30
0.0
 40
0.5000000000000119
100
AcDbArc
 50
270.0
 51
355.0000000000003
  0
ARC
  5
2EEA
330
18
100
AcDbEntity
  8
1
  6
Continuous
 48
0.25
100
AcDbCircle
 10
165.1709771455825
 20
36.25751798077658
 30
0.0
 40
0.5000000000000119
100
AcDbArc
 50
184.9999999999997
 51
270.0
  0
ARC
  5
2EEB
330
18
100
AcDbEntity
  8
1
  6
Continuous
 48
0.25
100
AcDbCircle
 10
123.3670061844235
 20
36.25751798077658
 30
0.0
 40
0.5000000000000119
100
AcDbArc
 50
175.0000000000002
 51
270.0
  0
ARC
  5
2EEC
330
18
100
AcDbEntity
  8
1
  6
Continuous
 48
0.25
100
AcDbCircle
 10
165.6728870643541
 20
36.25751798077658
 30
0.0
 40
0.5000000000000119
100
AcDbArc
 50
270.0
 51
4.999999999999741
  0
ARC
  5
2EED
330
18
100
AcDbEntity
  8
1
  6
Continuous
 48
0.25
100
AcDbCircle
 10
153.8199466243365
 20
37.20539316829911
 30
0.0
 40
0.5000000000000119
100
AcDbArc
 50
180.0000000000293
 51
270.0000000000293
  0
ARC
  5
2EEE
330
18
100
AcDbEntity
  8
1
  6
Continuous
 48
0.25
100
AcDbCircle
 10
135.2199466243469
 20
37.20539316829911
 30
0.0
 40
0.5000000000000119
100
AcDbArc
 50
269.9999999999707
 51
0.0
  0
ARC
  5
2EEF
330
18
100
AcDbEntity
  8
1
  6
Continuous
 48
0.25
100
AcDbCircle
 10
129.9199466242066
 20
37.2053931683019
 30
0.0
 40
0.5000000000000119
100
AcDbArc
 50
180.0
 51
269.9999999999707
  0
ARC
  5
2EF0
330
18
100
AcDbEntity
  8
1
  6
Continuous
 48
0.25
100
AcDbCircle
 10
159.1199466244769
 20
37.2053931683019
 30
0.0
 40
0.5000000000000119
100
AcDbArc
 50
270.0000000000293
 51
0.0
  0
ARC
  5
2EF1
330
18
100
AcDbEntity
  8
1
  6
Continuous
 48
0.25
100
AcDbCircle
 10
127.6852713202734
 20
45.45751798088359
 30
0.0
 40
4.0
100
AcDbArc
 50
90.0
 51
175.0000000000002
  0
ARC
  5
2EF2
330
18
100
AcDbEntity
  8
1
  6
Continuous
 48
0.25
100
AcDbCircle
 10
161.3546219285046
 20
45.45751798088355
 30
0.0
 40
4.0
100
AcDbArc
 50
4.999999999999741
 51
90.0
  0
ARC
  5
2EF3
330
18
100
AcDbEntity
  8
1
  6
Continuous
 48
0.25
100
AcDbCircle
 10
153.8199466243361
 20
48.95751798088355
 30
0.0
 40
0.5
100
AcDbArc
 50
90.0
 51
179.9999999999984
  0
ARC
  5
2EF4
330
18
100
AcDbEntity
  8
1
  6
Continuous
 48
0.25
100
AcDbCircle
 10
135.2199466243474
 20
48.95751798088355
 30
0.0
 40
0.5
100
AcDbArc
 50
0.0
 51
90.0
  0
LINE
  5
2EF5
330
18
100
AcDbEntity
  8
1
  6
Continuous
 48
0.25
100
AcDbLine
 10
136.9199466244545
 20
35.75751798077658
 30
0.0
 11
138.0401507273077
 21
35.75751798077658
 31
0.0
  0
LINE
  5
2EF6
330
18
100
AcDbEntity
  8
1
  6
Continuous
 48
0.25
100
AcDbLine
 10
150.9997425215916
 20
35.75751798077658
 30
0.0
 11
152.1199466243213
 21
35.75751798077658
 31
0.0
  0
LINE
  5
2EF7
330
18
100
AcDbEntity
  8
1
  6
Continuous
 48
0.25
100
AcDbLine
 10
140.1199466244243
 20
45.55751798077664
 30
0.0
 11
148.9199466243514
 21
45.55751798077664
 31
0.0
  0
LINE
  5
2EF8
330
18
100
AcDbEntity
  8
1
  6
Continuous
 48
0.25
100
AcDbLine
 10
140.1199466244243
 20
45.05751798077676
 30
0.0
 11
148.9199466243514
 21
45.05751798077676
 31
0.0
  0
LINE
  5
2EF9
330
18
100
AcDbEntity
  8
1
  6
Continuous
 48
0.25
100
AcDbLine
 10
140.1199466244243
 20
44.05751798077664
 30
0.0
 11
148.9199466243514
 21
44.05751798077664
 31
0.0
  0
LINE
  5
2EFA
330
18
100
AcDbEntity
  8
1
  6
Continuous
 48
0.25
100
AcDbLine
 10
160.7199466245574
 20
36.25751798077664
 30
0.0
 11
160.7199466245574
 21
37.31813028930925
 31
0.0
  0
LINE
  5
2EFB
330
18
100
AcDbEntity
  8
1
  6
Continuous
 48
0.25
100
AcDbLine
 10
128.3199466242182
 20
37.3181302893855
 30
0.0
 11
128.3199466242182
 21
36.25751798077664
 31
0.0
  0
LINE
  5
2EFC
330
18
100
AcDbEntity
  8
1
  6
Continuous
 48
0.25
100
AcDbLine
 10
157.0199466244653
 20
36.70539316830076
 30
0.0
 11
157.0199466244653
 21
36.25751798077664
 31
0.0
  0
LINE
  5
2EFD
330
18
100
AcDbEntity
  8
1
  6
Continuous
 48
0.25
100
AcDbLine
 10
129.5199466242183
 20
36.25751798077664
 30
0.0
 11
129.5199466242183
 21
36.90539316828625
 31
0.0
  0
LINE
  5
2EFE
330
18
100
AcDbEntity
  8
1
  6
Continuous
 48
0.25
100
AcDbLine
 10
159.5199466245574
 20
36.90539316840926
 30
0.0
 11
159.5199466245574
 21
36.25751798077664
 31
0.0
  0
LINE
  5
2EFF
330
18
100
AcDbEntity
  8
1
  6
Continuous
 48
0.25
100
AcDbLine
 10
132.7199466243029
 20
36.25751798077658
 30
0.0
 11
132.7199466243029
 21
36.70539316830045
 31
0.0
  0
LINE
  5
2F00
330
18
100
AcDbEntity
  8
1
  6
Continuous
 48
0.25
100
AcDbLine
 10
156.3199466244728
 20
36.70539316830036
 30
0.0
 11
156.3199466244728
 21
36.25751798077658
 31
0.0
  0
LINE
  5
2F01
330
18
100
AcDbEntity
  8
1
  6
Continuous
 48
0.25
100
AcDbLine
 10
154.4735000150666
 20
35.90396459018331
 30
0.0
 11
153.6376580172007
 21
36.73980658804953
 31
0.0
  0
LINE
  5
2F02
330
18
100
AcDbEntity
  8
1
  6
Continuous
 48
0.25
100
AcDbLine
 10
135.4022352316343
 20
36.73980658810889
 30
0.0
 11
134.566393233709
 21
35.90396459018336
 31
0.0
  0
LINE
  5
2F03
330
18
100
AcDbEntity
  8
1
  6
Continuous
 48
0.25
100
AcDbLine
 10
124.3844704005713
 20
36.41347394186249
 30
0.0
 11
124.367013452241
 21
36.21394010940276
 31
0.0
  0
LINE
  5
2F04
330
18
100
AcDbEntity
  8
1
  6
Continuous
 48
0.25
100
AcDbLine
 10
164.6728797965366
 20
36.21394010940276
 30
0.0
 11
164.6554228482065
 21
36.41347394186249
 31
0.0
  0
LINE
  5
2F05
330
18
100
AcDbEntity
  8
1
  6
Continuous
 48
0.25
100
AcDbLine
 10
153.8199466243368
 20
36.70539316829907
 30
0.0
 11
159.1199466244771
 21
36.70539316830185
 31
0.0
  0
LINE
  5
2F06
330
18
100
AcDbEntity
  8
1
  6
Continuous
 48
0.25
100
AcDbLine
 10
129.9199466242066
 20
36.70539316830196
 30
0.0
 11
135.2199466243469
 21
36.70539316829911
 31
0.0
  0
LINE
  5
2F07
330
18
100
AcDbEntity
  8
1
  6
Continuous
 48
0.25
100
AcDbLine
 10
164.6554228482065
 20
36.41347394186252
 30
0.0
 11
164.5833453083549
 21
37.2373239922211
 31
0.0
  0
LINE
  5
2F08
330
18
100
AcDbEntity
  8
1
  6
Continuous
 48
0.25
100
AcDbLine
 10
124.4566949514901
 20
37.23900433640574
 30
0.0
 11
124.3844704005713
 21
36.41347394186252
 31
0.0
  0
LINE
  5
2F09
330
18
100
AcDbEntity
  8
1
  6
Continuous
 48
0.25
100
AcDbLine
 10
124.4592413682715
 20
37.26811001340176
 30
0.0
 11
124.45669495149
 21
37.23900433640574
 31
0.0
  0
LINE
  5
2F0A
330
18
100
AcDbEntity
  8
1
  6
Continuous
 48
0.25
100
AcDbLine
 10
129.4199466242066
 20
37.2053931683019
 30
0.0
 11
129.4199466242066
 21
38.43655527961209
 31
0.0
  0
LINE
  5
2F0B
330
18
100
AcDbEntity
  8
1
  6
Continuous
 48
0.25
100
AcDbLine
 10
159.6199466244769
 20
38.43634182192301
 30
0.0
 11
159.6199466244769
 21
37.20539316830179
 31
0.0
  0
LINE
  5
2F0C
330
18
100
AcDbEntity
  8
1
  6
Continuous
 48
0.25
100
AcDbLine
 10
154.5199466243891
 20
49.45751798088361
 30
0.0
 11
161.3546219285046
 21
49.45751798088361
 31
0.0
  0
LINE
  5
2F0D
330
18
100
AcDbEntity
  8
1
  6
Continuous
 48
0.25
100
AcDbLine
 10
153.8199466243361
 20
49.45751798088361
 30
0.0
 11
154.5199466243891
 21
49.45751798088361
 31
0.0
  0
LINE
  5
2F0E
330
18
100
AcDbEntity
  8
1
  6
Continuous
 48
0.25
100
AcDbLine
 10
134.2199466243452
 20
38.56143752563344
 30
0.0
 11
134.2199466243467
 21
37.02810621602544
 31
0.0
  0
LINE
  5
2F0F
330
18
100
AcDbEntity
  8
1
  6
Continuous
 48
0.25
100
AcDbLine
 10
134.2199466243467
 20
37.02810621602544
 30
0.0
 11
130.9199466242066
 21
37.02810621602714
 31
0.0
  0
LINE
  5
2F10
330
18
100
AcDbEntity
  8
1
  6
Continuous
 48
0.25
100
AcDbLine
 10
130.9199466242066
 20
37.02810621602714
 30
0.0
 11
130.9199466242066
 21
38.40663518877349
 31
0.0
  0
LINE
  5
2F11
330
18
100
AcDbEntity
  8
1
  6
Continuous
 48
0.25
100
AcDbLine
 10
154.8199466243367
 20
37.02810621602544
 30
0.0
 11
154.8199466243383
 21
38.56143752563412
 31
0.0
  0
LINE
  5
2F12
330
18
100
AcDbEntity
  8
1
  6
Continuous
 48
0.25
100
AcDbLine
 10
158.1199466244768
 20
37.02810621602714
 30
0.0
 11
158.1199466244768
 21
38.40663518878182
 31
0.0
  0
LINE
  5
2F13
330
18
100
AcDbEntity
  8
1
  6
Continuous
 48
0.25
100
AcDbLine
 10
154.8199466243368
 20
37.02810621602544
 30
0.0
 11
158.1199466244768
 21
37.02810621602714
 31
0.0
  0
LINE
  5
2F14
330
18
100
AcDbEntity
  8
1
  6
Continuous
 48
0.25
100
AcDbLine
 10
128.4199466243906
 20
37.2994780891338
 30
0.0
 11
128.4199466243909
 21
37.00751798070625
 31
0.0
  0
LINE
  5
2F15
330
18
100
AcDbEntity
  8
1
  6
Continuous
 48
0.25
100
AcDbLine
 10
128.3199466242182
 20
37.00751798070616
 30
0.0
 11
128.4199466243908
 21
37.00751798070621
 31
0.0
  0
LINE
  5
2F16
330
18
100
AcDbEntity
  8
1
  6
Continuous
 48
0.25
100
AcDbLine
 10
160.6199466243849
 20
37.00751798070625
 30
0.0
 11
160.7199466245574
 21
37.00751798070616
 31
0.0
  0
LINE
  5
2F17
330
18
100
AcDbEntity
  8
1
  6
Continuous
 48
0.25
100
AcDbLine
 10
160.6199466243849
 20
37.00751798070625
 30
0.0
 11
160.6199466243852
 21
37.29947808907068
 31
0.0
  0
LINE
  5
2F18
330
18
100
AcDbEntity
  8
1
  6
Continuous
 48
0.25
100
AcDbLine
 10
153.2447543050278
 20
38.75751798075362
 30
0.0
 11
153.3199466246535
 21
38.75751798075362
 31
0.0
  0
LINE
  5
2F19
330
18
100
AcDbEntity
  8
1
  6
Continuous
 48
0.25
100
AcDbLine
 10
151.9997425215018
 20
38.75751798075362
 30
0.0
 11
152.1199466243257
 21
38.75751798075362
 31
0.0
  0
LINE
  5
2F1A
330
18
100
AcDbEntity
  8
1
  6
Continuous
 48
0.25
100
AcDbLine
 10
149.9199466244107
 20
38.75751798075362
 30
0.0
 11
150.0199466244509
 21
38.75751798075362
 31
0.0
  0
LINE
  5
2F1B
330
18
100
AcDbEntity
  8
1
  6
Continuous
 48
0.25
100
AcDbLine
 10
148.8199466244051
 20
38.75751798075362
 30
0.0
 11
148.9199466243514
 21
38.75751798075362
 31
0.0
  0
LINE
  5
2F1C
330
18
100
AcDbEntity
  8
1
  6
Continuous
 48
0.25
100
AcDbLine
 10
140.1199466244243
 20
38.75751798075362
 30
0.0
 11
140.2199466244052
 21
38.75751798075362
 31
0.0
  0
LINE
  5
2F1D
330
18
100
AcDbEntity
  8
1
  6
Continuous
 48
0.25
100
AcDbLine
 10
139.0199466243247
 20
38.75751798075362
 30
0.0
 11
139.1199466244134
 21
38.75751798075362
 31
0.0
  0
LINE
  5
2F1E
330
18
100
AcDbEntity
  8
1
  6
Continuous
 48
0.25
100
AcDbLine
 10
136.9199466244501
 20
38.75751798075362
 30
0.0
 11
137.0401507272411
 21
38.75751798075362
 31
0.0
  0
LINE
  5
2F1F
330
18
100
AcDbEntity
  8
1
  6
Continuous
 48
0.25
100
AcDbLine
 10
135.7199466241223
 20
38.75751798075362
 30
0.0
 11
135.7951389430258
 21
38.75751798075362
 31
0.0
  0
LINE
  5
2F20
330
18
100
AcDbEntity
  8
1
  6
Continuous
 48
0.25
100
AcDbLine
 10
135.9199466243298
 20
43.25751798069048
 30
0.0
 11
135.7199466243456
 21
43.25751798069048
 31
0.0
  0
LINE
  5
2F21
330
18
100
AcDbEntity
  8
1
  6
Continuous
 48
0.25
100
AcDbLine
 10
150.0199466244509
 20
43.25751798069048
 30
0.0
 11
139.0199466243247
 21
43.25751798069048
 31
0.0
  0
LINE
  5
2F22
330
18
100
AcDbEntity
  8
1
  6
Continuous
 48
0.25
100
AcDbLine
 10
153.3199466246534
 20
43.25751798069048
 30
0.0
 11
153.1199466244615
 21
43.25751798069048
 31
0.0
  0
LINE
  5
2F23
330
18
100
AcDbEntity
  8
1
  6
Continuous
 48
0.25
100
AcDbLine
 10
153.1199466244615
 20
40.25751798069049
 30
0.0
 11
153.3199466246534
 21
40.25751798069049
 31
0.0
  0
LINE
  5
2F24
330
18
100
AcDbEntity
  8
1
  6
Continuous
 48
0.25
100
AcDbLine
 10
151.0199466244826
 20
40.25751798069049
 30
0.0
 11
152.119946624324
 21
40.25751798069049
 31
0.0
  0
LINE
  5
2F25
330
18
100
AcDbEntity
  8
1
  6
Continuous
 48
0.25
100
AcDbLine
 10
139.0199466243247
 20
40.25751798069049
 30
0.0
 11
150.0199466244509
 21
40.25751798069049
 31
0.0
  0
LINE
  5
2F26
330
18
100
AcDbEntity
  8
1
  6
Continuous
 48
0.25
100
AcDbLine
 10
136.9199466244517
 20
40.25751798069049
 30
0.0
 11
138.0199466244062
 21
40.25751798069049
 31
0.0
  0
LINE
  5
2F27
330
18
100
AcDbEntity
  8
1
  6
Continuous
 48
0.25
100
AcDbLine
 10
135.7199466243456
 20
40.25751798069049
 30
0.0
 11
135.9199466244388
 21
40.25751798069049
 31
0.0
  0
ARC
  5
2F28
330
18
100
AcDbEntity
  8
1
  6
Continuous
 48
0.25
100
AcDbCircle
 10
128.9199466245745
 20
40.25751798063589
 30
0.0
 40
2.999999999983627
100
AcDbArc
 50
269.9999999992314
 51
279.5940682197864
  0
ARC
  5
2F29
330
18
100
AcDbEntity
  8
1
  6
Continuous
 48
0.25
100
AcDbCircle
 10
128.9199466245745
 20
40.25751798063589
 30
0.0
 40
2.999999999983627
100
AcDbArc
 50
234.5428421844669
 51
269.9999999992314
  0
ARC
  5
2F2A
330
18
100
AcDbEntity
  8
1
  6
Continuous
 48
0.25
100
AcDbCircle
 10
128.9199466245409
 20
37.7575179805242
 30
0.0
 40
0.5
100
AcDbArc
 50
358.1732723637344
 51
0.0
  0
ARC
  5
2F2B
330
18
100
AcDbEntity
  8
1
  6
Continuous
 48
0.25
100
AcDbCircle
 10
128.9199466245409
 20
37.7575179805242
 30
0.0
 40
0.5
100
AcDbArc
 50
180.0
 51
358.1732723637344
  0
LINE
  5
2F2C
330
18
100
AcDbEntity
  8
1
  6
Continuous
 48
0.25
100
AcDbLine
 10
128.4199466245409
 20
38.2575179805242
 30
0.0
 11
128.4199466245409
 21
37.7575179805242
 31
0.0
  0
LINE
  5
2F2D
330
18
100
AcDbEntity
  8
1
  6
Continuous
 48
0.25
100
AcDbLine
 10
128.4199466245409
 20
38.29594460004637
 30
0.0
 11
128.4199466245409
 21
38.2575179805242
 31
0.0
  0
ARC
  5
2F2F
330
18
100
AcDbEntity
  8
1
  6
Continuous
 48
0.25
100
AcDbCircle
 10
160.1199466245746
 20
40.25751798063589
 30
0.0
 40
2.999999999983627
100
AcDbArc
 50
269.9999999992281
 51
305.4571578126115
  0
ARC
  5
2F30
330
18
100
AcDbEntity
  8
1
  6
Continuous
 48
0.25
100
AcDbCircle
 10
160.1199466245746
 20
40.25751798063589
 30
0.0
 40
2.999999999983627
100
AcDbArc
 50
260.4059317711929
 51
269.9999999992281
  0
ARC
  5
2F31
330
18
100
AcDbEntity
  8
1
  6
Continuous
 48
0.25
100
AcDbCircle
 10
160.1199466245409
 20
37.7575179805242
 30
0.0
 40
0.5
100
AcDbArc
 50
358.1732723637344
 51
0.0
  0
ARC
  5
2F32
330
18
100
AcDbEntity
  8
1
  6
Continuous
 48
0.25
100
AcDbCircle
 10
160.1199466245409
 20
37.7575179805242
 30
0.0
 40
0.5
100
AcDbArc
 50
180.0
 51
358.1732723637344
  0
LINE
  5
2F33
330
18
100
AcDbEntity
  8
1
  6
Continuous
 48
0.25
100
AcDbLine
 10
160.6199466245409
 20
38.2575179805242
 30
0.0
 11
160.6199466245409
 21
38.29616180620752
 31
0.0
  0
LINE
  5
2F34
330
18
100
AcDbEntity
  8
1
  6
Continuous
 48
0.25
100
AcDbLine
 10
160.6199466245409
 20
37.7575179805242
 30
0.0
 11
160.6199466245409
 21
38.2575179805242
 31
0.0
  0
ARC
  5
2F35
330
18
100
AcDbEntity
  8
1
  6
Continuous
 48
0.25
100
AcDbCircle
 10
126.8487151064959
 20
38.75751798066949
 30
0.0
 40
1.0
100
AcDbArc
 50
270.0000000006644
 51
323.5029627409478
  0
ARC
  5
2F36
330
18
100
AcDbEntity
  8
1
  6
Continuous
 48
0.25
100
AcDbCircle
 10
126.5199466242167
 20
38.75751798066949
 30
0.0
 40
1.0
100
AcDbArc
 50
245.6164590588287
 51
270.0
  0
ARC
  5
2F37
330
18
100
AcDbEntity
  8
1
  6
Continuous
 48
0.25
100
AcDbCircle
 10
162.1911781422754
 20
38.75751798066949
 30
0.0
 40
1.0
100
AcDbArc
 50
216.6223044353776
 51
269.9999999995929
  0
ARC
  5
2F38
330
18
100
AcDbEntity
  8
1
  6
Continuous
 48
0.25
100
AcDbCircle
 10
162.5199466245591
 20
38.75751798066949
 30
0.0
 40
1.0
100
AcDbArc
 50
270.0
 51
293.8504913202513
  0
LINE
  5
2F39
330
18
100
AcDbEntity
  8
1
  6
Continuous
 48
0.25
100
AcDbLine
 10
157.0199466244141
 20
35.97664917124087
 30
0.0
 11
157.0199466244141
 21
35.75751798066949
 31
0.0
  0
LINE
  5
2F3A
330
18
100
AcDbEntity
  8
1
  6
Continuous
 48
0.25
100
AcDbLine
 10
157.0199466244155
 20
35.97664917124092
 30
0.0
 11
157.0199466244158
 21
36.25751798077658
 31
0.0
  0
LINE
  5
2F3B
330
18
100
AcDbEntity
  8
1
  6
Continuous
 48
0.25
100
AcDbLine
 10
135.9199466243713
 20
45.75751798077521
 30
0.0
 11
135.7199466241223
 21
45.75751798077521
 31
0.0
  0
LINE
  5
2F3C
330
18
100
AcDbEntity
  8
1
  6
Continuous
 48
0.25
100
AcDbLine
 10
153.3199466246534
 20
45.75751798077525
 30
0.0
 11
153.1199466244764
 21
45.75751798077525
 31
0.0
  0
LINE
  5
2F3D
330
18
100
AcDbEntity
  8
1
  6
Continuous
 48
0.25
100
AcDbLine
 10
153.1199466244854
 20
47.25751798077515
 30
0.0
 11
153.3199466246232
 21
47.25751798077515
 31
0.0
  0
LINE
  5
2F3E
330
18
100
AcDbEntity
  8
1
  6
Continuous
 48
0.25
100
AcDbLine
 10
149.7859720281434
 20
47.25751798077515
 30
0.0
 11
152.1199466243225
 21
47.25751798077515
 31
0.0
  0
LINE
  5
2F3F
330
18
100
AcDbEntity
  8
1
  6
Continuous
 48
0.25
100
AcDbLine
 10
136.919946624453
 20
47.25751798077515
 30
0.0
 11
139.2539212206687
 21
47.25751798077515
 31
0.0
  0
LINE
  5
2F40
330
18
100
AcDbEntity
  8
1
  6
Continuous
 48
0.25
100
AcDbLine
 10
135.7199466243539
 20
47.25751798077584
 30
0.0
 11
135.9199466243962
 21
47.25751798077515
 31
0.0
  0
LINE
  5
2F41
330
18
100
AcDbEntity
  8
1
  6
Continuous
 48
0.25
100
AcDbLine
 10
153.3199466245231
 20
49.45751798066918
 30
0.0
 11
153.8199466243361
 21
49.45751798066918
 31
0.0
  0
LINE
  5
2F42
330
18
100
AcDbEntity
  8
1
  6
Continuous
 48
0.25
100
AcDbLine
 10
126.5199466242167
 20
37.75751798066949
 30
0.0
 11
126.8487151065075
 21
37.75751798066949
 31
0.0
  0
LINE
  5
2F43
330
18
100
AcDbEntity
  8
1
  6
Continuous
 48
0.25
100
AcDbLine
 10
162.1911781422683
 20
37.75751798066949
 30
0.0
 11
162.5199466245591
 21
37.75751798066949
 31
0.0
  0
ARC
  5
2F44
330
18
100
AcDbEntity
  8
1
  6
Continuous
 48
0.25
100
AcDbCircle
 10
152.1199466244683
 20
48.4575179807766
 30
0.0
 40
1.0
100
AcDbArc
 50
0.0
 51
90.0
  0
ARC
  5
2F45
330
18
100
AcDbEntity
  8
1
  6
Continuous
 48
0.25
100
AcDbCircle
 10
136.9199466244325
 20
48.4575179807766
 30
0.0
 40
1.0
100
AcDbArc
 50
90.0
 51
180.0
  0
LINE
  5
2F46
330
18
100
AcDbEntity
  8
1
  6
Continuous
 48
0.25
100
AcDbLine
 10
135.9199466243272
 20
35.65751798076758
 30
0.0
 11
136.9199466244545
 21
35.65751798076758
 31
0.0
  0
LINE
  5
2F47
330
18
100
AcDbEntity
  8
1
  6
Continuous
 48
0.25
100
AcDbLine
 10
152.1199466243213
 20
35.65751798076758
 30
0.0
 11
153.1199466244485
 21
35.65751798076758
 31
0.0
  0
LINE
  5
2F48
330
18
100
AcDbEntity
  8
1
  6
Continuous
 48
0.25
100
AcDbLine
 10
153.1199466244986
 20
36.9575179807766
 30
0.0
 11
152.1199466243275
 21
36.9575179807766
 31
0.0
  0
LINE
  5
2F49
330
18
100
AcDbEntity
  8
1
  6
Continuous
 48
0.25
100
AcDbLine
 10
136.9199466244482
 20
36.9575179807766
 30
0.0
 11
135.9199466242771
 21
36.9575179807766
 31
0.0
  0
LINE
  5
2F4A
330
18
100
AcDbEntity
  8
1
  6
Continuous
 48
0.25
100
AcDbLine
 10
152.1199466243212
 20
48.4575179807766
 30
0.0
 11
136.9199466244545
 21
48.4575179807766
 31
0.0
  0
LINE
  5
2F4B
330
18
100
AcDbEntity
  8
1
  6
Continuous
 48
0.25
100
AcDbLine
 10
136.9199466244325
 20
49.45751798077661
 30
0.0
 11
152.1199466244683
 21
49.45751798077661
 31
0.0
  0
ARC
  5
2F4C
330
18
100
AcDbEntity
  8
1
  6
Continuous
 48
0.25
100
AcDbCircle
 10
151.6199466241275
 20
40.65751798077656
 30
0.0
 40
2.5
100
AcDbArc
 50
306.8698976524943
 51
312.8436430600368
  0
ARC
  5
2F4D
330
18
100
AcDbEntity
  8
1
  6
Continuous
 48
0.25
100
AcDbCircle
 10
137.4199466239262
 20
40.65751798077656
 30
0.0
 40
2.5
100
AcDbArc
 50
227.1563569625333
 51
233.1301023615964
  0
LINE
  5
2F4E
330
18
100
AcDbEntity
  8
1
  6
Continuous
 48
0.25
100
AcDbLine
 10
151.0199466244826
 20
39.1575179807766
 30
0.0
 11
152.1199466243252
 21
39.1575179807766
 31
0.0
  0
LINE
  5
2F4F
330
18
100
AcDbEntity
  8
1
  6
Continuous
 48
0.25
100
AcDbLine
 10
149.9199466244118
 20
39.1575179807766
 30
0.0
 11
150.0199466244509
 21
39.1575179807766
 31
0.0
  0
LINE
  5
2F50
330
18
100
AcDbEntity
  8
1
  6
Continuous
 48
0.25
100
AcDbLine
 10
148.8199466244051
 20
39.1575179807766
 30
0.0
 11
148.9199466243514
 21
39.1575179807766
 31
0.0
  0
LINE
  5
2F51
330
18
100
AcDbEntity
  8
1
  6
Continuous
 48
0.25
100
AcDbLine
 10
140.1199466244243
 20
39.1575179807766
 30
0.0
 11
140.2199466244052
 21
39.1575179807766
 31
0.0
  0
LINE
  5
2F52
330
18
100
AcDbEntity
  8
1
  6
Continuous
 48
0.25
100
AcDbLine
 10
139.0199466243247
 20
39.1575179807766
 30
0.0
 11
139.1199466244134
 21
39.1575179807766
 31
0.0
  0
LINE
  5
2F53
330
18
100
AcDbEntity
  8
1
  6
Continuous
 48
0.25
100
AcDbLine
 10
136.9199466244505
 20
39.1575179807766
 30
0.0
 11
138.0199466244062
 21
39.1575179807766
 31
0.0
  0
ARC
  5
2F54
330
18
100
AcDbEntity
  8
1
  6
Continuous
 48
0.25
100
AcDbCircle
 10
151.6199466242844
 20
41.75751798077658
 30
0.0
 40
2.5
100
AcDbArc
 50
47.15635694487093
 51
53.13010234750572
  0
ARC
  5
2F55
330
18
100
AcDbEntity
  8
1
  6
Continuous
 48
0.25
100
AcDbCircle
 10
137.4199466240832
 20
41.75751798077658
 30
0.0
 40
2.5
100
AcDbArc
 50
126.8698976384035
 51
132.8436430423708
  0
ARC
  5
2F56
330
18
100
AcDbEntity
  8
1
  6
Continuous
 48
0.25
100
AcDbCircle
 10
140.7199466244052
 20
35.65751798079813
 30
0.0
 40
0.5
100
AcDbArc
 50
180.0
 51
270.0
  0
ARC
  5
2F57
330
18
100
AcDbEntity
  8
1
  6
Continuous
 48
0.25
100
AcDbCircle
 10
148.3199466244051
 20
35.65751798079813
 30
0.0
 40
0.5
100
AcDbArc
 50
270.0
 51
0.0
  0
LINE
  5
2F58
330
18
100
AcDbEntity
  8
1
  6
Continuous
 48
0.25
100
AcDbLine
 10
140.7199466244052
 20
35.15751798079814
 30
0.0
 11
148.3199466244051
 21
35.15751798079814
 31
0.0
  0
LINE
  5
2F59
330
18
100
AcDbEntity
  8
1
  6
Continuous
 48
0.25
100
AcDbLine
 10
140.2199466244052
 20
36.15751798079813
 30
0.0
 11
148.8199466244051
 21
36.15751798079813
 31
0.0
  0
ARC
  5
2F5A
330
18
100
AcDbEntity
  8
1
  6
Continuous
 48
0.25
100
AcDbCircle
 10
138.0199466243498
 20
38.95751798077647
 30
0.0
 40
1.0
100
AcDbArc
 50
180.0000000000521
 51
270.0000000038269
  0
ARC
  5
2F5B
330
18
100
AcDbEntity
  8
1
  6
Continuous
 48
0.25
100
AcDbCircle
 10
151.0199466243932
 20
38.95751798077647
 30
0.0
 40
1.0
100
AcDbArc
 50
269.9999999980459
 51
359.9999999999479
  0
ARC
  5
2F5C
330
18
100
AcDbEntity
  8
1
  6
Continuous
 48
0.25
100
AcDbCircle
 10
142.9199466243878
 20
35.3325179807766
 30
0.0
 40
1.624999999999995
100
AcDbArc
 50
90.0
 51
149.4897625938843
  0
ARC
  5
2F5D
330
18
100
AcDbEntity
  8
1
  6
Continuous
 48
0.25
100
AcDbCircle
 10
146.1199466243879
 20
35.3325179807766
 30
0.0
 40
1.624999999999995
100
AcDbArc
 50
30.51023740611571
 51
90.0
  0
ARC
  5
2F5E
330
18
100
AcDbEntity
  8
1
  6
Continuous
 48
0.25
100
AcDbCircle
 10
139.0199466244165
 20
35.95751798079817
 30
0.0
 40
1.0
100
AcDbArc
 50
179.9999999999984
 51
270.0
  0
ARC
  5
2F5F
330
18
100
AcDbEntity
  8
1
  6
Continuous
 48
0.25
100
AcDbCircle
 10
150.0199466244827
 20
35.95751798079817
 30
0.0
 40
1.0
100
AcDbArc
 50
270.0
 51
0.0000000000016284
  0
LINE
  5
2F60
330
18
100
AcDbEntity
  8
1
  6
Continuous
 48
0.25
100
AcDbLine
 10
152.0199466243994
 20
45.75751798072928
 30
0.0
 11
152.0199466243971
 21
43.25751798077657
 31
0.0
  0
LINE
  5
2F61
330
18
100
AcDbEntity
  8
1
  6
Continuous
 48
0.25
100
AcDbLine
 10
137.0199466243458
 20
43.25751798077657
 30
0.0
 11
137.0199466243435
 21
45.75751798072928
 31
0.0
  0
LINE
  5
2F62
330
18
100
AcDbEntity
  8
1
  6
Continuous
 48
0.25
100
AcDbLine
 10
137.0199466243497
 20
38.95751798077561
 30
0.0
 11
137.0199466243496
 21
39.1575179807766
 31
0.0
  0
LINE
  5
2F63
330
18
100
AcDbEntity
  8
1
  6
Continuous
 48
0.25
100
AcDbLine
 10
152.0199466243932
 20
38.95751798077558
 30
0.0
 11
152.0199466243933
 21
39.15751798077656
 31
0.0
  0
LINE
  5
2F64
330
18
100
AcDbEntity
  8
1
  6
Continuous
 48
0.25
100
AcDbLine
 10
146.1199466243879
 20
36.95751798077657
 30
0.0
 11
142.9199466243878
 21
36.95751798077657
 31
0.0
  0
LINE
  5
2F65
330
18
100
AcDbEntity
  8
1
  6
Continuous
 48
0.25
100
AcDbLine
 10
138.0199466244165
 20
46.95751798079796
 30
0.0
 11
139.0199466243247
 21
46.95751798079796
 31
0.0
  0
LINE
  5
2F66
330
18
100
AcDbEntity
  8
1
  6
Continuous
 48
0.25
100
AcDbLine
 10
150.0199466244509
 20
46.95751798079796
 30
0.0
 11
151.0199466243591
 21
46.95751798079796
 31
0.0
  0
LINE
  5
2F67
330
18
100
AcDbEntity
  8
1
  6
Continuous
 48
0.25
100
AcDbLine
 10
140.2199466244052
 20
35.95751798079817
 30
0.0
 11
139.0199466243247
 21
35.95751798079817
 31
0.0
  0
LINE
  5
2F68
330
18
100
AcDbEntity
  8
1
  6
Continuous
 48
0.25
100
AcDbLine
 10
150.0199466244509
 20
35.95751798079823
 30
0.0
 11
148.8199466244051
 21
35.95751798079817
 31
0.0
  0
LINE
  5
2F69
330
18
100
AcDbEntity
  8
1
  6
Continuous
 48
0.25
100
AcDbLine
 10
150.0199466244827
 20
34.95751798079818
 30
0.0
 11
139.0199466244165
 21
34.95751798079818
 31
0.0
  0
LINE
  5
2F6A
330
18
100
AcDbEntity
  8
1
  6
Continuous
 48
0.25
100
AcDbLine
 10
255.6417583995799
 20
85.61115968522342
 30
0.0
 11
255.6417583994729
 21
132.6111596852489
 31
0.0
  0
LINE
  5
2F6B
330
18
100
AcDbEntity
  8
1
  6
Continuous
 48
0.25
100
AcDbLine
 10
269.3417583995799
 20
96.79633060343737
 30
0.0
 11
269.3417583995799
 21
149.264060397551
 31
0.0
  0
LINE
  5
2F6C
330
18
100
AcDbEntity
  8
1
  6
Continuous
 48
0.25
100
AcDbLine
 10
269.1417583995584
 20
94.91115968522331
 30
0.0
 11
269.9417583995585
 21
94.91115968522331
 31
0.0
  0
LINE
  5
2F6D
330
18
100
AcDbEntity
  8
1
  6
Continuous
 48
0.25
100
AcDbLine
 10
268.9888172231144
 20
95.11115968523821
 30
0.0
 11
270.1417583995584
 21
95.11115968523821
 31
0.0
  0
LINE
  5
2F6E
330
18
100
AcDbEntity
  8
1
  6
Continuous
 48
0.25
100
AcDbLine
 10
123.3669906247552
 20
196.7054177905877
 30
0.0
 11
165.6729006536299
 21
196.7054177905877
 31
0.0
  0
LINE
  5
2F6F
330
18
100
AcDbEntity
  8
1
  6
Continuous
 48
0.25
100
AcDbLine
 10
153.3199466244662
 20
183.0054177906952
 30
0.0
 11
161.1337754857971
 21
183.0054177904808
 31
0.0
  0
LINE
  5
2F70
330
18
100
AcDbEntity
  8
1
  6
Continuous
 48
0.25
100
AcDbLine
 10
127.9061177517804
 20
183.0054177904807
 30
0.0
 11
135.7199466241917
 21
183.0054177906951
 31
0.0
  0
LINE
  5
2F71
330
18
100
AcDbEntity
  8
1
  6
Continuous
 48
0.25
100
AcDbLine
 10
153.3199466243353
 20
87.23494669177672
 30
0.0
 11
153.3199466244201
 21
134.4111596856114
 31
0.0
  0
LINE
  5
2F72
330
18
100
AcDbEntity
  8
1
  6
Continuous
 48
0.25
100
AcDbLine
 10
135.7199466243482
 20
87.23494669177672
 30
0.0
 11
135.7199466243539
 21
134.4111596854314
 31
0.0
  0
LINE
  5
2F73
330
18
100
AcDbEntity
  8
1
  6
Continuous
 48
0.25
100
AcDbLine
 10
134.21994662412
 20
112.6111596852233
 30
0.0
 11
135.7199466240612
 21
112.6111596852233
 31
0.0
  0
LINE
  5
2F74
330
18
100
AcDbEntity
  8
1
  6
Continuous
 48
0.25
100
AcDbLine
 10
153.3199466245791
 20
112.6111596852233
 30
0.0
 11
154.8199466246623
 21
112.6111596852233
 31
0.0
  0
LINE
  5
2F75
330
18
100
AcDbEntity
  8
1
  6
Continuous
 48
0.25
100
AcDbLine
 10
153.119946624482
 20
98.01115968524731
 30
0.0
 11
154.8199466246434
 21
98.01115968535135
 31
0.0
  0
LINE
  5
2F76
330
18
100
AcDbEntity
  8
1
  6
Continuous
 48
0.25
100
AcDbLine
 10
134.2199466241339
 20
98.01115968535135
 30
0.0
 11
135.919946624423
 21
98.01115968524744
 31
0.0
  0
LINE
  5
2F77
330
18
100
AcDbEntity
  8
1
  6
Continuous
 48
0.25
100
AcDbLine
 10
135.9199466244325
 20
85.61115968522342
 30
0.0
 11
153.1199466244683
 21
85.61115968522342
 31
0.0
  0
LINE
  5
2F78
330
18
100
AcDbEntity
  8
1
  6
Continuous
 48
0.25
100
AcDbLine
 10
153.1199466244926
 20
85.61115968522342
 30
0.0
 11
153.1199466244485
 21
127.1111596852598
 31
0.0
  0
LINE
  5
2F79
330
18
100
AcDbEntity
  8
1
  6
Continuous
 48
0.25
100
AcDbLine
 10
152.1199466243213
 20
122.1111596852599
 30
0.0
 11
152.1199466243213
 21
127.1111596852598
 31
0.0
  0
LINE
  5
2F7A
330
18
100
AcDbEntity
  8
1
  6
Continuous
 48
0.25
100
AcDbLine
 10
152.0199466243957
 20
122.1111596852599
 30
0.0
 11
152.0199466243957
 21
127.1111596852395
 31
0.0
  0
LINE
  5
2F7B
330
18
100
AcDbEntity
  8
1
  6
Continuous
 48
0.25
100
AcDbLine
 10
137.0199466243472
 20
127.1111596852139
 30
0.0
 11
152.0199466243957
 21
127.1111596852139
 31
0.0
  0
LINE
  5
2F7C
330
18
100
AcDbEntity
  8
1
  6
Continuous
 48
0.25
100
AcDbLine
 10
136.9199466244545
 20
122.1111596852599
 30
0.0
 11
136.9199466244545
 21
127.1111596852598
 31
0.0
  0
LINE
  5
2F7D
330
18
100
AcDbEntity
  8
1
  6
Continuous
 48
0.25
100
AcDbLine
 10
135.919946624416
 20
85.61115968522342
 30
0.0
 11
135.9199466243271
 21
127.1111596852598
 31
0.0
  0
LINE
  5
2F7E
330
18
100
AcDbEntity
  8
1
  6
Continuous
 48
0.25
100
AcDbLine
 10
135.9199466244366
 20
122.1111596852599
 30
0.0
 11
153.1199466243432
 21
122.1111596852599
 31
0.0
  0
LINE
  5
2F7F
330
18
100
AcDbEntity
  8
1
  6
Continuous
 48
0.25
100
AcDbLine
 10
266.1502443811169
 20
87.06853663290912
 30
0.0
 11
269.1137197339116
 21
95.46505013249714
 31
0.0
  0
LINE
  5
2F80
330
18
100
AcDbEntity
  8
1
  6
Continuous
 48
0.25
100
AcDbLine
 10
135.7199466243469
 20
37.20539316829911
 30
0.0
 11
135.7199466242377
 21
49.45751798066918
 31
0.0
  0
LINE
  5
2F81
330
18
100
AcDbEntity
  8
1
  6
Continuous
 48
0.25
100
AcDbLine
 10
127.6852713202734
 20
49.45751798088361
 30
0.0
 11
135.7199466241349
 21
49.45751798066914
 31
0.0
  0
LINE
  5
2F82
330
18
100
AcDbEntity
  8
1
  6
Continuous
 48
0.25
100
AcDbLine
 10
123.3670061844236
 20
35.75751798077658
 30
0.0
 11
135.9199466243272
 21
35.75751798077658
 31
0.0
  0
LINE
  5
2F83
330
18
100
AcDbEntity
  8
1
  6
Continuous
 48
0.25
100
AcDbLine
 10
132.0199466242081
 20
35.75751798066949
 30
0.0
 11
132.0199466243104
 21
36.70539316830082
 31
0.0
  0
LINE
  5
2F84
330
18
100
AcDbEntity
  8
1
  6
Continuous
 48
0.25
100
AcDbLine
 10
135.9199466243272
 20
35.65751798076758
 30
0.0
 11
135.919946624416
 21
48.4575179807766
 31
0.0
  0
LINE
  5
2F85
330
18
100
AcDbEntity
  8
1
  6
Continuous
 48
0.25
100
AcDbLine
 10
136.9199466244545
 20
35.65751798076758
 30
0.0
 11
136.9199466244545
 21
48.45751798077664
 31
0.0
  0
LINE
  5
2F86
330
18
100
AcDbEntity
  8
1
  6
Continuous
 48
0.25
100
AcDbLine
 10
138.0199466244062
 20
35.9575179807982
 30
0.0
 11
138.0199466244077
 21
46.957517980798
 31
0.0
  0
LINE
  5
2F87
330
18
100
AcDbEntity
  8
1
  6
Continuous
 48
0.25
100
AcDbLine
 10
139.0199466243247
 20
35.95751798079817
 30
0.0
 11
139.0199466243247
 21
46.957517980798
 31
0.0
  0
LINE
  5
2F88
330
18
100
AcDbEntity
  8
1
  6
Continuous
 48
0.25
100
AcDbLine
 10
150.0199466244509
 20
35.9575179807982
 30
0.0
 11
150.019946624451
 21
46.95751798079796
 31
0.0
  0
LINE
  5
2F89
330
18
100
AcDbEntity
  8
1
  6
Continuous
 48
0.25
100
AcDbLine
 10
151.0199466244826
 20
35.9575179807982
 30
0.0
 11
151.0199466245009
 21
46.95751798079796
 31
0.0
  0
LINE
  5
2F8A
330
18
100
AcDbEntity
  8
1
  6
Continuous
 48
0.25
100
AcDbLine
 10
140.2199466244052
 20
35.65751798079816
 30
0.0
 11
140.2199466244052
 21
40.25751798077657
 31
0.0
  0
LINE
  5
2F8B
330
18
100
AcDbEntity
  8
1
  6
Continuous
 48
0.25
100
AcDbLine
 10
148.8199466244051
 20
35.65751798079813
 30
0.0
 11
148.8199466244051
 21
40.25751798077657
 31
0.0
  0
LINE
  5
2F8C
330
18
100
AcDbEntity
  8
1
  6
Continuous
 48
0.25
100
AcDbLine
 10
140.1199466244243
 20
36.65751798077656
 30
0.0
 11
140.1199466244243
 21
40.25751798069049
 31
0.0
  0
LINE
  5
2F8D
330
18
100
AcDbEntity
  8
1
  6
Continuous
 48
0.25
100
AcDbLine
 10
139.1199466243621
 20
36.65751798077656
 30
0.0
 11
139.1199466244128
 21
40.25751798069049
 31
0.0
  0
LINE
  5
2F8E
330
18
100
AcDbEntity
  8
1
  6
Continuous
 48
0.25
100
AcDbLine
 10
148.9199466243514
 20
36.65751798077656
 30
0.0
 11
148.9199466243514
 21
40.25751798069049
 31
0.0
  0
LINE
  5
2F8F
330
18
100
AcDbEntity
  8
1
  6
Continuous
 48
0.25
100
AcDbLine
 10
149.9199466244136
 20
36.65751798077656
 30
0.0
 11
149.9199466243295
 21
40.25751798069049
 31
0.0
  0
LINE
  5
2F90
330
18
100
AcDbEntity
  8
1
  6
Continuous
 48
0.25
100
AcDbLine
 10
139.1199466244128
 20
43.25751798069048
 30
0.0
 11
139.1199466244134
 21
46.75751798070614
 31
0.0
  0
LINE
  5
2F91
330
18
100
AcDbEntity
  8
1
  6
Continuous
 48
0.25
100
AcDbLine
 10
140.1199466244243
 20
43.25751798069048
 30
0.0
 11
140.1199466244243
 21
46.75751798070614
 31
0.0
  0
LINE
  5
2F92
330
18
100
AcDbEntity
  8
1
  6
Continuous
 48
0.25
100
AcDbLine
 10
148.9199466243514
 20
43.25751798069048
 30
0.0
 11
148.9199466243514
 21
46.75751798070617
 31
0.0
  0
LINE
  5
2F93
330
18
100
AcDbEntity
  8
1
  6
Continuous
 48
0.25
100
AcDbLine
 10
149.9199466243295
 20
43.25751798069052
 30
0.0
 11
149.9199466243988
 21
46.75751798070617
 31
0.0
  0
LINE
  5
2F94
330
18
100
AcDbEntity
  8
1
  6
Continuous
 48
0.25
100
AcDbLine
 10
136.9199466244512
 20
45.75751798077521
 30
0.0
 11
138.0199466243107
 21
45.75751798072925
 31
0.0
  0
LINE
  5
2F95
330
18
100
AcDbEntity
  8
1
  6
Continuous
 48
0.25
100
AcDbLine
 10
136.9199466244482
 20
43.25751798069048
 30
0.0
 11
138.019946624313
 21
43.25751798069048
 31
0.0
  0
LINE
  5
2F96
330
18
100
AcDbEntity
  8
1
  6
Continuous
 48
0.25
100
AcDbLine
 10
139.0199466243247
 20
45.75751798077525
 30
0.0
 11
150.0199466244509
 21
45.75751798077525
 31
0.0
  0
LINE
  5
2F97
330
18
100
AcDbEntity
  8
1
  6
Continuous
 48
0.25
100
AcDbLine
 10
151.0199466244323
 20
45.75751798072928
 30
0.0
 11
152.1199466243245
 21
45.75751798077521
 31
0.0
  0
LINE
  5
2F98
330
18
100
AcDbEntity
  8
1
  6
Continuous
 48
0.25
100
AcDbLine
 10
151.01994662443
 20
43.25751798069048
 30
0.0
 11
152.1199466243275
 21
43.25751798069048
 31
0.0
  0
LINE
  5
2F99
330
18
100
AcDbEntity
  8
1
  6
Continuous
 48
0.25
100
AcDbLine
 10
153.3199466243366
 20
37.20539316829911
 30
0.0
 11
153.319946624538
 21
49.45751798066918
 31
0.0
  0
LINE
  5
2F9A
330
18
100
AcDbEntity
  8
1
  6
Continuous
 48
0.25
100
AcDbLine
 10
153.1199466244485
 20
35.65751798076758
 30
0.0
 11
153.1199466244926
 21
48.45751798077657
 31
0.0
  0
LINE
  5
2F9B
330
18
100
AcDbEntity
  8
1
  6
Continuous
 48
0.25
100
AcDbLine
 10
152.1199466243213
 20
35.65751798076758
 30
0.0
 11
152.1199466243213
 21
48.4575179807766
 31
0.0
  0
LINE
  5
2F9C
330
18
100
AcDbEntity
  8
1
  6
Continuous
 48
0.25
100
AcDbLine
 10
153.1199466244485
 20
35.75751798077658
 30
0.0
 11
165.6728870643541
 21
35.75751798077658
 31
0.0
  0
LINE
  5
2F9D
330
18
100
AcDbEntity
  8
1
  6
Continuous
 48
0.25
100
AcDbLine
 10
136.7199466243419
 20
135.411159685418
 30
0.0
 11
152.3199466255254
 21
135.411159685484
 31
0.0
  0
LINE
  5
2F9E
330
18
100
AcDbEntity
  8
1
  6
Continuous
 48
0.25
100
AcDbLine
 10
154.8199466246434
 20
98.01115968535135
 30
0.0
 11
154.8199466246623
 21
112.6111596852233
 31
0.0
  0
LINE
  5
2F9F
330
18
100
AcDbEntity
  8
1
  6
Continuous
 48
0.25
100
AcDbLine
 10
134.2199466241339
 20
98.01115968535135
 30
0.0
 11
134.21994662412
 21
112.6111596852233
 31
0.0
  0
LINE
  5
2FA0
330
18
100
AcDbEntity
  8
1
  6
Continuous
 48
0.25
100
AcDbLine
 10
165.3394007208714
 20
45.80614095187423
 30
0.0
 11
166.1709980026758
 21
36.3010958521504
 31
0.0
  0
LINE
  5
2FA1
330
18
100
AcDbEntity
  8
1
  6
Continuous
 48
0.25
100
AcDbLine
 10
122.8688932757093
 20
36.3010958521504
 30
0.0
 11
123.7004925279064
 21
45.80614095187423
 31
0.0
  0
LINE
  5
2FA2
330
18
100
AcDbEntity
  8
4
  6
CENTER
 48
0.25
100
AcDbLine
 10
144.519945639218
 20
180.0054177905877
 30
0.0
 11
144.5199456392201
 21
200.505417790566
 31
0.0
  0
LINE
  5
2FA3
330
18
100
AcDbEntity
  8
4
  6
CENTER
 48
0.25
100
AcDbLine
 10
144.5199477595609
 20
52.45751798077659
 30
0.0
 11
144.5199456509023
 21
31.9575179807982
 31
0.0
  0
LINE
  5
2FA4
330
18
100
AcDbEntity
  8
4
  6
CENTER
 48
0.25
100
AcDbLine
 10
266.141758399361
 20
117.1111596852983
 30
0.0
 11
273.1417583993612
 21
117.1111596852983
 31
0.0
  0
LINE
  5
2FA5
330
18
100
AcDbEntity
  8
4
  6
CENTER
 48
0.25
100
AcDbLine
 10
266.1417583993609
 20
101.1111596852983
 30
0.0
 11
273.1417583993612
 21
101.1111596852983
 31
0.0
  0
LINE
  5
2FA6
330
18
100
AcDbEntity
  8
1
  6
Continuous
 48
0.25
100
AcDbLine
 10
255.6417583995799
 20
85.61115968522342
 30
0.0
 11
267.14175839958
 21
85.61115968522342
 31
0.0
  0
LINE
  5
2FA9
330
18
100
AcDbEntity
  8
4
  6
CENTER
 48
0.25
100
AcDbLine
 10
267.8417583995044
 20
136.1111596855655
 30
0.0
 11
261.8417583996121
 21
136.1111596855655
 31
0.0
  0
LINE
  5
2FAA
330
18
100
AcDbEntity
  8
4
  6
CENTER
 48
0.25
100
AcDbLine
 10
264.8417583995583
 20
139.1111596855117
 30
0.0
 11
264.8417583995583
 21
133.1111596856194
 31
0.0
  0
LINE
  5
2FBA
330
18
100
AcDbEntity
  8
1
  6
Continuous
 48
0.25
100
AcDbLine
 10
355.2423392163929
 20
88.60532759592439
 30
0.0
 11
356.880057869214
 21
88.29353337527601
 31
0.0
  0
LINE
  5
2FBB
330
18
100
AcDbEntity
  8
1
  6
Continuous
 48
0.25
100
AcDbLine
 10
356.880057869214
 20
88.29353337527601
 30
0.0
 11
358.5423392165312
 21
88.16672097484291
 31
0.0
  0
LINE
  5
2FBC
330
18
100
AcDbEntity
  8
1
  6
Continuous
 48
0.25
100
AcDbLine
 10
379.1423392165235
 20
88.16672097484469
 30
0.0
 11
380.8046205638418
 21
88.29353337528855
 31
0.0
  0
LINE
  5
2FBD
330
18
100
AcDbEntity
  8
1
  6
Continuous
 48
0.25
100
AcDbLine
 10
380.8046205638418
 20
88.29353337528855
 30
0.0
 11
382.4423392166629
 21
88.60532759594788
 31
0.0
  0
LINE
  5
2FBE
330
18
100
AcDbEntity
  8
1
  6
Continuous
 48
0.25
100
AcDbLine
 10
348.6894060443331
 20
125.6130623365055
 30
0.0
 11
348.6913105131067
 21
125.6116355747605
 31
0.0
  0
LINE
  5
2FBF
330
18
100
AcDbEntity
  8
1
  6
Continuous
 48
0.25
100
AcDbLine
 10
348.6913105131067
 20
125.6116355747604
 30
0.0
 11
348.6932186140588
 21
125.6111596855514
 31
0.0
  0
LINE
  5
2FC0
330
18
100
AcDbEntity
  8
1
  6
Continuous
 48
0.25
100
AcDbLine
 10
388.9914598189053
 20
125.6111596855514
 30
0.0
 11
388.9933679198574
 21
125.6116355747605
 31
0.0
  0
LINE
  5
2FC1
330
18
100
AcDbEntity
  8
1
  6
Continuous
 48
0.25
100
AcDbLine
 10
388.9933679198575
 20
125.6116355747605
 30
0.0
 11
388.9952723886311
 21
125.6130623365055
 31
0.0
  0
ARC
  5
2FC2
330
18
100
AcDbEntity
  8
1
  6
Continuous
 48
0.25
100
AcDbCircle
 10
378.8423392166133
 20
123.4111596855276
 30
0.0
 40
2.5
100
AcDbArc
 50
66.42182152224356
 51
83.1078974225922
  0
ARC
  5
2FC3
330
18
100
AcDbEntity
  8
1
  6
Continuous
 48
0.25
100
AcDbCircle
 10
358.8423392163522
 20
123.4111596855276
 30
0.0
 40
2.5
100
AcDbArc
 50
96.89210257741109
 51
113.5781784777986
  0
ARC
  5
2FC4
330
18
100
AcDbEntity
  8
1
  6
Continuous
 48
0.25
100
AcDbCircle
 10
358.8423392163522
 20
123.4111596855276
 30
0.0
 40
1.0
100
AcDbArc
 50
90.0
 51
179.9999999995945
  0
ARC
  5
2FC5
330
18
100
AcDbEntity
  8
1
  6
Continuous
 48
0.25
100
AcDbCircle
 10
378.8423392166133
 20
123.4111596855276
 30
0.0
 40
1.0
100
AcDbArc
 50
0.0000000004038541
 51
90.0
  0
ARC
  5
2FC6
330
18
100
AcDbEntity
  8
1
  6
Continuous
 48
0.25
100
AcDbCircle
 10
378.1423392165213
 20
87.23494669182754
 30
0.0
 40
0.5000000000000119
100
AcDbArc
 50
179.9999999999902
 51
270.0
  0
ARC
  5
2FC7
330
18
100
AcDbEntity
  8
1
  6
Continuous
 48
0.25
100
AcDbCircle
 10
359.5423392165344
 20
87.23494669182754
 30
0.0
 40
0.5000000000000119
100
AcDbArc
 50
270.0
 51
0.0000000000113991
  0
ARC
  5
2FC8
330
18
100
AcDbEntity
  8
1
  6
Continuous
 48
0.25
100
AcDbCircle
 10
358.8427300815533
 20
103.0886690706365
 30
0.0
 40
16.35372238347991
100
AcDbArc
 50
232.2518527151675
 51
269.9986305919511
  0
ARC
  5
2FC9
330
18
100
AcDbEntity
  8
1
  6
Continuous
 48
0.25
100
AcDbCircle
 10
378.8419348807555
 20
103.0887086561768
 30
0.0
 40
16.35376196934781
100
AcDbArc
 50
270.00141659947
 51
307.7480841423441
  0
ARC
  5
2FCA
330
18
100
AcDbEntity
  8
1
  6
Continuous
 48
0.25
100
AcDbCircle
 10
359.5423392163962
 20
102.4111596852743
 30
0.0
 40
0.5
100
AcDbArc
 50
270.0
 51
0.0
  0
ARC
  5
2FCB
330
18
100
AcDbEntity
  8
1
  6
Continuous
 48
0.25
100
AcDbCircle
 10
378.1423392165677
 20
102.9111596852742
 30
0.0
 40
0.5
100
AcDbArc
 50
90.0
 51
180.0
  0
ARC
  5
2FCC
330
18
100
AcDbEntity
  8
1
  6
Continuous
 48
0.25
100
AcDbCircle
 10
378.1423392165677
 20
102.4111596852742
 30
0.0
 40
0.5
100
AcDbArc
 50
180.0
 51
270.0
  0
ARC
  5
2FCD
330
18
100
AcDbEntity
  8
1
  6
Continuous
 48
0.25
100
AcDbCircle
 10
359.5423392163962
 20
102.9111596852742
 30
0.0
 40
0.5
100
AcDbArc
 50
0.0
 51
90.0
  0
ARC
  5
2FCE
330
18
100
AcDbEntity
  8
1
  6
Continuous
 48
0.25
100
AcDbCircle
 10
359.5423392163994
 20
108.1111596852743
 30
0.0
 40
0.5
100
AcDbArc
 50
270.0
 51
0.0
  0
ARC
  5
2FCF
330
18
100
AcDbEntity
  8
1
  6
Continuous
 48
0.25
100
AcDbCircle
 10
359.5423392163994
 20
112.1111596852743
 30
0.0
 40
0.5
100
AcDbArc
 50
0.0
 51
90.0
  0
ARC
  5
2FD0
330
18
100
AcDbEntity
  8
1
  6
Continuous
 48
0.25
100
AcDbCircle
 10
378.1423392165641
 20
108.1111596852743
 30
0.0
 40
0.5
100
AcDbArc
 50
180.0
 51
270.0
  0
ARC
  5
2FD1
330
18
100
AcDbEntity
  8
1
  6
Continuous
 48
0.25
100
AcDbCircle
 10
378.1423392165641
 20
112.1111596852743
 30
0.0
 40
0.5
100
AcDbArc
 50
90.0
 51
180.0
  0
ARC
  5
2FD2
330
18
100
AcDbEntity
  8
1
  6
Continuous
 48
0.25
100
AcDbCircle
 10
383.4423392166629
 20
93.51115968539568
 30
0.0
 40
0.5
100
AcDbArc
 50
0.0
 51
89.99999999991208
  0
ARC
  5
2FD3
330
18
100
AcDbEntity
  8
1
  6
Continuous
 48
0.25
100
AcDbCircle
 10
354.2423392163929
 20
93.51115968539568
 30
0.0
 40
0.5
100
AcDbArc
 50
90.00000000008792
 51
180.0
  0
ARC
  5
2FD4
330
18
100
AcDbEntity
  8
1
  6
Continuous
 48
0.25
100
AcDbCircle
 10
378.1423392165228
 20
93.51115968540367
 30
0.0
 40
0.5
100
AcDbArc
 50
89.99999999991208
 51
179.9999999999886
  0
ARC
  5
2FD5
330
18
100
AcDbEntity
  8
1
  6
Continuous
 48
0.25
100
AcDbCircle
 10
359.5423392165332
 20
93.51115968540367
 30
0.0
 40
0.5
100
AcDbArc
 50
0.0000000000113991
 51
90.00000000008792
  0
ARC
  5
2FD6
330
18
100
AcDbEntity
  8
1
  6
Continuous
 48
0.25
100
AcDbCircle
 10
355.8423392164044
 20
126.6111596855459
 30
0.0
 40
0.5
100
AcDbArc
 50
0.0
 51
90.0
  0
ARC
  5
2FD7
330
18
100
AcDbEntity
  8
1
  6
Continuous
 48
0.25
100
AcDbCircle
 10
382.3423392165734
 20
129.611159685546
 30
0.0
 40
1.0
100
AcDbArc
 50
90.0
 51
180.0000000000016
  0
ARC
  5
2FD8
330
18
100
AcDbEntity
  8
1
  6
Continuous
 48
0.25
100
AcDbCircle
 10
354.8423392163123
 20
126.6111596855459
 30
0.0
 40
1.0
100
AcDbArc
 50
179.9999999999071
 51
270.0
  0
ARC
  5
2FD9
330
18
100
AcDbEntity
  8
1
  6
Continuous
 48
0.25
100
AcDbCircle
 10
355.3423392164043
 20
126.6111596855459
 30
0.0
 40
1.0
100
AcDbArc
 50
270.0
 51
0.0
  0
ARC
  5
2FDA
330
18
100
AcDbEntity
  8
1
  6
Continuous
 48
0.25
100
AcDbCircle
 10
382.8423392166465
 20
129.6111596855459
 30
0.0
 40
1.0
100
AcDbArc
 50
0.0000000000928213
 51
89.99999999998697
  0
ARC
  5
2FDB
330
18
100
AcDbEntity
  8
1
  6
Continuous
 48
0.25
100
AcDbCircle
 10
388.3431910979958
 20
128.6109899087087
 30
0.0
 40
41.15380591075602
100
AcDbArc
 50
163.3542928379154
 51
180.0465608345686
  0
ARC
  5
2FDC
330
18
100
AcDbEntity
  8
1
  6
Continuous
 48
0.25
100
AcDbCircle
 10
381.8423392165592
 20
126.6111596855459
 30
0.0
 40
0.5
100
AcDbArc
 50
90.0
 51
180.0
  0
ARC
  5
2FDD
330
18
100
AcDbEntity
  8
1
  6
Continuous
 48
0.25
100
AcDbCircle
 10
385.6413112678415
 20
96.78251971049515
 30
0.0
 40
38.45191497157651
100
AcDbArc
 50
179.9794208975695
 51
181.7384124102341
  0
ARC
  5
2FDE
330
18
100
AcDbEntity
  8
1
  6
Continuous
 48
0.25
100
AcDbCircle
 10
386.0423392166467
 20
129.6111596855459
 30
0.0
 40
1.0
100
AcDbArc
 50
90.0
 51
180.0000000000911
  0
ARC
  5
2FDF
330
18
100
AcDbEntity
  8
1
  6
Continuous
 48
0.25
100
AcDbCircle
 10
329.3214016679442
 20
114.4653014309276
 30
0.0
 40
60.32560571519108
100
AcDbArc
 50
30.4236868493806
 51
31.34532576973326
  0
ARC
  5
2FE0
330
18
100
AcDbEntity
  8
1
  6
Continuous
 48
0.25
100
AcDbCircle
 10
382.3423392165592
 20
126.6111596855459
 30
0.0
 40
1.0
100
AcDbArc
 50
180.0
 51
270.0
  0
ARC
  5
2FE1
330
18
100
AcDbEntity
  8
1
  6
Continuous
 48
0.25
100
AcDbCircle
 10
351.6423392163122
 20
126.6111596855484
 30
0.0
 40
1.0
100
AcDbArc
 50
269.9999999999381
 51
359.9999999999088
  0
ARC
  5
2FE2
330
18
100
AcDbEntity
  8
1
  6
Continuous
 48
0.25
100
AcDbCircle
 10
351.9475042670148
 20
96.78395689154049
 30
0.0
 40
38.5477773753921
100
AcDbArc
 50
358.2637749318323
 51
0.0183917603601962
  0
ARC
  5
2FE3
330
18
100
AcDbEntity
  8
1
  6
Continuous
 48
0.25
100
AcDbCircle
 10
312.8429186777351
 20
50.57207737331264
 30
0.0
 40
110.4421231043627
100
AcDbArc
 50
46.06999718630647
 51
46.44372622139806
  0
ARC
  5
2FE4
330
18
100
AcDbEntity
  8
1
  6
Continuous
 48
0.25
100
AcDbCircle
 10
431.886303499234
 20
63.46634683938248
 30
0.0
 40
97.38966703415629
100
AcDbArc
 50
121.95512925455
 51
122.3011583470643
  0
ARC
  5
2FE5
330
18
100
AcDbEntity
  8
1
  6
Continuous
 48
0.25
100
AcDbCircle
 10
355.3423392163903
 20
129.611159685546
 30
0.0
 40
1.0
100
AcDbArc
 50
359.9999999999984
 51
90.0
  0
ARC
  5
2FE7
330
18
100
AcDbEntity
  8
1
  6
Continuous
 48
0.25
100
AcDbCircle
 10
368.8423392164818
 20
122.6110134982738
 30
0.0
 40
27.15304689932813
100
AcDbArc
 50
45.95683596184314
 51
134.0431635580744
  0
ARC
  5
2FE8
330
18
100
AcDbEntity
  8
1
  6
Continuous
 48
0.25
100
AcDbCircle
 10
386.0423392166516
 20
126.6111596855484
 30
0.0
 40
1.0
100
AcDbArc
 50
180.0000000000911
 51
270.0000000000619
  0
ARC
  5
2FE9
330
18
100
AcDbEntity
  8
1
  6
Continuous
 48
0.25
100
AcDbCircle
 10
424.8415572319413
 20
50.57232832829075
 30
0.0
 40
110.441801073911
100
AcDbArc
 50
133.5562870144267
 51
133.9300170456521
  0
ARC
  5
2FEA
330
18
100
AcDbEntity
  8
1
  6
Continuous
 48
0.25
100
AcDbCircle
 10
349.3413638162388
 20
128.6109652919225
 30
0.0
 40
41.15393139987571
100
AcDbArc
 50
359.9501755917513
 51
16.6456887087186
  0
ARC
  5
2FEB
330
18
100
AcDbEntity
  8
1
  6
Continuous
 48
0.25
100
AcDbCircle
 10
354.8423392163172
 20
129.6111596855459
 30
0.0
 40
1.0
100
AcDbArc
 50
90.00000000001303
 51
179.9999999999071
  0
ARC
  5
2FEC
330
18
100
AcDbEntity
  8
1
  6
Continuous
 48
0.25
100
AcDbCircle
 10
382.8423392166514
 20
126.6111596855459
 30
0.0
 40
1.0
100
AcDbArc
 50
270.0
 51
0.0000000000928213
  0
ARC
  5
2FED
330
18
100
AcDbEntity
  8
1
  6
Continuous
 48
0.25
100
AcDbCircle
 10
305.7983749122983
 20
63.4663468052386
 30
0.0
 40
97.3896670744687
100
AcDbArc
 50
57.69884165301249
 51
58.04487074538418
  0
ARC
  5
2FEE
330
18
100
AcDbEntity
  8
1
  6
Continuous
 48
0.25
100
AcDbCircle
 10
355.8423392163903
 20
129.6111596855459
 30
0.0
 40
0.5
100
AcDbArc
 50
270.0
 51
0.0000000000097707
  0
ARC
  5
2FEF
330
18
100
AcDbEntity
  8
1
  6
Continuous
 48
0.25
100
AcDbCircle
 10
408.363276767201
 20
114.4653014296226
 30
0.0
 40
60.32560571773301
100
AcDbArc
 50
148.6546742302866
 51
149.5763131506012
  0
ARC
  5
2FF1
330
18
100
AcDbEntity
  8
1
  6
Continuous
 48
0.25
100
AcDbCircle
 10
351.642339216317
 20
129.6111596855459
 30
0.0
 40
1.0
100
AcDbArc
 50
359.9999999999088
 51
90.0
  0
ARC
  5
2FF2
330
18
100
AcDbEntity
  8
1
  6
Continuous
 48
0.25
100
AcDbCircle
 10
381.8423392165734
 20
129.6111596855459
 30
0.0
 40
0.5
100
AcDbArc
 50
179.9999999999902
 51
270.0
  0
ARC
  5
2FF3
330
18
100
AcDbEntity
  8
1
  6
Continuous
 48
0.25
100
AcDbCircle
 10
380.1423392165668
 20
102.9111596852742
 30
0.0
 40
0.5
100
AcDbArc
 50
0.0
 51
90.0
  0
ARC
  5
2FF4
330
18
100
AcDbEntity
  8
1
  6
Continuous
 48
0.25
100
AcDbCircle
 10
357.5423392163969
 20
102.4111596852743
 30
0.0
 40
0.5
100
AcDbArc
 50
180.0
 51
270.0
  0
ARC
  5
2FF5
330
18
100
AcDbEntity
  8
1
  6
Continuous
 48
0.25
100
AcDbCircle
 10
357.5423392163969
 20
102.9111596852742
 30
0.0
 40
0.5
100
AcDbArc
 50
90.0
 51
179.9999999999984
  0
ARC
  5
2FF6
330
18
100
AcDbEntity
  8
1
  6
Continuous
 48
0.25
100
AcDbCircle
 10
380.1423392165668
 20
102.4111596852743
 30
0.0
 40
0.5
100
AcDbArc
 50
270.0
 51
359.9999999999935
  0
ARC
  5
2FF7
330
18
100
AcDbEntity
  8
1
  6
Continuous
 48
0.25
100
AcDbCircle
 10
357.5423392164012
 20
112.1111596852743
 30
0.0
 40
0.5
100
AcDbArc
 50
90.0
 51
180.0
  0
ARC
  5
2FF8
330
18
100
AcDbEntity
  8
1
  6
Continuous
 48
0.25
100
AcDbCircle
 10
380.1423392165627
 20
112.1111596852743
 30
0.0
 40
0.5
100
AcDbArc
 50
0.0
 51
90.0
  0
ARC
  5
2FF9
330
18
100
AcDbEntity
  8
1
  6
Continuous
 48
0.25
100
AcDbCircle
 10
380.1423392165627
 20
108.1111596852743
 30
0.0
 40
0.5
100
AcDbArc
 50
270.0
 51
359.9999999999984
  0
ARC
  5
2FFA
330
18
100
AcDbEntity
  8
1
  6
Continuous
 48
0.25
100
AcDbCircle
 10
357.5423392164012
 20
108.1111596852743
 30
0.0
 40
0.5
100
AcDbArc
 50
180.0
 51
270.0
  0
ARC
  5
2FFB
330
18
100
AcDbEntity
  8
1
  6
Continuous
 48
0.25
100
AcDbCircle
 10
349.3413638162388
 20
128.6109652919225
 30
0.0
 40
39.69385589409534
100
AcDbArc
 50
359.9492686837338
 51
0.7220207151544856
  0
ARC
  5
2FFC
330
18
100
AcDbEntity
  8
1
  6
Continuous
 48
0.25
100
AcDbCircle
 10
388.3431910979958
 20
128.6109899087087
 30
0.0
 40
39.69373040497563
100
AcDbArc
 50
179.278012537941
 51
180.0474105332348
  0
LINE
  5
2FFD
330
18
100
AcDbEntity
  8
1
  6
Continuous
 48
0.25
100
AcDbLine
 10
377.6423392166921
 20
121.2781294072016
 30
0.0
 11
377.6423392167207
 21
119.1441899634374
 31
0.0
  0
LINE
  5
2FFE
330
18
100
AcDbEntity
  8
1
  6
Continuous
 48
0.25
100
AcDbLine
 10
360.0423392163384
 20
119.1441899628589
 30
0.0
 11
360.0423392163538
 21
121.2781294075065
 31
0.0
  0
LINE
  5
2FFF
330
18
100
AcDbEntity
  8
1
  6
Continuous
 48
0.25
100
AcDbLine
 10
359.1302066658108
 20
115.2818316656247
 30
0.0
 11
360.0423392163039
 21
114.4111596856558
 31
0.0
  0
LINE
  5
3000
330
18
100
AcDbEntity
  8
1
  6
Continuous
 48
0.25
100
AcDbLine
 10
379.1423392165394
 20
137.6111596855334
 30
0.0
 11
379.1423392165395
 21
137.6519929501293
 31
0.0
  0
LINE
  5
3001
330
18
100
AcDbEntity
  8
1
  6
Continuous
 48
0.25
100
AcDbLine
 10
379.1423392165294
 20
125.893094414736
 30
0.0
 11
379.1423392165324
 21
129.4111596855327
 31
0.0
  0
LINE
  5
3002
330
18
100
AcDbEntity
  8
1
  6
Continuous
 48
0.25
100
AcDbLine
 10
358.5423392164325
 20
129.4111596855327
 30
0.0
 11
358.542339216436
 21
125.893094414736
 31
0.0
  0
LINE
  5
3003
330
18
100
AcDbEntity
  8
1
  6
Continuous
 48
0.25
100
AcDbLine
 10
358.542339216424
 20
137.6519929501293
 30
0.0
 11
358.5423392164241
 21
137.6111596855334
 31
0.0
  0
LINE
  5
3004
330
18
100
AcDbEntity
  8
1
  6
Continuous
 48
0.25
100
AcDbLine
 10
360.0390021710228
 20
113.6111596852409
 30
0.0
 11
360.042339216298
 21
113.6111596852409
 31
0.0
  0
LINE
  5
3005
330
18
100
AcDbEntity
  8
1
  6
Continuous
 48
0.25
100
AcDbLine
 10
359.6069235663333
 20
124.4111596855276
 30
0.0
 11
358.8423392163522
 21
124.4111596855276
 31
0.0
  0
LINE
  5
3006
330
18
100
AcDbEntity
  8
1
  6
Continuous
 48
0.25
100
AcDbLine
 10
360.0423392163805
 20
124.9441899630668
 30
0.0
 11
360.0423392164131
 21
129.4111596855327
 31
0.0
  0
LINE
  5
3007
330
18
100
AcDbEntity
  8
1
  6
Continuous
 48
0.25
100
AcDbLine
 10
377.6423392165829
 20
129.4111596855327
 30
0.0
 11
377.6423392166428
 21
124.9441899633871
 31
0.0
  0
LINE
  5
3008
330
18
100
AcDbEntity
  8
1
  6
Continuous
 48
0.25
100
AcDbLine
 10
378.8423392166133
 20
124.4111596855276
 30
0.0
 11
378.0777548670369
 21
124.4111596855276
 31
0.0
  0
LINE
  5
3009
330
18
100
AcDbEntity
  8
1
  6
Continuous
 48
0.25
100
AcDbLine
 10
377.6423392167842
 20
114.4111596857728
 30
0.0
 11
378.5544717671498
 21
115.2818316656202
 31
0.0
  0
LINE
  5
300A
330
18
100
AcDbEntity
  8
1
  6
Continuous
 48
0.25
100
AcDbLine
 10
377.642339216795
 20
113.6111596852409
 30
0.0
 11
377.6456762619408
 21
113.6111596852409
 31
0.0
  0
LINE
  5
300B
330
18
100
AcDbEntity
  8
1
  6
Continuous
 48
0.25
100
AcDbLine
 10
383.9423392163288
 20
120.1111596852743
 30
0.0
 11
381.3423392166365
 21
120.1111596852743
 31
0.0
  0
LINE
  5
300C
330
18
100
AcDbEntity
  8
1
  6
Continuous
 48
0.25
100
AcDbLine
 10
356.3423392163272
 20
120.1111596852743
 30
0.0
 11
353.7423392163288
 21
120.1111596852743
 31
0.0
  0
LINE
  5
300D
330
18
100
AcDbEntity
  8
1
  6
Continuous
 48
0.25
100
AcDbLine
 10
353.7423392163288
 20
121.6111596852743
 30
0.0
 11
356.3423392163378
 21
121.6111596852743
 31
0.0
  0
LINE
  5
300E
330
18
100
AcDbEntity
  8
1
  6
Continuous
 48
0.25
100
AcDbLine
 10
381.342339216626
 20
121.6111596852743
 30
0.0
 11
383.9423392163288
 21
121.6111596852743
 31
0.0
  0
LINE
  5
3010
330
18
100
AcDbEntity
  8
1
  6
Continuous
 48
0.25
100
AcDbLine
 10
387.4200859227925
 20
101.9111596852743
 30
0.0
 11
388.2127288875854
 21
101.9111596852743
 31
0.0
  0
LINE
  5
3011
330
18
100
AcDbEntity
  8
1
  6
Continuous
 48
0.25
100
AcDbLine
 10
388.2127288875856
 20
103.4111596852742
 30
0.0
 11
387.2969490505751
 21
103.4111596852742
 31
0.0
  0
LINE
  5
3012
330
18
100
AcDbEntity
  8
1
  6
Continuous
 48
0.25
100
AcDbLine
 10
350.5296202041433
 20
110.8111596852743
 30
0.0
 11
349.4719495453767
 21
110.8111596852743
 31
0.0
  0
LINE
  5
3013
330
18
100
AcDbEntity
  8
1
  6
Continuous
 48
0.25
100
AcDbLine
 10
388.2127288875862
 20
110.8111596852743
 30
0.0
 11
387.4400772592437
 21
110.8111596852743
 31
0.0
  0
LINE
  5
3014
330
18
100
AcDbEntity
  8
1
  6
Continuous
 48
0.25
100
AcDbLine
 10
349.4719495453767
 20
101.9111596852743
 30
0.0
 11
350.3707011607671
 21
101.9111596852743
 31
0.0
  0
LINE
  5
3015
330
18
100
AcDbEntity
  8
1
  6
Continuous
 48
0.25
100
AcDbLine
 10
350.257933004269
 20
103.4111596852742
 30
0.0
 11
349.4719495453767
 21
103.4111596852742
 31
0.0
  0
LINE
  5
3016
330
18
100
AcDbEntity
  8
1
  6
Continuous
 48
0.25
100
AcDbLine
 10
357.0423392163968
 20
110.8111596852743
 30
0.0
 11
356.240077259244
 21
110.8111596852743
 31
0.0
  0
LINE
  5
3017
330
18
100
AcDbEntity
  8
1
  6
Continuous
 48
0.25
100
AcDbLine
 10
381.7296202041433
 20
110.8111596852743
 30
0.0
 11
380.6423392165669
 21
110.8111596852743
 31
0.0
  0
LINE
  5
3018
330
18
100
AcDbEntity
  8
1
  6
Continuous
 48
0.25
100
AcDbLine
 10
358.5423392164241
 20
137.6519929501293
 30
0.0
 11
379.1423392165395
 21
137.6519929501293
 31
0.0
  0
LINE
  5
3019
330
18
100
AcDbEntity
  8
1
  6
Continuous
 48
0.25
100
AcDbLine
 10
358.8423392164806
 20
86.73494669182753
 30
0.0
 11
359.5423392165344
 21
86.73494669182753
 31
0.0
  0
LINE
  5
301A
330
18
100
AcDbEntity
  8
1
  6
Continuous
 48
0.25
100
AcDbLine
 10
378.1423392165213
 20
86.73494669182753
 30
0.0
 11
378.8423392164807
 21
86.73494669182753
 31
0.0
  0
LINE
  5
301B
330
18
100
AcDbEntity
  8
1
  6
Continuous
 48
0.25
100
AcDbLine
 10
390.4028892226417
 20
93.19701041186741
 30
0.0
 11
390.4775845102629
 21
95.61602837065541
 31
0.0
  0
LINE
  5
301C
330
18
100
AcDbEntity
  8
1
  6
Continuous
 48
0.25
100
AcDbLine
 10
347.2070939226971
 20
95.61602837065663
 30
0.0
 11
347.2817892087746
 21
93.19701046185697
 31
0.0
  0
LINE
  5
301D
330
18
100
AcDbEntity
  8
1
  6
Continuous
 48
0.25
100
AcDbLine
 10
358.5423392165329
 20
92.51115968540222
 30
0.0
 11
358.5423392165313
 21
88.16672097484286
 31
0.0
  0
LINE
  5
301E
330
18
100
AcDbEntity
  8
1
  6
Continuous
 48
0.25
100
AcDbLine
 10
355.2423392163928
 20
92.51115968539719
 30
0.0
 11
355.2423392163928
 21
88.60532759592439
 31
0.0
  0
LINE
  5
301F
330
18
100
AcDbEntity
  8
1
  6
Continuous
 48
0.25
100
AcDbLine
 10
358.5423392165329
 20
92.51115968540222
 30
0.0
 11
355.2423392163927
 21
92.51115968539734
 31
0.0
  0
LINE
  5
3020
330
18
100
AcDbEntity
  8
1
  6
Continuous
 48
0.25
100
AcDbLine
 10
379.1423392165246
 20
88.16672097484469
 30
0.0
 11
379.1423392165231
 21
92.51115968540227
 31
0.0
  0
LINE
  5
3021
330
18
100
AcDbEntity
  8
1
  6
Continuous
 48
0.25
100
AcDbLine
 10
379.1423392165229
 20
92.51115968540227
 30
0.0
 11
382.442339216663
 21
92.51115968539734
 31
0.0
  0
LINE
  5
3022
330
18
100
AcDbEntity
  8
1
  6
Continuous
 48
0.25
100
AcDbLine
 10
382.442339216663
 20
92.51115968539734
 30
0.0
 11
382.442339216663
 21
88.60532759594788
 31
0.0
  0
LINE
  5
3023
330
18
100
AcDbEntity
  8
1
  6
Continuous
 48
0.25
100
AcDbLine
 10
353.8423392163123
 20
126.6111596855475
 30
0.0
 11
353.8423392163172
 21
129.6111596855475
 31
0.0
  0
LINE
  5
3024
330
18
100
AcDbEntity
  8
1
  6
Continuous
 48
0.25
100
AcDbLine
 10
355.3423392163131
 20
127.1111596855459
 30
0.0
 11
355.8423392164044
 21
127.1111596855459
 31
0.0
  0
LINE
  5
3025
330
18
100
AcDbEntity
  8
1
  6
Continuous
 48
0.25
100
AcDbLine
 10
355.3423392164043
 20
125.6111596855459
 30
0.0
 11
354.8423392163123
 21
125.6111596855459
 31
0.0
  0
LINE
  5
3026
330
18
100
AcDbEntity
  8
1
  6
Continuous
 48
0.25
100
AcDbLine
 10
354.8423392163122
 20
126.6111596855458
 30
0.0
 11
355.342339216313
 21
127.1111596855458
 31
0.0
  0
LINE
  5
3027
330
18
100
AcDbEntity
  8
1
  6
Continuous
 48
0.25
100
AcDbLine
 10
355.3423392163164
 20
129.1111596855459
 30
0.0
 11
355.3423392163131
 21
127.1111596855459
 31
0.0
  0
LINE
  5
3028
330
18
100
AcDbEntity
  8
1
  6
Continuous
 48
0.25
100
AcDbLine
 10
388.9409922146609
 20
130.6111596855459
 30
0.0
 11
388.9449056929725
 21
130.6092570345918
 31
0.0
  0
LINE
  5
3029
330
18
100
AcDbEntity
  8
1
  6
Continuous
 48
0.25
100
AcDbLine
 10
386.0423392166467
 20
130.6111596855459
 30
0.0
 11
388.9409922146609
 21
130.6111596855459
 31
0.0
  0
LINE
  5
302A
330
18
100
AcDbEntity
  8
1
  6
Continuous
 48
0.25
100
AcDbLine
 10
382.8423392166514
 20
125.6111596855459
 30
0.0
 11
382.3423392165592
 21
125.6111596855459
 31
0.0
  0
LINE
  5
302B
330
18
100
AcDbEntity
  8
1
  6
Continuous
 48
0.25
100
AcDbLine
 10
381.3404365656645
 20
145.01360274564
 30
0.0
 11
381.3423392166186
 21
145.0081751234346
 31
0.0
  0
LINE
  5
302C
330
18
100
AcDbEntity
  8
1
  6
Continuous
 48
0.25
100
AcDbLine
 10
385.0423392166514
 20
126.6111596855468
 30
0.0
 11
385.0423392166467
 21
129.6111596855443
 31
0.0
  0
LINE
  5
302D
330
18
100
AcDbEntity
  8
1
  6
Continuous
 48
0.25
100
AcDbLine
 10
351.6423392163112
 20
125.6111596855484
 30
0.0
 11
348.6932186140588
 21
125.6111596855514
 31
0.0
  0
LINE
  5
302E
330
18
100
AcDbEntity
  8
1
  6
Continuous
 48
0.25
100
AcDbLine
 10
354.8423392163173
 20
129.6111596855458
 30
0.0
 11
355.3423392163164
 21
129.1111596855458
 31
0.0
  0
LINE
  5
302F
330
18
100
AcDbEntity
  8
1
  6
Continuous
 48
0.25
100
AcDbLine
 10
355.8423392163903
 20
129.1111596855459
 30
0.0
 11
355.3423392163164
 21
129.1111596855459
 31
0.0
  0
LINE
  5
3030
330
18
100
AcDbEntity
  8
1
  6
Continuous
 48
0.25
100
AcDbLine
 10
382.3423392165734
 20
130.611159685546
 30
0.0
 11
382.8423392166468
 21
130.6111596855459
 31
0.0
  0
LINE
  5
3031
330
18
100
AcDbEntity
  8
1
  6
Continuous
 48
0.25
100
AcDbLine
 10
383.8423392166465
 20
129.6111596855475
 30
0.0
 11
383.8423392166513
 21
126.6111596855475
 31
0.0
  0
LINE
  5
3032
330
18
100
AcDbEntity
  8
1
  6
Continuous
 48
0.25
100
AcDbLine
 10
379.8423392166187
 20
145.7817460905786
 30
0.0
 11
379.8442418675728
 21
145.7850632175562
 31
0.0
  0
LINE
  5
3033
330
18
100
AcDbEntity
  8
1
  6
Continuous
 48
0.25
100
AcDbLine
 10
381.3423392166186
 20
140.9111596854989
 30
0.0
 11
380.8423392166186
 21
141.4111596854989
 31
0.0
  0
LINE
  5
3034
330
18
100
AcDbEntity
  8
1
  6
Continuous
 48
0.25
100
AcDbLine
 10
380.3423392166187
 20
141.4111596854988
 30
0.0
 11
379.8423392166187
 21
140.9111596854988
 31
0.0
  0
LINE
  5
3035
330
18
100
AcDbEntity
  8
1
  6
Continuous
 48
0.25
100
AcDbLine
 10
381.3423392166186
 20
140.9111596854989
 30
0.0
 11
379.8423392166187
 21
140.9111596854989
 31
0.0
  0
LINE
  5
3036
330
18
100
AcDbEntity
  8
1
  6
Continuous
 48
0.25
100
AcDbLine
 10
354.8423392163169
 20
130.6111596855459
 30
0.0
 11
355.3423392163903
 21
130.611159685546
 31
0.0
  0
LINE
  5
3037
330
18
100
AcDbEntity
  8
1
  6
Continuous
 48
0.25
100
AcDbLine
 10
348.6894060443331
 20
125.6130623365057
 30
0.0
 11
348.1913086952872
 21
126.1111596855521
 31
0.0
  0
LINE
  5
3038
330
18
100
AcDbEntity
  8
1
  6
Continuous
 48
0.25
100
AcDbLine
 10
347.1893987765156
 20
128.5775466891492
 30
0.0
 11
347.1893987765156
 21
96.79633060348818
 31
0.0
  0
LINE
  5
3039
330
18
100
AcDbEntity
  8
1
  6
Continuous
 48
0.25
100
AcDbLine
 10
348.7436871052716
 20
130.6111596855459
 30
0.0
 11
351.642339216317
 21
130.6111596855459
 31
0.0
  0
LINE
  5
303A
330
18
100
AcDbEntity
  8
1
  6
Continuous
 48
0.25
100
AcDbLine
 10
348.7397736279298
 20
130.6092570345917
 30
0.0
 11
348.7436871052716
 21
130.6111596855458
 31
0.0
  0
LINE
  5
303B
330
18
100
AcDbEntity
  8
1
  6
Continuous
 48
0.25
100
AcDbLine
 10
352.6423392163169
 20
129.6111596855443
 30
0.0
 11
352.6423392163122
 21
126.6111596855468
 31
0.0
  0
LINE
  5
303C
330
18
100
AcDbEntity
  8
1
  6
Continuous
 48
0.25
100
AcDbLine
 10
357.8404365653909
 20
145.7850632175562
 30
0.0
 11
357.842339216345
 21
145.7817460905761
 31
0.0
  0
LINE
  5
303D
330
18
100
AcDbEntity
  8
1
  6
Continuous
 48
0.25
100
AcDbLine
 10
357.842339216345
 20
140.9111596854989
 30
0.0
 11
357.342339216345
 21
141.4111596854989
 31
0.0
  0
LINE
  5
303E
330
18
100
AcDbEntity
  8
1
  6
Continuous
 48
0.25
100
AcDbLine
 10
357.842339216345
 20
140.9111596854989
 30
0.0
 11
356.3423392163449
 21
140.9111596854989
 31
0.0
  0
LINE
  5
303F
330
18
100
AcDbEntity
  8
1
  6
Continuous
 48
0.25
100
AcDbLine
 10
381.8423392165592
 20
127.1111596855459
 30
0.0
 11
382.3423392166506
 21
127.1111596855459
 31
0.0
  0
LINE
  5
3040
330
18
100
AcDbEntity
  8
1
  6
Continuous
 48
0.25
100
AcDbLine
 10
382.3423392166473
 20
129.1111596855459
 30
0.0
 11
381.8423392165734
 21
129.1111596855459
 31
0.0
  0
LINE
  5
3041
330
18
100
AcDbEntity
  8
1
  6
Continuous
 48
0.25
100
AcDbLine
 10
388.9914598189053
 20
125.6111596855514
 30
0.0
 11
386.0423392166524
 21
125.6111596855484
 31
0.0
  0
LINE
  5
3042
330
18
100
AcDbEntity
  8
1
  6
Continuous
 48
0.25
100
AcDbLine
 10
389.4933697376769
 20
126.111159685552
 30
0.0
 11
388.995272388631
 21
125.6130623365057
 31
0.0
  0
LINE
  5
3043
330
18
100
AcDbEntity
  8
1
  6
Continuous
 48
0.25
100
AcDbLine
 10
356.3423392163451
 20
145.0081751234346
 30
0.0
 11
356.3442418672993
 21
145.01360274564
 31
0.0
  0
LINE
  5
3044
330
18
100
AcDbEntity
  8
1
  6
Continuous
 48
0.25
100
AcDbLine
 10
356.8423392163449
 20
141.4111596854989
 30
0.0
 11
356.3423392163449
 21
140.9111596854989
 31
0.0
  0
LINE
  5
3045
330
18
100
AcDbEntity
  8
1
  6
Continuous
 48
0.25
100
AcDbLine
 10
382.8423392166465
 20
129.6111596855459
 30
0.0
 11
382.3423392166473
 21
129.1111596855458
 31
0.0
  0
LINE
  5
3046
330
18
100
AcDbEntity
  8
1
  6
Continuous
 48
0.25
100
AcDbLine
 10
382.3423392166505
 20
127.1111596855458
 30
0.0
 11
382.3423392166473
 21
129.1111596855458
 31
0.0
  0
LINE
  5
3047
330
18
100
AcDbEntity
  8
1
  6
Continuous
 48
0.25
100
AcDbLine
 10
382.8423392166513
 20
126.6111596855457
 30
0.0
 11
382.3423392166505
 21
127.1111596855458
 31
0.0
  0
LINE
  5
3048
330
18
100
AcDbEntity
  8
1
  6
Continuous
 48
0.25
100
AcDbLine
 10
357.0423392163968
 20
102.4111596852743
 30
0.0
 11
357.0423392163968
 21
102.9111596852742
 31
0.0
  0
LINE
  5
3049
330
18
100
AcDbEntity
  8
1
  6
Continuous
 48
0.25
100
AcDbLine
 10
380.6423392165669
 20
102.9111596852742
 30
0.0
 11
380.6423392165669
 21
102.4111596852742
 31
0.0
  0
LINE
  5
304A
330
18
100
AcDbEntity
  8
1
  6
Continuous
 48
0.25
100
AcDbLine
 10
380.6423392165627
 20
112.1111596852743
 30
0.0
 11
380.6423392165627
 21
108.1111596852743
 31
0.0
  0
LINE
  5
304B
330
18
100
AcDbEntity
  8
1
  6
Continuous
 48
0.25
100
AcDbLine
 10
357.0423392164012
 20
108.1111596852743
 30
0.0
 11
357.0423392164012
 21
112.1111596852743
 31
0.0
  0
LINE
  5
304C
330
18
100
AcDbEntity
  8
1
  6
Continuous
 48
0.25
100
AcDbLine
 10
351.1423392163163
 20
129.1111596855459
 30
0.0
 11
348.6526120689966
 21
129.1111596855459
 31
0.0
  0
LINE
  5
304D
330
18
100
AcDbEntity
  8
1
  6
Continuous
 48
0.25
100
AcDbLine
 10
351.142339216313
 20
127.1111596855489
 30
0.0
 11
351.1423392163163
 21
129.1111596855459
 31
0.0
  0
LINE
  5
304E
330
18
100
AcDbEntity
  8
1
  6
Continuous
 48
0.25
100
AcDbLine
 10
348.6494742822959
 20
127.1111596855495
 30
0.0
 11
351.142339216313
 21
127.1111596855489
 31
0.0
  0
LINE
  5
304F
330
18
100
AcDbEntity
  8
1
  6
Continuous
 48
0.25
100
AcDbLine
 10
386.5423392166474
 20
129.1111596855459
 30
0.0
 11
389.0320680341006
 21
129.1111596855458
 31
0.0
  0
LINE
  5
3050
330
18
100
AcDbEntity
  8
1
  6
Continuous
 48
0.25
100
AcDbLine
 10
389.0352041506683
 20
127.1111596855495
 30
0.0
 11
386.5423392166507
 21
127.1111596855489
 31
0.0
  0
LINE
  5
3051
330
18
100
AcDbEntity
  8
1
  6
Continuous
 48
0.25
100
AcDbLine
 10
386.5423392166507
 20
127.1111596855489
 30
0.0
 11
386.5423392166474
 21
129.1111596855459
 31
0.0
  0
LINE
  5
3052
330
18
100
AcDbEntity
  8
1
  6
Continuous
 48
0.25
100
AcDbLine
 10
348.6494742822959
 20
128.5781445451259
 30
0.0
 11
348.6494742822959
 21
127.1111596855495
 31
0.0
  0
LINE
  5
3053
330
18
100
AcDbEntity
  8
1
  6
Continuous
 48
0.25
100
AcDbLine
 10
389.0352041506683
 20
127.1111596855494
 30
0.0
 11
389.0352041506684
 21
128.5758192251236
 31
0.0
  0
LINE
  5
3054
330
18
100
AcDbEntity
  8
1
  6
Continuous
 48
0.25
100
AcDbLine
 10
385.4423392164832
 20
132.8611596855808
 30
0.0
 11
385.4423392164832
 21
139.3611596855808
 31
0.0
  0
LINE
  5
3055
330
18
100
AcDbEntity
  8
1
  6
Continuous
 48
0.25
100
AcDbLine
 10
385.4423392164818
 20
139.3611596855808
 30
0.0
 11
384.9423392164818
 21
139.3611596855808
 31
0.0
  0
LINE
  5
3056
330
18
100
AcDbEntity
  8
1
  6
Continuous
 48
0.25
100
AcDbLine
 10
384.9423392164818
 20
132.8611596855808
 30
0.0
 11
385.4423392164818
 21
132.8611596855808
 31
0.0
  0
LINE
  5
3057
330
18
100
AcDbEntity
  8
1
  6
Continuous
 48
0.25
100
AcDbLine
 10
352.2423392164804
 20
139.3611596855808
 30
0.0
 11
352.2423392164804
 21
132.8611596855808
 31
0.0
  0
LINE
  5
3058
330
18
100
AcDbEntity
  8
1
  6
Continuous
 48
0.25
100
AcDbLine
 10
352.2423392164818
 20
132.8611596855808
 30
0.0
 11
352.7423392164818
 21
132.8611596855808
 31
0.0
  0
LINE
  5
3059
330
18
100
AcDbEntity
  8
1
  6
Continuous
 48
0.25
100
AcDbLine
 10
352.7423392164818
 20
139.3611596855808
 30
0.0
 11
352.2423392164818
 21
139.3611596855808
 31
0.0
  0
ARC
  5
305A
330
18
100
AcDbEntity
  8
1
  6
Continuous
 48
0.25
100
AcDbCircle
 10
352.8673392164107
 20
136.1111596855808
 30
0.0
 40
1.624999999928939
100
AcDbArc
 50
112.6198649463699
 51
247.3801350536302
  0
ARC
  5
305B
330
18
100
AcDbEntity
  8
1
  6
Continuous
 48
0.25
100
AcDbCircle
 10
384.8173392165529
 20
136.1111596855808
 30
0.0
 40
1.624999999928939
100
AcDbArc
 50
292.6198649463698
 51
67.38013505363007
  0
LINE
  5
305C
330
18
100
AcDbEntity
  8
1
  6
Continuous
 48
0.25
100
AcDbLine
 10
381.3423392166417
 20
134.6111596856282
 30
0.0
 11
383.9423392163288
 21
134.6111596856282
 31
0.0
  0
LINE
  5
305D
330
18
100
AcDbEntity
  8
1
  6
Continuous
 48
0.25
100
AcDbLine
 10
357.8423392164268
 20
134.6111596856282
 30
0.0
 11
379.8423392165369
 21
134.6111596856282
 31
0.0
  0
LINE
  5
305E
330
18
100
AcDbEntity
  8
1
  6
Continuous
 48
0.25
100
AcDbLine
 10
353.7423392163288
 20
134.6111596856282
 30
0.0
 11
356.3423392164644
 21
134.6111596856282
 31
0.0
  0
LINE
  5
305F
330
18
100
AcDbEntity
  8
1
  6
Continuous
 48
0.25
100
AcDbLine
 10
356.3423392163458
 20
137.6111596855334
 30
0.0
 11
353.7423392163288
 21
137.6111596855334
 31
0.0
  0
LINE
  5
3060
330
18
100
AcDbEntity
  8
1
  6
Continuous
 48
0.25
100
AcDbLine
 10
379.8423392165257
 20
137.6111596855334
 30
0.0
 11
357.8423392164379
 21
137.6111596855334
 31
0.0
  0
LINE
  5
3061
330
18
100
AcDbEntity
  8
1
  6
Continuous
 48
0.25
100
AcDbLine
 10
383.9423392163288
 20
137.6111596855334
 30
0.0
 11
381.3423392166179
 21
137.6111596855334
 31
0.0
  0
ARC
  5
3063
330
18
100
AcDbEntity
  8
1
  6
Continuous
 48
0.25
100
AcDbCircle
 10
360.0423392165231
 20
99.51115968531572
 30
0.0
 40
2.5
100
AcDbArc
 50
126.8698976458818
 51
233.1301023543579
  0
LINE
  5
3064
330
18
100
AcDbEntity
  8
1
  6
Continuous
 48
0.25
100
AcDbLine
 10
375.3423392164635
 20
98.01115968529831
 30
0.0
 11
377.6423392165238
 21
98.01115968529831
 31
0.0
  0
LINE
  5
3065
330
18
100
AcDbEntity
  8
1
  6
Continuous
 48
0.25
100
AcDbLine
 10
360.0423392162266
 20
98.01115968529831
 30
0.0
 11
362.3423392163851
 21
98.01115968529831
 31
0.0
  0
LINE
  5
3066
330
18
100
AcDbEntity
  8
1
  6
Continuous
 48
0.25
100
AcDbLine
 10
362.3423392163831
 20
101.0111596852983
 30
0.0
 11
360.0423392162393
 21
101.0111596852983
 31
0.0
  0
LINE
  5
3067
330
18
100
AcDbEntity
  8
1
  6
Continuous
 48
0.25
100
AcDbLine
 10
377.6423392165238
 20
101.0111596852983
 30
0.0
 11
375.3423392164635
 21
101.0111596852983
 31
0.0
  0
ARC
  5
3069
330
18
100
AcDbEntity
  8
1
  6
Continuous
 48
0.25
100
AcDbCircle
 10
360.042339216483
 20
105.5111596852715
 30
0.0
 40
2.5
100
AcDbArc
 50
126.8698976458818
 51
233.1301023543579
  0
LINE
  5
306A
330
18
100
AcDbEntity
  8
1
  6
Continuous
 48
0.25
100
AcDbLine
 10
375.3423392164635
 20
104.0111596852541
 30
0.0
 11
377.642339216484
 21
104.0111596852541
 31
0.0
  0
LINE
  5
306B
330
18
100
AcDbEntity
  8
1
  6
Continuous
 48
0.25
100
AcDbLine
 10
360.0423392162519
 20
104.0111596852541
 30
0.0
 11
362.3423392163812
 21
104.0111596852541
 31
0.0
  0
LINE
  5
306C
330
18
100
AcDbEntity
  8
1
  6
Continuous
 48
0.25
100
AcDbLine
 10
362.3423392163792
 20
107.0111596852541
 30
0.0
 11
360.0423392162643
 21
107.0111596852541
 31
0.0
  0
LINE
  5
306D
330
18
100
AcDbEntity
  8
1
  6
Continuous
 48
0.25
100
AcDbLine
 10
377.642339216484
 20
107.0111596852541
 30
0.0
 11
375.3423392164635
 21
107.0111596852541
 31
0.0
  0
ARC
  5
306E
330
18
100
AcDbEntity
  8
1
  6
Continuous
 48
0.25
100
AcDbCircle
 10
384.4423392163288
 20
138.1111596855873
 30
0.0
 40
0.5
100
AcDbArc
 50
0.0
 51
180.0
  0
ARC
  5
306F
330
18
100
AcDbEntity
  8
1
  6
Continuous
 48
0.25
100
AcDbCircle
 10
384.4423392163288
 20
93.51115968543604
 30
0.0
 40
0.5
100
AcDbArc
 50
180.0
 51
181.8267276362639
  0
ARC
  5
3070
330
18
100
AcDbEntity
  8
1
  6
Continuous
 48
0.25
100
AcDbCircle
 10
384.4423392163288
 20
93.51115968543604
 30
0.0
 40
0.5
100
AcDbArc
 50
181.8267276362639
 51
0.0
  0
LINE
  5
3071
330
18
100
AcDbEntity
  8
1
  6
Continuous
 48
0.25
100
AcDbLine
 10
384.9423392163288
 20
132.6111596855873
 30
0.0
 11
383.9423392163288
 21
132.6111596855873
 31
0.0
  0
LINE
  5
3072
330
18
100
AcDbEntity
  8
1
  6
Continuous
 48
0.25
100
AcDbLine
 10
383.9423392163288
 20
97.01115968531652
 30
0.0
 11
384.9423392163288
 21
97.01115968531652
 31
0.0
  0
ARC
  5
3073
330
18
100
AcDbEntity
  8
1
  6
Continuous
 48
0.25
100
AcDbCircle
 10
353.2423392163288
 20
138.1111596855873
 30
0.0
 40
0.5
100
AcDbArc
 50
0.0
 51
180.0
  0
ARC
  5
3074
330
18
100
AcDbEntity
  8
1
  6
Continuous
 48
0.25
100
AcDbCircle
 10
353.2423392163288
 20
93.51115968543604
 30
0.0
 40
0.5
100
AcDbArc
 50
180.0
 51
181.8267276362639
  0
ARC
  5
3075
330
18
100
AcDbEntity
  8
1
  6
Continuous
 48
0.25
100
AcDbCircle
 10
353.2423392163288
 20
93.51115968543604
 30
0.0
 40
0.5
100
AcDbArc
 50
181.8267276362639
 51
0.0
  0
LINE
  5
3076
330
18
100
AcDbEntity
  8
1
  6
Continuous
 48
0.25
100
AcDbLine
 10
353.7423392163288
 20
132.6111596855873
 30
0.0
 11
352.7423392163288
 21
132.6111596855873
 31
0.0
  0
LINE
  5
3077
330
18
100
AcDbEntity
  8
1
  6
Continuous
 48
0.25
100
AcDbLine
 10
352.7423392163288
 20
97.01115968531652
 30
0.0
 11
353.7423392163288
 21
97.01115968531652
 31
0.0
  0
ARC
  5
3078
330
18
100
AcDbEntity
  8
1
  6
Continuous
 48
0.25
100
AcDbCircle
 10
379.1423392167473
 20
95.51115968539978
 30
0.0
 40
1.5
100
AcDbArc
 50
180.0000000002393
 51
269.999999999658
  0
ARC
  5
3079
330
18
100
AcDbEntity
  8
1
  6
Continuous
 48
0.25
100
AcDbCircle
 10
358.5423392162163
 20
95.51115968539978
 30
0.0
 40
1.5
100
AcDbArc
 50
270.0000000003387
 51
359.9999999997606
  0
LINE
  5
307A
330
18
100
AcDbEntity
  8
1
  6
Continuous
 48
0.25
100
AcDbLine
 10
357.8423392163034
 20
129.4111596855327
 30
0.0
 11
379.8423392165693
 21
129.4111596855327
 31
0.0
  0
LINE
  5
307B
330
18
100
AcDbEntity
  8
1
  6
Continuous
 48
0.25
100
AcDbLine
 10
379.1423392164416
 20
112.6111596852743
 30
0.0
 11
379.1423392164416
 21
113.5111596854003
 31
0.0
  0
LINE
  5
307C
330
18
100
AcDbEntity
  8
1
  6
Continuous
 48
0.25
100
AcDbLine
 10
379.1423392164416
 20
103.4111596852742
 30
0.0
 11
379.1423392164416
 21
107.6111596852743
 31
0.0
  0
LINE
  5
307D
330
18
100
AcDbEntity
  8
1
  6
Continuous
 48
0.25
100
AcDbLine
 10
358.5423392165218
 20
112.6111596852743
 30
0.0
 11
358.5423392165218
 21
113.5111596854003
 31
0.0
  0
LINE
  5
307E
330
18
100
AcDbEntity
  8
1
  6
Continuous
 48
0.25
100
AcDbLine
 10
358.5423392165218
 20
103.4111596852742
 30
0.0
 11
358.5423392165218
 21
107.6111596852743
 31
0.0
  0
LINE
  5
307F
330
18
100
AcDbEntity
  8
1
  6
Continuous
 48
0.25
100
AcDbLine
 10
358.5423392165218
 20
95.51115968542028
 30
0.0
 11
358.5423392165218
 21
101.9111596852743
 31
0.0
  0
LINE
  5
3080
330
18
100
AcDbEntity
  8
1
  6
Continuous
 48
0.25
100
AcDbLine
 10
360.2423392164082
 20
101.0111596852983
 30
0.0
 11
360.2423392164082
 21
104.0111596852541
 31
0.0
  0
LINE
  5
3081
330
18
100
AcDbEntity
  8
1
  6
Continuous
 48
0.25
100
AcDbLine
 10
361.2423392165485
 20
101.0111596852983
 30
0.0
 11
361.2423392165485
 21
104.0111596852541
 31
0.0
  0
LINE
  5
3082
330
18
100
AcDbEntity
  8
1
  6
Continuous
 48
0.25
100
AcDbLine
 10
376.4423392164153
 20
104.0111596852541
 30
0.0
 11
376.4423392164153
 21
101.0111596852983
 31
0.0
  0
LINE
  5
3083
330
18
100
AcDbEntity
  8
1
  6
Continuous
 48
0.25
100
AcDbLine
 10
377.4423392164351
 20
104.0111596852541
 30
0.0
 11
377.4423392164355
 21
101.0111596852983
 31
0.0
  0
LINE
  5
3084
330
18
100
AcDbEntity
  8
1
  6
Continuous
 48
0.25
100
AcDbLine
 10
361.2423392165484
 20
127.1111596853108
 30
0.0
 11
360.2423392164211
 21
127.1111596853108
 31
0.0
  0
LINE
  5
3085
330
18
100
AcDbEntity
  8
1
  6
Continuous
 48
0.25
100
AcDbLine
 10
377.4423392165423
 20
127.1111596853108
 30
0.0
 11
376.4423392164153
 21
127.1111596853108
 31
0.0
  0
LINE
  5
3086
330
18
100
AcDbEntity
  8
1
  6
Continuous
 48
0.25
100
AcDbLine
 10
376.4423392164215
 20
97.11115968527442
 30
0.0
 11
377.4423392165926
 21
97.11115968527442
 31
0.0
  0
LINE
  5
3087
330
18
100
AcDbEntity
  8
1
  6
Continuous
 48
0.25
100
AcDbLine
 10
360.2423392163711
 20
97.11115968527442
 30
0.0
 11
361.2423392165422
 21
97.11115968527442
 31
0.0
  0
ARC
  5
3088
330
18
100
AcDbEntity
  8
1
  6
Continuous
 48
0.25
100
AcDbCircle
 10
361.7423392167422
 20
117.3111596852512
 30
0.0
 40
2.5
100
AcDbArc
 50
126.8698976524943
 51
233.1301023475057
  0
ARC
  5
3089
330
18
100
AcDbEntity
  8
1
  6
Continuous
 48
0.25
100
AcDbCircle
 10
375.9423392169435
 20
117.3111596852485
 30
0.0
 40
2.5
100
AcDbArc
 50
306.8698976384235
 51
53.13010236161261
  0
LINE
  5
308A
330
18
100
AcDbEntity
  8
1
  6
Continuous
 48
0.25
100
AcDbLine
 10
375.3423392164634
 20
115.8111596852512
 30
0.0
 11
376.4423392164153
 21
115.8111596852512
 31
0.0
  0
LINE
  5
308B
330
18
100
AcDbEntity
  8
1
  6
Continuous
 48
0.25
100
AcDbLine
 10
361.2423392165484
 20
115.8111596852512
 30
0.0
 11
362.3423392163735
 21
115.8111596852512
 31
0.0
  0
LINE
  5
308C
330
18
100
AcDbEntity
  8
1
  6
Continuous
 48
0.25
100
AcDbLine
 10
362.3423392163716
 20
118.8111596852512
 30
0.0
 11
361.2423392165484
 21
118.8111596852512
 31
0.0
  0
LINE
  5
308D
330
18
100
AcDbEntity
  8
1
  6
Continuous
 48
0.25
100
AcDbLine
 10
376.4423392164153
 20
118.8111596852512
 30
0.0
 11
375.3423392164634
 21
118.8111596852512
 31
0.0
  0
ARC
  5
308E
330
18
100
AcDbEntity
  8
1
  6
Continuous
 48
0.25
100
AcDbCircle
 10
361.7423392165853
 20
123.1111596852743
 30
0.0
 40
2.5
100
AcDbArc
 50
126.8698976524943
 51
233.1301023475057
  0
ARC
  5
308F
330
18
100
AcDbEntity
  8
1
  6
Continuous
 48
0.25
100
AcDbCircle
 10
375.9423392167865
 20
123.1111596852715
 30
0.0
 40
2.5
100
AcDbArc
 50
306.8698976384235
 51
53.13010236161261
  0
LINE
  5
3090
330
18
100
AcDbEntity
  8
1
  6
Continuous
 48
0.25
100
AcDbLine
 10
376.3423392165198
 20
121.6111596852743
 30
0.0
 11
376.4423392164153
 21
121.6111596852743
 31
0.0
  0
LINE
  5
3091
330
18
100
AcDbEntity
  8
1
  6
Continuous
 48
0.25
100
AcDbLine
 10
361.2423392165484
 20
121.6111596852743
 30
0.0
 11
361.3423392164765
 21
121.6111596852743
 31
0.0
  0
LINE
  5
3092
330
18
100
AcDbEntity
  8
1
  6
Continuous
 48
0.25
100
AcDbLine
 10
361.3423392164765
 20
124.6111596852743
 30
0.0
 11
361.2423392165484
 21
124.6111596852743
 31
0.0
  0
LINE
  5
3093
330
18
100
AcDbEntity
  8
1
  6
Continuous
 48
0.25
100
AcDbLine
 10
376.4423392164153
 20
124.6111596852743
 30
0.0
 11
376.3423392165198
 21
124.6111596852743
 31
0.0
  0
LINE
  5
3094
330
18
100
AcDbEntity
  8
1
  6
Continuous
 48
0.25
100
AcDbLine
 10
373.1423392164645
 20
95.11115968523908
 30
0.0
 11
373.1423392164645
 21
94.91115968527436
 31
0.0
  0
LINE
  5
3095
330
18
100
AcDbEntity
  8
1
  6
Continuous
 48
0.25
100
AcDbLine
 10
364.5423392164646
 20
94.91115968527436
 30
0.0
 11
364.5423392164646
 21
95.11115968523908
 31
0.0
  0
CIRCLE
  5
3096
330
18
100
AcDbEntity
  8
1
  6
Continuous
 48
0.25
100
AcDbCircle
 10
368.8423392164818
 20
117.1111596852983
 30
0.0
 40
1.6
  0
CIRCLE
  5
3097
330
18
100
AcDbEntity
  8
1
  6
Continuous
 48
0.25
100
AcDbCircle
 10
368.8423392164818
 20
101.1111596852983
 30
0.0
 40
1.6
  0
LINE
  5
3098
330
18
100
AcDbEntity
  8
1
  6
Continuous
 48
0.25
100
AcDbLine
 10
376.3423392165198
 20
119.1111596853179
 30
0.0
 11
375.342339216453
 21
119.1111596853179
 31
0.0
  0
LINE
  5
3099
330
18
100
AcDbEntity
  8
1
  6
Continuous
 48
0.25
100
AcDbLine
 10
376.3423392165198
 20
127.1111596852649
 30
0.0
 11
376.3423392165198
 21
119.1111596853179
 31
0.0
  0
LINE
  5
309A
330
18
100
AcDbEntity
  8
1
  6
Continuous
 48
0.25
100
AcDbLine
 10
362.3423392165106
 20
119.1111596853179
 30
0.0
 11
361.3423392164765
 21
119.1111596853179
 31
0.0
  0
LINE
  5
309B
330
18
100
AcDbEntity
  8
1
  6
Continuous
 48
0.25
100
AcDbLine
 10
361.3423392164765
 20
119.1111596853179
 30
0.0
 11
361.3423392164765
 21
127.1111596852649
 31
0.0
  0
LINE
  5
309C
330
18
100
AcDbEntity
  8
1
  6
Continuous
 48
0.25
100
AcDbLine
 10
375.3423392164634
 20
127.1111596852666
 30
0.0
 11
375.3423392164635
 21
95.11115968528915
 31
0.0
  0
LINE
  5
309D
330
18
100
AcDbEntity
  8
1
  6
Continuous
 48
0.25
100
AcDbLine
 10
362.342339216387
 20
95.1111596852891
 30
0.0
 11
362.3423392163662
 21
127.1111596852888
 31
0.0
  0
LINE
  5
309E
330
18
100
AcDbEntity
  8
1
  6
Continuous
 48
0.25
100
AcDbLine
 10
381.3423392166569
 20
117.111159685392
 30
0.0
 11
381.3423392166185
 21
145.0081751234346
 31
0.0
  0
LINE
  5
309F
330
18
100
AcDbEntity
  8
1
  6
Continuous
 48
0.25
100
AcDbLine
 10
379.8423392166593
 20
117.1111596849122
 30
0.0
 11
379.8423392166187
 21
145.7817460905761
 31
0.0
  0
LINE
  5
30A0
330
18
100
AcDbEntity
  8
1
  6
Continuous
 48
0.25
100
AcDbLine
 10
357.8423392163042
 20
117.1111596849125
 30
0.0
 11
357.842339216345
 21
145.7817460905761
 31
0.0
  0
LINE
  5
30A1
330
18
100
AcDbEntity
  8
1
  6
Continuous
 48
0.25
100
AcDbLine
 10
356.3423392164374
 20
117.1111596853851
 30
0.0
 11
356.3423392163451
 21
145.0081751234347
 31
0.0
  0
LINE
  5
30FC
330
18
100
AcDbEntity
  8
1
  6
Continuous
 48
0.25
100
AcDbLine
 10
349.4719495453767
 20
109.3111596852743
 30
0.0
 11
350.2446011737935
 21
109.3111596852743
 31
0.0
  0
LINE
  5
30FD
330
18
100
AcDbEntity
  8
1
  6
Continuous
 48
0.25
100
AcDbLine
 10
380.6423392165669
 20
109.3111596852743
 30
0.0
 11
381.4446011737938
 21
109.3111596852743
 31
0.0
  0
LINE
  5
30FE
330
18
100
AcDbEntity
  8
1
  6
Continuous
 48
0.25
100
AcDbLine
 10
390.4952796564462
 20
96.79633060348818
 30
0.0
 11
390.4952796564487
 21
128.575177838848
 31
0.0
  0
ARC
  5
30FF
330
18
100
AcDbEntity
  8
1
  6
Continuous
 48
0.25
100
AcDbCircle
 10
352.7196514144116
 20
139.2689658537567
 30
0.0
 40
2.4696896999663
100
AcDbArc
 50
133.9777375851214
 51
163.398824161238
  0
ARC
  5
3100
330
18
100
AcDbEntity
  8
1
  6
Continuous
 48
0.25
100
AcDbCircle
 10
388.3431910979958
 20
128.6109899087087
 30
0.0
 40
39.65380591075603
100
AcDbArc
 50
163.3489238898285
 51
177.1087280072785
  0
ARC
  5
3101
330
18
100
AcDbEntity
  8
1
  6
Continuous
 48
0.25
100
AcDbCircle
 10
384.9640852776762
 20
139.270515039202
 30
0.0
 40
2.469689606112519
100
AcDbArc
 50
16.57701619501625
 51
45.99812147882762
  0
ARC
  5
3102
330
18
100
AcDbEntity
  8
1
  6
Continuous
 48
0.25
100
AcDbCircle
 10
349.3413638162388
 20
128.6109652919225
 30
0.0
 40
39.65393139987572
100
AcDbArc
 50
2.891298449219107
 51
16.65105764211794
  0
LINE
  5
3103
330
18
100
AcDbEntity
  8
1
  6
Continuous
 48
0.25
100
AcDbLine
 10
348.6893987765155
 20
125.6111596855514
 30
0.0
 11
348.6893987765155
 21
96.79633060348818
 31
0.0
  0
LINE
  5
3104
330
18
100
AcDbEntity
  8
1
  6
Continuous
 48
0.25
100
AcDbLine
 10
388.9952796564461
 20
96.79633060348827
 30
0.0
 11
388.9952796564486
 21
125.6111596855514
 31
0.0
  0
LINE
  5
3105
330
18
100
AcDbEntity
  8
1
  6
Continuous
 48
0.25
100
AcDbLine
 10
348.7063793292066
 20
95.66232383293639
 30
0.0
 11
348.7882621533982
 21
93.01053643718235
 31
0.0
  0
ARC
  5
3106
330
18
100
AcDbEntity
  8
1
  6
Continuous
 48
0.25
100
AcDbCircle
 10
385.6413112678415
 20
96.78251971049515
 30
0.0
 40
36.95191497157651
100
AcDbArc
 50
179.9794208975695
 51
181.7384124102341
  0
ARC
  5
3107
330
18
100
AcDbEntity
  8
1
  6
Continuous
 48
0.25
100
AcDbCircle
 10
351.9475042670148
 20
96.78395689154049
 30
0.0
 40
37.0477773753921
100
AcDbArc
 50
358.2637749318323
 51
0.0183917603601962
  0
LINE
  5
3108
330
18
100
AcDbEntity
  8
1
  6
Continuous
 48
0.25
100
AcDbLine
 10
388.8964162675201
 20
93.01053604721492
 30
0.0
 11
388.9782991037533
 21
95.66232383293536
 31
0.0
  0
ARC
  5
310A
330
18
100
AcDbEntity
  8
1
  6
Continuous
 48
0.25
100
AcDbCircle
 10
378.8419348807555
 20
103.0887086561768
 30
0.0
 40
14.85376196934781
100
AcDbArc
 50
292.9650648265911
 51
308.806966471374
  0
ARC
  5
310C
330
18
100
AcDbEntity
  8
1
  6
Continuous
 48
0.25
100
AcDbCircle
 10
358.8427300815533
 20
103.0886690706365
 30
0.0
 40
14.85372238347991
100
AcDbArc
 50
231.1929686056164
 51
247.034926613509
  0
ARC
  5
310D
330
18
100
AcDbEntity
  8
1
  6
Continuous
 48
0.25
100
AcDbCircle
 10
368.8423392164818
 20
122.6110134982738
 30
0.0
 40
25.65304689932813
100
AcDbArc
 50
45.93981645938089
 51
60.83859412591369
  0
ARC
  5
310E
330
18
100
AcDbEntity
  8
1
  6
Continuous
 48
0.25
100
AcDbCircle
 10
368.8423392164818
 20
122.6110134982738
 30
0.0
 40
25.65304689932813
100
AcDbArc
 50
64.60863633360464
 51
115.3913636663953
  0
ARC
  5
310F
330
18
100
AcDbEntity
  8
1
  6
Continuous
 48
0.25
100
AcDbCircle
 10
368.8423392164818
 20
122.6110134982738
 30
0.0
 40
25.65304689932813
100
AcDbArc
 50
119.1614058740856
 51
134.051778201633
  0
ARC
  5
3110
330
18
100
AcDbEntity
  8
1
  6
Continuous
 48
0.25
100
AcDbCircle
 10
353.2423392163928
 20
89.87258158532382
 30
0.0
 40
0.5
100
AcDbArc
 50
247.034926613509
 51
0.0
  0
ARC
  5
3111
330
18
100
AcDbEntity
  8
1
  6
Continuous
 48
0.25
100
AcDbCircle
 10
384.442339216663
 20
89.87258388576689
 30
0.0
 40
0.5
100
AcDbArc
 50
180.0
 51
292.9650648265911
  0
LINE
  5
3112
330
18
100
AcDbEntity
  8
1
  6
Continuous
 48
0.25
100
AcDbLine
 10
353.7423392163288
 20
94.01115968539976
 30
0.0
 11
359.5423392165324
 21
94.01115968540372
 31
0.0
  0
LINE
  5
3113
330
18
100
AcDbEntity
  8
1
  6
Continuous
 48
0.25
100
AcDbLine
 10
353.7423392163288
 20
95.51115968542028
 30
0.0
 11
358.5423392165218
 21
95.51115968542028
 31
0.0
  0
LINE
  5
3114
330
18
100
AcDbEntity
  8
1
  6
Continuous
 48
0.25
100
AcDbLine
 10
349.9423392164819
 20
95.51115968542028
 30
0.0
 11
352.7423392163288
 21
95.51115968542028
 31
0.0
  0
LINE
  5
3115
330
18
100
AcDbEntity
  8
1
  6
Continuous
 48
0.25
100
AcDbLine
 10
349.9423392164819
 20
94.01115968539976
 30
0.0
 11
352.7423392163288
 21
94.01115968539976
 31
0.0
  0
LINE
  5
3116
330
18
100
AcDbEntity
  8
1
  6
Continuous
 48
0.25
100
AcDbLine
 10
353.7423392163928
 20
89.87258158532382
 30
0.0
 11
353.7423392163288
 21
98.56115968516993
 31
0.0
  0
LINE
  5
3117
330
18
100
AcDbEntity
  8
1
  6
Continuous
 48
0.25
100
AcDbLine
 10
352.7423392163288
 20
93.51115968543604
 30
0.0
 11
352.7423392163288
 21
98.56115968517002
 31
0.0
  0
LINE
  5
3118
330
18
100
AcDbEntity
  8
1
  6
Continuous
 48
0.25
100
AcDbLine
 10
360.2423392164013
 20
85.61115968527442
 30
0.0
 11
360.2423392164233
 21
98.01115968529831
 31
0.0
  0
LINE
  5
3119
330
18
100
AcDbEntity
  8
1
  6
Continuous
 48
0.25
100
AcDbLine
 10
361.2423392165484
 20
85.61115968527442
 30
0.0
 11
361.2423392165422
 21
98.01115968529831
 31
0.0
  0
LINE
  5
311A
330
18
100
AcDbEntity
  8
1
  6
Continuous
 48
0.25
100
AcDbLine
 10
376.4423392164153
 20
85.61115968527442
 30
0.0
 11
376.4423392164153
 21
98.01115968529831
 31
0.0
  0
LINE
  5
311B
330
18
100
AcDbEntity
  8
1
  6
Continuous
 48
0.25
100
AcDbLine
 10
377.4423392164373
 20
85.61115968527442
 30
0.0
 11
377.4423392164357
 21
98.01115968529831
 31
0.0
  0
LINE
  5
311C
330
18
100
AcDbEntity
  8
1
  6
Continuous
 48
0.25
100
AcDbLine
 10
356.2200859227924
 20
101.9111596852743
 30
0.0
 11
359.5423392163962
 21
101.9111596852743
 31
0.0
  0
LINE
  5
311D
330
18
100
AcDbEntity
  8
1
  6
Continuous
 48
0.25
100
AcDbLine
 10
356.0969490505749
 20
103.4111596852742
 30
0.0
 11
359.5423392163962
 21
103.4111596852742
 31
0.0
  0
LINE
  5
311E
330
18
100
AcDbEntity
  8
1
  6
Continuous
 48
0.25
100
AcDbLine
 10
378.1423392165235
 20
94.01115968540381
 30
0.0
 11
383.9423392163288
 21
94.01115968539976
 31
0.0
  0
LINE
  5
311F
330
18
100
AcDbEntity
  8
1
  6
Continuous
 48
0.25
100
AcDbLine
 10
384.9423392163288
 20
94.01115968539976
 30
0.0
 11
387.7423392164819
 21
94.01115968539976
 31
0.0
  0
LINE
  5
3120
330
18
100
AcDbEntity
  8
1
  6
Continuous
 48
0.25
100
AcDbLine
 10
384.9423392163288
 20
95.51115968542028
 30
0.0
 11
387.7423392164819
 21
95.51115968542028
 31
0.0
  0
LINE
  5
3121
330
18
100
AcDbEntity
  8
1
  6
Continuous
 48
0.25
100
AcDbLine
 10
379.1423392164416
 20
95.51115968542028
 30
0.0
 11
379.1423392164416
 21
101.9111596852743
 31
0.0
  0
LINE
  5
3122
330
18
100
AcDbEntity
  8
1
  6
Continuous
 48
0.25
100
AcDbLine
 10
379.1423392164416
 20
95.51115968542028
 30
0.0
 11
383.9423392163288
 21
95.51115968542028
 31
0.0
  0
LINE
  5
3123
330
18
100
AcDbEntity
  8
1
  6
Continuous
 48
0.25
100
AcDbLine
 10
383.9423392166631
 20
89.87258388576689
 30
0.0
 11
383.9423392163288
 21
98.56115968516993
 31
0.0
  0
LINE
  5
3124
330
18
100
AcDbEntity
  8
1
  6
Continuous
 48
0.25
100
AcDbLine
 10
384.9423392163288
 20
93.51115968543604
 30
0.0
 11
384.9423392163288
 21
98.56115968516993
 31
0.0
  0
LINE
  5
3125
330
18
100
AcDbEntity
  8
1
  6
Continuous
 48
0.25
100
AcDbLine
 10
378.1423392165677
 20
101.9111596852743
 30
0.0
 11
381.6128744924176
 21
101.9111596852743
 31
0.0
  0
LINE
  5
3126
330
18
100
AcDbEntity
  8
1
  6
Continuous
 48
0.25
100
AcDbLine
 10
378.1423392165677
 20
103.4111596852742
 30
0.0
 11
381.4579330042688
 21
103.4111596852742
 31
0.0
  0
LINE
  5
3127
330
18
100
AcDbEntity
  8
1
  6
Continuous
 48
0.25
100
AcDbLine
 10
357.5423392164012
 20
112.6111596852743
 30
0.0
 11
359.5423392163994
 21
112.6111596852743
 31
0.0
  0
LINE
  5
3128
330
18
100
AcDbEntity
  8
1
  6
Continuous
 48
0.25
100
AcDbLine
 10
357.5423392164012
 20
107.6111596852743
 30
0.0
 11
359.5423392163994
 21
107.6111596852743
 31
0.0
  0
LINE
  5
3129
330
18
100
AcDbEntity
  8
1
  6
Continuous
 48
0.25
100
AcDbLine
 10
378.1423392165641
 20
112.6111596852743
 30
0.0
 11
380.1423392165627
 21
112.6111596852743
 31
0.0
  0
LINE
  5
312A
330
18
100
AcDbEntity
  8
1
  6
Continuous
 48
0.25
100
AcDbLine
 10
378.1423392165641
 20
107.6111596852743
 30
0.0
 11
380.1423392165627
 21
107.6111596852743
 31
0.0
  0
LINE
  5
312B
330
18
100
AcDbEntity
  8
1
  6
Continuous
 48
0.25
100
AcDbLine
 10
349.4719495453746
 20
120.1111596852743
 30
0.0
 11
352.7423392163288
 21
120.1111596852743
 31
0.0
  0
LINE
  5
312C
330
18
100
AcDbEntity
  8
1
  6
Continuous
 48
0.25
100
AcDbLine
 10
349.4719495453746
 20
121.6111596852743
 30
0.0
 11
352.7423392163288
 21
121.6111596852743
 31
0.0
  0
LINE
  5
312D
330
18
100
AcDbEntity
  8
1
  6
Continuous
 48
0.25
100
AcDbLine
 10
384.9423392163288
 20
120.1111596852743
 30
0.0
 11
388.212728887589
 21
120.1111596852743
 31
0.0
  0
LINE
  5
312E
330
18
100
AcDbEntity
  8
1
  6
Continuous
 48
0.25
100
AcDbLine
 10
384.9423392163288
 20
121.6111596852743
 30
0.0
 11
388.2127288875891
 21
121.6111596852743
 31
0.0
  0
LINE
  5
312F
330
18
100
AcDbEntity
  8
1
  6
Continuous
 48
0.25
100
AcDbLine
 10
383.9423392163288
 20
118.4661472472772
 30
0.0
 11
383.9423392163288
 21
138.1111596855873
 31
0.0
  0
LINE
  5
3130
330
18
100
AcDbEntity
  8
1
  6
Continuous
 48
0.25
100
AcDbLine
 10
384.9423392163286
 20
118.4661472472825
 30
0.0
 11
384.9423392164994
 21
139.3611596855808
 31
0.0
  0
LINE
  5
3131
330
18
100
AcDbEntity
  8
1
  6
Continuous
 48
0.25
100
AcDbLine
 10
353.7423392163288
 20
118.4661472472825
 30
0.0
 11
353.7423392163288
 21
138.1111596855873
 31
0.0
  0
LINE
  5
3132
330
18
100
AcDbEntity
  8
1
  6
Continuous
 48
0.25
100
AcDbLine
 10
352.7423392163287
 20
118.4661472472773
 30
0.0
 11
352.7423392164966
 21
139.3611596855808
 31
0.0
  0
LINE
  5
3136
330
18
100
AcDbEntity
  8
4
  6
CENTER
 48
0.25
100
AcDbLine
 10
371.9423392164819
 20
101.1111596852983
 30
0.0
 11
365.742339216482
 21
101.1111596852983
 31
0.0
  0
LINE
  5
3137
330
18
100
AcDbEntity
  8
4
  6
CENTER
 48
0.25
100
AcDbLine
 10
368.8423392164818
 20
82.61115968527439
 30
0.0
 11
368.8423392164818
 21
152.7640603976019
 31
0.0
  0
LINE
  5
3138
330
18
100
AcDbEntity
  8
4
  6
CENTER
 48
0.25
100
AcDbLine
 10
357.7423392166389
 20
123.1111596852744
 30
0.0
 11
379.9423392168401
 21
123.1111596852717
 31
0.0
  0
LINE
  5
3139
330
18
100
AcDbEntity
  8
4
  6
CENTER
 48
0.25
100
AcDbLine
 10
356.0423392165365
 20
105.5111596852716
 30
0.0
 11
381.2423392168337
 21
105.5111596852542
 31
0.0
  0
LINE
  5
313A
330
18
100
AcDbEntity
  8
4
  6
CENTER
 48
0.25
100
AcDbLine
 10
356.0423392165365
 20
99.51115968528974
 30
0.0
 11
381.2423392168339
 21
99.51115968527233
 31
0.0
  0
LINE
  5
313B
330
18
100
AcDbEntity
  8
4
  6
CENTER
 48
0.25
100
AcDbLine
 10
357.742339216639
 20
117.3111596852809
 30
0.0
 11
379.9423392168403
 21
117.3111596852782
 31
0.0
  0
LINE
  5
313C
330
18
100
AcDbEntity
  8
4
  6
CENTER
 48
0.25
100
AcDbLine
 10
365.742339216482
 20
117.1111596852983
 30
0.0
 11
371.9423392164819
 21
117.1111596852983
 31
0.0
  0
LINE
  5
313D
330
18
100
AcDbEntity
  8
4
  6
CENTER
 48
0.25
100
AcDbLine
 10
387.4423392164819
 20
136.111159685633
 30
0.0
 11
350.2423392164818
 21
136.111159685573
 31
0.0
  0
LINE
  5
313E
330
18
100
AcDbEntity
  8
1
  6
Continuous
 48
0.25
100
AcDbLine
 10
360.2423392164399
 20
85.61115968527442
 30
0.0
 11
377.442339216628
 21
85.61115968527442
 31
0.0
  0
LINE
  5
313F
330
18
100
AcDbEntity
  8
1
  6
Continuous
 48
0.25
100
AcDbLine
 10
364.5423392164646
 20
94.91115968527399
 30
0.0
 11
373.1423392164645
 21
94.91115968527399
 31
0.0
  0
LINE
  5
3140
330
18
100
AcDbEntity
  8
1
  6
Continuous
 48
0.25
100
AcDbLine
 10
362.342339216387
 20
95.11115968528915
 30
0.0
 11
375.3423392164532
 21
95.11115968528915
 31
0.0
  0
LINE
  5
3145
330
18
100
AcDbEntity
  8
1
  6
Continuous
 48
0.25
100
AcDbLine
 10
361.3423392164764
 20
127.1111596852905
 30
0.0
 11
376.3423392165198
 21
127.1111596852649
 31
0.0
  0
LINE
  5
3146
330
18
100
AcDbEntity
  8
1
  6
Continuous
 48
0.25
100
AcDbLine
 10
376.4423392164151
 20
107.0111596852541
 30
0.0
 11
376.4423392164153
 21
127.1111596853107
 31
0.0
  0
LINE
  5
3147
330
18
100
AcDbEntity
  8
1
  6
Continuous
 48
0.25
100
AcDbLine
 10
377.4423392164348
 20
107.0111596852541
 30
0.0
 11
377.4423392165423
 21
127.1111596853107
 31
0.0
  0
LINE
  5
3148
330
18
100
AcDbEntity
  8
1
  6
Continuous
 48
0.25
100
AcDbLine
 10
360.2423392164082
 20
107.0111596852542
 30
0.0
 11
360.2423392164211
 21
127.1111596853107
 31
0.0
  0
LINE
  5
3149
330
18
100
AcDbEntity
  8
1
  6
Continuous
 48
0.25
100
AcDbLine
 10
361.2423392165485
 20
107.0111596852541
 30
0.0
 11
361.2423392165484
 21
127.1111596853108
 31
0.0
  0
LINE
  5
314B
330
18
100
AcDbEntity
  8
4
  6
CENTER
 48
0.25
100
AcDbLine
 10
144.5199466243883
 20
82.61115968522341
 30
0.0
 11
144.5199466243883
 21
152.764060397551
 31
0.0
  0
LINE
  5
314C
330
18
100
AcDbEntity
  8
1
  6
Continuous
 48
0.25
100
AcDbLine
 10
349.9423392164819
 20
94.01115968539976
 30
0.0
 11
349.9423392164819
 21
95.51115968542028
 31
0.0
  0
LINE
  5
314D
330
18
100
AcDbEntity
  8
1
  6
Continuous
 48
0.25
100
AcDbLine
 10
387.7423392164819
 20
94.01115968539976
 30
0.0
 11
387.7423392164819
 21
95.51115968542028
 31
0.0
  0
LINE
  5
314E
330
18
100
AcDbEntity
  8
1
  6
Continuous
 48
0.25
100
AcDbLine
 10
360.0423392165343
 20
87.23494669182764
 30
0.0
 11
360.0423392163116
 21
115.4781294076683
 31
0.0
  0
LINE
  5
314F
330
18
100
AcDbEntity
  8
1
  6
Continuous
 48
0.25
100
AcDbLine
 10
377.6423392165215
 20
87.23494669182764
 30
0.0
 11
377.64233921677
 21
115.4781294071052
 31
0.0
  0
LINE
  5
3150
330
18
100
AcDbEntity
  8
1
  6
Continuous
 48
0.25
100
AcDbLine
 10
358.5423392161663
 20
113.5111596854035
 30
0.0
 11
356.6158071288861
 21
116.2476673350712
 31
0.0
  0
ARC
  5
3151
330
18
100
AcDbEntity
  8
1
  6
Continuous
 48
0.25
100
AcDbCircle
 10
357.84233921609
 20
117.1111596853901
 30
0.0
 40
1.5
100
AcDbArc
 50
179.9999999999104
 51
215.1459753022898
  0
LINE
  5
3152
330
18
100
AcDbEntity
  8
1
  6
Continuous
 48
0.25
100
AcDbLine
 10
359.7688713031383
 20
114.3746520358894
 30
0.0
 11
357.8423392159578
 21
117.1111596854045
 31
0.0
  0
ARC
  5
3153
330
18
100
AcDbEntity
  8
1
  6
Continuous
 48
0.25
100
AcDbCircle
 10
358.5423392159359
 20
113.5111596855682
 30
0.0
 40
1.5
100
AcDbArc
 50
359.9999999996693
 51
35.14597530239737
  0
LINE
  5
3154
330
18
100
AcDbEntity
  8
1
  6
Continuous
 48
0.25
100
AcDbLine
 10
379.1423392167974
 20
113.5111596854035
 30
0.0
 11
381.0688713040777
 21
116.2476673350712
 31
0.0
  0
ARC
  5
3155
330
18
100
AcDbEntity
  8
1
  6
Continuous
 48
0.25
100
AcDbCircle
 10
379.8423392168737
 20
117.1111596853901
 30
0.0
 40
1.5
100
AcDbArc
 50
324.8540246977102
 51
0.0000000000895644
  0
LINE
  5
3156
330
18
100
AcDbEntity
  8
1
  6
Continuous
 48
0.25
100
AcDbLine
 10
377.9158071298255
 20
114.3746520358894
 30
0.0
 11
379.842339217006
 21
117.1111596854045
 31
0.0
  0
ARC
  5
3157
330
18
100
AcDbEntity
  8
1
  6
Continuous
 48
0.25
100
AcDbCircle
 10
379.1423392170278
 20
113.5111596855682
 30
0.0
 40
1.5
100
AcDbArc
 50
144.8540246976004
 51
180.0000000003289
  0
ARC
  5
34CE
330
18
100
AcDbEntity
  8
1
  6
Continuous
100
AcDbCircle
 10
152.4152116208579
 20
177.6353631490497
 30
0.0
 40
5.65212191199211
100
AcDbArc
 50
78.13445024175203
 51
90.96889726340704
  0
ARC
  5
34CF
330
18
100
AcDbEntity
  8
1
  6
Continuous
100
AcDbCircle
 10
136.6246816279462
 20
177.6353631490497
 30
0.0
 40
5.65212191199211
100
AcDbArc
 50
89.03110273659342
 51
101.8655497582494
  0
ARC
  5
34D2
330
18
100
AcDbEntity
  8
1
  6
Continuous
 48
0.25
100
AcDbCircle
 10
160.6159468013645
 20
139.2538004951551
 30
0.0
 40
4.0
100
AcDbArc
 50
16.64570716208458
 51
45.95683644192627
  0
ARC
  5
34D3
330
18
100
AcDbEntity
  8
1
  6
Continuous
 48
0.25
100
AcDbCircle
 10
128.423946307961
 20
139.2538003602864
 30
0.0
 40
4.0
100
AcDbArc
 50
134.0431640381563
 51
163.3543112912807
  0
ARC
  5
34D5
330
18
100
AcDbEntity
  8
1
  6
Continuous
 48
0.25
100
AcDbCircle
 10
162.0824021603555
 20
93.32046326674456
 30
0.0
 40
4.0
100
AcDbArc
 50
307.7459066152362
 51
358.2313627345479
  0
ARC
  5
34D6
330
18
100
AcDbEntity
  8
1
  6
Continuous
 48
0.25
100
AcDbCircle
 10
126.9574910751497
 20
93.32046369663846
 30
0.0
 40
4.0
100
AcDbArc
 50
181.7686372654569
 51
232.2535433597548
  0
ARC
  5
3530
330
18
100
AcDbEntity
  8
1
  6
Continuous
 48
0.25
100
AcDbCircle
 10
384.9383395329088
 20
139.2538003603372
 30
0.0
 40
4.0
100
AcDbArc
 50
16.64568870871869
 51
45.95683596184314
  0
ARC
  5
3531
330
18
100
AcDbEntity
  8
1
  6
Continuous
 48
0.25
100
AcDbCircle
 10
352.7463390395051
 20
139.2538004952059
 30
0.0
 40
4.0
100
AcDbArc
 50
134.0431635580745
 51
163.3542928379153
  0
ARC
  5
3532
330
18
100
AcDbEntity
  8
1
  6
Continuous
 48
0.25
100
AcDbCircle
 10
351.2798836261332
 20
93.32046502793636
 30
0.0
 40
4.0
100
AcDbArc
 50
181.7686372654522
 51
232.2518527151675
  0
ARC
  5
3533
330
18
100
AcDbEntity
  8
1
  6
Continuous
 48
0.25
100
AcDbCircle
 10
386.4047948052832
 20
93.32046497794721
 30
0.0
 40
4.0
100
AcDbArc
 50
307.7480841423441
 51
358.2313627345416
  0
ARC
  5
3534
330
18
100
AcDbEntity
  8
1
  6
Continuous
 48
0.25
100
AcDbCircle
 10
386.8973690588408
 20
93.0722633302548
 30
0.0
 40
2.0
100
AcDbArc
 50
308.8069664713739
 51
358.2313627345418
  0
ARC
  5
3535
330
18
100
AcDbEntity
  8
1
  6
Continuous
 48
0.25
100
AcDbCircle
 10
350.7873093620775
 20
93.07226372022212
 30
0.0
 40
2.0
100
AcDbArc
 50
181.7686372654541
 51
231.1929686056166
  0
ARC
  5
3536
330
18
100
AcDbEntity
  8
1
  6
Continuous
100
AcDbCircle
 10
275.6451676063634
 20
132.6089179843671
 30
0.0
 40
20.00401463673224
100
AcDbArc
 50
126.1785116500006
 51
156.9563391297927
  0
ARC
  5
35EA
330
18
100
AcDbEntity
  8
1
  6
Continuous
100
AcDbCircle
 10
385.6958501517771
 20
120.8611596852744
 30
0.0
 40
2.626248002527995
100
AcDbArc
 50
343.4065678006648
 51
354.5375810979278
  0
ARC
  5
35ED
330
18
100
AcDbEntity
  8
1
  6
Continuous
100
AcDbCircle
 10
385.6958501517771
 20
120.8611596852744
 30
0.0
 40
2.626248002527995
100
AcDbArc
 50
5.462418902062281
 51
16.59343219932729
  0
ARC
  5
3D26
330
18
100
AcDbEntity
  8
1
  6
Continuous
 48
0.25
100
AcDbCircle
 10
350.7423392165059
 20
113.2636534664116
 30
0.0
 40
0.5
100
AcDbArc
 50
95.71059313757587
 51
267.6312450625733
  0
ARC
  5
3D27
330
18
100
AcDbEntity
  8
1
  6
Continuous
 48
0.25
100
AcDbCircle
 10
350.7423392165059
 20
112.2636534664116
 30
0.0
 40
0.5
100
AcDbArc
 50
95.71059313757587
 51
267.6312450625506
  0
ARC
  5
3D28
330
18
100
AcDbEntity
  8
1
  6
Continuous
 48
0.25
100
AcDbCircle
 10
350.7423392165059
 20
111.2636534664116
 30
0.0
 40
0.5
100
AcDbArc
 50
95.71059313756931
 51
267.6312450625634
  0
ARC
  5
3D29
330
18
100
AcDbEntity
  8
1
  6
Continuous
 48
0.25
100
AcDbCircle
 10
350.7423392165059
 20
104.2636534664116
 30
0.0
 40
0.5
100
AcDbArc
 50
95.71059313756277
 51
267.631245062658
  0
ARC
  5
3D2A
330
18
100
AcDbEntity
  8
1
  6
Continuous
 48
0.25
100
AcDbCircle
 10
350.7423392165059
 20
103.2636534664116
 30
0.0
 40
0.5
100
AcDbArc
 50
95.7105931375595
 51
267.6312450625733
  0
ARC
  5
3D2B
330
18
100
AcDbEntity
  8
1
  6
Continuous
 48
0.25
100
AcDbCircle
 10
350.7423392165059
 20
102.2636534664116
 30
0.0
 40
0.5
100
AcDbArc
 50
95.71059313755624
 51
267.6312450625896
  0
ARC
  5
3D2C
330
18
100
AcDbEntity
  8
1
  6
Continuous
 48
0.25
100
AcDbCircle
 10
350.7423392165059
 20
101.2636534664116
 30
0.0
 40
0.5
100
AcDbArc
 50
95.71059313755295
 51
267.631245062658
  0
ARC
  5
3D2D
330
18
100
AcDbEntity
  8
1
  6
Continuous
 48
0.25
100
AcDbCircle
 10
350.7423392165059
 20
100.2636534664116
 30
0.0
 40
0.5
100
AcDbArc
 50
95.7105931375497
 51
267.6312450625929
  0
ARC
  5
3D2E
330
18
100
AcDbEntity
  8
1
  6
Continuous
 48
0.25
100
AcDbCircle
 10
350.7423392165059
 20
99.26365346641162
 30
0.0
 40
0.5
100
AcDbArc
 50
95.71059313754641
 51
275.7105931375464
  0
ARC
  5
3D2F
330
18
100
AcDbEntity
  8
1
  6
Continuous
 48
0.25
100
AcDbCircle
 10
355.7423392165184
 20
112.7636534664195
 30
0.0
 40
0.5
100
AcDbArc
 50
270.0000000001791
 51
95.71059313757587
  0
ARC
  5
3D30
330
18
100
AcDbEntity
  8
1
  6
Continuous
 48
0.25
100
AcDbCircle
 10
355.7423392165215
 20
111.7636534664195
 30
0.0
 40
0.5
100
AcDbArc
 50
267.6312450628602
 51
95.71059313756931
  0
ARC
  5
3D31
330
18
100
AcDbEntity
  8
1
  6
Continuous
 48
0.25
100
AcDbCircle
 10
355.7423392165277
 20
104.7636534664195
 30
0.0
 40
0.5
100
AcDbArc
 50
270.0000000001856
 51
95.71059313756277
  0
ARC
  5
3D32
330
18
100
AcDbEntity
  8
1
  6
Continuous
 48
0.25
100
AcDbCircle
 10
355.7423392165309
 20
103.7636534664195
 30
0.0
 40
0.5
100
AcDbArc
 50
270.0000000001759
 51
95.7105931375595
  0
ARC
  5
3D33
330
18
100
AcDbEntity
  8
1
  6
Continuous
 48
0.25
100
AcDbCircle
 10
355.742339216534
 20
102.7636534664195
 30
0.0
 40
0.5
100
AcDbArc
 50
270.0000000001824
 51
95.71059313755624
  0
ARC
  5
3D34
330
18
100
AcDbEntity
  8
1
  6
Continuous
 48
0.25
100
AcDbCircle
 10
355.7423392165372
 20
101.7636534664195
 30
0.0
 40
0.5
100
AcDbArc
 50
270.0000000001791
 51
95.71059313755295
  0
ARC
  5
3D35
330
18
100
AcDbEntity
  8
1
  6
Continuous
 48
0.25
100
AcDbCircle
 10
355.7423392165403
 20
100.7636534664195
 30
0.0
 40
0.5
100
AcDbArc
 50
270.0000000001791
 51
95.7105931375497
  0
ARC
  5
3D36
330
18
100
AcDbEntity
  8
1
  6
Continuous
 48
0.25
100
AcDbCircle
 10
355.7423392165434
 20
99.76365346641953
 30
0.0
 40
0.5
100
AcDbArc
 50
275.7105931375464
 51
95.71059313754641
  0
ARC
  5
3D37
330
18
100
AcDbEntity
  8
1
  6
Continuous
 48
0.25
100
AcDbCircle
 10
350.7423392165059
 20
114.2636534664116
 30
0.0
 40
0.5
100
AcDbArc
 50
95.71059313757587
 51
267.6312450625634
  0
ARC
  5
3D38
330
18
100
AcDbEntity
  8
1
  6
Continuous
 48
0.25
100
AcDbCircle
 10
350.7423392165059
 20
115.2636534664116
 30
0.0
 40
0.5
100
AcDbArc
 50
95.71059313757587
 51
267.6312450625439
  0
ARC
  5
3D39
330
18
100
AcDbEntity
  8
1
  6
Continuous
 48
0.25
100
AcDbCircle
 10
350.7423392165059
 20
116.2636534664116
 30
0.0
 40
0.5
100
AcDbArc
 50
95.71059313757587
 51
267.6312450625375
  0
ARC
  5
3D3A
330
18
100
AcDbEntity
  8
1
  6
Continuous
 48
0.25
100
AcDbCircle
 10
350.7423392165059
 20
117.2636534664116
 30
0.0
 40
0.5
100
AcDbArc
 50
95.71059313757587
 51
267.6312450625537
  0
ARC
  5
3D3B
330
18
100
AcDbEntity
  8
1
  6
Continuous
 48
0.25
100
AcDbCircle
 10
355.7423392165184
 20
113.7636534664195
 30
0.0
 40
0.5
100
AcDbArc
 50
270.0
 51
95.71059313757587
  0
ARC
  5
3D3C
330
18
100
AcDbEntity
  8
1
  6
Continuous
 48
0.25
100
AcDbCircle
 10
355.7423392165184
 20
114.7636534664195
 30
0.0
 40
0.5
100
AcDbArc
 50
270.0
 51
95.71059313757587
  0
ARC
  5
3D3D
330
18
100
AcDbEntity
  8
1
  6
Continuous
 48
0.25
100
AcDbCircle
 10
355.7423392165184
 20
115.7636534664195
 30
0.0
 40
0.5
100
AcDbArc
 50
270.0
 51
95.71059313757587
  0
ARC
  5
3D3E
330
18
100
AcDbEntity
  8
1
  6
Continuous
 48
0.25
100
AcDbCircle
 10
355.7423392165184
 20
116.7636534664195
 30
0.0
 40
0.5
100
AcDbArc
 50
270.0
 51
95.71059313757587
  0
ARC
  5
3D3F
330
18
100
AcDbEntity
  8
1
  6
Continuous
 48
0.25
100
AcDbCircle
 10
355.7423392165184
 20
117.7636534664195
 30
0.0
 40
0.5
100
AcDbArc
 50
270.0
 51
95.71059313757587
  0
LINE
  5
3D40
330
18
100
AcDbEntity
  8
1
  6
Continuous
 48
0.25
100
AcDbLine
 10
353.7423392163822
 20
118.4661472474855
 30
0.0
 11
355.7920910760277
 21
118.2611720615246
 31
0.0
  0
LINE
  5
3D41
330
18
100
AcDbEntity
  8
1
  6
Continuous
 48
0.25
100
AcDbLine
 10
355.6925873570071
 20
118.2611720615245
 30
0.0
 11
350.6925873569946
 21
117.7611720615166
 31
0.0
  0
LINE
  5
3D42
330
18
100
AcDbEntity
  8
1
  6
Continuous
 48
0.25
100
AcDbLine
 10
355.692587357007
 20
117.2611720615244
 30
0.0
 11
350.6925873569946
 21
116.7611720615166
 31
0.0
  0
LINE
  5
3D43
330
18
100
AcDbEntity
  8
1
  6
Continuous
 48
0.25
100
AcDbLine
 10
355.6925873570071
 20
116.2611720615244
 30
0.0
 11
350.6925873569945
 21
115.7611720615166
 31
0.0
  0
LINE
  5
3D44
330
18
100
AcDbEntity
  8
1
  6
Continuous
 48
0.25
100
AcDbLine
 10
355.6925873570071
 20
115.2611720615244
 30
0.0
 11
350.6925873569946
 21
114.7611720615166
 31
0.0
  0
LINE
  5
3D45
330
18
100
AcDbEntity
  8
1
  6
Continuous
 48
0.25
100
AcDbLine
 10
355.6925873570071
 20
114.2611720615245
 30
0.0
 11
350.6925873569946
 21
113.7611720615166
 31
0.0
  0
LINE
  5
3D46
330
18
100
AcDbEntity
  8
1
  6
Continuous
 48
0.25
100
AcDbLine
 10
355.692587357007
 20
113.2611720615245
 30
0.0
 11
350.6925873569946
 21
112.7611720615166
 31
0.0
  0
LINE
  5
3D47
330
18
100
AcDbEntity
  8
1
  6
Continuous
 48
0.25
100
AcDbLine
 10
355.6925873570103
 20
112.2611720615244
 30
0.0
 11
350.6925873569946
 21
111.7611720615166
 31
0.0
  0
LINE
  5
3D48
330
18
100
AcDbEntity
  8
1
  6
Continuous
 48
0.25
100
AcDbLine
 10
355.7216738181939
 20
111.2640807076426
 30
0.0
 11
350.7216738181763
 21
110.7640807076348
 31
0.0
  0
LINE
  5
3D49
330
18
100
AcDbEntity
  8
1
  6
Continuous
 48
0.25
100
AcDbLine
 10
355.7216738182026
 20
105.264080707643
 30
0.0
 11
350.6925873569948
 21
104.7611720615165
 31
0.0
  0
LINE
  5
3D4A
330
18
100
AcDbEntity
  8
1
  6
Continuous
 48
0.25
100
AcDbLine
 10
355.6925873570197
 20
104.2611720615244
 30
0.0
 11
350.6925873569946
 21
103.7611720615165
 31
0.0
  0
LINE
  5
3D4B
330
18
100
AcDbEntity
  8
1
  6
Continuous
 48
0.25
100
AcDbLine
 10
355.6925873570232
 20
103.2611720615245
 30
0.0
 11
350.6925873569949
 21
102.7611720615166
 31
0.0
  0
LINE
  5
3D4C
330
18
100
AcDbEntity
  8
1
  6
Continuous
 48
0.25
100
AcDbLine
 10
355.6925873570262
 20
102.2611720615245
 30
0.0
 11
350.6925873569949
 21
101.7611720615166
 31
0.0
  0
LINE
  5
3D4D
330
18
100
AcDbEntity
  8
1
  6
Continuous
 48
0.25
100
AcDbLine
 10
355.6925873570293
 20
101.2611720615244
 30
0.0
 11
350.6925873569948
 21
100.7611720615165
 31
0.0
  0
LINE
  5
3D4E
330
18
100
AcDbEntity
  8
1
  6
Continuous
 48
0.25
100
AcDbLine
 10
355.6925873570325
 20
100.2611720615244
 30
0.0
 11
350.6925873569949
 21
99.76117206151664
 31
0.0
  0
LINE
  5
3D4F
330
18
100
AcDbEntity
  8
1
  6
Continuous
 48
0.25
100
AcDbLine
 10
355.792091076054
 20
99.26613487131454
 30
0.0
 11
350.7920910760166
 21
98.76613487130672
 31
0.0
  0
ARC
  5
3D50
330
18
100
AcDbEntity
  8
1
  6
Continuous
 48
0.25
100
AcDbCircle
 10
353.7423392163822
 20
118.4661472474855
 30
0.0
 40
1.0
100
AcDbArc
 50
180.0
 51
209.1647304551874
  0
ARC
  5
3D85
330
18
100
AcDbEntity
  8
1
  6
Continuous
 48
0.25
100
AcDbCircle
 10
350.742339216509
 20
110.2636534664116
 30
0.0
 40
0.5
100
AcDbArc
 50
95.71059313756931
 51
267.6312450625634
  0
ARC
  5
3D86
330
18
100
AcDbEntity
  8
1
  6
Continuous
 48
0.25
100
AcDbCircle
 10
355.7423392165247
 20
110.7636534664195
 30
0.0
 40
0.5
100
AcDbArc
 50
267.6312450628602
 51
95.71059313756931
  0
LINE
  5
3D87
330
18
100
AcDbEntity
  8
1
  6
Continuous
 48
0.25
100
AcDbLine
 10
355.7216738181971
 20
110.2640807076426
 30
0.0
 11
350.7216738181794
 21
109.7640807076348
 31
0.0
  0
ARC
  5
3D88
330
18
100
AcDbEntity
  8
1
  6
Continuous
 48
0.25
100
AcDbCircle
 10
350.7423392165122
 20
109.2636534664116
 30
0.0
 40
0.5
100
AcDbArc
 50
95.71059313756931
 51
267.6312450625634
  0
ARC
  5
3D89
330
18
100
AcDbEntity
  8
1
  6
Continuous
 48
0.25
100
AcDbCircle
 10
355.7423392165278
 20
109.7636534664195
 30
0.0
 40
0.5
100
AcDbArc
 50
267.6312450628602
 51
95.71059313756931
  0
LINE
  5
3D8A
330
18
100
AcDbEntity
  8
1
  6
Continuous
 48
0.25
100
AcDbLine
 10
355.7216738182002
 20
109.2640807076426
 30
0.0
 11
350.7216738181825
 21
108.7640807076348
 31
0.0
  0
ARC
  5
3D8B
330
18
100
AcDbEntity
  8
1
  6
Continuous
 48
0.25
100
AcDbCircle
 10
350.7423392165153
 20
108.2636534664116
 30
0.0
 40
0.5
100
AcDbArc
 50
95.71059313756931
 51
267.6312450625634
  0
ARC
  5
3D8C
330
18
100
AcDbEntity
  8
1
  6
Continuous
 48
0.25
100
AcDbCircle
 10
355.7423392165309
 20
108.7636534664195
 30
0.0
 40
0.5
100
AcDbArc
 50
267.6312450628602
 51
95.71059313756931
  0
LINE
  5
3D8D
330
18
100
AcDbEntity
  8
1
  6
Continuous
 48
0.25
100
AcDbLine
 10
355.7216738182035
 20
108.2640807076426
 30
0.0
 11
350.7216738181857
 21
107.7640807076348
 31
0.0
  0
ARC
  5
3D8E
330
18
100
AcDbEntity
  8
1
  6
Continuous
 48
0.25
100
AcDbCircle
 10
350.7423392165184
 20
107.2636534664116
 30
0.0
 40
0.5
100
AcDbArc
 50
95.71059313756931
 51
267.6312450625634
  0
ARC
  5
3D8F
330
18
100
AcDbEntity
  8
1
  6
Continuous
 48
0.25
100
AcDbCircle
 10
355.742339216534
 20
107.7636534664195
 30
0.0
 40
0.5
100
AcDbArc
 50
267.6312450628602
 51
95.71059313756931
  0
LINE
  5
3D90
330
18
100
AcDbEntity
  8
1
  6
Continuous
 48
0.25
100
AcDbLine
 10
355.7216738182063
 20
107.2640807076426
 30
0.0
 11
350.7216738181888
 21
106.7640807076348
 31
0.0
  0
ARC
  5
3D91
330
18
100
AcDbEntity
  8
1
  6
Continuous
 48
0.25
100
AcDbCircle
 10
350.7423392165216
 20
106.2636534664116
 30
0.0
 40
0.5
100
AcDbArc
 50
95.71059313756931
 51
267.6312450625634
  0
ARC
  5
3D92
330
18
100
AcDbEntity
  8
1
  6
Continuous
 48
0.25
100
AcDbCircle
 10
355.7423392165371
 20
106.7636534664195
 30
0.0
 40
0.5
100
AcDbArc
 50
267.6312450628602
 51
95.71059313756931
  0
LINE
  5
3D93
330
18
100
AcDbEntity
  8
1
  6
Continuous
 48
0.25
100
AcDbLine
 10
355.7216738182096
 20
106.2640807076426
 30
0.0
 11
350.7216738181919
 21
105.7640807076348
 31
0.0
  0
ARC
  5
3D94
330
18
100
AcDbEntity
  8
1
  6
Continuous
 48
0.25
100
AcDbCircle
 10
350.7423392165247
 20
105.2636534664116
 30
0.0
 40
0.5
100
AcDbArc
 50
95.71059313756931
 51
267.6312450625634
  0
ARC
  5
3D95
330
18
100
AcDbEntity
  8
1
  6
Continuous
 48
0.25
100
AcDbCircle
 10
355.7423392165402
 20
105.7636534664195
 30
0.0
 40
0.5
100
AcDbArc
 50
267.6312450628602
 51
95.71059313756931
  0
ARC
  5
3D96
330
18
100
AcDbEntity
  8
1
  6
Continuous
 48
0.25
100
AcDbCircle
 10
381.9423392165059
 20
113.2636534664081
 30
0.0
 40
0.5
100
AcDbArc
 50
95.71059313757587
 51
267.6312450625733
  0
ARC
  5
3D97
330
18
100
AcDbEntity
  8
1
  6
Continuous
 48
0.25
100
AcDbCircle
 10
381.9423392165059
 20
112.2636534664081
 30
0.0
 40
0.5
100
AcDbArc
 50
95.71059313757587
 51
267.6312450625506
  0
ARC
  5
3D98
330
18
100
AcDbEntity
  8
1
  6
Continuous
 48
0.25
100
AcDbCircle
 10
381.9423392165059
 20
111.2636534664081
 30
0.0
 40
0.5
100
AcDbArc
 50
95.71059313756931
 51
267.6312450625634
  0
ARC
  5
3D99
330
18
100
AcDbEntity
  8
1
  6
Continuous
 48
0.25
100
AcDbCircle
 10
381.9423392165059
 20
104.2636534664081
 30
0.0
 40
0.5
100
AcDbArc
 50
95.71059313756277
 51
267.631245062658
  0
ARC
  5
3D9A
330
18
100
AcDbEntity
  8
1
  6
Continuous
 48
0.25
100
AcDbCircle
 10
381.9423392165059
 20
103.2636534664081
 30
0.0
 40
0.5
100
AcDbArc
 50
95.7105931375595
 51
267.6312450625733
  0
ARC
  5
3D9B
330
18
100
AcDbEntity
  8
1
  6
Continuous
 48
0.25
100
AcDbCircle
 10
381.9423392165059
 20
102.2636534664081
 30
0.0
 40
0.5
100
AcDbArc
 50
95.71059313755624
 51
267.6312450625896
  0
ARC
  5
3D9C
330
18
100
AcDbEntity
  8
1
  6
Continuous
 48
0.25
100
AcDbCircle
 10
381.9423392165059
 20
101.2636534664081
 30
0.0
 40
0.5
100
AcDbArc
 50
95.71059313755295
 51
267.631245062658
  0
ARC
  5
3D9D
330
18
100
AcDbEntity
  8
1
  6
Continuous
 48
0.25
100
AcDbCircle
 10
381.9423392165059
 20
100.2636534664081
 30
0.0
 40
0.5
100
AcDbArc
 50
95.7105931375497
 51
267.6312450625929
  0
ARC
  5
3D9E
330
18
100
AcDbEntity
  8
1
  6
Continuous
 48
0.25
100
AcDbCircle
 10
381.9423392165059
 20
99.2636534664081
 30
0.0
 40
0.5
100
AcDbArc
 50
95.71059313754641
 51
275.7105931375464
  0
ARC
  5
3D9F
330
18
100
AcDbEntity
  8
1
  6
Continuous
 48
0.25
100
AcDbCircle
 10
386.9423392165184
 20
112.763653466416
 30
0.0
 40
0.5
100
AcDbArc
 50
270.0000000001791
 51
95.71059313757587
  0
ARC
  5
3DA0
330
18
100
AcDbEntity
  8
1
  6
Continuous
 48
0.25
100
AcDbCircle
 10
386.9423392165215
 20
111.763653466416
 30
0.0
 40
0.5
100
AcDbArc
 50
267.6312450628602
 51
95.71059313756931
  0
ARC
  5
3DA1
330
18
100
AcDbEntity
  8
1
  6
Continuous
 48
0.25
100
AcDbCircle
 10
386.9423392165277
 20
104.763653466416
 30
0.0
 40
0.5
100
AcDbArc
 50
270.0000000001856
 51
95.71059313756277
  0
ARC
  5
3DA2
330
18
100
AcDbEntity
  8
1
  6
Continuous
 48
0.25
100
AcDbCircle
 10
386.9423392165309
 20
103.763653466416
 30
0.0
 40
0.5
100
AcDbArc
 50
270.0000000001759
 51
95.7105931375595
  0
ARC
  5
3DA3
330
18
100
AcDbEntity
  8
1
  6
Continuous
 48
0.25
100
AcDbCircle
 10
386.942339216534
 20
102.763653466416
 30
0.0
 40
0.5
100
AcDbArc
 50
270.0000000001824
 51
95.71059313755624
  0
ARC
  5
3DA4
330
18
100
AcDbEntity
  8
1
  6
Continuous
 48
0.25
100
AcDbCircle
 10
386.9423392165371
 20
101.763653466416
 30
0.0
 40
0.5
100
AcDbArc
 50
270.0000000001791
 51
95.71059313755295
  0
ARC
  5
3DA5
330
18
100
AcDbEntity
  8
1
  6
Continuous
 48
0.25
100
AcDbCircle
 10
386.9423392165403
 20
100.763653466416
 30
0.0
 40
0.5
100
AcDbArc
 50
270.0000000001791
 51
95.7105931375497
  0
ARC
  5
3DA6
330
18
100
AcDbEntity
  8
1
  6
Continuous
 48
0.25
100
AcDbCircle
 10
386.9423392165434
 20
99.763653466416
 30
0.0
 40
0.5
100
AcDbArc
 50
275.7105931375464
 51
95.71059313754641
  0
ARC
  5
3DA7
330
18
100
AcDbEntity
  8
1
  6
Continuous
 48
0.25
100
AcDbCircle
 10
381.9423392165059
 20
114.2636534664081
 30
0.0
 40
0.5
100
AcDbArc
 50
95.71059313757587
 51
267.6312450625634
  0
ARC
  5
3DA8
330
18
100
AcDbEntity
  8
1
  6
Continuous
 48
0.25
100
AcDbCircle
 10
381.9423392165059
 20
115.2636534664081
 30
0.0
 40
0.5
100
AcDbArc
 50
95.71059313757587
 51
267.6312450625439
  0
ARC
  5
3DA9
330
18
100
AcDbEntity
  8
1
  6
Continuous
 48
0.25
100
AcDbCircle
 10
381.9423392165059
 20
116.2636534664081
 30
0.0
 40
0.5
100
AcDbArc
 50
95.71059313757587
 51
267.6312450625375
  0
ARC
  5
3DAA
330
18
100
AcDbEntity
  8
1
  6
Continuous
 48
0.25
100
AcDbCircle
 10
381.9423392165059
 20
117.2636534664081
 30
0.0
 40
0.5
100
AcDbArc
 50
95.71059313757587
 51
267.6312450625537
  0
ARC
  5
3DAB
330
18
100
AcDbEntity
  8
1
  6
Continuous
 48
0.25
100
AcDbCircle
 10
386.9423392165184
 20
113.763653466416
 30
0.0
 40
0.5
100
AcDbArc
 50
270.0
 51
95.71059313757587
  0
ARC
  5
3DAC
330
18
100
AcDbEntity
  8
1
  6
Continuous
 48
0.25
100
AcDbCircle
 10
386.9423392165184
 20
114.763653466416
 30
0.0
 40
0.5
100
AcDbArc
 50
270.0
 51
95.71059313757587
  0
ARC
  5
3DAD
330
18
100
AcDbEntity
  8
1
  6
Continuous
 48
0.25
100
AcDbCircle
 10
386.9423392165184
 20
115.763653466416
 30
0.0
 40
0.5
100
AcDbArc
 50
270.0
 51
95.71059313757587
  0
ARC
  5
3DAE
330
18
100
AcDbEntity
  8
1
  6
Continuous
 48
0.25
100
AcDbCircle
 10
386.9423392165184
 20
116.763653466416
 30
0.0
 40
0.5
100
AcDbArc
 50
270.0
 51
95.71059313757587
  0
ARC
  5
3DAF
330
18
100
AcDbEntity
  8
1
  6
Continuous
 48
0.25
100
AcDbCircle
 10
386.9423392165184
 20
117.763653466416
 30
0.0
 40
0.5
100
AcDbArc
 50
270.0
 51
95.71059313757587
  0
LINE
  5
3DB0
330
18
100
AcDbEntity
  8
1
  6
Continuous
 48
0.25
100
AcDbLine
 10
384.9423392163822
 20
118.466147247482
 30
0.0
 11
386.9920910760276
 21
118.2611720615211
 31
0.0
  0
LINE
  5
3DB1
330
18
100
AcDbEntity
  8
1
  6
Continuous
 48
0.25
100
AcDbLine
 10
386.8925873570071
 20
118.261172061521
 30
0.0
 11
381.8925873569946
 21
117.7611720615131
 31
0.0
  0
LINE
  5
3DB2
330
18
100
AcDbEntity
  8
1
  6
Continuous
 48
0.25
100
AcDbLine
 10
386.892587357007
 20
117.2611720615209
 30
0.0
 11
381.8925873569946
 21
116.7611720615131
 31
0.0
  0
LINE
  5
3DB3
330
18
100
AcDbEntity
  8
1
  6
Continuous
 48
0.25
100
AcDbLine
 10
386.8925873570071
 20
116.2611720615209
 30
0.0
 11
381.8925873569945
 21
115.7611720615131
 31
0.0
  0
LINE
  5
3DB4
330
18
100
AcDbEntity
  8
1
  6
Continuous
 48
0.25
100
AcDbLine
 10
386.8925873570071
 20
115.2611720615209
 30
0.0
 11
381.8925873569946
 21
114.7611720615131
 31
0.0
  0
LINE
  5
3DB5
330
18
100
AcDbEntity
  8
1
  6
Continuous
 48
0.25
100
AcDbLine
 10
386.8925873570071
 20
114.261172061521
 30
0.0
 11
381.8925873569946
 21
113.7611720615131
 31
0.0
  0
LINE
  5
3DB6
330
18
100
AcDbEntity
  8
1
  6
Continuous
 48
0.25
100
AcDbLine
 10
386.892587357007
 20
113.261172061521
 30
0.0
 11
381.8925873569946
 21
112.7611720615131
 31
0.0
  0
LINE
  5
3DB7
330
18
100
AcDbEntity
  8
1
  6
Continuous
 48
0.25
100
AcDbLine
 10
386.8925873570104
 20
112.2611720615209
 30
0.0
 11
381.8925873569946
 21
111.7611720615131
 31
0.0
  0
LINE
  5
3DB8
330
18
100
AcDbEntity
  8
1
  6
Continuous
 48
0.25
100
AcDbLine
 10
386.921673818194
 20
111.2640807076391
 30
0.0
 11
381.9216738181764
 21
110.7640807076313
 31
0.0
  0
LINE
  5
3DB9
330
18
100
AcDbEntity
  8
1
  6
Continuous
 48
0.25
100
AcDbLine
 10
386.9216738182026
 20
105.2640807076395
 30
0.0
 11
381.8925873569948
 21
104.761172061513
 31
0.0
  0
LINE
  5
3DBA
330
18
100
AcDbEntity
  8
1
  6
Continuous
 48
0.25
100
AcDbLine
 10
386.8925873570196
 20
104.2611720615209
 30
0.0
 11
381.8925873569946
 21
103.761172061513
 31
0.0
  0
LINE
  5
3DBB
330
18
100
AcDbEntity
  8
1
  6
Continuous
 48
0.25
100
AcDbLine
 10
386.8925873570232
 20
103.261172061521
 30
0.0
 11
381.8925873569948
 21
102.7611720615131
 31
0.0
  0
LINE
  5
3DBC
330
18
100
AcDbEntity
  8
1
  6
Continuous
 48
0.25
100
AcDbLine
 10
386.8925873570262
 20
102.261172061521
 30
0.0
 11
381.8925873569948
 21
101.7611720615131
 31
0.0
  0
LINE
  5
3DBD
330
18
100
AcDbEntity
  8
1
  6
Continuous
 48
0.25
100
AcDbLine
 10
386.8925873570294
 20
101.2611720615209
 30
0.0
 11
381.8925873569948
 21
100.761172061513
 31
0.0
  0
LINE
  5
3DBE
330
18
100
AcDbEntity
  8
1
  6
Continuous
 48
0.25
100
AcDbLine
 10
386.8925873570325
 20
100.2611720615209
 30
0.0
 11
381.8925873569948
 21
99.76117206151307
 31
0.0
  0
LINE
  5
3DBF
330
18
100
AcDbEntity
  8
1
  6
Continuous
 48
0.25
100
AcDbLine
 10
386.9920910760539
 20
99.26613487131099
 30
0.0
 11
381.9920910760166
 21
98.7661348713032
 31
0.0
  0
ARC
  5
3DC0
330
18
100
AcDbEntity
  8
1
  6
Continuous
 48
0.25
100
AcDbCircle
 10
384.9423392163822
 20
118.466147247482
 30
0.0
 40
1.0
100
AcDbArc
 50
180.0
 51
209.1647304551874
  0
ARC
  5
3DC1
330
18
100
AcDbEntity
  8
1
  6
Continuous
 48
0.25
100
AcDbCircle
 10
381.942339216509
 20
110.2636534664081
 30
0.0
 40
0.5
100
AcDbArc
 50
95.71059313756931
 51
267.6312450625634
  0
ARC
  5
3DC2
330
18
100
AcDbEntity
  8
1
  6
Continuous
 48
0.25
100
AcDbCircle
 10
386.9423392165247
 20
110.763653466416
 30
0.0
 40
0.5
100
AcDbArc
 50
267.6312450628602
 51
95.71059313756931
  0
LINE
  5
3DC3
330
18
100
AcDbEntity
  8
1
  6
Continuous
 48
0.25
100
AcDbLine
 10
386.9216738181971
 20
110.2640807076391
 30
0.0
 11
381.9216738181794
 21
109.7640807076313
 31
0.0
  0
ARC
  5
3DC4
330
18
100
AcDbEntity
  8
1
  6
Continuous
 48
0.25
100
AcDbCircle
 10
381.9423392165122
 20
109.2636534664081
 30
0.0
 40
0.5
100
AcDbArc
 50
95.71059313756931
 51
267.6312450625634
  0
ARC
  5
3DC5
330
18
100
AcDbEntity
  8
1
  6
Continuous
 48
0.25
100
AcDbCircle
 10
386.9423392165277
 20
109.763653466416
 30
0.0
 40
0.5
100
AcDbArc
 50
267.6312450628602
 51
95.71059313756931
  0
LINE
  5
3DC6
330
18
100
AcDbEntity
  8
1
  6
Continuous
 48
0.25
100
AcDbLine
 10
386.9216738182
 20
109.2640807076391
 30
0.0
 11
381.9216738181825
 21
108.7640807076313
 31
0.0
  0
ARC
  5
3DC7
330
18
100
AcDbEntity
  8
1
  6
Continuous
 48
0.25
100
AcDbCircle
 10
381.9423392165153
 20
108.2636534664081
 30
0.0
 40
0.5
100
AcDbArc
 50
95.71059313756931
 51
267.6312450625634
  0
ARC
  5
3DC8
330
18
100
AcDbEntity
  8
1
  6
Continuous
 48
0.25
100
AcDbCircle
 10
386.9423392165309
 20
108.763653466416
 30
0.0
 40
0.5
100
AcDbArc
 50
267.6312450628602
 51
95.71059313756931
  0
LINE
  5
3DC9
330
18
100
AcDbEntity
  8
1
  6
Continuous
 48
0.25
100
AcDbLine
 10
386.9216738182037
 20
108.2640807076391
 30
0.0
 11
381.9216738181856
 21
107.7640807076313
 31
0.0
  0
ARC
  5
3DCA
330
18
100
AcDbEntity
  8
1
  6
Continuous
 48
0.25
100
AcDbCircle
 10
381.9423392165184
 20
107.2636534664081
 30
0.0
 40
0.5
100
AcDbArc
 50
95.71059313756931
 51
267.6312450625634
  0
ARC
  5
3DCB
330
18
100
AcDbEntity
  8
1
  6
Continuous
 48
0.25
100
AcDbCircle
 10
386.942339216534
 20
107.763653466416
 30
0.0
 40
0.5
100
AcDbArc
 50
267.6312450628602
 51
95.71059313756931
  0
LINE
  5
3DCC
330
18
100
AcDbEntity
  8
1
  6
Continuous
 48
0.25
100
AcDbLine
 10
386.9216738182063
 20
107.2640807076391
 30
0.0
 11
381.9216738181888
 21
106.7640807076313
 31
0.0
  0
ARC
  5
3DCD
330
18
100
AcDbEntity
  8
1
  6
Continuous
 48
0.25
100
AcDbCircle
 10
381.9423392165215
 20
106.2636534664081
 30
0.0
 40
0.5
100
AcDbArc
 50
95.71059313756931
 51
267.6312450625634
  0
ARC
  5
3DCE
330
18
100
AcDbEntity
  8
1
  6
Continuous
 48
0.25
100
AcDbCircle
 10
386.9423392165371
 20
106.763653466416
 30
0.0
 40
0.5
100
AcDbArc
 50
267.6312450628602
 51
95.71059313756931
  0
LINE
  5
3DCF
330
18
100
AcDbEntity
  8
1
  6
Continuous
 48
0.25
100
AcDbLine
 10
386.9216738182096
 20
106.2640807076391
 30
0.0
 11
381.9216738181919
 21
105.7640807076313
 31
0.0
  0
ARC
  5
3DD0
330
18
100
AcDbEntity
  8
1
  6
Continuous
 48
0.25
100
AcDbCircle
 10
381.9423392165246
 20
105.2636534664081
 30
0.0
 40
0.5
100
AcDbArc
 50
95.71059313756931
 51
267.6312450625634
  0
ARC
  5
3DD1
330
18
100
AcDbEntity
  8
1
  6
Continuous
 48
0.25
100
AcDbCircle
 10
386.9423392165402
 20
105.763653466416
 30
0.0
 40
0.5
100
AcDbArc
 50
267.6312450628602
 51
95.71059313756931
  0
ARC
  5
3DE1
330
18
100
AcDbEntity
  8
1
  6
Continuous
 48
0.25
100
AcDbCircle
 10
383.9423392163288
 20
98.56115968515185
 30
0.0
 40
1.0
100
AcDbArc
 50
0.0
 51
29.1647304511369
  0
LINE
  5
3DE2
330
18
100
AcDbEntity
  8
1
  6
Continuous
 48
0.25
100
AcDbLine
 10
381.8925873569964
 20
98.76613487108024
 30
0.0
 11
383.9423392163288
 21
98.56115968515185
 31
0.0
  0
ARC
  5
3DE3
330
18
100
AcDbEntity
  8
1
  6
Continuous
 48
0.25
100
AcDbCircle
 10
352.7423392163287
 20
98.56115968513373
 30
0.0
 40
1.0
100
AcDbArc
 50
0.0
 51
29.1647304511369
  0
LINE
  5
3DE4
330
18
100
AcDbEntity
  8
1
  6
Continuous
 48
0.25
100
AcDbLine
 10
350.6925873569964
 20
98.76613487106212
 30
0.0
 11
352.7423392163287
 21
98.56115968513373
 31
0.0
  0
LINE
  5
40C4
330
18
100
AcDbEntity
  8
1
  6
Continuous
 48
0.25
100
AcDbLine
 10
355.9550582284306
 20
109.3111596852743
 30
0.0
 11
357.0423392163968
 21
109.3111596852743
 31
0.0
  0
LINE
  5
40C5
330
18
100
AcDbEntity
  8
1
  6
Continuous
 48
0.25
100
AcDbLine
 10
387.1550582284381
 20
109.3111596852743
 30
0.0
 11
388.2127288875862
 21
109.3111596852743
 31
0.0
  0
ARC
  5
4122
330
18
100
AcDbEntity
  8
1
  6
Continuous
100
AcDbCircle
 10
385.6958501517742
 20
110.0611596852745
 30
0.0
 40
2.626248002527995
100
AcDbArc
 50
343.4065678006648
 51
354.5375810979278
  0
ARC
  5
4123
330
18
100
AcDbEntity
  8
1
  6
Continuous
100
AcDbCircle
 10
385.6958501517742
 20
110.0611596852745
 30
0.0
 40
2.626248002527995
100
AcDbArc
 50
5.46241890206225
 51
16.59343219932726
  0
ARC
  5
4124
330
18
100
AcDbEntity
  8
1
  6
Continuous
100
AcDbCircle
 10
385.6958501517736
 20
102.6611596852745
 30
0.0
 40
2.626248002527995
100
AcDbArc
 50
343.4065678006648
 51
354.5375810979278
  0
ARC
  5
4125
330
18
100
AcDbEntity
  8
1
  6
Continuous
100
AcDbCircle
 10
385.6958501517736
 20
102.6611596852745
 30
0.0
 40
2.626248002527995
100
AcDbArc
 50
5.462418902062347
 51
16.59343219932733
  0
ARC
  5
4126
330
18
100
AcDbEntity
  8
1
  6
Continuous
100
AcDbCircle
 10
351.9888282811887
 20
102.6611596852745
 30
0.0
 40
2.626248002527995
100
AcDbArc
 50
185.4624189020722
 51
196.5934321993352
  0
ARC
  5
4127
330
18
100
AcDbEntity
  8
1
  6
Continuous
100
AcDbCircle
 10
351.9888282811887
 20
102.6611596852745
 30
0.0
 40
2.626248002527995
100
AcDbArc
 50
163.4065678006718
 51
174.5375810979375
  0
ARC
  5
4128
330
18
100
AcDbEntity
  8
1
  6
Continuous
100
AcDbCircle
 10
351.9888282811887
 20
110.0611596852745
 30
0.0
 40
2.626248002527995
100
AcDbArc
 50
185.4624189020722
 51
196.5934321993352
  0
ARC
  5
4129
330
18
100
AcDbEntity
  8
1
  6
Continuous
100
AcDbCircle
 10
351.9888282811887
 20
110.0611596852745
 30
0.0
 40
2.626248002527995
100
AcDbArc
 50
163.4065678006718
 51
174.5375810979375
  0
ARC
  5
412A
330
18
100
AcDbEntity
  8
1
  6
Continuous
100
AcDbCircle
 10
351.9888282811865
 20
120.8611596852744
 30
0.0
 40
2.626248002527995
100
AcDbArc
 50
185.4624189020722
 51
196.5934321993353
  0
ARC
  5
412B
330
18
100
AcDbEntity
  8
1
  6
Continuous
100
AcDbCircle
 10
351.9888282811865
 20
120.8611596852744
 30
0.0
 40
2.626248002527995
100
AcDbArc
 50
163.4065678006718
 51
174.5375810979374
  0
ARC
  5
4149
330
18
100
AcDbEntity
  8
1
  6
Continuous
100
AcDbCircle
 10
152.4152134326148
 20
54.82757262231461
 30
0.0
 40
5.65212191199211
100
AcDbArc
 50
273.9251529692901
 51
279.2109391393203
  0
ARC
  5
414A
330
18
100
AcDbEntity
  8
1
  6
Continuous
100
AcDbCircle
 10
136.6246834397031
 20
54.82757262231461
 30
0.0
 40
5.65212191199211
100
AcDbArc
 50
260.7890236488545
 51
266.07481273584
  0
ARC
  5
41A8
330
18
100
AcDbEntity
  8
1
  6
Continuous
100
AcDbCircle
 10
129.0831125808934
 20
27.22970163513944
 30
0.0
 40
11.02622399244752
100
AcDbArc
 50
97.45439814847557
 51
114.8269672598712
  0
ARC
  5
41A9
330
18
100
AcDbEntity
  8
1
  6
Continuous
100
AcDbCircle
 10
134.3695612448045
 20
0.6490754113813586
 30
0.0
 40
38.11026527963797
100
AcDbArc
 50
97.32372552653885
 51
100.1514456489972
  0
ARC
  5
41AA
330
18
100
AcDbEntity
  8
1
  6
Continuous
100
AcDbCircle
 10
159.9567797495251
 20
27.22970163513944
 30
0.0
 40
11.02622399244752
100
AcDbArc
 50
65.17303274012924
 51
82.54560185152376
  0
ARC
  5
41AB
330
18
100
AcDbEntity
  8
1
  6
Continuous
100
AcDbCircle
 10
154.670331085614
 20
0.6490754113813586
 30
0.0
 40
38.11026527963797
100
AcDbArc
 50
79.8485543510023
 51
82.67627447346248
  0
ARC
  5
41AC
330
18
100
AcDbEntity
  8
1
  6
Continuous
 48
0.25
100
AcDbCircle
 10
377.6423392167072
 20
105.5111596852551
 30
0.0
 40
2.5
100
AcDbArc
 50
306.8698976384235
 51
53.13010236161261
  0
ARC
  5
41AD
330
18
100
AcDbEntity
  8
1
  6
Continuous
 48
0.25
100
AcDbCircle
 10
377.6423392167072
 20
99.5111596852733
 30
0.0
 40
2.5
100
AcDbArc
 50
306.8698976384235
 51
53.13010236161261
  0
CIRCLE
  5
42BA
330
18
100
AcDbEntity
  8
1
  6
Continuous
 48
0.25
100
AcDbCircle
 10
423.8423392165641
 20
140.1111596853069
 30
0.0
 40
1.6
  0
CIRCLE
  5
42BB
330
18
100
AcDbEntity
  8
1
  6
Continuous
 48
0.25
100
AcDbCircle
 10
413.842339216564
 20
140.1111596853069
 30
0.0
 40
1.6
  0
LINE
  5
42BC
330
18
100
AcDbEntity
  8
1
  6
Continuous
 48
0.25
100
AcDbLine
 10
428.8423392165642
 20
132.611159685307
 30
0.0
 11
408.842339216564
 21
132.611159685307
 31
0.0
  0
LINE
  5
42BD
330
18
100
AcDbEntity
  8
1
  6
Continuous
 48
0.25
100
AcDbLine
 10
428.8423392165642
 20
132.611159685307
 30
0.0
 11
428.8423392165642
 21
141.3448476246484
 31
0.0
  0
LINE
  5
42BE
330
18
100
AcDbEntity
  8
1
  6
Continuous
 48
0.25
100
AcDbLine
 10
408.842339216564
 20
132.611159685307
 30
0.0
 11
408.842339216564
 21
141.3448476246503
 31
0.0
  0
LINE
  5
42BF
330
18
100
AcDbEntity
  8
4
  6
CENTER
 48
0.25
100
AcDbLine
 10
413.842339216564
 20
144.6111596853166
 30
0.0
 11
413.842339216564
 21
135.6111596852972
 31
0.0
  0
LINE
  5
42C0
330
18
100
AcDbEntity
  8
4
  6
CENTER
 48
0.25
100
AcDbLine
 10
423.8423392165641
 20
144.6111596853166
 30
0.0
 11
423.8423392165641
 21
135.6111596852972
 31
0.0
  0
LINE
  5
42C1
330
18
100
AcDbEntity
  8
4
  6
CENTER
 48
0.25
100
AcDbLine
 10
409.3423392165544
 20
140.1111596853069
 30
0.0
 11
428.3423392165738
 21
140.1111596853069
 31
0.0
  0
LINE
  5
42C2
330
18
100
AcDbEntity
  8
4
  6
CENTER
 48
0.25
100
AcDbLine
 10
418.8423392164764
 20
130.611159685307
 30
0.0
 11
418.8423392164764
 21
147.1111596850354
 31
0.0
  0
ARC
  5
42C3
330
18
100
AcDbEntity
  8
1
  6
Continuous
 48
0.25
100
AcDbCircle
 10
418.8423392165621
 20
124.1111596850354
 30
0.0
 40
21.0
100
AcDbArc
 50
65.09893762962509
 51
114.9010623703605
  0
ARC
  5
42C4
330
18
100
AcDbEntity
  8
1
  6
Continuous
 48
0.25
100
AcDbCircle
 10
410.842339216564
 20
141.3448476246503
 30
0.0
 40
2.0
100
AcDbArc
 50
114.9010623703605
 51
180.0
  0
ARC
  5
42C5
330
18
100
AcDbEntity
  8
1
  6
Continuous
 48
0.25
100
AcDbCircle
 10
426.842339216564
 20
141.3448476246484
 30
0.0
 40
2.0
100
AcDbArc
 50
0.0
 51
65.09893762962509
  0
ARC
  5
4BA3
330
18
100
AcDbEntity
  8
1
  6
Continuous
 48
0.25
100
AcDbCircle
 10
24.19813484916375
 20
136.1111596853092
 30
0.0
 40
1.5
100
AcDbArc
 50
270.0000000000326
 51
315.0000000000007
  0
ARC
  5
4BA4
330
18
100
AcDbEntity
  8
1
  6
Continuous
 48
0.25
100
AcDbCircle
 10
22.39813484929011
 20
136.1111596853082
 30
0.0
 40
1.5
100
AcDbArc
 50
180.0000000000032
 51
270.0000000000326
  0
ARC
  5
4BA5
330
18
100
AcDbEntity
  8
1
  6
Continuous
 48
0.25
100
AcDbCircle
 10
24.19813484916375
 20
136.1111596853092
 30
0.0
 40
3.5
100
AcDbArc
 50
270.0000000000326
 51
315.0000000000007
  0
ARC
  5
4BA6
330
18
100
AcDbEntity
  8
1
  6
Continuous
 48
0.25
100
AcDbCircle
 10
22.39813484928953
 20
136.1111596853082
 30
0.0
 40
3.5
100
AcDbArc
 50
180.0
 51
270.0000000000326
  0
LINE
  5
4BA7
330
18
100
AcDbEntity
  8
1
  6
Continuous
 48
0.25
100
AcDbLine
 10
18.89813484929914
 20
145.1111596850375
 30
0.0
 11
20.89813484928033
 21
145.1111596850375
 31
0.0
  0
LINE
  5
4BA8
330
18
100
AcDbEntity
  8
1
  6
Continuous
 48
0.25
100
AcDbLine
 10
27.69813484928955
 20
134.6614122171291
 30
0.0
 11
26.28392128691945
 21
136.0756257795051
 31
0.0
  0
LINE
  5
4BA9
330
18
100
AcDbEntity
  8
1
  6
Continuous
 48
0.25
100
AcDbLine
 10
24.19813484916455
 20
134.6111596853092
 30
0.0
 11
22.39813484929107
 21
134.6111596853082
 31
0.0
  0
LINE
  5
4BAA
330
18
100
AcDbEntity
  8
1
  6
Continuous
 48
0.25
100
AcDbLine
 10
22.39813484929141
 20
132.6111596853082
 30
0.0
 11
24.19813484916574
 21
132.6111596853092
 31
0.0
  0
LINE
  5
4BAB
330
18
100
AcDbEntity
  8
1
  6
Continuous
 48
0.25
100
AcDbLine
 10
20.8981348492901
 20
136.1111596853081
 30
0.0
 11
20.89813484927907
 21
145.1111596850375
 31
0.0
  0
LINE
  5
4BAC
330
18
100
AcDbEntity
  8
1
  6
Continuous
 48
0.25
100
AcDbLine
 10
18.89813484928953
 20
136.1111596853082
 30
0.0
 11
18.89813484929914
 21
145.1111596850375
 31
0.0
  0
LINE
  5
4BAD
330
18
100
AcDbEntity
  8
4
  6
CENTER
 48
0.25
100
AcDbLine
 10
16.8981348492938
 20
140.111159685309
 30
0.0
 11
22.89813484928521
 21
140.111159685309
 31
0.0
  0
LINE
  5
4BAE
330
18
100
AcDbEntity
  8
1
  6
Continuous
 48
0.25
100
AcDbLine
 10
26.28392128691934
 20
136.0756257795052
 30
0.0
 11
25.25879502094364
 21
135.0504995135294
 31
0.0
  0
LINE
  5
4BAF
330
18
100
AcDbEntity
  8
1
  6
Continuous
 48
0.25
100
AcDbLine
 10
27.69813484928955
 20
134.6614122171292
 30
0.0
 11
26.67300858331686
 21
133.6362859511564
 31
0.0
  0
ARC
  5
4BB0
330
18
100
AcDbEntity
  8
1
  6
Continuous
 48
0.25
100
AcDbCircle
 10
52.85444231028997
 20
145.5176364405155
 30
0.0
 40
4.0002642657333
100
AcDbArc
 50
54.04572594324786
 51
84.94424717036002
  0
ARC
  5
4BB1
330
18
100
AcDbEntity
  8
1
  6
Continuous
 48
0.25
100
AcDbCircle
 10
50.19813484919666
 20
149.264060397551
 30
0.0
 40
0.5000000000000119
100
AcDbArc
 50
85.00000000000019
 51
180.0
  0
ARC
  5
4BB2
330
18
100
AcDbEntity
  8
1
  6
Continuous
 48
0.25
100
AcDbCircle
 10
59.39813484930368
 20
91.27648438128799
 30
0.0
 40
4.0
100
AcDbArc
 50
274.9999999999998
 51
0.000000000000007
  0
ARC
  5
4BB3
330
18
100
AcDbEntity
  8
1
  6
Continuous
 48
0.25
100
AcDbCircle
 10
53.36114403445129
 20
87.23494669177659
 30
0.0
 40
0.5000000000000119
100
AcDbArc
 50
199.4400348281708
 51
274.9999999999998
  0
ARC
  5
4BB4
330
18
100
AcDbEntity
  8
1
  6
Continuous
 48
0.25
100
AcDbCircle
 10
43.39813484930369
 20
132.6111596852488
 30
0.0
 40
19.99999999999994
100
AcDbArc
 50
0.000000000000007
 51
23.04157428903734
  0
ARC
  5
4BB5
330
18
100
AcDbEntity
  8
1
  6
Continuous
 48
0.25
100
AcDbCircle
 10
53.69813484919665
 20
96.79633060343737
 30
0.0
 40
4.0
100
AcDbArc
 50
180.0
 51
199.4400348281689
  0
LINE
  5
4BB6
330
18
100
AcDbEntity
  8
1
  6
Continuous
 48
0.25
100
AcDbLine
 10
50.24171272057049
 20
149.7621577465969
 30
0.0
 11
53.20563294683466
 21
149.5028483272036
 31
0.0
  0
LINE
  5
4BB7
330
18
100
AcDbEntity
  8
1
  6
Continuous
 48
0.25
100
AcDbLine
 10
53.40472190582506
 20
86.73684934273069
 30
0.0
 11
59.74675782029425
 21
87.29170558892098
 31
0.0
  0
ARC
  5
4BB8
330
18
100
AcDbEntity
  8
1
  6
Continuous
 48
0.25
100
AcDbCircle
 10
51.89813484919664
 20
86.61115968522343
 30
0.0
 40
1.0
100
AcDbArc
 50
180.0
 51
270.0
  0
ARC
  5
4BB9
330
18
100
AcDbEntity
  8
1
  6
Continuous
 48
0.25
100
AcDbCircle
 10
53.59813484918766
 20
117.3111596852455
 30
0.0
 40
4.0
100
AcDbArc
 50
167.1614318584359
 51
192.8385681415655
  0
LINE
  5
4BBA
330
18
100
AcDbEntity
  8
1
  6
Continuous
 48
0.25
100
AcDbLine
 10
50.89813484919664
 20
86.61115968522343
 30
0.0
 11
50.89813484919664
 21
92.711159685223
 31
0.0
  0
ARC
  5
4BBB
330
18
100
AcDbEntity
  8
1
  6
Continuous
 48
0.25
100
AcDbCircle
 10
49.89813484921818
 20
95.11115968522336
 30
0.0
 40
0.2
100
AcDbArc
 50
269.9999999999968
 51
335.5862562076453
  0
LINE
  5
4BBC
330
18
100
AcDbEntity
  8
1
  6
Continuous
 48
0.25
100
AcDbLine
 10
49.09813484921812
 20
95.11115968518813
 30
0.0
 11
49.09813484921812
 21
94.91115968522342
 31
0.0
  0
LINE
  5
4BBD
330
18
100
AcDbEntity
  8
1
  6
Continuous
 48
0.25
100
AcDbLine
 10
49.69813484919665
 20
127.1111596852267
 30
0.0
 11
48.89813484921825
 21
127.1111596852267
 31
0.0
  0
LINE
  5
4BBE
330
18
100
AcDbEntity
  8
1
  6
Continuous
 48
0.25
100
AcDbLine
 10
48.89813484921825
 20
127.1111596852361
 30
0.0
 11
48.89813484921825
 21
95.11115968523821
 31
0.0
  0
LINE
  5
4BBF
330
18
100
AcDbEntity
  8
1
  6
Continuous
 48
0.25
100
AcDbLine
 10
63.39813484919664
 20
85.61115968522342
 30
0.0
 11
63.39813484930369
 21
132.6111596852489
 31
0.0
  0
LINE
  5
4BC0
330
18
100
AcDbEntity
  8
1
  6
Continuous
 48
0.25
100
AcDbLine
 10
49.69813484919665
 20
96.79633060343737
 30
0.0
 11
49.69813484919665
 21
149.264060397551
 31
0.0
  0
LINE
  5
4BC1
330
18
100
AcDbEntity
  8
1
  6
Continuous
 48
0.25
100
AcDbLine
 10
49.89813484921818
 20
94.91115968522331
 30
0.0
 11
49.09813484921812
 21
94.91115968522331
 31
0.0
  0
LINE
  5
4BC2
330
18
100
AcDbEntity
  8
1
  6
Continuous
 48
0.25
100
AcDbLine
 10
50.05107602566216
 20
95.11115968523821
 30
0.0
 11
48.89813484921825
 21
95.11115968523821
 31
0.0
  0
LINE
  5
4BC3
330
18
100
AcDbEntity
  8
1
  6
Continuous
 48
0.25
100
AcDbLine
 10
52.88964886765973
 20
87.06853663290912
 30
0.0
 11
49.92617351486495
 21
95.46505013249714
 31
0.0
  0
LINE
  5
4BC4
330
18
100
AcDbEntity
  8
4
  6
CENTER
 48
0.25
100
AcDbLine
 10
52.89813484941555
 20
117.1111596852983
 30
0.0
 11
45.89813484941543
 21
117.1111596852983
 31
0.0
  0
LINE
  5
4BC5
330
18
100
AcDbEntity
  8
4
  6
CENTER
 48
0.25
100
AcDbLine
 10
52.89813484941568
 20
101.1111596852983
 30
0.0
 11
45.89813484941543
 21
101.1111596852983
 31
0.0
  0
LINE
  5
4BC6
330
18
100
AcDbEntity
  8
1
  6
Continuous
 48
0.25
100
AcDbLine
 10
63.39813484919664
 20
85.61115968522342
 30
0.0
 11
51.89813484919664
 21
85.61115968522342
 31
0.0
  0
LINE
  5
4BC7
330
18
100
AcDbEntity
  8
4
  6
CENTER
 48
0.25
100
AcDbLine
 10
51.19813484927214
 20
136.1111596855655
 30
0.0
 11
57.1981348491645
 21
136.1111596855655
 31
0.0
  0
LINE
  5
4BC8
330
18
100
AcDbEntity
  8
4
  6
CENTER
 48
0.25
100
AcDbLine
 10
54.19813484921825
 20
139.1111596855117
 30
0.0
 11
54.19813484921825
 21
133.1111596856194
 31
0.0
  0
ARC
  5
4BC9
330
18
100
AcDbEntity
  8
1
  6
Continuous
100
AcDbCircle
 10
43.39472564241315
 20
132.6089179843671
 30
0.0
 40
20.00401463673224
100
AcDbArc
 50
23.04366087020686
 51
53.82148834999931
  0
ENDSEC
  0
SECTION
  2
OBJECTS
  0
DICTIONARY
  5
C
330
0
100
AcDbDictionary
281
     1
  3
ACAD_CIP_PREVIOUS_PRODUCT_INFO
350
E7
  3
ACAD_COLOR
350
C6
  3
ACAD_DETAILVIEWSTYLE
350
DF
  3
ACAD_GROUP
350
D
  3
ACAD_LAYOUT
350
E1
  3
ACAD_MATERIAL
350
94
  3
ACAD_MLEADERSTYLE
350
DB
  3
ACAD_MLINESTYLE
350
1B
  3
ACAD_PLOTSETTINGS
350
E2
  3
ACAD_PLOTSTYLENAME
350
92
  3
ACAD_SCALELIST
350
C9
  3
ACAD_SECTIONVIEWSTYLE
350
DD
  3
ACAD_TABLESTYLE
350
C7
  3
ACAD_VISUALSTYLE
350
AD
  3
ACDB_RECOMPOSE_DATA
350
5262
  3
AcDbVariableDictionary
350
51C1
  3
CONTENTDICTIONARY
350
3D
  3
DWGPROPS
350
5263
  0
DICTIONARY
  5
5167
330
8
100
AcDbDictionary
280
     1
281
     1
  0
DICTIONARY
  5
99A
330
E
100
AcDbDictionary
280
     1
281
     1
  3
ADSK_XREC_LAYER_RECONCILED
360
99B
  0
DICTIONARY
  5
99E
330
4E
100
AcDbDictionary
280
     1
281
     1
  3
ADSK_XREC_LAYER_RECONCILED
360
99F
  0
DICTIONARY
  5
9A0
330
4F
100
AcDbDictionary
280
     1
281
     1
  3
ADSK_XREC_LAYER_RECONCILED
360
9A1
  0
DICTIONARY
  5
9A2
330
50
100
AcDbDictionary
280
     1
281
     1
  3
ADSK_XREC_LAYER_RECONCILED
360
9A3
  0
DICTIONARY
  5
9A4
330
51
100
AcDbDictionary
280
     1
281
     1
  3
ADSK_XREC_LAYER_RECONCILED
360
9A5
  0
DICTIONARY
  5
9A6
330
52
100
AcDbDictionary
280
     1
281
     1
  3
ADSK_XREC_LAYER_RECONCILED
360
9A7
  0
DICTIONARY
  5
9A8
330
53
100
AcDbDictionary
280
     1
281
     1
  3
ADSK_XREC_LAYER_RECONCILED
360
9A9
  0
DICTIONARY
  5
9AA
330
54
100
AcDbDictionary
280
     1
281
     1
  3
ADSK_XREC_LAYER_RECONCILED
360
9AB
  0
DICTIONARY
  5
A14
330
18
100
AcDbDictionary
280
     1
281
     1
  3
ACAD_SORTENTS
360
A15
  0
XRECORD
  5
E7
102
{ACAD_REACTORS
330
C
102
}
330
C
100
AcDbXrecord
280
     1
300
ACDLT
300
2014
300
ACDLT_F_S
  0
DICTIONARY
  5
C6
102
{ACAD_REACTORS
330
C
102
}
330
C
100
AcDbDictionary
281
     1
  0
DICTIONARY
  5
DF
102
{ACAD_REACTORS
330
C
102
}
330
C
100
AcDbDictionary
281
     1
  3
Metric50
350
E0
  0
DICTIONARY
  5
D
102
{ACAD_REACTORS
330
C
102
}
330
C
100
AcDbDictionary
281
     1
  0
DICTIONARY
  5
E1
102
{ACAD_REACTORS
330
C
102
}
330
C
100
AcDbDictionary
281
     1
  3
Model
350
E3
  3
レイアウト1
350
E4
  0
DICTIONARY
  5
94
102
{ACAD_REACTORS
330
C
102
}
330
C
100
AcDbDictionary
281
     1
  3
ByBlock
350
9D
  3
ByLayer
350
95
  3
Global
350
A5
  0
DICTIONARY
  5
DB
102
{ACAD_REACTORS
330
C
102
}
330
C
100
AcDbDictionary
281
     1
  3
Standard
350
DC
  0
DICTIONARY
  5
1B
102
{ACAD_REACTORS
330
C
102
}
330
C
100
AcDbDictionary
281
     1
  3
STANDARD
350
1C
  0
DICTIONARY
  5
E2
102
{ACAD_REACTORS
330
C
102
}
330
C
100
AcDbDictionary
281
     1
  0
ACDBDICTIONARYWDFLT
  5
92
102
{ACAD_REACTORS
330
C
102
}
330
C
100
AcDbDictionary
281
     1
  3
Normal
350
93
100
AcDbDictionaryWithDefault
340
93
  0
DICTIONARY
  5
C9
102
{ACAD_REACTORS
330
C
102
}
330
C
100
AcDbDictionary
281
     1
  3
A0
350
CA
  3
A1
350
CB
  3
A2
350
CC
  3
A3
350
CD
  3
A4
350
CE
  3
A5
350
CF
  3
A6
350
D0
  3
A7
350
D1
  3
A8
350
D2
  3
A9
350
D3
  3
B0
350
D4
  3
B1
350
D5
  3
B2
350
D6
  3
B3
350
D7
  3
B4
350
D8
  3
B5
350
D9
  3
B6
350
DA
  0
DICTIONARY
  5
DD
102
{ACAD_REACTORS
330
C
102
}
330
C
100
AcDbDictionary
281
     1
  3
Metric50
350
DE
  0
DICTIONARY
  5
C7
102
{ACAD_REACTORS
330
C
102
}
330
C
100
AcDbDictionary
281
     1
  3
Standard
350
C8
  0
DICTIONARY
  5
AD
102
{ACAD_REACTORS
330
C
102
}
330
C
100
AcDbDictionary
281
     1
  3
2dWireframe
350
B3
  3
Basic
350
B2
  3
Brighten
350
B9
  3
ColorChange
350
BD
  3
Conceptual
350
B6
  3
Dim
350
B8
  3
EdgeColorOff
350
C5
  3
Facepattern
350
BC
  3
Flat
350
AE
  3
FlatWithEdges
350
AF
  3
Gouraud
350
B0
  3
GouraudWithEdges
350
B1
  3
Hidden
350
B5
  3
JitterOff
350
C3
  3
Linepattern
350
BB
  3
OverhangOff
350
C4
  3
Realistic
350
B7
  3
Shaded
350
C2
  3
Shaded with edges
350
C1
  3
Shades of Gray
350
BE
  3
Sketchy
350
BF
  3
Thicken
350
BA
  3
Wireframe
350
B4
  3
X-Ray
350
C0
  0
XRECORD
  5
5262
102
{ACAD_REACTORS
330
C
102
}
330
C
100
AcDbXrecord
280
     1
 90
        1
330
C8
  0
DICTIONARY
  5
51C1
102
{ACAD_REACTORS
330
C
102
}
330
C
100
AcDbDictionary
281
     1
  3
CANNOSCALE
350
51C6
  3
CMLEADERSTYLE
350
51C3
  3
CTABLESTYLE
350
51C2
  3
CVIEWDETAILSTYLE
350
51C4
  3
CVIEWSECTIONSTYLE
350
51C5
  3
DIMASSOC
350
51C9
  3
INDEXCTL
350
51C8
  3
SORTENTS
350
51C7
  3
XCLIPFRAME
350
5260
  0
DICTIONARY
  5
3D
102
{ACAD_REACTORS
330
C
102
}
330
C
100
AcDbDictionary
281
     1
  0
XRECORD
  5
5263
102
{ACAD_REACTORS
330
C
102
}
330
C
100
AcDbXrecord
280
     1
  1
DWGPROPS COOKIE
  2

  3

  4

  6

  7

  8
Yoshitsune
  9

300
=
301
=
302
=
303
=
304
=
305
=
306
=
307
=
308
=
309
=
 40
0.2801295486111111
 41
2457037.397066574
 42
2457192.602764456
  1

 90
        0
  0
XRECORD
  5
99B
102
{ACAD_REACTORS
330
99A
102
}
330
99A
100
AcDbXrecord
280
     1
290
     1
  0
XRECORD
  5
99F
102
{ACAD_REACTORS
330
99E
102
}
330
99E
100
AcDbXrecord
280
     1
290
     1
  0
XRECORD
  5
9A1
102
{ACAD_REACTORS
330
9A0
102
}
330
9A0
100
AcDbXrecord
280
     1
290
     1
  0
XRECORD
  5
9A3
102
{ACAD_REACTORS
330
9A2
102
}
330
9A2
100
AcDbXrecord
280
     1
290
     1
  0
XRECORD
  5
9A5
102
{ACAD_REACTORS
330
9A4
102
}
330
9A4
100
AcDbXrecord
280
     1
290
     1
  0
XRECORD
  5
9A7
102
{ACAD_REACTORS
330
9A6
102
}
330
9A6
100
AcDbXrecord
280
     1
290
     1
  0
XRECORD
  5
9A9
102
{ACAD_REACTORS
330
9A8
102
}
330
9A8
100
AcDbXrecord
280
     1
290
     1
  0
XRECORD
  5
9AB
102
{ACAD_REACTORS
330
9AA
102
}
330
9AA
100
AcDbXrecord
280
     1
290
     1
  0
SORTENTSTABLE
  5
A15
102
{ACAD_REACTORS
330
A14
102
}
330
A14
100
AcDbSortentsTable
330
18
331
314F
  5
34D4
331
3D95
  5
3D97
331
314B
  5
34D0
331
3147
  5
3157
331
3D2E
  5
3D30
331
3D91
  5
3D93
331
3D2A
  5
3D2C
331
3D8D
  5
3D8F
331
3DCC
  5
3DCE
331
3DC8
  5
3DCA
331
3D89
  5
3D8B
331
5AD
  5
5AF
331
EA4
  5
EA4
331
57D
  5
57D
331
EA0
  5
EA0
331
300C
  5
3017
331
3086
  5
3091
331
3008
  5
3013
331
3047
  5
3052
331
3082
  5
308D
331
2F17
  5
2F1E
331
2E9C
  5
2EA3
331
307E
  5
3089
331
2E98
  5
2E9F
331
310D
  5
311C
331
2F13
  5
2F1A
331
3004
  5
300F
331
2F8D
  5
2F94
331
3043
  5
304E
331
307A
  5
3085
331
2E94
  5
2E9B
331
2ED3
  5
2EDA
331
3000
  5
300B
331
2F89
  5
2F90
331
2F0F
  5
2F16
331
2F4E
  5
2F55
331
2F4A
  5
2F51
331
2E90
  5
2E97
331
2F85
  5
2F8C
331
2FCC
  5
2FD5
331
2F0B
  5
2F12
331
2F81
  5
2F88
331
2FC8
  5
2FCF
331
313F
  5
3153
331
3D26
  5
3D28
331
3D85
  5
3D87
331
3DC4
  5
3DC6
331
313B
  5
314F
331
3DC0
  5
3DC2
331
3137
  5
314B
331
35EA
  5
3CCD
331
3DBC
  5
3DBE
331
3DB8
  5
3DBA
331
E9C
  5
E9C
331
69
  5
69
331
E98
  5
E98
331
65
  5
65
331
303F
  5
304A
331
2FFC
  5
3007
331
303B
  5
3046
331
3076
  5
3081
331
3105
  5
3112
331
2ECF
  5
2ED6
331
3101
  5
310E
331
2FF8
  5
3003
331
3037
  5
3042
331
2ECB
  5
2ED2
331
3072
  5
307D
331
2F07
  5
2F0E
331
2F46
  5
2F4D
331
2E8C
  5
2E93
331
306E
  5
3079
331
30FD
  5
3109
331
2E88
  5
2E8F
331
2EC7
  5
2ECE
331
2FF4
  5
2FFF
331
2FC4
  5
2FCB
331
2F03
  5
2F0A
331
2F42
  5
2F49
331
2F7D
  5
2F84
331
3033
  5
303E
331
306A
  5
3075
331
2E84
  5
2E8B
331
2EC3
  5
2ECA
331
2F79
  5
2F80
331
2FC0
  5
2FC7
331
2EFF
  5
2F06
331
2F3E
  5
2F45
331
2F3A
  5
2F41
331
2E80
  5
2E86
331
2F75
  5
2F7C
331
2FBC
  5
2FC3
331
2EFB
  5
2F02
331
2F71
  5
2F78
331
312F
  5
313E
331
3536
  5
35EB
331
3D4D
  5
3D4F
331
3DB4
  5
3DB6
331
312B
  5
313A
331
3532
  5
2FD0
331
34D6
  5
2E87
331
3D49
  5
3D4B
331
3DB0
  5
3DB2
331
3127
  5
3136
331
3123
  5
3132
331
34D2
  5
2E7B
331
3D45
  5
3D47
331
3DAC
  5
3DAE
331
3DA8
  5
3DAA
331
3D41
  5
3D43
331
A18
  5
5AC
331
302F
  5
303A
331
988
  5
98C
331
2FEC
  5
2FF8
331
302B
  5
3036
331
3066
  5
3071
331
2EBF
  5
2EC6
331
30A1
  5
30AC
331
2EBB
  5
2EC2
331
2FE8
  5
2FF3
331
3027
  5
3032
331
2EF7
  5
2EFE
331
2F36
  5
2F3D
331
2E7C
  5
2E80
331
309D
  5
30A8
331
2FE4
  5
2FEF
331
3023
  5
302E
331
2E78
  5
2E7C
331
2EB7
  5
2EBE
331
2EF3
  5
2EFA
331
2F32
  5
2F39
331
2F6D
  5
2F74
331
305E
  5
3069
331
305A
  5
3065
331
3099
  5
30A4
331
2EEF
  5
2EF6
331
2FE0
  5
2FEA
331
2F69
  5
2F70
331
2F2A
  5
2F31
331
2F65
  5
2F6C
331
2FA4
  5
2FAE
331
2EEB
  5
2EF2
331
2F61
  5
2F68
331
2FA0
  5
2FA9
331
311F
  5
312E
331
34CE
  5
3536
331
3D3D
  5
3D3F
331
3DA4
  5
3DA6
331
311B
  5
312A
331
3156
  5
3534
331
3D39
  5
3D3B
331
3DA0
  5
3DA2
331
3117
  5
3126
331
3113
  5
3122
331
3152
  5
3530
331
3D35
  5
3D37
331
3D9C
  5
3D9E
331
3D98
  5
3D9A
331
3D31
  5
3D33
331
3DE3
  5
40C4
331
5BC
  5
5C0
331
5B8
  5
5BC
331
5B4
  5
5B6
331
301F
  5
302A
331
5B0
  5
5B2
331
2FDC
  5
2FE6
331
301B
  5
3026
331
3056
  5
3061
331
3095
  5
30A0
331
2EAF
  5
2EB8
331
2FD8
  5
2FE1
331
3017
  5
3022
331
2EAB
  5
2EB4
331
3052
  5
305D
331
2EE7
  5
2EEE
331
2F26
  5
2F2D
331
1224
  5
1224
331
3091
  5
309C
331
308D
  5
3098
331
2FD4
  5
2FDD
331
3013
  5
301E
331
2EA7
  5
2EAE
331
2EE3
  5
2EEA
331
2F22
  5
2F29
331
304E
  5
3059
331
2F5D
  5
2F64
331
2F9C
  5
2FA3
331
304A
  5
3055
331
3089
  5
3094
331
2EA3
  5
2EAA
331
2FD0
  5
2FD9
331
2F98
  5
2F9F
331
2EDF
  5
2EE6
331
2F1E
  5
2F25
331
2F59
  5
2F60
331
2F1A
  5
2F21
331
2F55
  5
2F5C
331
2F94
  5
2F9B
331
2EDB
  5
2EE2
331
2F51
  5
2F58
331
2F90
  5
2F97
331
314E
  5
34D3
331
3D94
  5
3D96
331
3146
  5
3156
331
3D2D
  5
3D2F
331
3D90
  5
3D92
331
3DCF
  5
3DD1
331
3DCB
  5
3DCD
331
3D29
  5
3D2B
331
3D8C
  5
3D8E
331
3D88
  5
3D8A
331
5AC
  5
5AD
331
57C
  5
57C
331
300B
  5
3016
331
3085
  5
3090
331
2E9F
  5
2EA6
331
3007
  5
3012
331
3046
  5
3051
331
3081
  5
308C
331
2F16
  5
2F1D
331
2E9B
  5
2EA2
331
3042
  5
304D
331
307D
  5
3088
331
2E97
  5
2E9E
331
310C
  5
311A
331
2F12
  5
2F19
331
3003
  5
300E
331
2F8C
  5
2F93
331
3079
  5
3084
331
3108
  5
3116
331
2F4D
  5
2F54
331
2E93
  5
2E9A
331
2F88
  5
2F8F
331
2FCF
  5
2FD8
331
2F0E
  5
2F15
331
2ED2
  5
2ED9
331
2F49
  5
2F50
331
2F84
  5
2F8B
331
2FCB
  5
2FD4
331
2F0A
  5
2F11
331
2F80
  5
2F87
331
3DC7
  5
3DC9
331
313E
  5
3152
331
3DC3
  5
3DC5
331
313A
  5
314E
331
3136
  5
3149
331
35ED
  5
3D27
331
3DBF
  5
3DC1
331
3132
  5
3145
331
3DBB
  5
3DBD
331
3D50
  5
3D86
331
E9F
  5
E9F
331
6C
  5
6C
331
E9B
  5
E9B
331
E97
  5
E97
331
68
  5
68
331
64
  5
64
331
303E
  5
3049
331
2FFF
  5
300A
331
2FFB
  5
3006
331
303A
  5
3045
331
3075
  5
3080
331
3104
  5
3111
331
2E8F
  5
2E96
331
2ECE
  5
2ED5
331
3100
  5
310D
331
2FF7
  5
3002
331
3036
  5
3041
331
2ECA
  5
2ED1
331
3071
  5
307C
331
2F06
  5
2F0D
331
2F45
  5
2F4C
331
2FC7
  5
2FCE
331
2E8B
  5
2E92
331
306D
  5
3078
331
30FC
  5
3107
331
2E87
  5
2E8E
331
2EC6
  5
2ECD
331
2FF3
  5
2FFE
331
2FC3
  5
2FCA
331
2F02
  5
2F09
331
2F41
  5
2F48
331
2F7C
  5
2F83
331
3032
  5
303D
331
3069
  5
3074
331
2E83
  5
2E8A
331
2EC2
  5
2EC9
331
2F78
  5
2F7F
331
2FBF
  5
2FC6
331
2EFE
  5
2F05
331
2F3D
  5
2F44
331
2F39
  5
2F40
331
2F74
  5
2F7B
331
2FBB
  5
2FC2
331
2EFA
  5
2F01
331
2F70
  5
2F77
331
3DB7
  5
3DB9
331
312E
  5
313D
331
3535
  5
311B
331
3531
  5
2FE5
331
3D4C
  5
3D4E
331
3DB3
  5
3DB5
331
312A
  5
3139
331
34D5
  5
2E82
331
3D48
  5
3D4A
331
3DAF
  5
3DB1
331
3126
  5
3135
331
3122
  5
3131
331
3D44
  5
3D46
331
3DAB
  5
3DAD
331
3D40
  5
3D42
331
302E
  5
3039
331
2FEF
  5
2FFB
331
2FEB
  5
2FF6
331
302A
  5
3035
331
3065
  5
3070
331
2E7F
  5
2E85
331
2EBE
  5
2EC5
331
30A0
  5
30AB
331
2FE7
  5
2FF1
331
3026
  5
3031
331
2EBA
  5
2EC1
331
3061
  5
306C
331
2EF6
  5
2EFD
331
2F35
  5
2F3C
331
2E7B
  5
2E7F
331
305D
  5
3068
331
309C
  5
30A7
331
2E77
  5
2E77
331
2EB6
  5
2EBD
331
2FE3
  5
2FEE
331
2EF2
  5
2EF9
331
2F31
  5
2F38
331
2F6C
  5
2F73
331
3022
  5
302D
331
3059
  5
3064
331
3098
  5
30A3
331
2F68
  5
2F6F
331
2EEE
  5
2EF5
331
2F2D
  5
2F34
331
2F29
  5
2F30
331
2F64
  5
2F6B
331
2FA3
  5
2FAD
331
2EEA
  5
2EF1
331
2F60
  5
2F67
331
3DA7
  5
3DA9
331
311E
  5
312D
331
3D3C
  5
3D3E
331
3DA3
  5
3DA5
331
311A
  5
3129
331
3155
  5
3533
331
3D38
  5
3D3A
331
3D9F
  5
3DA1
331
3116
  5
3125
331
3112
  5
3121
331
3151
  5
34D6
331
3D34
  5
3D36
331
3D9B
  5
3D9D
331
3D30
  5
3D32
331
5BF
  5
5C3
331
3DE2
  5
3DE4
331
5BB
  5
5BF
331
5B7
  5
5BB
331
5B3
  5
5B5
331
301E
  5
3029
331
2FDF
  5
2FE9
331
2FDB
  5
2FE4
331
301A
  5
3025
331
3055
  5
3060
331
3094
  5
309F
331
2EAE
  5
2EB7
331
3090
  5
309B
331
2FD7
  5
2FE0
331
3016
  5
3021
331
2EAA
  5
2EB1
331
3051
  5
305C
331
2EE6
  5
2EED
331
2F25
  5
2F2C
331
2F9F
  5
2FA6
331
1223
  5
1223
331
308C
  5
3097
331
2FD3
  5
2FDC
331
3012
  5
301D
331
2EA6
  5
2EAD
331
2F9B
  5
2FA2
331
2EE2
  5
2EE9
331
2F21
  5
2F28
331
2F5C
  5
2F63
331
304D
  5
3058
331
3049
  5
3054
331
3088
  5
3093
331
2F97
  5
2F9E
331
2EDE
  5
2EE5
331
2F1D
  5
2F24
331
2F58
  5
2F5F
331
2F19
  5
2F20
331
2F54
  5
2F5B
331
2F93
  5
2F9A
331
2F50
  5
2F57
331
3D97
  5
3D99
331
314D
  5
34D2
331
3D93
  5
3D95
331
3149
  5
34CF
331
3145
  5
3155
331
3D2C
  5
3D2E
331
3D8F
  5
3D91
331
3DCE
  5
3DD0
331
3DCA
  5
3DCC
331
3D28
  5
3D2A
331
3D8B
  5
3D8D
331
5AF
  5
5B1
331
5AB
  5
5AB
331
57B
  5
57B
331
EA2
  5
EA2
331
300E
  5
3019
331
300A
  5
3015
331
3084
  5
308F
331
2E9E
  5
2EA5
331
310F
  5
311E
331
3006
  5
3011
331
3045
  5
3050
331
2E9A
  5
2EA1
331
2F15
  5
2F1C
331
2F8F
  5
2F96
331
3080
  5
308B
331
3041
  5
304C
331
307C
  5
3087
331
2E96
  5
2E9D
331
2F11
  5
2F18
331
3002
  5
300D
331
2F8B
  5
2F92
331
3078
  5
3083
331
2F4C
  5
2F53
331
2E92
  5
2E99
331
2F87
  5
2F8E
331
2FCE
  5
2FD7
331
2F0D
  5
2F14
331
2ED1
  5
2ED8
331
2F09
  5
2F10
331
2F48
  5
2F4F
331
2F83
  5
2F8A
331
2FCA
  5
2FD3
331
3D87
  5
3D89
331
3DC6
  5
3DC8
331
313D
  5
3151
331
3DC2
  5
3DC4
331
3139
  5
314D
331
3DBE
  5
3DC0
331
3DBA
  5
3DBC
331
3131
  5
3140
331
E9E
  5
E9E
331
6B
  5
6B
331
E9A
  5
E9A
331
E96
  5
E96
331
67
  5
67
331
63
  5
63
331
2FFE
  5
3009
331
303D
  5
3048
331
3107
  5
3115
331
2FFA
  5
3005
331
3039
  5
3044
331
2ECD
  5
2ED4
331
3074
  5
307F
331
2E8E
  5
2E95
331
3103
  5
3110
331
30FF
  5
310C
331
2FF6
  5
3001
331
3035
  5
3040
331
2EC9
  5
2ED0
331
3070
  5
307B
331
2F05
  5
2F0C
331
2F44
  5
2F4B
331
2F7F
  5
2F86
331
2FC6
  5
2FCD
331
2E8A
  5
2E91
331
3031
  5
303C
331
306C
  5
3077
331
2E86
  5
2E8D
331
2EC5
  5
2ECC
331
2FF2
  5
2FFD
331
2FC2
  5
2FC9
331
2F01
  5
2F08
331
2F40
  5
2F47
331
2F7B
  5
2F82
331
2F3C
  5
2F43
331
2E82
  5
2E89
331
2F77
  5
2F7E
331
2FBE
  5
2FC5
331
2EFD
  5
2F04
331
2EC1
  5
2EC8
331
2F38
  5
2F3F
331
2F73
  5
2F7A
331
2FBA
  5
2FC1
331
2EF9
  5
2F00
331
3DB6
  5
3DB8
331
312D
  5
313C
331
3534
  5
3119
331
3D4F
  5
3D51
331
3530
  5
2FF2
331
3D4B
  5
3D4D
331
3DB2
  5
3DB4
331
3129
  5
3138
331
3125
  5
3134
331
3D47
  5
3D49
331
3DAE
  5
3DB0
331
3121
  5
3130
331
3D43
  5
3D45
331
3DAA
  5
3DAC
331
40C5
  5
310A
331
98A
  5
98E
331
302D
  5
3038
331
2FEE
  5
2FFA
331
2FEA
  5
2FF5
331
3029
  5
3034
331
3064
  5
306F
331
2E7E
  5
2E84
331
2EBD
  5
2EC4
331
309F
  5
30AA
331
3025
  5
3030
331
2EB9
  5
2EC0
331
3060
  5
306B
331
2EF5
  5
2EFC
331
2F34
  5
2F3B
331
2F6F
  5
2F76
331
2E7A
  5
2E7E
331
305C
  5
3067
331
309B
  5
30A6
331
2E76
  5
2E76
331
2EB5
  5
2EBC
331
2FE2
  5
2FEC
331
2FAA
  5
2FB2
331
2EF1
  5
2EF8
331
2F30
  5
2F37
331
2F6B
  5
2F72
331
3021
  5
302C
331
3058
  5
3063
331
2EB1
  5
2EBA
331
2F67
  5
2F6E
331
2FA6
  5
2FB0
331
2EED
  5
2EF4
331
2F2C
  5
2F33
331
2F28
  5
2F2F
331
2F63
  5
2F6A
331
2FA2
  5
2FAC
331
2EE9
  5
2EF0
331
3DA6
  5
3DA8
331
311D
  5
312C
331
3D3F
  5
3D41
331
3D3B
  5
3D3D
331
3DA2
  5
3DA4
331
3119
  5
3128
331
3154
  5
3532
331
3D37
  5
3D39
331
3D9E
  5
3DA0
331
3115
  5
3124
331
3111
  5
3120
331
3150
  5
34D5
331
3D33
  5
3D35
331
3D9A
  5
3D9C
331
A17
  5
5BA
331
5BE
  5
5C2
331
3DE1
  5
3DE3
331
A13
  5
5AE
331
5BA
  5
5BE
331
3DD1
  5
3DE2
331
5B6
  5
5B9
331
5B2
  5
5B4
331
301D
  5
3028
331
3097
  5
30A2
331
2FDE
  5
2FE8
331
2FDA
  5
2FE3
331
3019
  5
3024
331
3054
  5
305F
331
3093
  5
309E
331
2EAD
  5
2EB6
331
308F
  5
309A
331
2FD6
  5
2FDF
331
3015
  5
3020
331
2EA9
  5
2EB0
331
2EE5
  5
2EEC
331
2F24
  5
2F2B
331
3050
  5
305B
331
2F5F
  5
2F66
331
2F9E
  5
2FA5
331
304C
  5
3057
331
308B
  5
3096
331
2EA5
  5
2EAC
331
2FD2
  5
2FDB
331
2F9A
  5
2FA1
331
2EE1
  5
2EE8
331
2F20
  5
2F27
331
2F5B
  5
2F62
331
3011
  5
301C
331
3048
  5
3053
331
1152
  5
1152
331
2EA1
  5
2EA8
331
2F57
  5
2F5E
331
2F96
  5
2F9D
331
2EDD
  5
2EE4
331
2F1C
  5
2F23
331
2F18
  5
2F1F
331
2F53
  5
2F5A
331
2F92
  5
2F99
331
3D96
  5
3D98
331
314C
  5
34D1
331
3D2F
  5
3D31
331
3D92
  5
3D94
331
3148
  5
34CE
331
3D2B
  5
3D2D
331
3D8E
  5
3D90
331
3DCD
  5
3DCF
331
3DC9
  5
3DCB
331
3140
  5
3154
331
3D8A
  5
3D8C
331
5AE
  5
5B0
331
5AA
  5
5AA
331
57A
  5
57A
331
300D
  5
3018
331
3087
  5
3092
331
3009
  5
3014
331
3083
  5
308E
331
2E9D
  5
2EA4
331
307F
  5
308A
331
2E99
  5
2EA0
331
310E
  5
311D
331
2F14
  5
2F1B
331
3005
  5
3010
331
2F8E
  5
2F95
331
3044
  5
304F
331
3040
  5
304B
331
307B
  5
3086
331
310A
  5
3118
331
2E95
  5
2E9C
331
2ED4
  5
2EDB
331
3001
  5
300C
331
2F8A
  5
2F91
331
2F10
  5
2F17
331
2F4F
  5
2F56
331
2F4B
  5
2F52
331
2E91
  5
2E98
331
2F86
  5
2F8D
331
2FCD
  5
2FD6
331
2F0C
  5
2F13
331
2ED0
  5
2ED7
331
2F08
  5
2F0F
331
2F82
  5
2F89
331
2FC9
  5
2FD1
331
3D27
  5
3D29
331
3D86
  5
3D88
331
3DC5
  5
3DC7
331
313C
  5
3150
331
3DC1
  5
3DC3
331
3138
  5
314C
331
3DBD
  5
3DBF
331
3DB9
  5
3DBB
331
3130
  5
313F
331
E9D
  5
E9D
331
6A
  5
6A
331
E99
  5
E99
331
66
  5
66
331
2FFD
  5
3008
331
303C
  5
3047
331
3077
  5
3082
331
3106
  5
3113
331
3102
  5
310F
331
2FF9
  5
3004
331
3038
  5
3043
331
2ECC
  5
2ED3
331
3073
  5
307E
331
2F47
  5
2F4E
331
2E8D
  5
2E94
331
30FE
  5
310B
331
2FF5
  5
3000
331
3034
  5
303F
331
2E89
  5
2E90
331
2EC8
  5
2ECF
331
2FC5
  5
2FCC
331
2F04
  5
2F0B
331
2F43
  5
2F4A
331
2F7E
  5
2F85
331
306F
  5
307A
331
3030
  5
303B
331
306B
  5
3076
331
2E85
  5
2E8C
331
2EC4
  5
2ECB
331
2FF1
  5
2FFC
331
2FC1
  5
2FC8
331
2F00
  5
2F07
331
2F3F
  5
2F46
331
2F7A
  5
2F81
331
2F3B
  5
2F42
331
2E81
  5
2E88
331
2F76
  5
2F7D
331
2FBD
  5
2FC4
331
2EFC
  5
2F03
331
2EC0
  5
2EC7
331
2EF8
  5
2EFF
331
2F72
  5
2F79
331
3D4E
  5
3D50
331
3DB5
  5
3DB7
331
312C
  5
313B
331
3533
  5
2FD2
331
3D4A
  5
3D4C
331
3DB1
  5
3DB3
331
3128
  5
3137
331
3124
  5
3133
331
34D3
  5
2E7A
331
3D46
  5
3D48
331
3DAD
  5
3DAF
331
3DA9
  5
3DAB
331
3120
  5
312F
331
3D42
  5
3D44
331
40C4
  5
3108
331
989
  5
98D
331
2FED
  5
2FF9
331
302C
  5
3037
331
3067
  5
3072
331
2FE9
  5
2FF4
331
3028
  5
3033
331
2EBC
  5
2EC3
331
3063
  5
306E
331
2F37
  5
2F3E
331
2E7D
  5
2E83
331
309E
  5
30A9
331
2FE5
  5
2FF0
331
3024
  5
302F
331
2EB8
  5
2EBF
331
305F
  5
306A
331
2EF4
  5
2EFB
331
2F33
  5
2F3A
331
2F6E
  5
2F75
331
2E79
  5
2E7D
331
3020
  5
302B
331
305B
  5
3066
331
309A
  5
30A5
331
2E75
  5
2E75
331
2EB4
  5
2EBB
331
2FE1
  5
2FEB
331
2FA9
  5
2FB1
331
2EF0
  5
2EF7
331
2F2F
  5
2F36
331
2F6A
  5
2F71
331
2F2B
  5
2F32
331
2F66
  5
2F6D
331
2FA5
  5
2FAF
331
2EEC
  5
2EF3
331
2EB0
  5
2EB9
331
2F62
  5
2F69
331
2FA1
  5
2FAA
331
2EE8
  5
2EEF
331
34CF
  5
35EA
331
3DA5
  5
3DA7
331
311C
  5
312B
331
3D3E
  5
3D40
331
3157
  5
3535
331
3D3A
  5
3D3C
331
3DA1
  5
3DA3
331
3118
  5
3127
331
3114
  5
3123
331
3153
  5
3531
331
3D36
  5
3D38
331
3D9D
  5
3D9F
331
3110
  5
311F
331
3D32
  5
3D34
331
3D99
  5
3D9B
331
3DE4
  5
40C5
331
A16
  5
5B8
331
5BD
  5
5C1
331
5B9
  5
5BD
331
5B5
  5
5B7
331
3DD0
  5
3DD2
331
5B1
  5
5B3
331
301C
  5
3027
331
3057
  5
3062
331
3096
  5
30A1
331
2FDD
  5
2FE7
331
2FD9
  5
2FE2
331
3018
  5
3023
331
3053
  5
305E
331
3092
  5
309D
331
2F27
  5
2F2E
331
2EAC
  5
2EB5
331
308E
  5
3099
331
2FD5
  5
2FDE
331
3014
  5
301F
331
2EA8
  5
2EAF
331
2EE4
  5
2EEB
331
2F23
  5
2F2A
331
304F
  5
305A
331
2F5E
  5
2F65
331
2F9D
  5
2FA4
331
304B
  5
3056
331
308A
  5
3095
331
2EA4
  5
2EAB
331
2FD1
  5
2FDA
331
2F99
  5
2FA0
331
2EE0
  5
2EE7
331
2F1F
  5
2F26
331
2F5A
  5
2F61
331
3010
  5
301B
331
1151
  5
1151
331
2EA0
  5
2EA7
331
2F56
  5
2F5D
331
2F95
  5
2F9C
331
2EDC
  5
2EE3
331
2F1B
  5
2F22
331
2F52
  5
2F59
331
2F91
  5
2F98
  0
ACDBDETAILVIEWSTYLE
  5
E0
102
{ACAD_XDICTIONARY
360
5299
102
}
102
{ACAD_REACTORS
330
DF
102
}
330
DF
100
AcDbModelDocViewStyle
 70
     0
  3
Metric50
290
     0
100
AcDbDetailViewStyle
 70
     0
 71
     0
 90
        3
 71
     1
340
F
 40
5.0
340
0
 40
5.0
300

 40
0.0
280
     1
 71
     2
340
14
 90
       25
 71
     3
340
F
 40
5.0
 90
        0
 40
15.0
 90
        1
300
%<\AcVar ViewDetailId>% (%<\AcVar ViewScale \f "%sn">%)
 71
     4
340
14
 90
       25
340
14
 90
       25
280
     0
  0
LAYOUT
  5
E3
102
{ACAD_XDICTIONARY
360
529B
102
}
102
{ACAD_REACTORS
330
E1
102
}
330
E1
100
AcDbPlotSettings
  1

  2
Canon LBP9100C
  4
A4
  6

 40
5.789083003997802
 41
5.7890625
 42
5.789077758789062
 43
5.789093017578125
 44
209.9733276367186
 45
296.9259948730469
 46
0.0
 47
0.0
 48
0.0
 49
0.0
140
0.0
141
0.0
142
1.0
143
2.072784437156744
 70
 11952
 72
     1
 73
     1
 74
     0
  7
std_栃木屋様.ctb
 75
     0
147
0.4824428349007233
148
103.2371092858386
149
8.544978289822438
100
AcDbLayout
  1
Model
 70
     1
 71
     0
 10
0.0
 20
0.0
 11
12.0
 21
9.0
 12
0.0
 22
0.0
 32
0.0
 14
0.0
 24
0.0
 34
0.0
 15
0.0
 25
0.0
 35
0.0
146
0.0
 13
0.0
 23
0.0
 33
0.0
 16
1.0
 26
0.0
 36
0.0
 17
0.0
 27
1.0
 37
0.0
 76
     0
330
18
331
90
1001
ACAD_PSEXT
1000
Canon LBP9100C
1000
Canon LBP9100C
1000
USB001
1000

1070
     0
  0
LAYOUT
  5
E4
102
{ACAD_XDICTIONARY
360
529D
102
}
102
{ACAD_REACTORS
330
E1
102
}
330
E1
100
AcDbPlotSettings
  1

  2
Canon LBP9100C
  4

  6

 40
0.0
 41
0.0
 42
0.0
 43
0.0
 44
0.0
 45
0.0
 46
0.0
 47
0.0
 48
0.0
 49
0.0
140
0.0
141
0.0
142
1.0
143
1.0
 70
   688
 72
     0
 73
     0
 74
     5
  7
std_栃木屋様.ctb
 75
    16
147
1.0
148
0.0
149
0.0
100
AcDbLayout
  1
レイアウト1
 70
     1
 71
     1
 10
0.0
 20
0.0
 11
420.0
 21
297.0
 12
0.0
 22
0.0
 32
0.0
 14
1.000000000000000E+20
 24
1.000000000000000E+20
 34
1.000000000000000E+20
 15
-1.000000000000000E+20
 25
-1.000000000000000E+20
 35
-1.000000000000000E+20
146
0.0
 13
0.0
 23
0.0
 33
0.0
 16
1.0
 26
0.0
 36
0.0
 17
0.0
 27
1.0
 37
0.0
 76
     0
330
15
  0
MATERIAL
  5
9D
102
{ACAD_XDICTIONARY
360
9E
102
}
102
{ACAD_REACTORS
330
94
102
}
330
94
100
AcDbMaterial
  1
ByBlock
 72
     0
 43
0.0208333333333333
 43
0.0
 43
0.0
 43
0.0
 43
0.0
 43
0.0208333333333333
 43
0.0
 43
0.0
 43
0.0
 43
0.0
 43
1.0
 43
0.0
 43
0.0
 43
0.0
 43
0.0
 43
1.0
 77
     0
 47
0.0208333333333333
 47
0.0
 47
0.0
 47
0.0
 47
0.0
 47
0.0208333333333333
 47
0.0
 47
0.0
 47
0.0
 47
0.0
 47
1.0
 47
0.0
 47
0.0
 47
0.0
 47
0.0
 47
1.0
171
     0
 49
0.0208333333333333
 49
0.0
 49
0.0
 49
0.0
 49
0.0
 49
0.0208333333333333
 49
0.0
 49
0.0
 49
0.0
 49
0.0
 49
1.0
 49
0.0
 49
0.0
 49
0.0
 49
0.0
 49
1.0
175
     0
142
0.0208333333333333
142
0.0
142
0.0
142
0.0
142
0.0
142
0.0208333333333333
142
0.0
142
0.0
142
0.0
142
0.0
142
1.0
142
0.0
142
0.0
142
0.0
142
0.0
142
1.0
179
     0
144
0.0208333333333333
144
0.0
144
0.0
144
0.0
144
0.0
144
0.0208333333333333
144
0.0
144
0.0
144
0.0
144
0.0
144
1.0
144
0.0
144
0.0
144
0.0
144
0.0
144
1.0
147
0.0208333333333333
147
0.0
147
0.0
147
0.0
147
0.0
147
0.0208333333333333
147
0.0
147
0.0
147
0.0
147
0.0
147
1.0
147
0.0
147
0.0
147
0.0
147
0.0
147
1.0
  0
MATERIAL
  5
95
102
{ACAD_XDICTIONARY
360
96
102
}
102
{ACAD_REACTORS
330
94
102
}
330
94
100
AcDbMaterial
  1
ByLayer
 72
     0
 43
0.0208333333333333
 43
0.0
 43
0.0
 43
0.0
 43
0.0
 43
0.0208333333333333
 43
0.0
 43
0.0
 43
0.0
 43
0.0
 43
1.0
 43
0.0
 43
0.0
 43
0.0
 43
0.0
 43
1.0
 77
     0
 47
0.0208333333333333
 47
0.0
 47
0.0
 47
0.0
 47
0.0
 47
0.0208333333333333
 47
0.0
 47
0.0
 47
0.0
 47
0.0
 47
1.0
 47
0.0
 47
0.0
 47
0.0
 47
0.0
 47
1.0
171
     0
 49
0.0208333333333333
 49
0.0
 49
0.0
 49
0.0
 49
0.0
 49
0.0208333333333333
 49
0.0
 49
0.0
 49
0.0
 49
0.0
 49
1.0
 49
0.0
 49
0.0
 49
0.0
 49
0.0
 49
1.0
175
     0
142
0.0208333333333333
142
0.0
142
0.0
142
0.0
142
0.0
142
0.0208333333333333
142
0.0
142
0.0
142
0.0
142
0.0
142
1.0
142
0.0
142
0.0
142
0.0
142
0.0
142
1.0
179
     0
144
0.0208333333333333
144
0.0
144
0.0
144
0.0
144
0.0
144
0.0208333333333333
144
0.0
144
0.0
144
0.0
144
0.0
144
1.0
144
0.0
144
0.0
144
0.0
144
0.0
144
1.0
147
0.0208333333333333
147
0.0
147
0.0
147
0.0
147
0.0
147
0.0208333333333333
147
0.0
147
0.0
147
0.0
147
0.0
147
1.0
147
0.0
147
0.0
147
0.0
147
0.0
147
1.0
  0
MATERIAL
  5
A5
102
{ACAD_XDICTIONARY
360
A6
102
}
102
{ACAD_REACTORS
330
94
102
}
330
94
100
AcDbMaterial
  1
Global
 72
     0
 43
0.0208333333333333
 43
0.0
 43
0.0
 43
0.0
 43
0.0
 43
0.0208333333333333
 43
0.0
 43
0.0
 43
0.0
 43
0.0
 43
1.0
 43
0.0
 43
0.0
 43
0.0
 43
0.0
 43
1.0
 77
     0
 47
0.0208333333333333
 47
0.0
 47
0.0
 47
0.0
 47
0.0
 47
0.0208333333333333
 47
0.0
 47
0.0
 47
0.0
 47
0.0
 47
1.0
 47
0.0
 47
0.0
 47
0.0
 47
0.0
 47
1.0
171
     0
 49
0.0208333333333333
 49
0.0
 49
0.0
 49
0.0
 49
0.0
 49
0.0208333333333333
 49
0.0
 49
0.0
 49
0.0
 49
0.0
 49
1.0
 49
0.0
 49
0.0
 49
0.0
 49
0.0
 49
1.0
175
     0
142
0.0208333333333333
142
0.0
142
0.0
142
0.0
142
0.0
142
0.0208333333333333
142
0.0
142
0.0
142
0.0
142
0.0
142
1.0
142
0.0
142
0.0
142
0.0
142
0.0
142
1.0
179
     0
144
0.0208333333333333
144
0.0
144
0.0
144
0.0
144
0.0
144
0.0208333333333333
144
0.0
144
0.0
144
0.0
144
0.0
144
1.0
144
0.0
144
0.0
144
0.0
144
0.0
144
1.0
147
0.0208333333333333
147
0.0
147
0.0
147
0.0
147
0.0
147
0.0208333333333333
147
0.0
147
0.0
147
0.0
147
0.0
147
1.0
147
0.0
147
0.0
147
0.0
147
0.0
147
1.0
  0
MLEADERSTYLE
  5
DC
102
{ACAD_XDICTIONARY
360
5295
102
}
102
{ACAD_REACTORS
330
DB
102
}
330
DB
100
AcDbMLeaderStyle
170
     2
171
     1
172
     0
 90
        2
 40
0.0
 41
0.0
173
     1
 91
-1056964608
340
12
 92
       -2
290
     1
 42
2.0
291
     1
 43
0.36
  3
Standard
 44
4.0
300

342
F
174
     1
178
     6
175
     1
176
     0
 93
-1056964608
 45
4.0
292
     0
297
     0
 46
4.0
 94
-1056964608
 47
1.0
 49
1.0
140
1.0
293
     1
141
0.0
294
     1
177
     0
142
1.0
295
     0
296
     0
143
0.125
1001
ACAD_MLEADERVER
1070
     2
  0
MLINESTYLE
  5
1C
102
{ACAD_REACTORS
330
1B
102
}
330
1B
100
AcDbMlineStyle
  2
STANDARD
 70
     0
  3

 62
   256
 51
90.0
 52
90.0
 71
     2
 49
0.5
 62
   256
  6
BYLAYER
 49
-0.5
 62
   256
  6
BYLAYER
  0
ACDBPLACEHOLDER
  5
93
102
{ACAD_REACTORS
330
92
102
}
330
92
  0
SCALE
  5
CA
102
{ACAD_REACTORS
330
C9
102
}
330
C9
100
AcDbScale
 70
     0
300
1:1
140
1.0
141
1.0
290
     1
  0
SCALE
  5
CB
102
{ACAD_REACTORS
330
C9
102
}
330
C9
100
AcDbScale
 70
     0
300
1:2
140
1.0
141
2.0
290
     0
  0
SCALE
  5
CC
102
{ACAD_REACTORS
330
C9
102
}
330
C9
100
AcDbScale
 70
     0
300
1:4
140
1.0
141
4.0
290
     0
  0
SCALE
  5
CD
102
{ACAD_REACTORS
330
C9
102
}
330
C9
100
AcDbScale
 70
     0
300
1:5
140
1.0
141
5.0
290
     0
  0
SCALE
  5
CE
102
{ACAD_REACTORS
330
C9
102
}
330
C9
100
AcDbScale
 70
     0
300
1:8
140
1.0
141
8.0
290
     0
  0
SCALE
  5
CF
102
{ACAD_REACTORS
330
C9
102
}
330
C9
100
AcDbScale
 70
     0
300
1:10
140
1.0
141
10.0
290
     0
  0
SCALE
  5
D0
102
{ACAD_REACTORS
330
C9
102
}
330
C9
100
AcDbScale
 70
     0
300
1:16
140
1.0
141
16.0
290
     0
  0
SCALE
  5
D1
102
{ACAD_REACTORS
330
C9
102
}
330
C9
100
AcDbScale
 70
     0
300
1:20
140
1.0
141
20.0
290
     0
  0
SCALE
  5
D2
102
{ACAD_REACTORS
330
C9
102
}
330
C9
100
AcDbScale
 70
     0
300
1:30
140
1.0
141
30.0
290
     0
  0
SCALE
  5
D3
102
{ACAD_REACTORS
330
C9
102
}
330
C9
100
AcDbScale
 70
     0
300
1:40
140
1.0
141
40.0
290
     0
  0
SCALE
  5
D4
102
{ACAD_REACTORS
330
C9
102
}
330
C9
100
AcDbScale
 70
     0
300
1:50
140
1.0
141
50.0
290
     0
  0
SCALE
  5
D5
102
{ACAD_REACTORS
330
C9
102
}
330
C9
100
AcDbScale
 70
     0
300
1:100
140
1.0
141
100.0
290
     0
  0
SCALE
  5
D6
102
{ACAD_REACTORS
330
C9
102
}
330
C9
100
AcDbScale
 70
     0
300
2:1
140
2.0
141
1.0
290
     0
  0
SCALE
  5
D7
102
{ACAD_REACTORS
330
C9
102
}
330
C9
100
AcDbScale
 70
     0
300
4:1
140
4.0
141
1.0
290
     0
  0
SCALE
  5
D8
102
{ACAD_REACTORS
330
C9
102
}
330
C9
100
AcDbScale
 70
     0
300
8:1
140
8.0
141
1.0
290
     0
  0
SCALE
  5
D9
102
{ACAD_REACTORS
330
C9
102
}
330
C9
100
AcDbScale
 70
     0
300
10:1
140
10.0
141
1.0
290
     0
  0
SCALE
  5
DA
102
{ACAD_REACTORS
330
C9
102
}
330
C9
100
AcDbScale
 70
     0
300
100:1
140
100.0
141
1.0
290
     0
  0
ACDBSECTIONVIEWSTYLE
  5
DE
102
{ACAD_XDICTIONARY
360
5297
102
}
102
{ACAD_REACTORS
330
DD
102
}
330
DD
100
AcDbModelDocViewStyle
 70
     0
  3
Metric50
290
     0
100
AcDbSectionViewStyle
 70
     0
 71
     0
 90
      102
 71
     1
340
F
 40
5.0
340
0
340
0
 40
5.0
300
I, O, Q, S, X, Z
 40
10.0
 90
        0
 40
2.5
 90
        0
 71
     2
340
14
 90
       25
340
14
 90
       50
 40
5.0
 40
2.5
 40
5.0
 71
     3
340
F
 40
5.0
 90
        0
 40
15.0
 90
        1
300
%<\AcVar ViewSectionStartId>%-%<\AcVar ViewSectionEndId>% (%<\AcVar ViewScale \f "%sn">%)
 71
     4
300
ANSI31
 40
1.0
 90
        0
290
     0
290
     0
 90
        6
 40
0.0
 40
1.570796326794896
 40
0.2617993877991494
 40
1.308996938995747
 40
-0.2617993877991494
 40
1.832595714594045
  0
TABLESTYLE
  5
C8
102
{ACAD_XDICTIONARY
360
5163
102
}
102
{ACAD_REACTORS
330
C7
102
}
330
C7
100
AcDbTableStyle
  3
Standard
 70
     0
 71
     0
 40
1.5
 41
1.5
280
     0
281
     0
  7
STANDARD
140
4.5
170
     2
 62
     0
 63
     7
283
     0
274
    -2
284
     1
 64
     0
275
    -2
285
     1
 65
     0
276
    -2
286
     1
 66
     0
277
    -2
287
     1
 67
     0
278
    -2
288
     1
 68
     0
279
    -2
289
     1
 69
     0
  7
STANDARD
140
6.0
170
     5
 62
     0
 63
     7
283
     0
274
    -2
284
     1
 64
     0
275
    -2
285
     1
 65
     0
276
    -2
286
     1
 66
     0
277
    -2
287
     1
 67
     0
278
    -2
288
     1
 68
     0
279
    -2
289
     1
 69
     0
  7
STANDARD
140
4.5
170
     5
 62
     0
 63
     7
283
     0
274
    -2
284
     1
 64
     0
275
    -2
285
     1
 65
     0
276
    -2
286
     1
 66
     0
277
    -2
287
     1
 67
     0
278
    -2
288
     1
 68
     0
279
    -2
289
     1
 69
     0
  0
VISUALSTYLE
  5
B3
102
{ACAD_XDICTIONARY
360
526E
102
}
102
{ACAD_REACTORS
330
AD
102
}
330
AD
100
AcDbVisualStyle
  2

 70
     4
 71
     0
 72
     2
 73
     0
 90
        0
 40
-0.6
 41
-30.0
 62
     5
 63
     7
 74
     1
 91
        4
 64
     7
 65
   257
 75
     1
175
     1
 42
1.0
 92
        0
 66
   257
 43
1.0
 76
     1
 77
     6
 78
     2
 67
     7
 79
     5
170
     0
171
     0
290
     0
174
     0
 93
        1
 44
0.0
173
     0
291
     0
 45
0.0
1001
ACAD
1000
AcDbSavedByObjectVersion
1070
     0
  0
VISUALSTYLE
  5
B2
102
{ACAD_XDICTIONARY
360
526C
102
}
102
{ACAD_REACTORS
330
AD
102
}
330
AD
100
AcDbVisualStyle
  2

 70
     7
 71
     1
 72
     0
 73
     1
 90
        0
 40
-0.6
 41
-30.0
 62
     5
 63
     7
 74
     0
 91
        4
 64
     7
 65
   257
 75
     1
175
     1
 42
1.0
 92
        8
 66
     7
 43
1.0
 76
     1
 77
     6
 78
     2
 67
     7
 79
     5
170
     0
171
     0
290
     0
174
     0
 93
        1
 44
0.0
173
     0
291
     1
 45
0.0
1001
ACAD
1000
AcDbSavedByObjectVersion
1070
     0
  0
VISUALSTYLE
  5
B9
102
{ACAD_XDICTIONARY
360
527A
102
}
102
{ACAD_REACTORS
330
AD
102
}
330
AD
100
AcDbVisualStyle
  2

 70
    12
 71
     2
 72
     2
 73
     0
 90
        0
 40
-0.6
 41
-30.0
 62
     5
 63
     7
 74
     1
 91
        4
 64
     7
 65
   257
 75
     1
175
     1
 42
1.0
 92
        8
 66
     7
 43
1.0
 76
     1
 77
     6
 78
     2
 67
     7
 79
     5
170
     0
171
     0
290
     0
174
     0
 93
        1
 44
50.0
173
     0
291
     1
 45
0.0
1001
ACAD
1000
AcDbSavedByObjectVersion
1070
     0
  0
VISUALSTYLE
  5
BD
102
{ACAD_XDICTIONARY
360
5282
102
}
102
{ACAD_REACTORS
330
AD
102
}
330
AD
100
AcDbVisualStyle
  2

 70
    16
 71
     2
 72
     2
 73
     3
 90
        0
 40
-0.6
 41
-30.0
 62
     5
 63
     8
 74
     1
 91
        4
 64
     7
 65
   257
 75
     1
175
     1
 42
1.0
 92
        8
 66
     8
 43
1.0
 76
     1
 77
     6
 78
     2
 67
     7
 79
     5
170
     0
171
     0
290
     0
174
     0
 93
        1
 44
0.0
173
     0
291
     1
 45
0.0
1001
ACAD
1000
AcDbSavedByObjectVersion
1070
     0
  0
VISUALSTYLE
  5
B6
102
{ACAD_XDICTIONARY
360
5274
102
}
102
{ACAD_REACTORS
330
AD
102
}
330
AD
100
AcDbVisualStyle
  2

 70
     9
 71
     3
 72
     2
 73
     0
 90
        0
 40
-0.6
 41
-30.0
 62
     5
 63
     7
 74
     2
 91
        2
 64
     7
 65
   257
 75
     1
175
     1
 42
179.0
 92
        8
 66
     7
 43
1.0
 76
     1
 77
     6
 78
     2
 67
     7
 79
     3
170
     0
171
     0
290
     0
174
     0
 93
        1
 44
0.0
173
     0
291
     0
 45
0.0
1001
ACAD
1000
AcDbSavedByObjectVersion
1070
     0
  0
VISUALSTYLE
  5
B8
102
{ACAD_XDICTIONARY
360
5278
102
}
102
{ACAD_REACTORS
330
AD
102
}
330
AD
100
AcDbVisualStyle
  2

 70
    11
 71
     2
 72
     2
 73
     0
 90
        0
 40
-0.6
 41
-30.0
 62
     5
 63
     7
 74
     1
 91
        4
 64
     7
 65
   257
 75
     1
175
     1
 42
1.0
 92
        8
 66
     7
 43
1.0
 76
     1
 77
     6
 78
     2
 67
     7
 79
     5
170
     0
171
     0
290
     0
174
     0
 93
        1
 44
-50.0
173
     0
291
     1
 45
0.0
1001
ACAD
1000
AcDbSavedByObjectVersion
1070
     0
  0
VISUALSTYLE
  5
C5
102
{ACAD_XDICTIONARY
360
5292
102
}
102
{ACAD_REACTORS
330
AD
102
}
330
AD
100
AcDbVisualStyle
  2

 70
    22
 71
     2
 72
     2
 73
     0
 90
        0
 40
-0.6
 41
-30.0
 62
     5
 63
     7
 74
     1
 91
        4
 64
     7
 65
   257
 75
     1
175
     1
 42
1.0
 92
        8
 66
     7
 43
1.0
 76
     1
 77
     6
 78
     2
 67
     7
 79
     5
170
     0
171
     0
290
     0
174
     0
 93
        1
 44
0.0
173
     0
291
     1
 45
0.0
1001
ACAD
1000
AcDbSavedByObjectVersion
1070
     0
  0
VISUALSTYLE
  5
BC
102
{ACAD_XDICTIONARY
360
5280
102
}
102
{ACAD_REACTORS
330
AD
102
}
330
AD
100
AcDbVisualStyle
  2

 70
    15
 71
     2
 72
     2
 73
     0
 90
        0
 40
-0.6
 41
-30.0
 62
     5
 63
     7
 74
     1
 91
        4
 64
     7
 65
   257
 75
     1
175
     1
 42
1.0
 92
        8
 66
     7
 43
1.0
 76
     1
 77
     6
 78
     2
 67
     7
 79
     5
170
     0
171
     0
290
     0
174
     0
 93
        1
 44
0.0
173
     0
291
     1
 45
0.0
1001
ACAD
1000
AcDbSavedByObjectVersion
1070
     0
  0
VISUALSTYLE
  5
AE
102
{ACAD_XDICTIONARY
360
5264
102
}
102
{ACAD_REACTORS
330
AD
102
}
330
AD
100
AcDbVisualStyle
  2

 70
     0
 71
     2
 72
     1
 73
     1
 90
        2
 40
-0.6
 41
30.0
 62
     5
 63
     7
 74
     0
 91
        0
 64
     7
 65
   257
 75
     1
175
     1
 42
1.0
 92
        8
 66
     7
 43
1.0
 76
     1
 77
     6
 78
     2
 67
     7
 79
     5
170
     0
171
     0
290
     0
174
     0
 93
       13
 44
0.0
173
     0
291
     1
 45
0.0
1001
ACAD
1000
AcDbSavedByObjectVersion
1070
     0
  0
VISUALSTYLE
  5
AF
102
{ACAD_XDICTIONARY
360
5266
102
}
102
{ACAD_REACTORS
330
AD
102
}
330
AD
100
AcDbVisualStyle
  2

 70
     1
 71
     2
 72
     1
 73
     1
 90
        2
 40
-0.6
 41
30.0
 62
     5
 63
     7
 74
     1
 91
        0
 64
     7
 65
   257
 75
     1
175
     1
 42
1.0
 92
        0
 66
   257
 43
1.0
 76
     1
 77
     6
 78
     2
 67
     7
 79
     5
170
     0
171
     0
290
     0
174
     0
 93
       13
 44
0.0
173
     0
291
     1
 45
0.0
1001
ACAD
1000
AcDbSavedByObjectVersion
1070
     0
  0
VISUALSTYLE
  5
B0
102
{ACAD_XDICTIONARY
360
5268
102
}
102
{ACAD_REACTORS
330
AD
102
}
330
AD
100
AcDbVisualStyle
  2

 70
     2
 71
     2
 72
     2
 73
     1
 90
        2
 40
-0.6
 41
30.0
 62
     5
 63
     7
 74
     0
 91
        0
 64
     7
 65
   257
 75
     1
175
     1
 42
1.0
 92
        0
 66
     7
 43
1.0
 76
     1
 77
     6
 78
     2
 67
     7
 79
     5
170
     0
171
     0
290
     0
174
     0
 93
       13
 44
0.0
173
     0
291
     1
 45
0.0
1001
ACAD
1000
AcDbSavedByObjectVersion
1070
     0
  0
VISUALSTYLE
  5
B1
102
{ACAD_XDICTIONARY
360
526A
102
}
102
{ACAD_REACTORS
330
AD
102
}
330
AD
100
AcDbVisualStyle
  2

 70
     3
 71
     2
 72
     2
 73
     1
 90
        2
 40
-0.6
 41
30.0
 62
     5
 63
     7
 74
     1
 91
        0
 64
     7
 65
   257
 75
     1
175
     1
 42
1.0
 92
        0
 66
   257
 43
1.0
 76
     1
 77
     6
 78
     2
 67
     7
 79
     5
170
     0
171
     0
290
     0
174
     0
 93
       13
 44
0.0
173
     0
291
     1
 45
0.0
1001
ACAD
1000
AcDbSavedByObjectVersion
1070
     0
  0
VISUALSTYLE
  5
B5
102
{ACAD_XDICTIONARY
360
5272
102
}
102
{ACAD_REACTORS
330
AD
102
}
330
AD
100
AcDbVisualStyle
  2

 70
     6
 71
     1
 72
     2
 73
     2
 90
        0
 40
-0.6
 41
-30.0
 62
     5
 63
     7
 74
     2
 91
        2
 64
     7
 65
   257
 75
     2
175
     1
 42
40.0
 92
        0
 66
   257
 43
1.0
 76
     1
 77
     6
 78
     2
 67
     7
 79
     3
170
     0
171
     0
290
     0
174
     0
 93
        1
 44
0.0
173
     0
291
     0
 45
0.0
1001
ACAD
1000
AcDbSavedByObjectVersion
1070
     0
  0
VISUALSTYLE
  5
C3
102
{ACAD_XDICTIONARY
360
528E
102
}
102
{ACAD_REACTORS
330
AD
102
}
330
AD
100
AcDbVisualStyle
  2

 70
    20
 71
     2
 72
     2
 73
     0
 90
        0
 40
-0.6
 41
-30.0
 62
     5
 63
     7
 74
     1
 91
        4
 64
     7
 65
   257
 75
     1
175
     1
 42
1.0
 92
       10
 66
     7
 43
1.0
 76
     1
 77
     6
 78
     2
 67
     7
 79
     5
170
     0
171
     0
290
     0
174
     0
 93
        1
 44
0.0
173
     0
291
     1
 45
0.0
1001
ACAD
1000
AcDbSavedByObjectVersion
1070
     0
  0
VISUALSTYLE
  5
BB
102
{ACAD_XDICTIONARY
360
527E
102
}
102
{ACAD_REACTORS
330
AD
102
}
330
AD
100
AcDbVisualStyle
  2

 70
    14
 71
     2
 72
     2
 73
     0
 90
        0
 40
-0.6
 41
-30.0
 62
     5
 63
     7
 74
     1
 91
        4
 64
     7
 65
   257
 75
     7
175
     7
 42
1.0
 92
        8
 66
     7
 43
1.0
 76
     1
 77
     6
 78
     2
 67
     7
 79
     5
170
     0
171
     0
290
     0
174
     0
 93
        1
 44
0.0
173
     0
291
     1
 45
0.0
1001
ACAD
1000
AcDbSavedByObjectVersion
1070
     0
  0
VISUALSTYLE
  5
C4
102
{ACAD_XDICTIONARY
360
5290
102
}
102
{ACAD_REACTORS
330
AD
102
}
330
AD
100
AcDbVisualStyle
  2

 70
    21
 71
     2
 72
     2
 73
     0
 90
        0
 40
-0.6
 41
-30.0
 62
     5
 63
     7
 74
     1
 91
        4
 64
     7
 65
   257
 75
     1
175
     1
 42
1.0
 92
        9
 66
     7
 43
1.0
 76
     1
 77
     6
 78
     2
 67
     7
 79
     5
170
     0
171
     0
290
     0
174
     0
 93
        1
 44
0.0
173
     0
291
     1
 45
0.0
1001
ACAD
1000
AcDbSavedByObjectVersion
1070
     0
  0
VISUALSTYLE
  5
B7
102
{ACAD_XDICTIONARY
360
5276
102
}
102
{ACAD_REACTORS
330
AD
102
}
330
AD
100
AcDbVisualStyle
  2

 70
     8
 71
     2
 72
     2
 73
     0
 90
        2
 40
-0.6
 41
30.0
 62
     5
 63
     7
 74
     0
 91
        0
 64
     7
 65
   257
 75
     1
175
     1
 42
1.0
 92
        8
 66
   257
 43
1.0
 76
     1
 77
     6
 78
     2
 67
     7
 79
     3
170
     0
171
     0
290
     0
174
     0
 93
       13
 44
0.0
173
     0
291
     0
 45
0.0
1001
ACAD
1000
AcDbSavedByObjectVersion
1070
     0
  0
VISUALSTYLE
  5
C2
102
{ACAD_XDICTIONARY
360
528C
102
}
102
{ACAD_REACTORS
330
AD
102
}
330
AD
100
AcDbVisualStyle
  2

 70
    27
 71
     2
 72
     2
 73
     1
 90
        2
 40
-0.6
 41
30.0
 62
     5
 63
     7
 74
     0
 91
        4
 64
     7
 65
   257
 75
     1
175
     1
 42
1.0
 92
        8
 66
   257
 43
1.0
 76
     1
 77
     6
 78
     2
 67
     8
 79
     3
170
     0
171
     0
290
     0
174
     0
 93
        5
 44
0.0
173
     0
291
     0
 45
0.0
1001
ACAD
1000
AcDbSavedByObjectVersion
1070
     0
  0
VISUALSTYLE
  5
C1
102
{ACAD_XDICTIONARY
360
528A
102
}
102
{ACAD_REACTORS
330
AD
102
}
330
AD
100
AcDbVisualStyle
  2

 70
    26
 71
     2
 72
     2
 73
     1
 90
        2
 40
-0.6
 41
30.0
 62
     5
 63
     7
 74
     1
 91
       10
 64
     7
 65
   257
 75
     2
175
     1
 42
1.0
 92
        8
 66
   257
 43
1.0
 76
     1
 77
     6
 78
     2
 67
     7
 79
     3
170
     0
171
     0
290
     0
174
     0
 93
        5
 44
0.0
173
     0
291
     0
 45
0.0
1001
ACAD
1000
AcDbSavedByObjectVersion
1070
     0
  0
VISUALSTYLE
  5
BE
102
{ACAD_XDICTIONARY
360
5284
102
}
102
{ACAD_REACTORS
330
AD
102
}
330
AD
100
AcDbVisualStyle
  2

 70
    23
 71
     2
 72
     2
 73
     3
 90
        0
 40
-0.6
 41
-30.0
 62
     5
 63
     7
 74
     2
 91
        2
 64
     7
 65
     7
 75
     1
175
     1
 42
40.0
 92
        8
 66
     7
 43
1.0
 76
     1
 77
     6
 78
     2
 67
     7
 79
     3
170
     0
171
     0
290
     0
174
     0
 93
        1
 44
0.0
173
     0
291
     0
 45
0.0
1001
ACAD
1000
AcDbSavedByObjectVersion
1070
     0
  0
VISUALSTYLE
  5
BF
102
{ACAD_XDICTIONARY
360
5286
102
}
102
{ACAD_REACTORS
330
AD
102
}
330
AD
100
AcDbVisualStyle
  2

 70
    24
 71
     1
 72
     2
 73
     2
 90
        0
 40
-0.6
 41
-30.0
 62
     5
 63
     7
 74
     2
 91
        2
 64
     7
 65
     7
 75
     1
175
     1
 42
40.0
 92
       11
 66
     7
 43
1.0
 76
     1
 77
     6
 78
     2
 67
     7
 79
     6
170
     0
171
     0
290
     0
174
     0
 93
        1
 44
0.0
173
     0
291
     0
 45
0.0
1001
ACAD
1000
AcDbSavedByObjectVersion
1070
     0
  0
VISUALSTYLE
  5
BA
102
{ACAD_XDICTIONARY
360
527C
102
}
102
{ACAD_REACTORS
330
AD
102
}
330
AD
100
AcDbVisualStyle
  2

 70
    13
 71
     2
 72
     2
 73
     0
 90
        0
 40
-0.6
 41
-30.0
 62
     5
 63
     7
 74
     1
 91
        4
 64
     7
 65
   257
 75
     1
175
     1
 42
1.0
 92
       12
 66
     7
 43
1.0
 76
     1
 77
     6
 78
     2
 67
     7
 79
     5
170
     0
171
     0
290
     0
174
     0
 93
        1
 44
0.0
173
     0
291
     1
 45
0.0
1001
ACAD
1000
AcDbSavedByObjectVersion
1070
     0
  0
VISUALSTYLE
  5
B4
102
{ACAD_XDICTIONARY
360
5270
102
}
102
{ACAD_REACTORS
330
AD
102
}
330
AD
100
AcDbVisualStyle
  2

 70
     5
 71
     0
 72
     2
 73
     0
 90
        0
 40
-0.6
 41
-30.0
 62
     5
 63
     7
 74
     1
 91
        4
 64
     7
 65
   257
 75
     1
175
     1
 42
1.0
 92
        0
 66
   257
 43
1.0
 76
     1
 77
     6
 78
     2
 67
     7
 79
     3
170
     0
171
     0
290
     0
174
     0
 93
        1
 44
0.0
173
     0
291
     0
 45
0.0
1001
ACAD
1000
AcDbSavedByObjectVersion
1070
     0
  0
VISUALSTYLE
  5
C0
102
{ACAD_XDICTIONARY
360
5288
102
}
102
{ACAD_REACTORS
330
AD
102
}
330
AD
100
AcDbVisualStyle
  2

 70
    25
 71
     2
 72
     2
 73
     1
 90
        1
 40
0.5
 41
-30.0
 62
     5
 63
     7
 74
     1
 91
        0
 64
     7
 65
   257
 75
     1
175
     1
 42
1.0
 92
        8
 66
     7
 43
1.0
 76
     1
 77
     6
 78
     2
 67
     7
 79
     3
170
     0
171
     0
290
     0
174
     0
 93
       13
 44
0.0
173
     0
291
     0
 45
0.0
1001
ACAD
1000
AcDbSavedByObjectVersion
1070
     0
  0
DICTIONARYVAR
  5
51C6
102
{ACAD_REACTORS
330
51C1
102
}
330
51C1
100
DictionaryVariables
280
     0
  1
1:1
  0
DICTIONARYVAR
  5
51C3
102
{ACAD_REACTORS
330
51C1
102
}
330
51C1
100
DictionaryVariables
280
     0
  1
STANDARD
  0
DICTIONARYVAR
  5
51C2
102
{ACAD_REACTORS
330
51C1
102
}
330
51C1
100
DictionaryVariables
280
     0
  1
STANDARD
  0
DICTIONARYVAR
  5
51C4
102
{ACAD_REACTORS
330
51C1
102
}
330
51C1
100
DictionaryVariables
280
     0
  1
Metric50
  0
DICTIONARYVAR
  5
51C5
102
{ACAD_REACTORS
330
51C1
102
}
330
51C1
100
DictionaryVariables
280
     0
  1
Metric50
  0
DICTIONARYVAR
  5
51C9
102
{ACAD_REACTORS
330
51C1
102
}
330
51C1
100
DictionaryVariables
280
     0
  1
1
  0
DICTIONARYVAR
  5
51C8
102
{ACAD_REACTORS
330
51C1
102
}
330
51C1
100
DictionaryVariables
280
     0
  1
0
  0
DICTIONARYVAR
  5
51C7
102
{ACAD_REACTORS
330
51C1
102
}
330
51C1
100
DictionaryVariables
280
     0
  1
127
  0
DICTIONARYVAR
  5
5260
102
{ACAD_REACTORS
330
51C1
102
}
330
51C1
100
DictionaryVariables
280
     0
  1
2
  0
DICTIONARY
  5
5299
330
E0
100
AcDbDictionary
280
     1
281
     1
  3
ACAD_XREC_ROUNDTRIP
360
529A
  0
DICTIONARY
  5
529B
330
E3
100
AcDbDictionary
280
     1
281
     1
  3
ACAD_XREC_ROUNDTRIP
360
529C
  0
DICTIONARY
  5
529D
330
E4
100
AcDbDictionary
280
     1
281
     1
  3
ACAD_XREC_ROUNDTRIP
360
529E
  0
DICTIONARY
  5
9E
330
9D
100
AcDbDictionary
280
     1
281
     1
  3
ACAD_XREC_ROUNDTRIP
360
5220
  3
BUMPTILE
360
A0
  3
DIFFUSETILE
360
9F
  3
OPACITYTILE
360
A3
  3
REFLECTIONTILE
360
A2
  3
REFRACTIONTILE
360
A4
  3
SPECULARTILE
360
A1
  0
DICTIONARY
  5
96
330
95
100
AcDbDictionary
280
     1
281
     1
  3
ACAD_XREC_ROUNDTRIP
360
521F
  3
BUMPTILE
360
98
  3
DIFFUSETILE
360
97
  3
OPACITYTILE
360
9B
  3
REFLECTIONTILE
360
9A
  3
REFRACTIONTILE
360
9C
  3
SPECULARTILE
360
99
  0
DICTIONARY
  5
A6
330
A5
100
AcDbDictionary
280
     1
281
     1
  3
ACAD_XREC_ROUNDTRIP
360
5221
  3
BUMPTILE
360
A8
  3
DIFFUSETILE
360
A7
  3
OPACITYTILE
360
AB
  3
REFLECTIONTILE
360
AA
  3
REFRACTIONTILE
360
AC
  3
SPECULARTILE
360
A9
  0
DICTIONARY
  5
5295
330
DC
100
AcDbDictionary
280
     1
281
     1
  3
ACAD_XREC_ROUNDTRIP
360
5296
  0
DICTIONARY
  5
5297
330
DE
100
AcDbDictionary
280
     1
281
     1
  3
ACAD_XREC_ROUNDTRIP
360
5298
  0
DICTIONARY
  5
5163
330
C8
100
AcDbDictionary
280
     1
281
     1
  3
ACAD_ROUNDTRIP_2008_TABLESTYLE_CELLSTYLEMAP
360
5261
  3
ACAD_XREC_ROUNDTRIP
360
5294
  0
DICTIONARY
  5
526E
330
B3
100
AcDbDictionary
280
     1
281
     1
  3
ACAD_XREC_ROUNDTRIP
360
526F
  0
DICTIONARY
  5
526C
330
B2
100
AcDbDictionary
280
     1
281
     1
  3
ACAD_XREC_ROUNDTRIP
360
526D
  0
DICTIONARY
  5
527A
330
B9
100
AcDbDictionary
280
     1
281
     1
  3
ACAD_XREC_ROUNDTRIP
360
527B
  0
DICTIONARY
  5
5282
330
BD
100
AcDbDictionary
280
     1
281
     1
  3
ACAD_XREC_ROUNDTRIP
360
5283
  0
DICTIONARY
  5
5274
330
B6
100
AcDbDictionary
280
     1
281
     1
  3
ACAD_XREC_ROUNDTRIP
360
5275
  0
DICTIONARY
  5
5278
330
B8
100
AcDbDictionary
280
     1
281
     1
  3
ACAD_XREC_ROUNDTRIP
360
5279
  0
DICTIONARY
  5
5292
330
C5
100
AcDbDictionary
280
     1
281
     1
  3
ACAD_XREC_ROUNDTRIP
360
5293
  0
DICTIONARY
  5
5280
330
BC
100
AcDbDictionary
280
     1
281
     1
  3
ACAD_XREC_ROUNDTRIP
360
5281
  0
DICTIONARY
  5
5264
330
AE
100
AcDbDictionary
280
     1
281
     1
  3
ACAD_XREC_ROUNDTRIP
360
5265
  0
DICTIONARY
  5
5266
330
AF
100
AcDbDictionary
280
     1
281
     1
  3
ACAD_XREC_ROUNDTRIP
360
5267
  0
DICTIONARY
  5
5268
330
B0
100
AcDbDictionary
280
     1
281
     1
  3
ACAD_XREC_ROUNDTRIP
360
5269
  0
DICTIONARY
  5
526A
330
B1
100
AcDbDictionary
280
     1
281
     1
  3
ACAD_XREC_ROUNDTRIP
360
526B
  0
DICTIONARY
  5
5272
330
B5
100
AcDbDictionary
280
     1
281
     1
  3
ACAD_XREC_ROUNDTRIP
360
5273
  0
DICTIONARY
  5
528E
330
C3
100
AcDbDictionary
280
     1
281
     1
  3
ACAD_XREC_ROUNDTRIP
360
528F
  0
DICTIONARY
  5
527E
330
BB
100
AcDbDictionary
280
     1
281
     1
  3
ACAD_XREC_ROUNDTRIP
360
527F
  0
DICTIONARY
  5
5290
330
C4
100
AcDbDictionary
280
     1
281
     1
  3
ACAD_XREC_ROUNDTRIP
360
5291
  0
DICTIONARY
  5
5276
330
B7
100
AcDbDictionary
280
     1
281
     1
  3
ACAD_XREC_ROUNDTRIP
360
5277
  0
DICTIONARY
  5
528C
330
C2
100
AcDbDictionary
280
     1
281
     1
  3
ACAD_XREC_ROUNDTRIP
360
528D
  0
DICTIONARY
  5
528A
330
C1
100
AcDbDictionary
280
     1
281
     1
  3
ACAD_XREC_ROUNDTRIP
360
528B
  0
DICTIONARY
  5
5284
330
BE
100
AcDbDictionary
280
     1
281
     1
  3
ACAD_XREC_ROUNDTRIP
360
5285
  0
DICTIONARY
  5
5286
330
BF
100
AcDbDictionary
280
     1
281
     1
  3
ACAD_XREC_ROUNDTRIP
360
5287
  0
DICTIONARY
  5
527C
330
BA
100
AcDbDictionary
280
     1
281
     1
  3
ACAD_XREC_ROUNDTRIP
360
527D
  0
DICTIONARY
  5
5270
330
B4
100
AcDbDictionary
280
     1
281
     1
  3
ACAD_XREC_ROUNDTRIP
360
5271
  0
DICTIONARY
  5
5288
330
C0
100
AcDbDictionary
280
     1
281
     1
  3
ACAD_XREC_ROUNDTRIP
360
5289
  0
XRECORD
  5
529A
102
{ACAD_REACTORS
330
5299
102
}
330
5299
100
AcDbXrecord
280
     1
102
DISPLAYNAME
  1
Metric50
102
FLAGS
 90
        0
  0
XRECORD
  5
529C
102
{ACAD_REACTORS
330
529B
102
}
330
529B
100
AcDbXrecord
280
     1
102
SHADEPLOT
 70
     0
102
SHADEPLOTRESLEVEL
 70
     2
102
SHADEPLOTCUSTOMDPI
 70
   300
  0
XRECORD
  5
529E
102
{ACAD_REACTORS
330
529D
102
}
330
529D
100
AcDbXrecord
280
     1
102
SHADEPLOT
 70
     0
102
SHADEPLOTRESLEVEL
 70
     2
102
SHADEPLOTCUSTOMDPI
 70
   300
  0
XRECORD
  5
5220
102
{ACAD_REACTORS
330
9E
102
}
330
9E
100
AcDbXrecord
280
     1
102
MATERIAL
148
0.0
149
0.0
149
0.0
 93
        0
 94
      127
282
     0
 72
     0
 77
     0
171
     0
175
     0
179
     0
273
     0
  0
XRECORD
  5
A0
102
{ACAD_REACTORS
330
9E
102
}
330
9E
100
AcDbXrecord
280
     1
270
     1
271
     1
  0
XRECORD
  5
9F
102
{ACAD_REACTORS
330
9E
102
}
330
9E
100
AcDbXrecord
280
     1
270
     1
271
     1
  0
XRECORD
  5
A3
102
{ACAD_REACTORS
330
9E
102
}
330
9E
100
AcDbXrecord
280
     1
270
     1
271
     1
  0
XRECORD
  5
A2
102
{ACAD_REACTORS
330
9E
102
}
330
9E
100
AcDbXrecord
280
     1
270
     1
271
     1
  0
XRECORD
  5
A4
102
{ACAD_REACTORS
330
9E
102
}
330
9E
100
AcDbXrecord
280
     1
270
     1
271
     1
  0
XRECORD
  5
A1
102
{ACAD_REACTORS
330
9E
102
}
330
9E
100
AcDbXrecord
280
     1
270
     1
271
     1
  0
XRECORD
  5
521F
102
{ACAD_REACTORS
330
96
102
}
330
96
100
AcDbXrecord
280
     1
102
MATERIAL
148
0.0
149
0.0
149
0.0
 93
        0
 94
      127
282
     0
 72
     0
 77
     0
171
     0
175
     0
179
     0
273
     0
  0
XRECORD
  5
98
102
{ACAD_REACTORS
330
96
102
}
330
96
100
AcDbXrecord
280
     1
270
     1
271
     1
  0
XRECORD
  5
97
102
{ACAD_REACTORS
330
96
102
}
330
96
100
AcDbXrecord
280
     1
270
     1
271
     1
  0
XRECORD
  5
9B
102
{ACAD_REACTORS
330
96
102
}
330
96
100
AcDbXrecord
280
     1
270
     1
271
     1
  0
XRECORD
  5
9A
102
{ACAD_REACTORS
330
96
102
}
330
96
100
AcDbXrecord
280
     1
270
     1
271
     1
  0
XRECORD
  5
9C
102
{ACAD_REACTORS
330
96
102
}
330
96
100
AcDbXrecord
280
     1
270
     1
271
     1
  0
XRECORD
  5
99
102
{ACAD_REACTORS
330
96
102
}
330
96
100
AcDbXrecord
280
     1
270
     1
271
     1
  0
XRECORD
  5
5221
102
{ACAD_REACTORS
330
A6
102
}
330
A6
100
AcDbXrecord
280
     1
102
MATERIAL
148
0.0
149
0.0
149
0.0
 93
        0
 94
      127
282
     0
 72
     0
 77
     0
171
     0
175
     0
179
     0
273
     0
  0
XRECORD
  5
A8
102
{ACAD_REACTORS
330
A6
102
}
330
A6
100
AcDbXrecord
280
     1
270
     1
271
     1
  0
XRECORD
  5
A7
102
{ACAD_REACTORS
330
A6
102
}
330
A6
100
AcDbXrecord
280
     1
270
     1
271
     1
  0
XRECORD
  5
AB
102
{ACAD_REACTORS
330
A6
102
}
330
A6
100
AcDbXrecord
280
     1
270
     1
271
     1
  0
XRECORD
  5
AA
102
{ACAD_REACTORS
330
A6
102
}
330
A6
100
AcDbXrecord
280
     1
270
     1
271
     1
  0
XRECORD
  5
AC
102
{ACAD_REACTORS
330
A6
102
}
330
A6
100
AcDbXrecord
280
     1
270
     1
271
     1
  0
XRECORD
  5
A9
102
{ACAD_REACTORS
330
A6
102
}
330
A6
100
AcDbXrecord
280
     1
270
     1
271
     1
  0
XRECORD
  5
5296
102
{ACAD_REACTORS
330
5295
102
}
330
5295
100
AcDbXrecord
280
     1
102
ACAD_ROUNDTRIP_2012_MLEADER_STYLE
298
     1
  0
XRECORD
  5
5298
102
{ACAD_REACTORS
330
5297
102
}
330
5297
100
AcDbXrecord
280
     1
102
DISPLAYNAME
  1
Metric50
102
FLAGS
 90
        0
  0
CELLSTYLEMAP
  5
5261
102
{ACAD_REACTORS
330
5163
102
}
330
5163
100
AcDbCellStyleMap
 90
        3
300
CELLSTYLE
  1
TABLEFORMAT_BEGIN
 90
        5
170
     1
 91
        0
 92
    32768
 62
   257
 93
        1
300
CONTENTFORMAT
  1
CONTENTFORMAT_BEGIN
 90
        0
 91
        0
 92
      512
 93
        0
300

 40
0.0
140
1.0
 94
        5
 62
     0
340
F
144
6.0
309
CONTENTFORMAT_END
171
     1
301
MARGIN
  1
CELLMARGIN_BEGIN
 40
1.5
 40
1.5
 40
1.5
 40
1.5
 40
0.18
 40
0.18
309
CELLMARGIN_END
 94
        6
 95
        1
302
GRIDFORMAT
  1
GRIDFORMAT_BEGIN
 90
        0
 91
        1
 62
     0
 92
       -2
340
0
 93
        0
 40
1.125
309
GRIDFORMAT_END
 95
        2
302
GRIDFORMAT
  1
GRIDFORMAT_BEGIN
 90
        0
 91
        1
 62
     0
 92
       -2
340
0
 93
        0
 40
1.125
309
GRIDFORMAT_END
 95
        4
302
GRIDFORMAT
  1
GRIDFORMAT_BEGIN
 90
        0
 91
        1
 62
     0
 92
       -2
340
0
 93
        0
 40
1.125
309
GRIDFORMAT_END
 95
        8
302
GRIDFORMAT
  1
GRIDFORMAT_BEGIN
 90
        0
 91
        1
 62
     0
 92
       -2
340
0
 93
        0
 40
1.125
309
GRIDFORMAT_END
 95
       16
302
GRIDFORMAT
  1
GRIDFORMAT_BEGIN
 90
        0
 91
        1
 62
     0
 92
       -2
340
0
 93
        0
 40
1.125
309
GRIDFORMAT_END
 95
       32
302
GRIDFORMAT
  1
GRIDFORMAT_BEGIN
 90
        0
 91
        1
 62
     0
 92
       -2
340
0
 93
        0
 40
1.125
309
GRIDFORMAT_END
309
TABLEFORMAT_END
  1
CELLSTYLE_BEGIN
 90
        1
 91
        1
300
_TITLE
309
CELLSTYLE_END
300
CELLSTYLE
  1
TABLEFORMAT_BEGIN
 90
        5
170
     1
 91
        0
 92
        0
 62
   257
 93
        1
300
CONTENTFORMAT
  1
CONTENTFORMAT_BEGIN
 90
        0
 91
        0
 92
      512
 93
        0
300

 40
0.0
140
1.0
 94
        5
 62
     0
340
F
144
4.5
309
CONTENTFORMAT_END
171
     1
301
MARGIN
  1
CELLMARGIN_BEGIN
 40
1.5
 40
1.5
 40
1.5
 40
1.5
 40
0.18
 40
0.18
309
CELLMARGIN_END
 94
        6
 95
        1
302
GRIDFORMAT
  1
GRIDFORMAT_BEGIN
 90
        0
 91
        1
 62
     0
 92
       -2
340
0
 93
        0
 40
1.125
309
GRIDFORMAT_END
 95
        2
302
GRIDFORMAT
  1
GRIDFORMAT_BEGIN
 90
        0
 91
        1
 62
     0
 92
       -2
340
0
 93
        0
 40
1.125
309
GRIDFORMAT_END
 95
        4
302
GRIDFORMAT
  1
GRIDFORMAT_BEGIN
 90
        0
 91
        1
 62
     0
 92
       -2
340
0
 93
        0
 40
1.125
309
GRIDFORMAT_END
 95
        8
302
GRIDFORMAT
  1
GRIDFORMAT_BEGIN
 90
        0
 91
        1
 62
     0
 92
       -2
340
0
 93
        0
 40
1.125
309
GRIDFORMAT_END
 95
       16
302
GRIDFORMAT
  1
GRIDFORMAT_BEGIN
 90
        0
 91
        1
 62
     0
 92
       -2
340
0
 93
        0
 40
1.125
309
GRIDFORMAT_END
 95
       32
302
GRIDFORMAT
  1
GRIDFORMAT_BEGIN
 90
        0
 91
        1
 62
     0
 92
       -2
340
0
 93
        0
 40
1.125
309
GRIDFORMAT_END
309
TABLEFORMAT_END
  1
CELLSTYLE_BEGIN
 90
        2
 91
        1
300
_HEADER
309
CELLSTYLE_END
300
CELLSTYLE
  1
TABLEFORMAT_BEGIN
 90
        5
170
     1
 91
        0
 92
        0
 62
   257
 93
        1
300
CONTENTFORMAT
  1
CONTENTFORMAT_BEGIN
 90
        0
 91
        0
 92
      512
 93
        0
300

 40
0.0
140
1.0
 94
        2
 62
     0
340
F
144
4.5
309
CONTENTFORMAT_END
171
     1
301
MARGIN
  1
CELLMARGIN_BEGIN
 40
1.5
 40
1.5
 40
1.5
 40
1.5
 40
0.18
 40
0.18
309
CELLMARGIN_END
 94
        6
 95
        1
302
GRIDFORMAT
  1
GRIDFORMAT_BEGIN
 90
        0
 91
        1
 62
     0
 92
       -2
340
0
 93
        0
 40
1.125
309
GRIDFORMAT_END
 95
        2
302
GRIDFORMAT
  1
GRIDFORMAT_BEGIN
 90
        0
 91
        1
 62
     0
 92
       -2
340
0
 93
        0
 40
1.125
309
GRIDFORMAT_END
 95
        4
302
GRIDFORMAT
  1
GRIDFORMAT_BEGIN
 90
        0
 91
        1
 62
     0
 92
       -2
340
0
 93
        0
 40
1.125
309
GRIDFORMAT_END
 95
        8
302
GRIDFORMAT
  1
GRIDFORMAT_BEGIN
 90
        0
 91
        1
 62
     0
 92
       -2
340
0
 93
        0
 40
1.125
309
GRIDFORMAT_END
 95
       16
302
GRIDFORMAT
  1
GRIDFORMAT_BEGIN
 90
        0
 91
        1
 62
     0
 92
       -2
340
0
 93
        0
 40
1.125
309
GRIDFORMAT_END
 95
       32
302
GRIDFORMAT
  1
GRIDFORMAT_BEGIN
 90
        0
 91
        1
 62
     0
 92
       -2
340
0
 93
        0
 40
1.125
309
GRIDFORMAT_END
309
TABLEFORMAT_END
  1
CELLSTYLE_BEGIN
 90
        3
 91
        2
300
_DATA
309
CELLSTYLE_END
  0
XRECORD
  5
5294
102
{ACAD_REACTORS
330
5163
102
}
330
5163
100
AcDbXrecord
280
     1
102
ACAD_ROUNDTRIP_PRE2007_TABLESTYLE
 90
      512
 91
        0
  1

 92
      512
 93
        0
  2

 94
      512
 95
        0
  3

  0
XRECORD
  5
526F
102
{ACAD_REACTORS
330
526E
102
}
330
526E
100
AcDbXrecord
280
     1
102
RTVSPost2010Prop28
280
     1
102
RTVSPost2010PropOp28
 70
     1
102
RTVSPost2010Prop29
280
     1
102
RTVSPost2010PropOp29
 70
     1
102
RTVSPost2010Prop30
280
     0
102
RTVSPost2010PropOp30
 70
     1
102
RTVSPost2010Prop31
280
     0
102
RTVSPost2010PropOp31
 70
     1
102
RTVSPost2010Prop32
280
     0
102
RTVSPost2010PropOp32
 70
     1
102
RTVSPost2010Prop33
280
     0
102
RTVSPost2010PropOp33
 70
     1
102
RTVSPost2010Prop34
280
     0
102
RTVSPost2010PropOp34
 70
     1
102
RTVSPost2010Prop35
280
     0
102
RTVSPost2010PropOp35
 70
     1
102
RTVSPost2010Prop36
280
     0
102
RTVSPost2010PropOp36
 70
     1
102
RTVSPost2010Prop37
 90
       50
102
RTVSPost2010PropOp37
 70
     1
102
RTVSPost2010Prop38
140
0.0
102
RTVSPost2010PropOp38
 70
     1
102
RTVSPost2010Prop39
140
1.0
102
RTVSPost2010PropOp39
 70
     1
102
RTVSPost2010Prop40
 90
        0
102
RTVSPost2010PropOp40
 70
     1
102
RTVSPost2010Prop41ColorIndex
 90
       18
102
RTVSPost2010Prop41ColorRGB
 90
        0
102
RTVSPost2010PropOp41
 70
     1
102
RTVSPost2010Prop42
 90
       50
102
RTVSPost2010PropOp42
 70
     1
102
RTVSPost2010Prop43
 90
        3
102
RTVSPost2010PropOp43
 70
     1
102
RTVSPost2010Prop44ColorIndex
 90
        5
102
RTVSPost2010Prop44ColorRGB
 90
      255
102
RTVSPost2010PropOp44
 70
     1
102
RTVSPost2010Prop45
280
     0
102
RTVSPost2010PropOp45
 70
     1
102
RTVSPost2010Prop46
 90
       50
102
RTVSPost2010PropOp46
 70
     1
102
RTVSPost2010Prop47
 90
       50
102
RTVSPost2010PropOp47
 70
     1
102
RTVSPost2010Prop48
 90
       50
102
RTVSPost2010PropOp48
 70
     1
102
RTVSPost2010Prop49
280
     0
102
RTVSPost2010PropOp49
 70
     1
102
RTVSPost2010Prop50
 90
       50
102
RTVSPost2010PropOp50
 70
     1
102
RTVSPost2010Prop51ColorIndex
 90
      256
102
RTVSPost2010Prop51ColorRGB
 90
-16777216
102
RTVSPost2010PropOp51
 70
     0
102
RTVSPost2010Prop52
140
1.0
102
RTVSPost2010PropOp52
 70
     0
102
RTVSPost2010Prop53
 90
        2
102
RTVSPost2010PropOp53
 70
     1
102
RTVSPost2010Prop54
  1
strokes_ogs.tif
102
RTVSPost2010PropOp54
 70
     1
102
RTVSPost2010Prop55
280
     0
102
RTVSPost2010PropOp55
 70
     1
102
RTVSPost2010Prop56
140
1.0
102
RTVSPost2010PropOp56
 70
     1
102
RTVSPost2010Prop57
140
1.0
102
RTVSPost2010PropOp57
 70
     1
102
RTVSPropertyOp0
 70
     1
102
RTVSPropertyOp1
 70
     1
102
RTVSPropertyOp2
 70
     1
102
RTVSPropertyOp3
 70
     1
102
RTVSPropertyOp4
 70
     1
102
RTVSPropertyOp5
 70
     1
102
RTVSPropertyOp6
 70
     1
102
RTVSPropertyOp7
 70
     1
102
RTVSPropertyOp8
 70
     1
102
RTVSPropertyOp9
 70
     1
102
RTVSPropertyOp10
 70
     1
102
RTVSPropertyOp11
 70
     1
102
RTVSPropertyOp12
 70
     1
102
RTVSPropertyOp13
 70
     1
102
RTVSPropertyOp14
 70
     1
102
RTVSPropertyOp15
 70
     1
102
RTVSPropertyOp16
 70
     1
102
RTVSPropertyOp17
 70
     1
102
RTVSPropertyOp18
 70
     1
102
RTVSPropertyOp19
 70
     1
102
RTVSPropertyOp20
 70
     1
102
RTVSPropertyOp21
 70
     1
102
RTVSPropertyOp22
 70
     1
102
RTVSPropertyOp23
 70
     1
102
RTVSPropertyOp24
 70
     1
102
RTVSPropertyOp25
 70
     1
102
RTVSPropertyOp26
 70
     1
102
RTVSPropertyOp27
 70
     1
102
RTVSPropertyOp28
 70
     1
102
RTVSPropertyOp29
 70
     1
102
RTVSPropertyOp30
 70
     1
102
RTVSPropertyOp31
 70
     1
102
RTVSPropertyOp32
 70
     1
102
RTVSPropertyOp33
 70
     1
102
RTVSPropertyOp34
 70
     1
102
RTVSPropertyOp35
 70
     1
102
RTVSPropertyOp36
 70
     1
102
RTVSPropertyOp37
 70
     1
102
RTVSPropertyOp38
 70
     1
102
RTVSPropertyOp39
 70
     1
102
RTVSPropertyOp40
 70
     1
102
RTVSPropertyOp41
 70
     1
102
RTVSPropertyOp42
 70
     1
102
RTVSPropertyOp43
 70
     1
102
RTVSPropertyOp44
 70
     1
102
RTVSPropertyOp45
 70
     1
102
RTVSPropertyOp46
 70
     1
102
RTVSPropertyOp47
 70
     1
102
RTVSPropertyOp48
 70
     1
102
RTVSPropertyOp49
 70
     1
102
RTVSPropertyOp50
 70
     1
102
RTVSPropertyOp51
 70
     0
102
RTVSPropertyOp52
 70
     0
102
RTVSPropertyOp53
 70
     1
102
RTVSPropertyOp54
 70
     1
102
RTVSPropertyOp55
 70
     1
102
RTVSPropertyOp56
 70
     1
102
RTVSPropertyOp57
 70
     1
102
RTVSPropertyOp58
 70
     1
102
RTVSPropertyOp59
 70
     1
102
RTVSPropertyOp60
 70
     1
102
RTVSPropertyOp61
 70
     1
102
RTVSPropertyOp62
 70
     1
  0
XRECORD
  5
526D
102
{ACAD_REACTORS
330
526C
102
}
330
526C
100
AcDbXrecord
280
     1
102
RTVSPost2010Prop28
280
     0
102
RTVSPost2010PropOp28
 70
     1
102
RTVSPost2010Prop29
280
     1
102
RTVSPost2010PropOp29
 70
     1
102
RTVSPost2010Prop30
280
     1
102
RTVSPost2010PropOp30
 70
     1
102
RTVSPost2010Prop31
280
     0
102
RTVSPost2010PropOp31
 70
     1
102
RTVSPost2010Prop32
280
     0
102
RTVSPost2010PropOp32
 70
     1
102
RTVSPost2010Prop33
280
     0
102
RTVSPost2010PropOp33
 70
     1
102
RTVSPost2010Prop34
280
     0
102
RTVSPost2010PropOp34
 70
     1
102
RTVSPost2010Prop35
280
     0
102
RTVSPost2010PropOp35
 70
     1
102
RTVSPost2010Prop36
280
     0
102
RTVSPost2010PropOp36
 70
     1
102
RTVSPost2010Prop37
 90
       50
102
RTVSPost2010PropOp37
 70
     1
102
RTVSPost2010Prop38
140
0.0
102
RTVSPost2010PropOp38
 70
     1
102
RTVSPost2010Prop39
140
1.0
102
RTVSPost2010PropOp39
 70
     1
102
RTVSPost2010Prop40
 90
        0
102
RTVSPost2010PropOp40
 70
     1
102
RTVSPost2010Prop41ColorIndex
 90
       18
102
RTVSPost2010Prop41ColorRGB
 90
        0
102
RTVSPost2010PropOp41
 70
     1
102
RTVSPost2010Prop42
 90
       50
102
RTVSPost2010PropOp42
 70
     1
102
RTVSPost2010Prop43
 90
        3
102
RTVSPost2010PropOp43
 70
     1
102
RTVSPost2010Prop44ColorIndex
 90
        5
102
RTVSPost2010Prop44ColorRGB
 90
      255
102
RTVSPost2010PropOp44
 70
     1
102
RTVSPost2010Prop45
280
     0
102
RTVSPost2010PropOp45
 70
     1
102
RTVSPost2010Prop46
 90
       50
102
RTVSPost2010PropOp46
 70
     1
102
RTVSPost2010Prop47
 90
       50
102
RTVSPost2010PropOp47
 70
     1
102
RTVSPost2010Prop48
 90
       50
102
RTVSPost2010PropOp48
 70
     1
102
RTVSPost2010Prop49
280
     0
102
RTVSPost2010PropOp49
 70
     1
102
RTVSPost2010Prop50
 90
       50
102
RTVSPost2010PropOp50
 70
     1
102
RTVSPost2010Prop51ColorIndex
 90
      256
102
RTVSPost2010Prop51ColorRGB
 90
-16777216
102
RTVSPost2010PropOp51
 70
     0
102
RTVSPost2010Prop52
140
1.0
102
RTVSPost2010PropOp52
 70
     0
102
RTVSPost2010Prop53
 90
        2
102
RTVSPost2010PropOp53
 70
     1
102
RTVSPost2010Prop54
  1
strokes_ogs.tif
102
RTVSPost2010PropOp54
 70
     1
102
RTVSPost2010Prop55
280
     0
102
RTVSPost2010PropOp55
 70
     1
102
RTVSPost2010Prop56
140
1.0
102
RTVSPost2010PropOp56
 70
     1
102
RTVSPost2010Prop57
140
1.0
102
RTVSPost2010PropOp57
 70
     1
102
RTVSPropertyOp0
 70
     1
102
RTVSPropertyOp1
 70
     1
102
RTVSPropertyOp2
 70
     1
102
RTVSPropertyOp3
 70
     1
102
RTVSPropertyOp4
 70
     1
102
RTVSPropertyOp5
 70
     1
102
RTVSPropertyOp6
 70
     1
102
RTVSPropertyOp7
 70
     1
102
RTVSPropertyOp8
 70
     1
102
RTVSPropertyOp9
 70
     1
102
RTVSPropertyOp10
 70
     1
102
RTVSPropertyOp11
 70
     1
102
RTVSPropertyOp12
 70
     1
102
RTVSPropertyOp13
 70
     1
102
RTVSPropertyOp14
 70
     1
102
RTVSPropertyOp15
 70
     1
102
RTVSPropertyOp16
 70
     1
102
RTVSPropertyOp17
 70
     1
102
RTVSPropertyOp18
 70
     1
102
RTVSPropertyOp19
 70
     1
102
RTVSPropertyOp20
 70
     1
102
RTVSPropertyOp21
 70
     1
102
RTVSPropertyOp22
 70
     1
102
RTVSPropertyOp23
 70
     1
102
RTVSPropertyOp24
 70
     1
102
RTVSPropertyOp25
 70
     1
102
RTVSPropertyOp26
 70
     1
102
RTVSPropertyOp27
 70
     1
102
RTVSPropertyOp28
 70
     1
102
RTVSPropertyOp29
 70
     1
102
RTVSPropertyOp30
 70
     1
102
RTVSPropertyOp31
 70
     1
102
RTVSPropertyOp32
 70
     1
102
RTVSPropertyOp33
 70
     1
102
RTVSPropertyOp34
 70
     1
102
RTVSPropertyOp35
 70
     1
102
RTVSPropertyOp36
 70
     1
102
RTVSPropertyOp37
 70
     1
102
RTVSPropertyOp38
 70
     1
102
RTVSPropertyOp39
 70
     1
102
RTVSPropertyOp40
 70
     1
102
RTVSPropertyOp41
 70
     1
102
RTVSPropertyOp42
 70
     1
102
RTVSPropertyOp43
 70
     1
102
RTVSPropertyOp44
 70
     1
102
RTVSPropertyOp45
 70
     1
102
RTVSPropertyOp46
 70
     1
102
RTVSPropertyOp47
 70
     1
102
RTVSPropertyOp48
 70
     1
102
RTVSPropertyOp49
 70
     1
102
RTVSPropertyOp50
 70
     1
102
RTVSPropertyOp51
 70
     0
102
RTVSPropertyOp52
 70
     0
102
RTVSPropertyOp53
 70
     1
102
RTVSPropertyOp54
 70
     1
102
RTVSPropertyOp55
 70
     1
102
RTVSPropertyOp56
 70
     1
102
RTVSPropertyOp57
 70
     1
102
RTVSPropertyOp58
 70
     1
102
RTVSPropertyOp59
 70
     1
102
RTVSPropertyOp60
 70
     1
102
RTVSPropertyOp61
 70
     1
102
RTVSPropertyOp62
 70
     1
  0
XRECORD
  5
527B
102
{ACAD_REACTORS
330
527A
102
}
330
527A
100
AcDbXrecord
280
     1
102
RTVSPost2010Prop28
280
     0
102
RTVSPost2010PropOp28
 70
     1
102
RTVSPost2010Prop29
280
     1
102
RTVSPost2010PropOp29
 70
     1
102
RTVSPost2010Prop30
280
     1
102
RTVSPost2010PropOp30
 70
     1
102
RTVSPost2010Prop31
280
     0
102
RTVSPost2010PropOp31
 70
     1
102
RTVSPost2010Prop32
280
     0
102
RTVSPost2010PropOp32
 70
     1
102
RTVSPost2010Prop33
280
     0
102
RTVSPost2010PropOp33
 70
     1
102
RTVSPost2010Prop34
280
     0
102
RTVSPost2010PropOp34
 70
     1
102
RTVSPost2010Prop35
280
     0
102
RTVSPost2010PropOp35
 70
     1
102
RTVSPost2010Prop36
280
     0
102
RTVSPost2010PropOp36
 70
     1
102
RTVSPost2010Prop37
 90
       50
102
RTVSPost2010PropOp37
 70
     1
102
RTVSPost2010Prop38
140
0.0
102
RTVSPost2010PropOp38
 70
     1
102
RTVSPost2010Prop39
140
1.0
102
RTVSPost2010PropOp39
 70
     1
102
RTVSPost2010Prop40
 90
        0
102
RTVSPost2010PropOp40
 70
     1
102
RTVSPost2010Prop41ColorIndex
 90
       18
102
RTVSPost2010Prop41ColorRGB
 90
        0
102
RTVSPost2010PropOp41
 70
     1
102
RTVSPost2010Prop42
 90
       50
102
RTVSPost2010PropOp42
 70
     1
102
RTVSPost2010Prop43
 90
        3
102
RTVSPost2010PropOp43
 70
     1
102
RTVSPost2010Prop44ColorIndex
 90
        5
102
RTVSPost2010Prop44ColorRGB
 90
      255
102
RTVSPost2010PropOp44
 70
     1
102
RTVSPost2010Prop45
280
     0
102
RTVSPost2010PropOp45
 70
     1
102
RTVSPost2010Prop46
 90
       50
102
RTVSPost2010PropOp46
 70
     1
102
RTVSPost2010Prop47
 90
       50
102
RTVSPost2010PropOp47
 70
     1
102
RTVSPost2010Prop48
 90
       50
102
RTVSPost2010PropOp48
 70
     1
102
RTVSPost2010Prop49
280
     0
102
RTVSPost2010PropOp49
 70
     1
102
RTVSPost2010Prop50
 90
       50
102
RTVSPost2010PropOp50
 70
     1
102
RTVSPost2010Prop51ColorIndex
 90
      256
102
RTVSPost2010Prop51ColorRGB
 90
-16777216
102
RTVSPost2010PropOp51
 70
     0
102
RTVSPost2010Prop52
140
1.0
102
RTVSPost2010PropOp52
 70
     0
102
RTVSPost2010Prop53
 90
        2
102
RTVSPost2010PropOp53
 70
     1
102
RTVSPost2010Prop54
  1
strokes_ogs.tif
102
RTVSPost2010PropOp54
 70
     1
102
RTVSPost2010Prop55
280
     0
102
RTVSPost2010PropOp55
 70
     1
102
RTVSPost2010Prop56
140
1.0
102
RTVSPost2010PropOp56
 70
     1
102
RTVSPost2010Prop57
140
1.0
102
RTVSPost2010PropOp57
 70
     1
102
RTVSPropertyOp0
 70
     1
102
RTVSPropertyOp1
 70
     1
102
RTVSPropertyOp2
 70
     1
102
RTVSPropertyOp3
 70
     1
102
RTVSPropertyOp4
 70
     1
102
RTVSPropertyOp5
 70
     1
102
RTVSPropertyOp6
 70
     1
102
RTVSPropertyOp7
 70
     1
102
RTVSPropertyOp8
 70
     1
102
RTVSPropertyOp9
 70
     1
102
RTVSPropertyOp10
 70
     1
102
RTVSPropertyOp11
 70
     1
102
RTVSPropertyOp12
 70
     1
102
RTVSPropertyOp13
 70
     1
102
RTVSPropertyOp14
 70
     1
102
RTVSPropertyOp15
 70
     1
102
RTVSPropertyOp16
 70
     1
102
RTVSPropertyOp17
 70
     1
102
RTVSPropertyOp18
 70
     1
102
RTVSPropertyOp19
 70
     1
102
RTVSPropertyOp20
 70
     1
102
RTVSPropertyOp21
 70
     1
102
RTVSPropertyOp22
 70
     1
102
RTVSPropertyOp23
 70
     1
102
RTVSPropertyOp24
 70
     1
102
RTVSPropertyOp25
 70
     1
102
RTVSPropertyOp26
 70
     1
102
RTVSPropertyOp27
 70
     1
102
RTVSPropertyOp28
 70
     1
102
RTVSPropertyOp29
 70
     1
102
RTVSPropertyOp30
 70
     1
102
RTVSPropertyOp31
 70
     1
102
RTVSPropertyOp32
 70
     1
102
RTVSPropertyOp33
 70
     1
102
RTVSPropertyOp34
 70
     1
102
RTVSPropertyOp35
 70
     1
102
RTVSPropertyOp36
 70
     1
102
RTVSPropertyOp37
 70
     1
102
RTVSPropertyOp38
 70
     1
102
RTVSPropertyOp39
 70
     1
102
RTVSPropertyOp40
 70
     1
102
RTVSPropertyOp41
 70
     1
102
RTVSPropertyOp42
 70
     1
102
RTVSPropertyOp43
 70
     1
102
RTVSPropertyOp44
 70
     1
102
RTVSPropertyOp45
 70
     1
102
RTVSPropertyOp46
 70
     1
102
RTVSPropertyOp47
 70
     1
102
RTVSPropertyOp48
 70
     1
102
RTVSPropertyOp49
 70
     1
102
RTVSPropertyOp50
 70
     1
102
RTVSPropertyOp51
 70
     0
102
RTVSPropertyOp52
 70
     0
102
RTVSPropertyOp53
 70
     1
102
RTVSPropertyOp54
 70
     1
102
RTVSPropertyOp55
 70
     1
102
RTVSPropertyOp56
 70
     1
102
RTVSPropertyOp57
 70
     1
102
RTVSPropertyOp58
 70
     1
102
RTVSPropertyOp59
 70
     1
102
RTVSPropertyOp60
 70
     1
102
RTVSPropertyOp61
 70
     1
102
RTVSPropertyOp62
 70
     1
  0
XRECORD
  5
5283
102
{ACAD_REACTORS
330
5282
102
}
330
5282
100
AcDbXrecord
280
     1
102
RTVSPost2010Prop28
280
     0
102
RTVSPost2010PropOp28
 70
     1
102
RTVSPost2010Prop29
280
     1
102
RTVSPost2010PropOp29
 70
     1
102
RTVSPost2010Prop30
280
     1
102
RTVSPost2010PropOp30
 70
     1
102
RTVSPost2010Prop31
280
     0
102
RTVSPost2010PropOp31
 70
     1
102
RTVSPost2010Prop32
280
     0
102
RTVSPost2010PropOp32
 70
     1
102
RTVSPost2010Prop33
280
     0
102
RTVSPost2010PropOp33
 70
     1
102
RTVSPost2010Prop34
280
     0
102
RTVSPost2010PropOp34
 70
     1
102
RTVSPost2010Prop35
280
     0
102
RTVSPost2010PropOp35
 70
     1
102
RTVSPost2010Prop36
280
     0
102
RTVSPost2010PropOp36
 70
     1
102
RTVSPost2010Prop37
 90
       50
102
RTVSPost2010PropOp37
 70
     1
102
RTVSPost2010Prop38
140
0.0
102
RTVSPost2010PropOp38
 70
     1
102
RTVSPost2010Prop39
140
1.0
102
RTVSPost2010PropOp39
 70
     1
102
RTVSPost2010Prop40
 90
        0
102
RTVSPost2010PropOp40
 70
     1
102
RTVSPost2010Prop41ColorIndex
 90
       18
102
RTVSPost2010Prop41ColorRGB
 90
        0
102
RTVSPost2010PropOp41
 70
     1
102
RTVSPost2010Prop42
 90
       50
102
RTVSPost2010PropOp42
 70
     1
102
RTVSPost2010Prop43
 90
        3
102
RTVSPost2010PropOp43
 70
     1
102
RTVSPost2010Prop44ColorIndex
 90
        5
102
RTVSPost2010Prop44ColorRGB
 90
      255
102
RTVSPost2010PropOp44
 70
     1
102
RTVSPost2010Prop45
280
     0
102
RTVSPost2010PropOp45
 70
     1
102
RTVSPost2010Prop46
 90
       50
102
RTVSPost2010PropOp46
 70
     1
102
RTVSPost2010Prop47
 90
       50
102
RTVSPost2010PropOp47
 70
     1
102
RTVSPost2010Prop48
 90
       50
102
RTVSPost2010PropOp48
 70
     1
102
RTVSPost2010Prop49
280
     0
102
RTVSPost2010PropOp49
 70
     1
102
RTVSPost2010Prop50
 90
       50
102
RTVSPost2010PropOp50
 70
     1
102
RTVSPost2010Prop51ColorIndex
 90
      256
102
RTVSPost2010Prop51ColorRGB
 90
-16777216
102
RTVSPost2010PropOp51
 70
     0
102
RTVSPost2010Prop52
140
1.0
102
RTVSPost2010PropOp52
 70
     0
102
RTVSPost2010Prop53
 90
        2
102
RTVSPost2010PropOp53
 70
     1
102
RTVSPost2010Prop54
  1
strokes_ogs.tif
102
RTVSPost2010PropOp54
 70
     1
102
RTVSPost2010Prop55
280
     0
102
RTVSPost2010PropOp55
 70
     1
102
RTVSPost2010Prop56
140
1.0
102
RTVSPost2010PropOp56
 70
     1
102
RTVSPost2010Prop57
140
1.0
102
RTVSPost2010PropOp57
 70
     1
102
RTVSPropertyOp0
 70
     1
102
RTVSPropertyOp1
 70
     1
102
RTVSPropertyOp2
 70
     1
102
RTVSPropertyOp3
 70
     1
102
RTVSPropertyOp4
 70
     1
102
RTVSPropertyOp5
 70
     1
102
RTVSPropertyOp6
 70
     1
102
RTVSPropertyOp7
 70
     1
102
RTVSPropertyOp8
 70
     1
102
RTVSPropertyOp9
 70
     1
102
RTVSPropertyOp10
 70
     1
102
RTVSPropertyOp11
 70
     1
102
RTVSPropertyOp12
 70
     1
102
RTVSPropertyOp13
 70
     1
102
RTVSPropertyOp14
 70
     1
102
RTVSPropertyOp15
 70
     1
102
RTVSPropertyOp16
 70
     1
102
RTVSPropertyOp17
 70
     1
102
RTVSPropertyOp18
 70
     1
102
RTVSPropertyOp19
 70
     1
102
RTVSPropertyOp20
 70
     1
102
RTVSPropertyOp21
 70
     1
102
RTVSPropertyOp22
 70
     1
102
RTVSPropertyOp23
 70
     1
102
RTVSPropertyOp24
 70
     1
102
RTVSPropertyOp25
 70
     1
102
RTVSPropertyOp26
 70
     1
102
RTVSPropertyOp27
 70
     1
102
RTVSPropertyOp28
 70
     1
102
RTVSPropertyOp29
 70
     1
102
RTVSPropertyOp30
 70
     1
102
RTVSPropertyOp31
 70
     1
102
RTVSPropertyOp32
 70
     1
102
RTVSPropertyOp33
 70
     1
102
RTVSPropertyOp34
 70
     1
102
RTVSPropertyOp35
 70
     1
102
RTVSPropertyOp36
 70
     1
102
RTVSPropertyOp37
 70
     1
102
RTVSPropertyOp38
 70
     1
102
RTVSPropertyOp39
 70
     1
102
RTVSPropertyOp40
 70
     1
102
RTVSPropertyOp41
 70
     1
102
RTVSPropertyOp42
 70
     1
102
RTVSPropertyOp43
 70
     1
102
RTVSPropertyOp44
 70
     1
102
RTVSPropertyOp45
 70
     1
102
RTVSPropertyOp46
 70
     1
102
RTVSPropertyOp47
 70
     1
102
RTVSPropertyOp48
 70
     1
102
RTVSPropertyOp49
 70
     1
102
RTVSPropertyOp50
 70
     1
102
RTVSPropertyOp51
 70
     0
102
RTVSPropertyOp52
 70
     0
102
RTVSPropertyOp53
 70
     1
102
RTVSPropertyOp54
 70
     1
102
RTVSPropertyOp55
 70
     1
102
RTVSPropertyOp56
 70
     1
102
RTVSPropertyOp57
 70
     1
102
RTVSPropertyOp58
 70
     1
102
RTVSPropertyOp59
 70
     1
102
RTVSPropertyOp60
 70
     1
102
RTVSPropertyOp61
 70
     1
102
RTVSPropertyOp62
 70
     1
  0
XRECORD
  5
5275
102
{ACAD_REACTORS
330
5274
102
}
330
5274
100
AcDbXrecord
280
     1
102
RTVSPost2010Prop28
280
     0
102
RTVSPost2010PropOp28
 70
     1
102
RTVSPost2010Prop29
280
     1
102
RTVSPost2010PropOp29
 70
     1
102
RTVSPost2010Prop30
280
     1
102
RTVSPost2010PropOp30
 70
     1
102
RTVSPost2010Prop31
280
     0
102
RTVSPost2010PropOp31
 70
     1
102
RTVSPost2010Prop32
280
     0
102
RTVSPost2010PropOp32
 70
     1
102
RTVSPost2010Prop33
280
     0
102
RTVSPost2010PropOp33
 70
     1
102
RTVSPost2010Prop34
280
     0
102
RTVSPost2010PropOp34
 70
     1
102
RTVSPost2010Prop35
280
     0
102
RTVSPost2010PropOp35
 70
     1
102
RTVSPost2010Prop36
280
     0
102
RTVSPost2010PropOp36
 70
     1
102
RTVSPost2010Prop37
 90
       50
102
RTVSPost2010PropOp37
 70
     1
102
RTVSPost2010Prop38
140
0.0
102
RTVSPost2010PropOp38
 70
     1
102
RTVSPost2010Prop39
140
1.0
102
RTVSPost2010PropOp39
 70
     1
102
RTVSPost2010Prop40
 90
        0
102
RTVSPost2010PropOp40
 70
     1
102
RTVSPost2010Prop41ColorIndex
 90
       18
102
RTVSPost2010Prop41ColorRGB
 90
        0
102
RTVSPost2010PropOp41
 70
     1
102
RTVSPost2010Prop42
 90
       50
102
RTVSPost2010PropOp42
 70
     1
102
RTVSPost2010Prop43
 90
        3
102
RTVSPost2010PropOp43
 70
     1
102
RTVSPost2010Prop44ColorIndex
 90
        5
102
RTVSPost2010Prop44ColorRGB
 90
      255
102
RTVSPost2010PropOp44
 70
     1
102
RTVSPost2010Prop45
280
     0
102
RTVSPost2010PropOp45
 70
     1
102
RTVSPost2010Prop46
 90
       50
102
RTVSPost2010PropOp46
 70
     1
102
RTVSPost2010Prop47
 90
       50
102
RTVSPost2010PropOp47
 70
     1
102
RTVSPost2010Prop48
 90
       50
102
RTVSPost2010PropOp48
 70
     1
102
RTVSPost2010Prop49
280
     0
102
RTVSPost2010PropOp49
 70
     1
102
RTVSPost2010Prop50
 90
       50
102
RTVSPost2010PropOp50
 70
     1
102
RTVSPost2010Prop51ColorIndex
 90
      256
102
RTVSPost2010Prop51ColorRGB
 90
-16777216
102
RTVSPost2010PropOp51
 70
     0
102
RTVSPost2010Prop52
140
1.0
102
RTVSPost2010PropOp52
 70
     0
102
RTVSPost2010Prop53
 90
        2
102
RTVSPost2010PropOp53
 70
     1
102
RTVSPost2010Prop54
  1
strokes_ogs.tif
102
RTVSPost2010PropOp54
 70
     1
102
RTVSPost2010Prop55
280
     0
102
RTVSPost2010PropOp55
 70
     1
102
RTVSPost2010Prop56
140
1.0
102
RTVSPost2010PropOp56
 70
     1
102
RTVSPost2010Prop57
140
1.0
102
RTVSPost2010PropOp57
 70
     1
102
RTVSPropertyOp0
 70
     1
102
RTVSPropertyOp1
 70
     1
102
RTVSPropertyOp2
 70
     1
102
RTVSPropertyOp3
 70
     1
102
RTVSPropertyOp4
 70
     1
102
RTVSPropertyOp5
 70
     1
102
RTVSPropertyOp6
 70
     1
102
RTVSPropertyOp7
 70
     1
102
RTVSPropertyOp8
 70
     1
102
RTVSPropertyOp9
 70
     1
102
RTVSPropertyOp10
 70
     1
102
RTVSPropertyOp11
 70
     1
102
RTVSPropertyOp12
 70
     1
102
RTVSPropertyOp13
 70
     1
102
RTVSPropertyOp14
 70
     1
102
RTVSPropertyOp15
 70
     1
102
RTVSPropertyOp16
 70
     1
102
RTVSPropertyOp17
 70
     1
102
RTVSPropertyOp18
 70
     1
102
RTVSPropertyOp19
 70
     1
102
RTVSPropertyOp20
 70
     1
102
RTVSPropertyOp21
 70
     1
102
RTVSPropertyOp22
 70
     1
102
RTVSPropertyOp23
 70
     1
102
RTVSPropertyOp24
 70
     1
102
RTVSPropertyOp25
 70
     1
102
RTVSPropertyOp26
 70
     1
102
RTVSPropertyOp27
 70
     1
102
RTVSPropertyOp28
 70
     1
102
RTVSPropertyOp29
 70
     1
102
RTVSPropertyOp30
 70
     1
102
RTVSPropertyOp31
 70
     1
102
RTVSPropertyOp32
 70
     1
102
RTVSPropertyOp33
 70
     1
102
RTVSPropertyOp34
 70
     1
102
RTVSPropertyOp35
 70
     1
102
RTVSPropertyOp36
 70
     1
102
RTVSPropertyOp37
 70
     1
102
RTVSPropertyOp38
 70
     1
102
RTVSPropertyOp39
 70
     1
102
RTVSPropertyOp40
 70
     1
102
RTVSPropertyOp41
 70
     1
102
RTVSPropertyOp42
 70
     1
102
RTVSPropertyOp43
 70
     1
102
RTVSPropertyOp44
 70
     1
102
RTVSPropertyOp45
 70
     1
102
RTVSPropertyOp46
 70
     1
102
RTVSPropertyOp47
 70
     1
102
RTVSPropertyOp48
 70
     1
102
RTVSPropertyOp49
 70
     1
102
RTVSPropertyOp50
 70
     1
102
RTVSPropertyOp51
 70
     0
102
RTVSPropertyOp52
 70
     0
102
RTVSPropertyOp53
 70
     1
102
RTVSPropertyOp54
 70
     1
102
RTVSPropertyOp55
 70
     1
102
RTVSPropertyOp56
 70
     1
102
RTVSPropertyOp57
 70
     1
102
RTVSPropertyOp58
 70
     1
102
RTVSPropertyOp59
 70
     1
102
RTVSPropertyOp60
 70
     1
102
RTVSPropertyOp61
 70
     1
102
RTVSPropertyOp62
 70
     1
  0
XRECORD
  5
5279
102
{ACAD_REACTORS
330
5278
102
}
330
5278
100
AcDbXrecord
280
     1
102
RTVSPost2010Prop28
280
     0
102
RTVSPost2010PropOp28
 70
     1
102
RTVSPost2010Prop29
280
     1
102
RTVSPost2010PropOp29
 70
     1
102
RTVSPost2010Prop30
280
     1
102
RTVSPost2010PropOp30
 70
     1
102
RTVSPost2010Prop31
280
     0
102
RTVSPost2010PropOp31
 70
     1
102
RTVSPost2010Prop32
280
     0
102
RTVSPost2010PropOp32
 70
     1
102
RTVSPost2010Prop33
280
     0
102
RTVSPost2010PropOp33
 70
     1
102
RTVSPost2010Prop34
280
     0
102
RTVSPost2010PropOp34
 70
     1
102
RTVSPost2010Prop35
280
     0
102
RTVSPost2010PropOp35
 70
     1
102
RTVSPost2010Prop36
280
     0
102
RTVSPost2010PropOp36
 70
     1
102
RTVSPost2010Prop37
 90
       50
102
RTVSPost2010PropOp37
 70
     1
102
RTVSPost2010Prop38
140
0.0
102
RTVSPost2010PropOp38
 70
     1
102
RTVSPost2010Prop39
140
1.0
102
RTVSPost2010PropOp39
 70
     1
102
RTVSPost2010Prop40
 90
        0
102
RTVSPost2010PropOp40
 70
     1
102
RTVSPost2010Prop41ColorIndex
 90
       18
102
RTVSPost2010Prop41ColorRGB
 90
        0
102
RTVSPost2010PropOp41
 70
     1
102
RTVSPost2010Prop42
 90
       50
102
RTVSPost2010PropOp42
 70
     1
102
RTVSPost2010Prop43
 90
        3
102
RTVSPost2010PropOp43
 70
     1
102
RTVSPost2010Prop44ColorIndex
 90
        5
102
RTVSPost2010Prop44ColorRGB
 90
      255
102
RTVSPost2010PropOp44
 70
     1
102
RTVSPost2010Prop45
280
     0
102
RTVSPost2010PropOp45
 70
     1
102
RTVSPost2010Prop46
 90
       50
102
RTVSPost2010PropOp46
 70
     1
102
RTVSPost2010Prop47
 90
       50
102
RTVSPost2010PropOp47
 70
     1
102
RTVSPost2010Prop48
 90
       50
102
RTVSPost2010PropOp48
 70
     1
102
RTVSPost2010Prop49
280
     0
102
RTVSPost2010PropOp49
 70
     1
102
RTVSPost2010Prop50
 90
       50
102
RTVSPost2010PropOp50
 70
     1
102
RTVSPost2010Prop51ColorIndex
 90
      256
102
RTVSPost2010Prop51ColorRGB
 90
-16777216
102
RTVSPost2010PropOp51
 70
     0
102
RTVSPost2010Prop52
140
1.0
102
RTVSPost2010PropOp52
 70
     0
102
RTVSPost2010Prop53
 90
        2
102
RTVSPost2010PropOp53
 70
     1
102
RTVSPost2010Prop54
  1
strokes_ogs.tif
102
RTVSPost2010PropOp54
 70
     1
102
RTVSPost2010Prop55
280
     0
102
RTVSPost2010PropOp55
 70
     1
102
RTVSPost2010Prop56
140
1.0
102
RTVSPost2010PropOp56
 70
     1
102
RTVSPost2010Prop57
140
1.0
102
RTVSPost2010PropOp57
 70
     1
102
RTVSPropertyOp0
 70
     1
102
RTVSPropertyOp1
 70
     1
102
RTVSPropertyOp2
 70
     1
102
RTVSPropertyOp3
 70
     1
102
RTVSPropertyOp4
 70
     1
102
RTVSPropertyOp5
 70
     1
102
RTVSPropertyOp6
 70
     1
102
RTVSPropertyOp7
 70
     1
102
RTVSPropertyOp8
 70
     1
102
RTVSPropertyOp9
 70
     1
102
RTVSPropertyOp10
 70
     1
102
RTVSPropertyOp11
 70
     1
102
RTVSPropertyOp12
 70
     1
102
RTVSPropertyOp13
 70
     1
102
RTVSPropertyOp14
 70
     1
102
RTVSPropertyOp15
 70
     1
102
RTVSPropertyOp16
 70
     1
102
RTVSPropertyOp17
 70
     1
102
RTVSPropertyOp18
 70
     1
102
RTVSPropertyOp19
 70
     1
102
RTVSPropertyOp20
 70
     1
102
RTVSPropertyOp21
 70
     1
102
RTVSPropertyOp22
 70
     1
102
RTVSPropertyOp23
 70
     1
102
RTVSPropertyOp24
 70
     1
102
RTVSPropertyOp25
 70
     1
102
RTVSPropertyOp26
 70
     1
102
RTVSPropertyOp27
 70
     1
102
RTVSPropertyOp28
 70
     1
102
RTVSPropertyOp29
 70
     1
102
RTVSPropertyOp30
 70
     1
102
RTVSPropertyOp31
 70
     1
102
RTVSPropertyOp32
 70
     1
102
RTVSPropertyOp33
 70
     1
102
RTVSPropertyOp34
 70
     1
102
RTVSPropertyOp35
 70
     1
102
RTVSPropertyOp36
 70
     1
102
RTVSPropertyOp37
 70
     1
102
RTVSPropertyOp38
 70
     1
102
RTVSPropertyOp39
 70
     1
102
RTVSPropertyOp40
 70
     1
102
RTVSPropertyOp41
 70
     1
102
RTVSPropertyOp42
 70
     1
102
RTVSPropertyOp43
 70
     1
102
RTVSPropertyOp44
 70
     1
102
RTVSPropertyOp45
 70
     1
102
RTVSPropertyOp46
 70
     1
102
RTVSPropertyOp47
 70
     1
102
RTVSPropertyOp48
 70
     1
102
RTVSPropertyOp49
 70
     1
102
RTVSPropertyOp50
 70
     1
102
RTVSPropertyOp51
 70
     0
102
RTVSPropertyOp52
 70
     0
102
RTVSPropertyOp53
 70
     1
102
RTVSPropertyOp54
 70
     1
102
RTVSPropertyOp55
 70
     1
102
RTVSPropertyOp56
 70
     1
102
RTVSPropertyOp57
 70
     1
102
RTVSPropertyOp58
 70
     1
102
RTVSPropertyOp59
 70
     1
102
RTVSPropertyOp60
 70
     1
102
RTVSPropertyOp61
 70
     1
102
RTVSPropertyOp62
 70
     1
  0
XRECORD
  5
5293
102
{ACAD_REACTORS
330
5292
102
}
330
5292
100
AcDbXrecord
280
     1
102
RTVSPost2010Prop28
280
     0
102
RTVSPost2010PropOp28
 70
     0
102
RTVSPost2010Prop29
280
     1
102
RTVSPost2010PropOp29
 70
     0
102
RTVSPost2010Prop30
280
     1
102
RTVSPost2010PropOp30
 70
     0
102
RTVSPost2010Prop31
280
     0
102
RTVSPost2010PropOp31
 70
     0
102
RTVSPost2010Prop32
280
     0
102
RTVSPost2010PropOp32
 70
     0
102
RTVSPost2010Prop33
280
     0
102
RTVSPost2010PropOp33
 70
     0
102
RTVSPost2010Prop34
280
     0
102
RTVSPost2010PropOp34
 70
     0
102
RTVSPost2010Prop35
280
     0
102
RTVSPost2010PropOp35
 70
     0
102
RTVSPost2010Prop36
280
     0
102
RTVSPost2010PropOp36
 70
     0
102
RTVSPost2010Prop37
 90
       50
102
RTVSPost2010PropOp37
 70
     0
102
RTVSPost2010Prop38
140
0.0
102
RTVSPost2010PropOp38
 70
     0
102
RTVSPost2010Prop39
140
1.0
102
RTVSPost2010PropOp39
 70
     0
102
RTVSPost2010Prop40
 90
        0
102
RTVSPost2010PropOp40
 70
     0
102
RTVSPost2010Prop41ColorIndex
 90
       18
102
RTVSPost2010Prop41ColorRGB
 90
        0
102
RTVSPost2010PropOp41
 70
     0
102
RTVSPost2010Prop42
 90
       50
102
RTVSPost2010PropOp42
 70
     0
102
RTVSPost2010Prop43
 90
        3
102
RTVSPost2010PropOp43
 70
     0
102
RTVSPost2010Prop44ColorIndex
 90
        5
102
RTVSPost2010Prop44ColorRGB
 90
      255
102
RTVSPost2010PropOp44
 70
     0
102
RTVSPost2010Prop45
280
     0
102
RTVSPost2010PropOp45
 70
     0
102
RTVSPost2010Prop46
 90
       50
102
RTVSPost2010PropOp46
 70
     0
102
RTVSPost2010Prop47
 90
       50
102
RTVSPost2010PropOp47
 70
     0
102
RTVSPost2010Prop48
 90
       50
102
RTVSPost2010PropOp48
 70
     0
102
RTVSPost2010Prop49
280
     0
102
RTVSPost2010PropOp49
 70
     0
102
RTVSPost2010Prop50
 90
       50
102
RTVSPost2010PropOp50
 70
     0
102
RTVSPost2010Prop51ColorIndex
 90
      256
102
RTVSPost2010Prop51ColorRGB
 90
-16777216
102
RTVSPost2010PropOp51
 70
     0
102
RTVSPost2010Prop52
140
1.0
102
RTVSPost2010PropOp52
 70
     0
102
RTVSPost2010Prop53
 90
        2
102
RTVSPost2010PropOp53
 70
     0
102
RTVSPost2010Prop54
  1
strokes_ogs.tif
102
RTVSPost2010PropOp54
 70
     0
102
RTVSPost2010Prop55
280
     0
102
RTVSPost2010PropOp55
 70
     0
102
RTVSPost2010Prop56
140
1.0
102
RTVSPost2010PropOp56
 70
     0
102
RTVSPost2010Prop57
140
1.0
102
RTVSPost2010PropOp57
 70
     0
102
RTVSPropertyOp0
 70
     0
102
RTVSPropertyOp1
 70
     0
102
RTVSPropertyOp2
 70
     0
102
RTVSPropertyOp3
 70
     0
102
RTVSPropertyOp4
 70
     0
102
RTVSPropertyOp5
 70
     0
102
RTVSPropertyOp6
 70
     0
102
RTVSPropertyOp7
 70
     0
102
RTVSPropertyOp8
 70
     0
102
RTVSPropertyOp9
 70
     0
102
RTVSPropertyOp10
 70
     0
102
RTVSPropertyOp11
 70
     0
102
RTVSPropertyOp12
 70
     0
102
RTVSPropertyOp13
 70
     0
102
RTVSPropertyOp14
 70
     2
102
RTVSPropertyOp15
 70
     0
102
RTVSPropertyOp16
 70
     0
102
RTVSPropertyOp17
 70
     0
102
RTVSPropertyOp18
 70
     0
102
RTVSPropertyOp19
 70
     0
102
RTVSPropertyOp20
 70
     0
102
RTVSPropertyOp21
 70
     0
102
RTVSPropertyOp22
 70
     0
102
RTVSPropertyOp23
 70
     0
102
RTVSPropertyOp24
 70
     0
102
RTVSPropertyOp25
 70
     0
102
RTVSPropertyOp26
 70
     0
102
RTVSPropertyOp27
 70
     0
102
RTVSPropertyOp28
 70
     0
102
RTVSPropertyOp29
 70
     0
102
RTVSPropertyOp30
 70
     0
102
RTVSPropertyOp31
 70
     0
102
RTVSPropertyOp32
 70
     0
102
RTVSPropertyOp33
 70
     0
102
RTVSPropertyOp34
 70
     0
102
RTVSPropertyOp35
 70
     0
102
RTVSPropertyOp36
 70
     0
102
RTVSPropertyOp37
 70
     0
102
RTVSPropertyOp38
 70
     0
102
RTVSPropertyOp39
 70
     0
102
RTVSPropertyOp40
 70
     0
102
RTVSPropertyOp41
 70
     0
102
RTVSPropertyOp42
 70
     0
102
RTVSPropertyOp43
 70
     0
102
RTVSPropertyOp44
 70
     0
102
RTVSPropertyOp45
 70
     0
102
RTVSPropertyOp46
 70
     0
102
RTVSPropertyOp47
 70
     0
102
RTVSPropertyOp48
 70
     0
102
RTVSPropertyOp49
 70
     0
102
RTVSPropertyOp50
 70
     0
102
RTVSPropertyOp51
 70
     0
102
RTVSPropertyOp52
 70
     0
102
RTVSPropertyOp53
 70
     0
102
RTVSPropertyOp54
 70
     0
102
RTVSPropertyOp55
 70
     0
102
RTVSPropertyOp56
 70
     0
102
RTVSPropertyOp57
 70
     0
102
RTVSPropertyOp58
 70
     0
102
RTVSPropertyOp59
 70
     0
102
RTVSPropertyOp60
 70
     0
102
RTVSPropertyOp61
 70
     0
102
RTVSPropertyOp62
 70
     0
  0
XRECORD
  5
5281
102
{ACAD_REACTORS
330
5280
102
}
330
5280
100
AcDbXrecord
280
     1
102
RTVSPost2010Prop28
280
     0
102
RTVSPost2010PropOp28
 70
     1
102
RTVSPost2010Prop29
280
     1
102
RTVSPost2010PropOp29
 70
     1
102
RTVSPost2010Prop30
280
     1
102
RTVSPost2010PropOp30
 70
     1
102
RTVSPost2010Prop31
280
     0
102
RTVSPost2010PropOp31
 70
     1
102
RTVSPost2010Prop32
280
     0
102
RTVSPost2010PropOp32
 70
     1
102
RTVSPost2010Prop33
280
     0
102
RTVSPost2010PropOp33
 70
     1
102
RTVSPost2010Prop34
280
     0
102
RTVSPost2010PropOp34
 70
     1
102
RTVSPost2010Prop35
280
     0
102
RTVSPost2010PropOp35
 70
     1
102
RTVSPost2010Prop36
280
     0
102
RTVSPost2010PropOp36
 70
     1
102
RTVSPost2010Prop37
 90
       50
102
RTVSPost2010PropOp37
 70
     1
102
RTVSPost2010Prop38
140
0.0
102
RTVSPost2010PropOp38
 70
     1
102
RTVSPost2010Prop39
140
1.0
102
RTVSPost2010PropOp39
 70
     1
102
RTVSPost2010Prop40
 90
        0
102
RTVSPost2010PropOp40
 70
     1
102
RTVSPost2010Prop41ColorIndex
 90
       18
102
RTVSPost2010Prop41ColorRGB
 90
        0
102
RTVSPost2010PropOp41
 70
     1
102
RTVSPost2010Prop42
 90
       50
102
RTVSPost2010PropOp42
 70
     1
102
RTVSPost2010Prop43
 90
        3
102
RTVSPost2010PropOp43
 70
     1
102
RTVSPost2010Prop44ColorIndex
 90
        5
102
RTVSPost2010Prop44ColorRGB
 90
      255
102
RTVSPost2010PropOp44
 70
     1
102
RTVSPost2010Prop45
280
     0
102
RTVSPost2010PropOp45
 70
     1
102
RTVSPost2010Prop46
 90
       50
102
RTVSPost2010PropOp46
 70
     1
102
RTVSPost2010Prop47
 90
       50
102
RTVSPost2010PropOp47
 70
     1
102
RTVSPost2010Prop48
 90
       50
102
RTVSPost2010PropOp48
 70
     1
102
RTVSPost2010Prop49
280
     0
102
RTVSPost2010PropOp49
 70
     1
102
RTVSPost2010Prop50
 90
       50
102
RTVSPost2010PropOp50
 70
     1
102
RTVSPost2010Prop51ColorIndex
 90
      256
102
RTVSPost2010Prop51ColorRGB
 90
-16777216
102
RTVSPost2010PropOp51
 70
     0
102
RTVSPost2010Prop52
140
1.0
102
RTVSPost2010PropOp52
 70
     0
102
RTVSPost2010Prop53
 90
        2
102
RTVSPost2010PropOp53
 70
     1
102
RTVSPost2010Prop54
  1
strokes_ogs.tif
102
RTVSPost2010PropOp54
 70
     1
102
RTVSPost2010Prop55
280
     0
102
RTVSPost2010PropOp55
 70
     1
102
RTVSPost2010Prop56
140
1.0
102
RTVSPost2010PropOp56
 70
     1
102
RTVSPost2010Prop57
140
1.0
102
RTVSPost2010PropOp57
 70
     1
102
RTVSPropertyOp0
 70
     1
102
RTVSPropertyOp1
 70
     1
102
RTVSPropertyOp2
 70
     1
102
RTVSPropertyOp3
 70
     1
102
RTVSPropertyOp4
 70
     1
102
RTVSPropertyOp5
 70
     1
102
RTVSPropertyOp6
 70
     1
102
RTVSPropertyOp7
 70
     1
102
RTVSPropertyOp8
 70
     1
102
RTVSPropertyOp9
 70
     1
102
RTVSPropertyOp10
 70
     1
102
RTVSPropertyOp11
 70
     1
102
RTVSPropertyOp12
 70
     1
102
RTVSPropertyOp13
 70
     1
102
RTVSPropertyOp14
 70
     1
102
RTVSPropertyOp15
 70
     1
102
RTVSPropertyOp16
 70
     1
102
RTVSPropertyOp17
 70
     1
102
RTVSPropertyOp18
 70
     1
102
RTVSPropertyOp19
 70
     1
102
RTVSPropertyOp20
 70
     1
102
RTVSPropertyOp21
 70
     1
102
RTVSPropertyOp22
 70
     1
102
RTVSPropertyOp23
 70
     1
102
RTVSPropertyOp24
 70
     1
102
RTVSPropertyOp25
 70
     1
102
RTVSPropertyOp26
 70
     1
102
RTVSPropertyOp27
 70
     1
102
RTVSPropertyOp28
 70
     1
102
RTVSPropertyOp29
 70
     1
102
RTVSPropertyOp30
 70
     1
102
RTVSPropertyOp31
 70
     1
102
RTVSPropertyOp32
 70
     1
102
RTVSPropertyOp33
 70
     1
102
RTVSPropertyOp34
 70
     1
102
RTVSPropertyOp35
 70
     1
102
RTVSPropertyOp36
 70
     1
102
RTVSPropertyOp37
 70
     1
102
RTVSPropertyOp38
 70
     1
102
RTVSPropertyOp39
 70
     1
102
RTVSPropertyOp40
 70
     1
102
RTVSPropertyOp41
 70
     1
102
RTVSPropertyOp42
 70
     1
102
RTVSPropertyOp43
 70
     1
102
RTVSPropertyOp44
 70
     1
102
RTVSPropertyOp45
 70
     1
102
RTVSPropertyOp46
 70
     1
102
RTVSPropertyOp47
 70
     1
102
RTVSPropertyOp48
 70
     1
102
RTVSPropertyOp49
 70
     1
102
RTVSPropertyOp50
 70
     1
102
RTVSPropertyOp51
 70
     0
102
RTVSPropertyOp52
 70
     0
102
RTVSPropertyOp53
 70
     1
102
RTVSPropertyOp54
 70
     1
102
RTVSPropertyOp55
 70
     1
102
RTVSPropertyOp56
 70
     1
102
RTVSPropertyOp57
 70
     1
102
RTVSPropertyOp58
 70
     1
102
RTVSPropertyOp59
 70
     1
102
RTVSPropertyOp60
 70
     1
102
RTVSPropertyOp61
 70
     1
102
RTVSPropertyOp62
 70
     1
  0
XRECORD
  5
5265
102
{ACAD_REACTORS
330
5264
102
}
330
5264
100
AcDbXrecord
280
     1
102
RTVSPost2010Prop28
280
     0
102
RTVSPost2010PropOp28
 70
     1
102
RTVSPost2010Prop29
280
     1
102
RTVSPost2010PropOp29
 70
     1
102
RTVSPost2010Prop30
280
     1
102
RTVSPost2010PropOp30
 70
     1
102
RTVSPost2010Prop31
280
     0
102
RTVSPost2010PropOp31
 70
     1
102
RTVSPost2010Prop32
280
     0
102
RTVSPost2010PropOp32
 70
     1
102
RTVSPost2010Prop33
280
     0
102
RTVSPost2010PropOp33
 70
     1
102
RTVSPost2010Prop34
280
     0
102
RTVSPost2010PropOp34
 70
     1
102
RTVSPost2010Prop35
280
     0
102
RTVSPost2010PropOp35
 70
     1
102
RTVSPost2010Prop36
280
     0
102
RTVSPost2010PropOp36
 70
     1
102
RTVSPost2010Prop37
 90
       50
102
RTVSPost2010PropOp37
 70
     1
102
RTVSPost2010Prop38
140
0.0
102
RTVSPost2010PropOp38
 70
     1
102
RTVSPost2010Prop39
140
1.0
102
RTVSPost2010PropOp39
 70
     1
102
RTVSPost2010Prop40
 90
        0
102
RTVSPost2010PropOp40
 70
     1
102
RTVSPost2010Prop41ColorIndex
 90
       18
102
RTVSPost2010Prop41ColorRGB
 90
        0
102
RTVSPost2010PropOp41
 70
     1
102
RTVSPost2010Prop42
 90
       50
102
RTVSPost2010PropOp42
 70
     1
102
RTVSPost2010Prop43
 90
        3
102
RTVSPost2010PropOp43
 70
     1
102
RTVSPost2010Prop44ColorIndex
 90
        5
102
RTVSPost2010Prop44ColorRGB
 90
      255
102
RTVSPost2010PropOp44
 70
     1
102
RTVSPost2010Prop45
280
     0
102
RTVSPost2010PropOp45
 70
     1
102
RTVSPost2010Prop46
 90
       50
102
RTVSPost2010PropOp46
 70
     1
102
RTVSPost2010Prop47
 90
       50
102
RTVSPost2010PropOp47
 70
     1
102
RTVSPost2010Prop48
 90
       50
102
RTVSPost2010PropOp48
 70
     1
102
RTVSPost2010Prop49
280
     0
102
RTVSPost2010PropOp49
 70
     1
102
RTVSPost2010Prop50
 90
       50
102
RTVSPost2010PropOp50
 70
     1
102
RTVSPost2010Prop51ColorIndex
 90
      256
102
RTVSPost2010Prop51ColorRGB
 90
-16777216
102
RTVSPost2010PropOp51
 70
     0
102
RTVSPost2010Prop52
140
1.0
102
RTVSPost2010PropOp52
 70
     0
102
RTVSPost2010Prop53
 90
        2
102
RTVSPost2010PropOp53
 70
     1
102
RTVSPost2010Prop54
  1
strokes_ogs.tif
102
RTVSPost2010PropOp54
 70
     1
102
RTVSPost2010Prop55
280
     0
102
RTVSPost2010PropOp55
 70
     1
102
RTVSPost2010Prop56
140
1.0
102
RTVSPost2010PropOp56
 70
     1
102
RTVSPost2010Prop57
140
1.0
102
RTVSPost2010PropOp57
 70
     1
102
RTVSPropertyOp0
 70
     1
102
RTVSPropertyOp1
 70
     1
102
RTVSPropertyOp2
 70
     1
102
RTVSPropertyOp3
 70
     1
102
RTVSPropertyOp4
 70
     1
102
RTVSPropertyOp5
 70
     1
102
RTVSPropertyOp6
 70
     1
102
RTVSPropertyOp7
 70
     1
102
RTVSPropertyOp8
 70
     1
102
RTVSPropertyOp9
 70
     1
102
RTVSPropertyOp10
 70
     1
102
RTVSPropertyOp11
 70
     1
102
RTVSPropertyOp12
 70
     1
102
RTVSPropertyOp13
 70
     1
102
RTVSPropertyOp14
 70
     1
102
RTVSPropertyOp15
 70
     1
102
RTVSPropertyOp16
 70
     1
102
RTVSPropertyOp17
 70
     1
102
RTVSPropertyOp18
 70
     1
102
RTVSPropertyOp19
 70
     1
102
RTVSPropertyOp20
 70
     1
102
RTVSPropertyOp21
 70
     1
102
RTVSPropertyOp22
 70
     1
102
RTVSPropertyOp23
 70
     1
102
RTVSPropertyOp24
 70
     1
102
RTVSPropertyOp25
 70
     1
102
RTVSPropertyOp26
 70
     1
102
RTVSPropertyOp27
 70
     1
102
RTVSPropertyOp28
 70
     1
102
RTVSPropertyOp29
 70
     1
102
RTVSPropertyOp30
 70
     1
102
RTVSPropertyOp31
 70
     1
102
RTVSPropertyOp32
 70
     1
102
RTVSPropertyOp33
 70
     1
102
RTVSPropertyOp34
 70
     1
102
RTVSPropertyOp35
 70
     1
102
RTVSPropertyOp36
 70
     1
102
RTVSPropertyOp37
 70
     1
102
RTVSPropertyOp38
 70
     1
102
RTVSPropertyOp39
 70
     1
102
RTVSPropertyOp40
 70
     1
102
RTVSPropertyOp41
 70
     1
102
RTVSPropertyOp42
 70
     1
102
RTVSPropertyOp43
 70
     1
102
RTVSPropertyOp44
 70
     1
102
RTVSPropertyOp45
 70
     1
102
RTVSPropertyOp46
 70
     1
102
RTVSPropertyOp47
 70
     1
102
RTVSPropertyOp48
 70
     1
102
RTVSPropertyOp49
 70
     1
102
RTVSPropertyOp50
 70
     1
102
RTVSPropertyOp51
 70
     0
102
RTVSPropertyOp52
 70
     0
102
RTVSPropertyOp53
 70
     1
102
RTVSPropertyOp54
 70
     1
102
RTVSPropertyOp55
 70
     1
102
RTVSPropertyOp56
 70
     1
102
RTVSPropertyOp57
 70
     1
102
RTVSPropertyOp58
 70
     1
102
RTVSPropertyOp59
 70
     1
102
RTVSPropertyOp60
 70
     1
102
RTVSPropertyOp61
 70
     1
102
RTVSPropertyOp62
 70
     1
  0
XRECORD
  5
5267
102
{ACAD_REACTORS
330
5266
102
}
330
5266
100
AcDbXrecord
280
     1
102
RTVSPost2010Prop28
280
     0
102
RTVSPost2010PropOp28
 70
     1
102
RTVSPost2010Prop29
280
     1
102
RTVSPost2010PropOp29
 70
     1
102
RTVSPost2010Prop30
280
     1
102
RTVSPost2010PropOp30
 70
     1
102
RTVSPost2010Prop31
280
     0
102
RTVSPost2010PropOp31
 70
     1
102
RTVSPost2010Prop32
280
     0
102
RTVSPost2010PropOp32
 70
     1
102
RTVSPost2010Prop33
280
     0
102
RTVSPost2010PropOp33
 70
     1
102
RTVSPost2010Prop34
280
     0
102
RTVSPost2010PropOp34
 70
     1
102
RTVSPost2010Prop35
280
     0
102
RTVSPost2010PropOp35
 70
     1
102
RTVSPost2010Prop36
280
     0
102
RTVSPost2010PropOp36
 70
     1
102
RTVSPost2010Prop37
 90
       50
102
RTVSPost2010PropOp37
 70
     1
102
RTVSPost2010Prop38
140
0.0
102
RTVSPost2010PropOp38
 70
     1
102
RTVSPost2010Prop39
140
1.0
102
RTVSPost2010PropOp39
 70
     1
102
RTVSPost2010Prop40
 90
        0
102
RTVSPost2010PropOp40
 70
     1
102
RTVSPost2010Prop41ColorIndex
 90
       18
102
RTVSPost2010Prop41ColorRGB
 90
        0
102
RTVSPost2010PropOp41
 70
     1
102
RTVSPost2010Prop42
 90
       50
102
RTVSPost2010PropOp42
 70
     1
102
RTVSPost2010Prop43
 90
        3
102
RTVSPost2010PropOp43
 70
     1
102
RTVSPost2010Prop44ColorIndex
 90
        5
102
RTVSPost2010Prop44ColorRGB
 90
      255
102
RTVSPost2010PropOp44
 70
     1
102
RTVSPost2010Prop45
280
     0
102
RTVSPost2010PropOp45
 70
     1
102
RTVSPost2010Prop46
 90
       50
102
RTVSPost2010PropOp46
 70
     1
102
RTVSPost2010Prop47
 90
       50
102
RTVSPost2010PropOp47
 70
     1
102
RTVSPost2010Prop48
 90
       50
102
RTVSPost2010PropOp48
 70
     1
102
RTVSPost2010Prop49
280
     0
102
RTVSPost2010PropOp49
 70
     1
102
RTVSPost2010Prop50
 90
       50
102
RTVSPost2010PropOp50
 70
     1
102
RTVSPost2010Prop51ColorIndex
 90
      256
102
RTVSPost2010Prop51ColorRGB
 90
-16777216
102
RTVSPost2010PropOp51
 70
     0
102
RTVSPost2010Prop52
140
1.0
102
RTVSPost2010PropOp52
 70
     0
102
RTVSPost2010Prop53
 90
        2
102
RTVSPost2010PropOp53
 70
     1
102
RTVSPost2010Prop54
  1
strokes_ogs.tif
102
RTVSPost2010PropOp54
 70
     1
102
RTVSPost2010Prop55
280
     0
102
RTVSPost2010PropOp55
 70
     1
102
RTVSPost2010Prop56
140
1.0
102
RTVSPost2010PropOp56
 70
     1
102
RTVSPost2010Prop57
140
1.0
102
RTVSPost2010PropOp57
 70
     1
102
RTVSPropertyOp0
 70
     1
102
RTVSPropertyOp1
 70
     1
102
RTVSPropertyOp2
 70
     1
102
RTVSPropertyOp3
 70
     1
102
RTVSPropertyOp4
 70
     1
102
RTVSPropertyOp5
 70
     1
102
RTVSPropertyOp6
 70
     1
102
RTVSPropertyOp7
 70
     1
102
RTVSPropertyOp8
 70
     1
102
RTVSPropertyOp9
 70
     1
102
RTVSPropertyOp10
 70
     1
102
RTVSPropertyOp11
 70
     1
102
RTVSPropertyOp12
 70
     1
102
RTVSPropertyOp13
 70
     1
102
RTVSPropertyOp14
 70
     1
102
RTVSPropertyOp15
 70
     1
102
RTVSPropertyOp16
 70
     1
102
RTVSPropertyOp17
 70
     1
102
RTVSPropertyOp18
 70
     1
102
RTVSPropertyOp19
 70
     1
102
RTVSPropertyOp20
 70
     1
102
RTVSPropertyOp21
 70
     1
102
RTVSPropertyOp22
 70
     1
102
RTVSPropertyOp23
 70
     1
102
RTVSPropertyOp24
 70
     1
102
RTVSPropertyOp25
 70
     1
102
RTVSPropertyOp26
 70
     1
102
RTVSPropertyOp27
 70
     1
102
RTVSPropertyOp28
 70
     1
102
RTVSPropertyOp29
 70
     1
102
RTVSPropertyOp30
 70
     1
102
RTVSPropertyOp31
 70
     1
102
RTVSPropertyOp32
 70
     1
102
RTVSPropertyOp33
 70
     1
102
RTVSPropertyOp34
 70
     1
102
RTVSPropertyOp35
 70
     1
102
RTVSPropertyOp36
 70
     1
102
RTVSPropertyOp37
 70
     1
102
RTVSPropertyOp38
 70
     1
102
RTVSPropertyOp39
 70
     1
102
RTVSPropertyOp40
 70
     1
102
RTVSPropertyOp41
 70
     1
102
RTVSPropertyOp42
 70
     1
102
RTVSPropertyOp43
 70
     1
102
RTVSPropertyOp44
 70
     1
102
RTVSPropertyOp45
 70
     1
102
RTVSPropertyOp46
 70
     1
102
RTVSPropertyOp47
 70
     1
102
RTVSPropertyOp48
 70
     1
102
RTVSPropertyOp49
 70
     1
102
RTVSPropertyOp50
 70
     1
102
RTVSPropertyOp51
 70
     0
102
RTVSPropertyOp52
 70
     0
102
RTVSPropertyOp53
 70
     1
102
RTVSPropertyOp54
 70
     1
102
RTVSPropertyOp55
 70
     1
102
RTVSPropertyOp56
 70
     1
102
RTVSPropertyOp57
 70
     1
102
RTVSPropertyOp58
 70
     1
102
RTVSPropertyOp59
 70
     1
102
RTVSPropertyOp60
 70
     1
102
RTVSPropertyOp61
 70
     1
102
RTVSPropertyOp62
 70
     1
  0
XRECORD
  5
5269
102
{ACAD_REACTORS
330
5268
102
}
330
5268
100
AcDbXrecord
280
     1
102
RTVSPost2010Prop28
280
     0
102
RTVSPost2010PropOp28
 70
     1
102
RTVSPost2010Prop29
280
     1
102
RTVSPost2010PropOp29
 70
     1
102
RTVSPost2010Prop30
280
     1
102
RTVSPost2010PropOp30
 70
     1
102
RTVSPost2010Prop31
280
     0
102
RTVSPost2010PropOp31
 70
     1
102
RTVSPost2010Prop32
280
     0
102
RTVSPost2010PropOp32
 70
     1
102
RTVSPost2010Prop33
280
     0
102
RTVSPost2010PropOp33
 70
     1
102
RTVSPost2010Prop34
280
     0
102
RTVSPost2010PropOp34
 70
     1
102
RTVSPost2010Prop35
280
     0
102
RTVSPost2010PropOp35
 70
     1
102
RTVSPost2010Prop36
280
     0
102
RTVSPost2010PropOp36
 70
     1
102
RTVSPost2010Prop37
 90
       50
102
RTVSPost2010PropOp37
 70
     1
102
RTVSPost2010Prop38
140
0.0
102
RTVSPost2010PropOp38
 70
     1
102
RTVSPost2010Prop39
140
1.0
102
RTVSPost2010PropOp39
 70
     1
102
RTVSPost2010Prop40
 90
        0
102
RTVSPost2010PropOp40
 70
     1
102
RTVSPost2010Prop41ColorIndex
 90
       18
102
RTVSPost2010Prop41ColorRGB
 90
        0
102
RTVSPost2010PropOp41
 70
     1
102
RTVSPost2010Prop42
 90
       50
102
RTVSPost2010PropOp42
 70
     1
102
RTVSPost2010Prop43
 90
        3
102
RTVSPost2010PropOp43
 70
     1
102
RTVSPost2010Prop44ColorIndex
 90
        5
102
RTVSPost2010Prop44ColorRGB
 90
      255
102
RTVSPost2010PropOp44
 70
     1
102
RTVSPost2010Prop45
280
     0
102
RTVSPost2010PropOp45
 70
     1
102
RTVSPost2010Prop46
 90
       50
102
RTVSPost2010PropOp46
 70
     1
102
RTVSPost2010Prop47
 90
       50
102
RTVSPost2010PropOp47
 70
     1
102
RTVSPost2010Prop48
 90
       50
102
RTVSPost2010PropOp48
 70
     1
102
RTVSPost2010Prop49
280
     0
102
RTVSPost2010PropOp49
 70
     1
102
RTVSPost2010Prop50
 90
       50
102
RTVSPost2010PropOp50
 70
     1
102
RTVSPost2010Prop51ColorIndex
 90
      256
102
RTVSPost2010Prop51ColorRGB
 90
-16777216
102
RTVSPost2010PropOp51
 70
     0
102
RTVSPost2010Prop52
140
1.0
102
RTVSPost2010PropOp52
 70
     0
102
RTVSPost2010Prop53
 90
        2
102
RTVSPost2010PropOp53
 70
     1
102
RTVSPost2010Prop54
  1
strokes_ogs.tif
102
RTVSPost2010PropOp54
 70
     1
102
RTVSPost2010Prop55
280
     0
102
RTVSPost2010PropOp55
 70
     1
102
RTVSPost2010Prop56
140
1.0
102
RTVSPost2010PropOp56
 70
     1
102
RTVSPost2010Prop57
140
1.0
102
RTVSPost2010PropOp57
 70
     1
102
RTVSPropertyOp0
 70
     1
102
RTVSPropertyOp1
 70
     1
102
RTVSPropertyOp2
 70
     1
102
RTVSPropertyOp3
 70
     1
102
RTVSPropertyOp4
 70
     1
102
RTVSPropertyOp5
 70
     1
102
RTVSPropertyOp6
 70
     1
102
RTVSPropertyOp7
 70
     1
102
RTVSPropertyOp8
 70
     1
102
RTVSPropertyOp9
 70
     1
102
RTVSPropertyOp10
 70
     1
102
RTVSPropertyOp11
 70
     1
102
RTVSPropertyOp12
 70
     1
102
RTVSPropertyOp13
 70
     1
102
RTVSPropertyOp14
 70
     1
102
RTVSPropertyOp15
 70
     1
102
RTVSPropertyOp16
 70
     1
102
RTVSPropertyOp17
 70
     1
102
RTVSPropertyOp18
 70
     1
102
RTVSPropertyOp19
 70
     1
102
RTVSPropertyOp20
 70
     1
102
RTVSPropertyOp21
 70
     1
102
RTVSPropertyOp22
 70
     1
102
RTVSPropertyOp23
 70
     1
102
RTVSPropertyOp24
 70
     1
102
RTVSPropertyOp25
 70
     1
102
RTVSPropertyOp26
 70
     1
102
RTVSPropertyOp27
 70
     1
102
RTVSPropertyOp28
 70
     1
102
RTVSPropertyOp29
 70
     1
102
RTVSPropertyOp30
 70
     1
102
RTVSPropertyOp31
 70
     1
102
RTVSPropertyOp32
 70
     1
102
RTVSPropertyOp33
 70
     1
102
RTVSPropertyOp34
 70
     1
102
RTVSPropertyOp35
 70
     1
102
RTVSPropertyOp36
 70
     1
102
RTVSPropertyOp37
 70
     1
102
RTVSPropertyOp38
 70
     1
102
RTVSPropertyOp39
 70
     1
102
RTVSPropertyOp40
 70
     1
102
RTVSPropertyOp41
 70
     1
102
RTVSPropertyOp42
 70
     1
102
RTVSPropertyOp43
 70
     1
102
RTVSPropertyOp44
 70
     1
102
RTVSPropertyOp45
 70
     1
102
RTVSPropertyOp46
 70
     1
102
RTVSPropertyOp47
 70
     1
102
RTVSPropertyOp48
 70
     1
102
RTVSPropertyOp49
 70
     1
102
RTVSPropertyOp50
 70
     1
102
RTVSPropertyOp51
 70
     0
102
RTVSPropertyOp52
 70
     0
102
RTVSPropertyOp53
 70
     1
102
RTVSPropertyOp54
 70
     1
102
RTVSPropertyOp55
 70
     1
102
RTVSPropertyOp56
 70
     1
102
RTVSPropertyOp57
 70
     1
102
RTVSPropertyOp58
 70
     1
102
RTVSPropertyOp59
 70
     1
102
RTVSPropertyOp60
 70
     1
102
RTVSPropertyOp61
 70
     1
102
RTVSPropertyOp62
 70
     1
  0
XRECORD
  5
526B
102
{ACAD_REACTORS
330
526A
102
}
330
526A
100
AcDbXrecord
280
     1
102
RTVSPost2010Prop28
280
     0
102
RTVSPost2010PropOp28
 70
     1
102
RTVSPost2010Prop29
280
     1
102
RTVSPost2010PropOp29
 70
     1
102
RTVSPost2010Prop30
280
     1
102
RTVSPost2010PropOp30
 70
     1
102
RTVSPost2010Prop31
280
     0
102
RTVSPost2010PropOp31
 70
     1
102
RTVSPost2010Prop32
280
     0
102
RTVSPost2010PropOp32
 70
     1
102
RTVSPost2010Prop33
280
     0
102
RTVSPost2010PropOp33
 70
     1
102
RTVSPost2010Prop34
280
     0
102
RTVSPost2010PropOp34
 70
     1
102
RTVSPost2010Prop35
280
     0
102
RTVSPost2010PropOp35
 70
     1
102
RTVSPost2010Prop36
280
     0
102
RTVSPost2010PropOp36
 70
     1
102
RTVSPost2010Prop37
 90
       50
102
RTVSPost2010PropOp37
 70
     1
102
RTVSPost2010Prop38
140
0.0
102
RTVSPost2010PropOp38
 70
     1
102
RTVSPost2010Prop39
140
1.0
102
RTVSPost2010PropOp39
 70
     1
102
RTVSPost2010Prop40
 90
        0
102
RTVSPost2010PropOp40
 70
     1
102
RTVSPost2010Prop41ColorIndex
 90
       18
102
RTVSPost2010Prop41ColorRGB
 90
        0
102
RTVSPost2010PropOp41
 70
     1
102
RTVSPost2010Prop42
 90
       50
102
RTVSPost2010PropOp42
 70
     1
102
RTVSPost2010Prop43
 90
        3
102
RTVSPost2010PropOp43
 70
     1
102
RTVSPost2010Prop44ColorIndex
 90
        5
102
RTVSPost2010Prop44ColorRGB
 90
      255
102
RTVSPost2010PropOp44
 70
     1
102
RTVSPost2010Prop45
280
     0
102
RTVSPost2010PropOp45
 70
     1
102
RTVSPost2010Prop46
 90
       50
102
RTVSPost2010PropOp46
 70
     1
102
RTVSPost2010Prop47
 90
       50
102
RTVSPost2010PropOp47
 70
     1
102
RTVSPost2010Prop48
 90
       50
102
RTVSPost2010PropOp48
 70
     1
102
RTVSPost2010Prop49
280
     0
102
RTVSPost2010PropOp49
 70
     1
102
RTVSPost2010Prop50
 90
       50
102
RTVSPost2010PropOp50
 70
     1
102
RTVSPost2010Prop51ColorIndex
 90
      256
102
RTVSPost2010Prop51ColorRGB
 90
-16777216
102
RTVSPost2010PropOp51
 70
     0
102
RTVSPost2010Prop52
140
1.0
102
RTVSPost2010PropOp52
 70
     0
102
RTVSPost2010Prop53
 90
        2
102
RTVSPost2010PropOp53
 70
     1
102
RTVSPost2010Prop54
  1
strokes_ogs.tif
102
RTVSPost2010PropOp54
 70
     1
102
RTVSPost2010Prop55
280
     0
102
RTVSPost2010PropOp55
 70
     1
102
RTVSPost2010Prop56
140
1.0
102
RTVSPost2010PropOp56
 70
     1
102
RTVSPost2010Prop57
140
1.0
102
RTVSPost2010PropOp57
 70
     1
102
RTVSPropertyOp0
 70
     1
102
RTVSPropertyOp1
 70
     1
102
RTVSPropertyOp2
 70
     1
102
RTVSPropertyOp3
 70
     1
102
RTVSPropertyOp4
 70
     1
102
RTVSPropertyOp5
 70
     1
102
RTVSPropertyOp6
 70
     1
102
RTVSPropertyOp7
 70
     1
102
RTVSPropertyOp8
 70
     1
102
RTVSPropertyOp9
 70
     1
102
RTVSPropertyOp10
 70
     1
102
RTVSPropertyOp11
 70
     1
102
RTVSPropertyOp12
 70
     1
102
RTVSPropertyOp13
 70
     1
102
RTVSPropertyOp14
 70
     1
102
RTVSPropertyOp15
 70
     1
102
RTVSPropertyOp16
 70
     1
102
RTVSPropertyOp17
 70
     1
102
RTVSPropertyOp18
 70
     1
102
RTVSPropertyOp19
 70
     1
102
RTVSPropertyOp20
 70
     1
102
RTVSPropertyOp21
 70
     1
102
RTVSPropertyOp22
 70
     1
102
RTVSPropertyOp23
 70
     1
102
RTVSPropertyOp24
 70
     1
102
RTVSPropertyOp25
 70
     1
102
RTVSPropertyOp26
 70
     1
102
RTVSPropertyOp27
 70
     1
102
RTVSPropertyOp28
 70
     1
102
RTVSPropertyOp29
 70
     1
102
RTVSPropertyOp30
 70
     1
102
RTVSPropertyOp31
 70
     1
102
RTVSPropertyOp32
 70
     1
102
RTVSPropertyOp33
 70
     1
102
RTVSPropertyOp34
 70
     1
102
RTVSPropertyOp35
 70
     1
102
RTVSPropertyOp36
 70
     1
102
RTVSPropertyOp37
 70
     1
102
RTVSPropertyOp38
 70
     1
102
RTVSPropertyOp39
 70
     1
102
RTVSPropertyOp40
 70
     1
102
RTVSPropertyOp41
 70
     1
102
RTVSPropertyOp42
 70
     1
102
RTVSPropertyOp43
 70
     1
102
RTVSPropertyOp44
 70
     1
102
RTVSPropertyOp45
 70
     1
102
RTVSPropertyOp46
 70
     1
102
RTVSPropertyOp47
 70
     1
102
RTVSPropertyOp48
 70
     1
102
RTVSPropertyOp49
 70
     1
102
RTVSPropertyOp50
 70
     1
102
RTVSPropertyOp51
 70
     0
102
RTVSPropertyOp52
 70
     0
102
RTVSPropertyOp53
 70
     1
102
RTVSPropertyOp54
 70
     1
102
RTVSPropertyOp55
 70
     1
102
RTVSPropertyOp56
 70
     1
102
RTVSPropertyOp57
 70
     1
102
RTVSPropertyOp58
 70
     1
102
RTVSPropertyOp59
 70
     1
102
RTVSPropertyOp60
 70
     1
102
RTVSPropertyOp61
 70
     1
102
RTVSPropertyOp62
 70
     1
  0
XRECORD
  5
5273
102
{ACAD_REACTORS
330
5272
102
}
330
5272
100
AcDbXrecord
280
     1
102
RTVSPost2010Prop28
280
     0
102
RTVSPost2010PropOp28
 70
     1
102
RTVSPost2010Prop29
280
     1
102
RTVSPost2010PropOp29
 70
     1
102
RTVSPost2010Prop30
280
     1
102
RTVSPost2010PropOp30
 70
     1
102
RTVSPost2010Prop31
280
     0
102
RTVSPost2010PropOp31
 70
     1
102
RTVSPost2010Prop32
280
     0
102
RTVSPost2010PropOp32
 70
     1
102
RTVSPost2010Prop33
280
     0
102
RTVSPost2010PropOp33
 70
     1
102
RTVSPost2010Prop34
280
     0
102
RTVSPost2010PropOp34
 70
     1
102
RTVSPost2010Prop35
280
     0
102
RTVSPost2010PropOp35
 70
     1
102
RTVSPost2010Prop36
280
     0
102
RTVSPost2010PropOp36
 70
     1
102
RTVSPost2010Prop37
 90
       50
102
RTVSPost2010PropOp37
 70
     1
102
RTVSPost2010Prop38
140
0.0
102
RTVSPost2010PropOp38
 70
     1
102
RTVSPost2010Prop39
140
1.0
102
RTVSPost2010PropOp39
 70
     1
102
RTVSPost2010Prop40
 90
        0
102
RTVSPost2010PropOp40
 70
     1
102
RTVSPost2010Prop41ColorIndex
 90
       18
102
RTVSPost2010Prop41ColorRGB
 90
        0
102
RTVSPost2010PropOp41
 70
     1
102
RTVSPost2010Prop42
 90
       50
102
RTVSPost2010PropOp42
 70
     1
102
RTVSPost2010Prop43
 90
        3
102
RTVSPost2010PropOp43
 70
     1
102
RTVSPost2010Prop44ColorIndex
 90
        5
102
RTVSPost2010Prop44ColorRGB
 90
      255
102
RTVSPost2010PropOp44
 70
     1
102
RTVSPost2010Prop45
280
     0
102
RTVSPost2010PropOp45
 70
     1
102
RTVSPost2010Prop46
 90
       50
102
RTVSPost2010PropOp46
 70
     1
102
RTVSPost2010Prop47
 90
       50
102
RTVSPost2010PropOp47
 70
     1
102
RTVSPost2010Prop48
 90
       50
102
RTVSPost2010PropOp48
 70
     1
102
RTVSPost2010Prop49
280
     0
102
RTVSPost2010PropOp49
 70
     1
102
RTVSPost2010Prop50
 90
       50
102
RTVSPost2010PropOp50
 70
     1
102
RTVSPost2010Prop51ColorIndex
 90
      256
102
RTVSPost2010Prop51ColorRGB
 90
-16777216
102
RTVSPost2010PropOp51
 70
     0
102
RTVSPost2010Prop52
140
1.0
102
RTVSPost2010PropOp52
 70
     0
102
RTVSPost2010Prop53
 90
        2
102
RTVSPost2010PropOp53
 70
     1
102
RTVSPost2010Prop54
  1
strokes_ogs.tif
102
RTVSPost2010PropOp54
 70
     1
102
RTVSPost2010Prop55
280
     0
102
RTVSPost2010PropOp55
 70
     1
102
RTVSPost2010Prop56
140
1.0
102
RTVSPost2010PropOp56
 70
     1
102
RTVSPost2010Prop57
140
1.0
102
RTVSPost2010PropOp57
 70
     1
102
RTVSPropertyOp0
 70
     1
102
RTVSPropertyOp1
 70
     1
102
RTVSPropertyOp2
 70
     1
102
RTVSPropertyOp3
 70
     1
102
RTVSPropertyOp4
 70
     1
102
RTVSPropertyOp5
 70
     1
102
RTVSPropertyOp6
 70
     1
102
RTVSPropertyOp7
 70
     1
102
RTVSPropertyOp8
 70
     1
102
RTVSPropertyOp9
 70
     1
102
RTVSPropertyOp10
 70
     1
102
RTVSPropertyOp11
 70
     1
102
RTVSPropertyOp12
 70
     1
102
RTVSPropertyOp13
 70
     1
102
RTVSPropertyOp14
 70
     1
102
RTVSPropertyOp15
 70
     1
102
RTVSPropertyOp16
 70
     1
102
RTVSPropertyOp17
 70
     1
102
RTVSPropertyOp18
 70
     1
102
RTVSPropertyOp19
 70
     1
102
RTVSPropertyOp20
 70
     1
102
RTVSPropertyOp21
 70
     1
102
RTVSPropertyOp22
 70
     1
102
RTVSPropertyOp23
 70
     1
102
RTVSPropertyOp24
 70
     1
102
RTVSPropertyOp25
 70
     1
102
RTVSPropertyOp26
 70
     1
102
RTVSPropertyOp27
 70
     1
102
RTVSPropertyOp28
 70
     1
102
RTVSPropertyOp29
 70
     1
102
RTVSPropertyOp30
 70
     1
102
RTVSPropertyOp31
 70
     1
102
RTVSPropertyOp32
 70
     1
102
RTVSPropertyOp33
 70
     1
102
RTVSPropertyOp34
 70
     1
102
RTVSPropertyOp35
 70
     1
102
RTVSPropertyOp36
 70
     1
102
RTVSPropertyOp37
 70
     1
102
RTVSPropertyOp38
 70
     1
102
RTVSPropertyOp39
 70
     1
102
RTVSPropertyOp40
 70
     1
102
RTVSPropertyOp41
 70
     1
102
RTVSPropertyOp42
 70
     1
102
RTVSPropertyOp43
 70
     1
102
RTVSPropertyOp44
 70
     1
102
RTVSPropertyOp45
 70
     1
102
RTVSPropertyOp46
 70
     1
102
RTVSPropertyOp47
 70
     1
102
RTVSPropertyOp48
 70
     1
102
RTVSPropertyOp49
 70
     1
102
RTVSPropertyOp50
 70
     1
102
RTVSPropertyOp51
 70
     0
102
RTVSPropertyOp52
 70
     0
102
RTVSPropertyOp53
 70
     1
102
RTVSPropertyOp54
 70
     1
102
RTVSPropertyOp55
 70
     1
102
RTVSPropertyOp56
 70
     1
102
RTVSPropertyOp57
 70
     1
102
RTVSPropertyOp58
 70
     1
102
RTVSPropertyOp59
 70
     1
102
RTVSPropertyOp60
 70
     1
102
RTVSPropertyOp61
 70
     1
102
RTVSPropertyOp62
 70
     1
  0
XRECORD
  5
528F
102
{ACAD_REACTORS
330
528E
102
}
330
528E
100
AcDbXrecord
280
     1
102
RTVSPost2010Prop28
280
     0
102
RTVSPost2010PropOp28
 70
     0
102
RTVSPost2010Prop29
280
     1
102
RTVSPost2010PropOp29
 70
     0
102
RTVSPost2010Prop30
280
     1
102
RTVSPost2010PropOp30
 70
     0
102
RTVSPost2010Prop31
280
     0
102
RTVSPost2010PropOp31
 70
     0
102
RTVSPost2010Prop32
280
     0
102
RTVSPost2010PropOp32
 70
     0
102
RTVSPost2010Prop33
280
     0
102
RTVSPost2010PropOp33
 70
     0
102
RTVSPost2010Prop34
280
     0
102
RTVSPost2010PropOp34
 70
     0
102
RTVSPost2010Prop35
280
     0
102
RTVSPost2010PropOp35
 70
     0
102
RTVSPost2010Prop36
280
     0
102
RTVSPost2010PropOp36
 70
     0
102
RTVSPost2010Prop37
 90
       50
102
RTVSPost2010PropOp37
 70
     0
102
RTVSPost2010Prop38
140
0.0
102
RTVSPost2010PropOp38
 70
     0
102
RTVSPost2010Prop39
140
1.0
102
RTVSPost2010PropOp39
 70
     0
102
RTVSPost2010Prop40
 90
        0
102
RTVSPost2010PropOp40
 70
     0
102
RTVSPost2010Prop41ColorIndex
 90
       18
102
RTVSPost2010Prop41ColorRGB
 90
        0
102
RTVSPost2010PropOp41
 70
     0
102
RTVSPost2010Prop42
 90
       50
102
RTVSPost2010PropOp42
 70
     0
102
RTVSPost2010Prop43
 90
        3
102
RTVSPost2010PropOp43
 70
     0
102
RTVSPost2010Prop44ColorIndex
 90
        5
102
RTVSPost2010Prop44ColorRGB
 90
      255
102
RTVSPost2010PropOp44
 70
     0
102
RTVSPost2010Prop45
280
     0
102
RTVSPost2010PropOp45
 70
     0
102
RTVSPost2010Prop46
 90
       50
102
RTVSPost2010PropOp46
 70
     0
102
RTVSPost2010Prop47
 90
       50
102
RTVSPost2010PropOp47
 70
     0
102
RTVSPost2010Prop48
 90
       50
102
RTVSPost2010PropOp48
 70
     0
102
RTVSPost2010Prop49
280
     0
102
RTVSPost2010PropOp49
 70
     0
102
RTVSPost2010Prop50
 90
       50
102
RTVSPost2010PropOp50
 70
     0
102
RTVSPost2010Prop51ColorIndex
 90
      256
102
RTVSPost2010Prop51ColorRGB
 90
-16777216
102
RTVSPost2010PropOp51
 70
     0
102
RTVSPost2010Prop52
140
1.0
102
RTVSPost2010PropOp52
 70
     0
102
RTVSPost2010Prop53
 90
        2
102
RTVSPost2010PropOp53
 70
     0
102
RTVSPost2010Prop54
  1
strokes_ogs.tif
102
RTVSPost2010PropOp54
 70
     0
102
RTVSPost2010Prop55
280
     0
102
RTVSPost2010PropOp55
 70
     0
102
RTVSPost2010Prop56
140
1.0
102
RTVSPost2010PropOp56
 70
     0
102
RTVSPost2010Prop57
140
1.0
102
RTVSPost2010PropOp57
 70
     0
102
RTVSPropertyOp0
 70
     0
102
RTVSPropertyOp1
 70
     0
102
RTVSPropertyOp2
 70
     0
102
RTVSPropertyOp3
 70
     0
102
RTVSPropertyOp4
 70
     0
102
RTVSPropertyOp5
 70
     0
102
RTVSPropertyOp6
 70
     0
102
RTVSPropertyOp7
 70
     0
102
RTVSPropertyOp8
 70
     0
102
RTVSPropertyOp9
 70
     0
102
RTVSPropertyOp10
 70
     0
102
RTVSPropertyOp11
 70
     0
102
RTVSPropertyOp12
 70
     0
102
RTVSPropertyOp13
 70
     0
102
RTVSPropertyOp14
 70
     2
102
RTVSPropertyOp15
 70
     0
102
RTVSPropertyOp16
 70
     0
102
RTVSPropertyOp17
 70
     0
102
RTVSPropertyOp18
 70
     0
102
RTVSPropertyOp19
 70
     0
102
RTVSPropertyOp20
 70
     0
102
RTVSPropertyOp21
 70
     0
102
RTVSPropertyOp22
 70
     0
102
RTVSPropertyOp23
 70
     0
102
RTVSPropertyOp24
 70
     0
102
RTVSPropertyOp25
 70
     0
102
RTVSPropertyOp26
 70
     0
102
RTVSPropertyOp27
 70
     0
102
RTVSPropertyOp28
 70
     0
102
RTVSPropertyOp29
 70
     0
102
RTVSPropertyOp30
 70
     0
102
RTVSPropertyOp31
 70
     0
102
RTVSPropertyOp32
 70
     0
102
RTVSPropertyOp33
 70
     0
102
RTVSPropertyOp34
 70
     0
102
RTVSPropertyOp35
 70
     0
102
RTVSPropertyOp36
 70
     0
102
RTVSPropertyOp37
 70
     0
102
RTVSPropertyOp38
 70
     0
102
RTVSPropertyOp39
 70
     0
102
RTVSPropertyOp40
 70
     0
102
RTVSPropertyOp41
 70
     0
102
RTVSPropertyOp42
 70
     0
102
RTVSPropertyOp43
 70
     0
102
RTVSPropertyOp44
 70
     0
102
RTVSPropertyOp45
 70
     0
102
RTVSPropertyOp46
 70
     0
102
RTVSPropertyOp47
 70
     0
102
RTVSPropertyOp48
 70
     0
102
RTVSPropertyOp49
 70
     0
102
RTVSPropertyOp50
 70
     0
102
RTVSPropertyOp51
 70
     0
102
RTVSPropertyOp52
 70
     0
102
RTVSPropertyOp53
 70
     0
102
RTVSPropertyOp54
 70
     0
102
RTVSPropertyOp55
 70
     0
102
RTVSPropertyOp56
 70
     0
102
RTVSPropertyOp57
 70
     0
102
RTVSPropertyOp58
 70
     0
102
RTVSPropertyOp59
 70
     0
102
RTVSPropertyOp60
 70
     0
102
RTVSPropertyOp61
 70
     0
102
RTVSPropertyOp62
 70
     0
  0
XRECORD
  5
527F
102
{ACAD_REACTORS
330
527E
102
}
330
527E
100
AcDbXrecord
280
     1
102
RTVSPost2010Prop28
280
     0
102
RTVSPost2010PropOp28
 70
     1
102
RTVSPost2010Prop29
280
     1
102
RTVSPost2010PropOp29
 70
     1
102
RTVSPost2010Prop30
280
     1
102
RTVSPost2010PropOp30
 70
     1
102
RTVSPost2010Prop31
280
     0
102
RTVSPost2010PropOp31
 70
     1
102
RTVSPost2010Prop32
280
     0
102
RTVSPost2010PropOp32
 70
     1
102
RTVSPost2010Prop33
280
     0
102
RTVSPost2010PropOp33
 70
     1
102
RTVSPost2010Prop34
280
     0
102
RTVSPost2010PropOp34
 70
     1
102
RTVSPost2010Prop35
280
     0
102
RTVSPost2010PropOp35
 70
     1
102
RTVSPost2010Prop36
280
     0
102
RTVSPost2010PropOp36
 70
     1
102
RTVSPost2010Prop37
 90
       50
102
RTVSPost2010PropOp37
 70
     1
102
RTVSPost2010Prop38
140
0.0
102
RTVSPost2010PropOp38
 70
     1
102
RTVSPost2010Prop39
140
1.0
102
RTVSPost2010PropOp39
 70
     1
102
RTVSPost2010Prop40
 90
        0
102
RTVSPost2010PropOp40
 70
     1
102
RTVSPost2010Prop41ColorIndex
 90
       18
102
RTVSPost2010Prop41ColorRGB
 90
        0
102
RTVSPost2010PropOp41
 70
     1
102
RTVSPost2010Prop42
 90
       50
102
RTVSPost2010PropOp42
 70
     1
102
RTVSPost2010Prop43
 90
        3
102
RTVSPost2010PropOp43
 70
     1
102
RTVSPost2010Prop44ColorIndex
 90
        5
102
RTVSPost2010Prop44ColorRGB
 90
      255
102
RTVSPost2010PropOp44
 70
     1
102
RTVSPost2010Prop45
280
     0
102
RTVSPost2010PropOp45
 70
     1
102
RTVSPost2010Prop46
 90
       50
102
RTVSPost2010PropOp46
 70
     1
102
RTVSPost2010Prop47
 90
       50
102
RTVSPost2010PropOp47
 70
     1
102
RTVSPost2010Prop48
 90
       50
102
RTVSPost2010PropOp48
 70
     1
102
RTVSPost2010Prop49
280
     0
102
RTVSPost2010PropOp49
 70
     1
102
RTVSPost2010Prop50
 90
       50
102
RTVSPost2010PropOp50
 70
     1
102
RTVSPost2010Prop51ColorIndex
 90
      256
102
RTVSPost2010Prop51ColorRGB
 90
-16777216
102
RTVSPost2010PropOp51
 70
     0
102
RTVSPost2010Prop52
140
1.0
102
RTVSPost2010PropOp52
 70
     0
102
RTVSPost2010Prop53
 90
        2
102
RTVSPost2010PropOp53
 70
     1
102
RTVSPost2010Prop54
  1
strokes_ogs.tif
102
RTVSPost2010PropOp54
 70
     1
102
RTVSPost2010Prop55
280
     0
102
RTVSPost2010PropOp55
 70
     1
102
RTVSPost2010Prop56
140
1.0
102
RTVSPost2010PropOp56
 70
     1
102
RTVSPost2010Prop57
140
1.0
102
RTVSPost2010PropOp57
 70
     1
102
RTVSPropertyOp0
 70
     1
102
RTVSPropertyOp1
 70
     1
102
RTVSPropertyOp2
 70
     1
102
RTVSPropertyOp3
 70
     1
102
RTVSPropertyOp4
 70
     1
102
RTVSPropertyOp5
 70
     1
102
RTVSPropertyOp6
 70
     1
102
RTVSPropertyOp7
 70
     1
102
RTVSPropertyOp8
 70
     1
102
RTVSPropertyOp9
 70
     1
102
RTVSPropertyOp10
 70
     1
102
RTVSPropertyOp11
 70
     1
102
RTVSPropertyOp12
 70
     1
102
RTVSPropertyOp13
 70
     1
102
RTVSPropertyOp14
 70
     1
102
RTVSPropertyOp15
 70
     1
102
RTVSPropertyOp16
 70
     1
102
RTVSPropertyOp17
 70
     1
102
RTVSPropertyOp18
 70
     1
102
RTVSPropertyOp19
 70
     1
102
RTVSPropertyOp20
 70
     1
102
RTVSPropertyOp21
 70
     1
102
RTVSPropertyOp22
 70
     1
102
RTVSPropertyOp23
 70
     1
102
RTVSPropertyOp24
 70
     1
102
RTVSPropertyOp25
 70
     1
102
RTVSPropertyOp26
 70
     1
102
RTVSPropertyOp27
 70
     1
102
RTVSPropertyOp28
 70
     1
102
RTVSPropertyOp29
 70
     1
102
RTVSPropertyOp30
 70
     1
102
RTVSPropertyOp31
 70
     1
102
RTVSPropertyOp32
 70
     1
102
RTVSPropertyOp33
 70
     1
102
RTVSPropertyOp34
 70
     1
102
RTVSPropertyOp35
 70
     1
102
RTVSPropertyOp36
 70
     1
102
RTVSPropertyOp37
 70
     1
102
RTVSPropertyOp38
 70
     1
102
RTVSPropertyOp39
 70
     1
102
RTVSPropertyOp40
 70
     1
102
RTVSPropertyOp41
 70
     1
102
RTVSPropertyOp42
 70
     1
102
RTVSPropertyOp43
 70
     1
102
RTVSPropertyOp44
 70
     1
102
RTVSPropertyOp45
 70
     1
102
RTVSPropertyOp46
 70
     1
102
RTVSPropertyOp47
 70
     1
102
RTVSPropertyOp48
 70
     1
102
RTVSPropertyOp49
 70
     1
102
RTVSPropertyOp50
 70
     1
102
RTVSPropertyOp51
 70
     0
102
RTVSPropertyOp52
 70
     0
102
RTVSPropertyOp53
 70
     1
102
RTVSPropertyOp54
 70
     1
102
RTVSPropertyOp55
 70
     1
102
RTVSPropertyOp56
 70
     1
102
RTVSPropertyOp57
 70
     1
102
RTVSPropertyOp58
 70
     1
102
RTVSPropertyOp59
 70
     1
102
RTVSPropertyOp60
 70
     1
102
RTVSPropertyOp61
 70
     1
102
RTVSPropertyOp62
 70
     1
  0
XRECORD
  5
5291
102
{ACAD_REACTORS
330
5290
102
}
330
5290
100
AcDbXrecord
280
     1
102
RTVSPost2010Prop28
280
     0
102
RTVSPost2010PropOp28
 70
     0
102
RTVSPost2010Prop29
280
     1
102
RTVSPost2010PropOp29
 70
     0
102
RTVSPost2010Prop30
280
     1
102
RTVSPost2010PropOp30
 70
     0
102
RTVSPost2010Prop31
280
     0
102
RTVSPost2010PropOp31
 70
     0
102
RTVSPost2010Prop32
280
     0
102
RTVSPost2010PropOp32
 70
     0
102
RTVSPost2010Prop33
280
     0
102
RTVSPost2010PropOp33
 70
     0
102
RTVSPost2010Prop34
280
     0
102
RTVSPost2010PropOp34
 70
     0
102
RTVSPost2010Prop35
280
     0
102
RTVSPost2010PropOp35
 70
     0
102
RTVSPost2010Prop36
280
     0
102
RTVSPost2010PropOp36
 70
     0
102
RTVSPost2010Prop37
 90
       50
102
RTVSPost2010PropOp37
 70
     0
102
RTVSPost2010Prop38
140
0.0
102
RTVSPost2010PropOp38
 70
     0
102
RTVSPost2010Prop39
140
1.0
102
RTVSPost2010PropOp39
 70
     0
102
RTVSPost2010Prop40
 90
        0
102
RTVSPost2010PropOp40
 70
     0
102
RTVSPost2010Prop41ColorIndex
 90
       18
102
RTVSPost2010Prop41ColorRGB
 90
        0
102
RTVSPost2010PropOp41
 70
     0
102
RTVSPost2010Prop42
 90
       50
102
RTVSPost2010PropOp42
 70
     0
102
RTVSPost2010Prop43
 90
        3
102
RTVSPost2010PropOp43
 70
     0
102
RTVSPost2010Prop44ColorIndex
 90
        5
102
RTVSPost2010Prop44ColorRGB
 90
      255
102
RTVSPost2010PropOp44
 70
     0
102
RTVSPost2010Prop45
280
     0
102
RTVSPost2010PropOp45
 70
     0
102
RTVSPost2010Prop46
 90
       50
102
RTVSPost2010PropOp46
 70
     0
102
RTVSPost2010Prop47
 90
       50
102
RTVSPost2010PropOp47
 70
     0
102
RTVSPost2010Prop48
 90
       50
102
RTVSPost2010PropOp48
 70
     0
102
RTVSPost2010Prop49
280
     0
102
RTVSPost2010PropOp49
 70
     0
102
RTVSPost2010Prop50
 90
       50
102
RTVSPost2010PropOp50
 70
     0
102
RTVSPost2010Prop51ColorIndex
 90
      256
102
RTVSPost2010Prop51ColorRGB
 90
-16777216
102
RTVSPost2010PropOp51
 70
     0
102
RTVSPost2010Prop52
140
1.0
102
RTVSPost2010PropOp52
 70
     0
102
RTVSPost2010Prop53
 90
        2
102
RTVSPost2010PropOp53
 70
     0
102
RTVSPost2010Prop54
  1
strokes_ogs.tif
102
RTVSPost2010PropOp54
 70
     0
102
RTVSPost2010Prop55
280
     0
102
RTVSPost2010PropOp55
 70
     0
102
RTVSPost2010Prop56
140
1.0
102
RTVSPost2010PropOp56
 70
     0
102
RTVSPost2010Prop57
140
1.0
102
RTVSPost2010PropOp57
 70
     0
102
RTVSPropertyOp0
 70
     0
102
RTVSPropertyOp1
 70
     0
102
RTVSPropertyOp2
 70
     0
102
RTVSPropertyOp3
 70
     0
102
RTVSPropertyOp4
 70
     0
102
RTVSPropertyOp5
 70
     0
102
RTVSPropertyOp6
 70
     0
102
RTVSPropertyOp7
 70
     0
102
RTVSPropertyOp8
 70
     0
102
RTVSPropertyOp9
 70
     0
102
RTVSPropertyOp10
 70
     0
102
RTVSPropertyOp11
 70
     0
102
RTVSPropertyOp12
 70
     0
102
RTVSPropertyOp13
 70
     0
102
RTVSPropertyOp14
 70
     2
102
RTVSPropertyOp15
 70
     0
102
RTVSPropertyOp16
 70
     0
102
RTVSPropertyOp17
 70
     0
102
RTVSPropertyOp18
 70
     0
102
RTVSPropertyOp19
 70
     0
102
RTVSPropertyOp20
 70
     0
102
RTVSPropertyOp21
 70
     0
102
RTVSPropertyOp22
 70
     0
102
RTVSPropertyOp23
 70
     0
102
RTVSPropertyOp24
 70
     0
102
RTVSPropertyOp25
 70
     0
102
RTVSPropertyOp26
 70
     0
102
RTVSPropertyOp27
 70
     0
102
RTVSPropertyOp28
 70
     0
102
RTVSPropertyOp29
 70
     0
102
RTVSPropertyOp30
 70
     0
102
RTVSPropertyOp31
 70
     0
102
RTVSPropertyOp32
 70
     0
102
RTVSPropertyOp33
 70
     0
102
RTVSPropertyOp34
 70
     0
102
RTVSPropertyOp35
 70
     0
102
RTVSPropertyOp36
 70
     0
102
RTVSPropertyOp37
 70
     0
102
RTVSPropertyOp38
 70
     0
102
RTVSPropertyOp39
 70
     0
102
RTVSPropertyOp40
 70
     0
102
RTVSPropertyOp41
 70
     0
102
RTVSPropertyOp42
 70
     0
102
RTVSPropertyOp43
 70
     0
102
RTVSPropertyOp44
 70
     0
102
RTVSPropertyOp45
 70
     0
102
RTVSPropertyOp46
 70
     0
102
RTVSPropertyOp47
 70
     0
102
RTVSPropertyOp48
 70
     0
102
RTVSPropertyOp49
 70
     0
102
RTVSPropertyOp50
 70
     0
102
RTVSPropertyOp51
 70
     0
102
RTVSPropertyOp52
 70
     0
102
RTVSPropertyOp53
 70
     0
102
RTVSPropertyOp54
 70
     0
102
RTVSPropertyOp55
 70
     0
102
RTVSPropertyOp56
 70
     0
102
RTVSPropertyOp57
 70
     0
102
RTVSPropertyOp58
 70
     0
102
RTVSPropertyOp59
 70
     0
102
RTVSPropertyOp60
 70
     0
102
RTVSPropertyOp61
 70
     0
102
RTVSPropertyOp62
 70
     0
  0
XRECORD
  5
5277
102
{ACAD_REACTORS
330
5276
102
}
330
5276
100
AcDbXrecord
280
     1
102
RTVSPost2010Prop28
280
     0
102
RTVSPost2010PropOp28
 70
     1
102
RTVSPost2010Prop29
280
     1
102
RTVSPost2010PropOp29
 70
     1
102
RTVSPost2010Prop30
280
     1
102
RTVSPost2010PropOp30
 70
     1
102
RTVSPost2010Prop31
280
     0
102
RTVSPost2010PropOp31
 70
     1
102
RTVSPost2010Prop32
280
     0
102
RTVSPost2010PropOp32
 70
     1
102
RTVSPost2010Prop33
280
     0
102
RTVSPost2010PropOp33
 70
     1
102
RTVSPost2010Prop34
280
     0
102
RTVSPost2010PropOp34
 70
     1
102
RTVSPost2010Prop35
280
     0
102
RTVSPost2010PropOp35
 70
     1
102
RTVSPost2010Prop36
280
     0
102
RTVSPost2010PropOp36
 70
     1
102
RTVSPost2010Prop37
 90
       50
102
RTVSPost2010PropOp37
 70
     1
102
RTVSPost2010Prop38
140
0.0
102
RTVSPost2010PropOp38
 70
     1
102
RTVSPost2010Prop39
140
1.0
102
RTVSPost2010PropOp39
 70
     1
102
RTVSPost2010Prop40
 90
        0
102
RTVSPost2010PropOp40
 70
     1
102
RTVSPost2010Prop41ColorIndex
 90
       18
102
RTVSPost2010Prop41ColorRGB
 90
        0
102
RTVSPost2010PropOp41
 70
     1
102
RTVSPost2010Prop42
 90
       50
102
RTVSPost2010PropOp42
 70
     1
102
RTVSPost2010Prop43
 90
        3
102
RTVSPost2010PropOp43
 70
     1
102
RTVSPost2010Prop44ColorIndex
 90
        5
102
RTVSPost2010Prop44ColorRGB
 90
      255
102
RTVSPost2010PropOp44
 70
     1
102
RTVSPost2010Prop45
280
     0
102
RTVSPost2010PropOp45
 70
     1
102
RTVSPost2010Prop46
 90
       50
102
RTVSPost2010PropOp46
 70
     1
102
RTVSPost2010Prop47
 90
       50
102
RTVSPost2010PropOp47
 70
     1
102
RTVSPost2010Prop48
 90
       50
102
RTVSPost2010PropOp48
 70
     1
102
RTVSPost2010Prop49
280
     0
102
RTVSPost2010PropOp49
 70
     1
102
RTVSPost2010Prop50
 90
       50
102
RTVSPost2010PropOp50
 70
     1
102
RTVSPost2010Prop51ColorIndex
 90
      256
102
RTVSPost2010Prop51ColorRGB
 90
-16777216
102
RTVSPost2010PropOp51
 70
     0
102
RTVSPost2010Prop52
140
1.0
102
RTVSPost2010PropOp52
 70
     0
102
RTVSPost2010Prop53
 90
        2
102
RTVSPost2010PropOp53
 70
     1
102
RTVSPost2010Prop54
  1
strokes_ogs.tif
102
RTVSPost2010PropOp54
 70
     1
102
RTVSPost2010Prop55
280
     0
102
RTVSPost2010PropOp55
 70
     1
102
RTVSPost2010Prop56
140
1.0
102
RTVSPost2010PropOp56
 70
     1
102
RTVSPost2010Prop57
140
1.0
102
RTVSPost2010PropOp57
 70
     1
102
RTVSPropertyOp0
 70
     1
102
RTVSPropertyOp1
 70
     1
102
RTVSPropertyOp2
 70
     1
102
RTVSPropertyOp3
 70
     1
102
RTVSPropertyOp4
 70
     1
102
RTVSPropertyOp5
 70
     1
102
RTVSPropertyOp6
 70
     1
102
RTVSPropertyOp7
 70
     1
102
RTVSPropertyOp8
 70
     1
102
RTVSPropertyOp9
 70
     1
102
RTVSPropertyOp10
 70
     1
102
RTVSPropertyOp11
 70
     1
102
RTVSPropertyOp12
 70
     1
102
RTVSPropertyOp13
 70
     1
102
RTVSPropertyOp14
 70
     1
102
RTVSPropertyOp15
 70
     1
102
RTVSPropertyOp16
 70
     1
102
RTVSPropertyOp17
 70
     1
102
RTVSPropertyOp18
 70
     1
102
RTVSPropertyOp19
 70
     1
102
RTVSPropertyOp20
 70
     1
102
RTVSPropertyOp21
 70
     1
102
RTVSPropertyOp22
 70
     1
102
RTVSPropertyOp23
 70
     1
102
RTVSPropertyOp24
 70
     1
102
RTVSPropertyOp25
 70
     1
102
RTVSPropertyOp26
 70
     1
102
RTVSPropertyOp27
 70
     1
102
RTVSPropertyOp28
 70
     1
102
RTVSPropertyOp29
 70
     1
102
RTVSPropertyOp30
 70
     1
102
RTVSPropertyOp31
 70
     1
102
RTVSPropertyOp32
 70
     1
102
RTVSPropertyOp33
 70
     1
102
RTVSPropertyOp34
 70
     1
102
RTVSPropertyOp35
 70
     1
102
RTVSPropertyOp36
 70
     1
102
RTVSPropertyOp37
 70
     1
102
RTVSPropertyOp38
 70
     1
102
RTVSPropertyOp39
 70
     1
102
RTVSPropertyOp40
 70
     1
102
RTVSPropertyOp41
 70
     1
102
RTVSPropertyOp42
 70
     1
102
RTVSPropertyOp43
 70
     1
102
RTVSPropertyOp44
 70
     1
102
RTVSPropertyOp45
 70
     1
102
RTVSPropertyOp46
 70
     1
102
RTVSPropertyOp47
 70
     1
102
RTVSPropertyOp48
 70
     1
102
RTVSPropertyOp49
 70
     1
102
RTVSPropertyOp50
 70
     1
102
RTVSPropertyOp51
 70
     0
102
RTVSPropertyOp52
 70
     0
102
RTVSPropertyOp53
 70
     1
102
RTVSPropertyOp54
 70
     1
102
RTVSPropertyOp55
 70
     1
102
RTVSPropertyOp56
 70
     1
102
RTVSPropertyOp57
 70
     1
102
RTVSPropertyOp58
 70
     1
102
RTVSPropertyOp59
 70
     1
102
RTVSPropertyOp60
 70
     1
102
RTVSPropertyOp61
 70
     1
102
RTVSPropertyOp62
 70
     1
  0
XRECORD
  5
528D
102
{ACAD_REACTORS
330
528C
102
}
330
528C
100
AcDbXrecord
280
     1
102
RTVSPost2010Prop28
280
     0
102
RTVSPost2010PropOp28
 70
     1
102
RTVSPost2010Prop29
280
     1
102
RTVSPost2010PropOp29
 70
     1
102
RTVSPost2010Prop30
280
     1
102
RTVSPost2010PropOp30
 70
     1
102
RTVSPost2010Prop31
280
     0
102
RTVSPost2010PropOp31
 70
     1
102
RTVSPost2010Prop32
280
     0
102
RTVSPost2010PropOp32
 70
     1
102
RTVSPost2010Prop33
280
     0
102
RTVSPost2010PropOp33
 70
     1
102
RTVSPost2010Prop34
280
     0
102
RTVSPost2010PropOp34
 70
     1
102
RTVSPost2010Prop35
280
     0
102
RTVSPost2010PropOp35
 70
     1
102
RTVSPost2010Prop36
280
     0
102
RTVSPost2010PropOp36
 70
     1
102
RTVSPost2010Prop37
 90
       50
102
RTVSPost2010PropOp37
 70
     1
102
RTVSPost2010Prop38
140
0.0
102
RTVSPost2010PropOp38
 70
     1
102
RTVSPost2010Prop39
140
1.0
102
RTVSPost2010PropOp39
 70
     1
102
RTVSPost2010Prop40
 90
        0
102
RTVSPost2010PropOp40
 70
     1
102
RTVSPost2010Prop41ColorIndex
 90
       18
102
RTVSPost2010Prop41ColorRGB
 90
        0
102
RTVSPost2010PropOp41
 70
     1
102
RTVSPost2010Prop42
 90
       50
102
RTVSPost2010PropOp42
 70
     1
102
RTVSPost2010Prop43
 90
        3
102
RTVSPost2010PropOp43
 70
     1
102
RTVSPost2010Prop44ColorIndex
 90
        5
102
RTVSPost2010Prop44ColorRGB
 90
      255
102
RTVSPost2010PropOp44
 70
     1
102
RTVSPost2010Prop45
280
     0
102
RTVSPost2010PropOp45
 70
     1
102
RTVSPost2010Prop46
 90
       50
102
RTVSPost2010PropOp46
 70
     1
102
RTVSPost2010Prop47
 90
       50
102
RTVSPost2010PropOp47
 70
     1
102
RTVSPost2010Prop48
 90
       50
102
RTVSPost2010PropOp48
 70
     1
102
RTVSPost2010Prop49
280
     0
102
RTVSPost2010PropOp49
 70
     1
102
RTVSPost2010Prop50
 90
       50
102
RTVSPost2010PropOp50
 70
     1
102
RTVSPost2010Prop51ColorIndex
 90
      256
102
RTVSPost2010Prop51ColorRGB
 90
-16777216
102
RTVSPost2010PropOp51
 70
     0
102
RTVSPost2010Prop52
140
1.0
102
RTVSPost2010PropOp52
 70
     0
102
RTVSPost2010Prop53
 90
        2
102
RTVSPost2010PropOp53
 70
     1
102
RTVSPost2010Prop54
  1
strokes_ogs.tif
102
RTVSPost2010PropOp54
 70
     1
102
RTVSPost2010Prop55
280
     0
102
RTVSPost2010PropOp55
 70
     1
102
RTVSPost2010Prop56
140
1.0
102
RTVSPost2010PropOp56
 70
     1
102
RTVSPost2010Prop57
140
1.0
102
RTVSPost2010PropOp57
 70
     1
102
RTVSPropertyOp0
 70
     1
102
RTVSPropertyOp1
 70
     1
102
RTVSPropertyOp2
 70
     1
102
RTVSPropertyOp3
 70
     1
102
RTVSPropertyOp4
 70
     1
102
RTVSPropertyOp5
 70
     1
102
RTVSPropertyOp6
 70
     1
102
RTVSPropertyOp7
 70
     1
102
RTVSPropertyOp8
 70
     1
102
RTVSPropertyOp9
 70
     1
102
RTVSPropertyOp10
 70
     1
102
RTVSPropertyOp11
 70
     1
102
RTVSPropertyOp12
 70
     1
102
RTVSPropertyOp13
 70
     1
102
RTVSPropertyOp14
 70
     1
102
RTVSPropertyOp15
 70
     1
102
RTVSPropertyOp16
 70
     1
102
RTVSPropertyOp17
 70
     1
102
RTVSPropertyOp18
 70
     1
102
RTVSPropertyOp19
 70
     1
102
RTVSPropertyOp20
 70
     1
102
RTVSPropertyOp21
 70
     1
102
RTVSPropertyOp22
 70
     1
102
RTVSPropertyOp23
 70
     1
102
RTVSPropertyOp24
 70
     1
102
RTVSPropertyOp25
 70
     1
102
RTVSPropertyOp26
 70
     1
102
RTVSPropertyOp27
 70
     1
102
RTVSPropertyOp28
 70
     1
102
RTVSPropertyOp29
 70
     1
102
RTVSPropertyOp30
 70
     1
102
RTVSPropertyOp31
 70
     1
102
RTVSPropertyOp32
 70
     1
102
RTVSPropertyOp33
 70
     1
102
RTVSPropertyOp34
 70
     1
102
RTVSPropertyOp35
 70
     1
102
RTVSPropertyOp36
 70
     1
102
RTVSPropertyOp37
 70
     1
102
RTVSPropertyOp38
 70
     1
102
RTVSPropertyOp39
 70
     1
102
RTVSPropertyOp40
 70
     1
102
RTVSPropertyOp41
 70
     1
102
RTVSPropertyOp42
 70
     1
102
RTVSPropertyOp43
 70
     1
102
RTVSPropertyOp44
 70
     1
102
RTVSPropertyOp45
 70
     1
102
RTVSPropertyOp46
 70
     1
102
RTVSPropertyOp47
 70
     1
102
RTVSPropertyOp48
 70
     1
102
RTVSPropertyOp49
 70
     1
102
RTVSPropertyOp50
 70
     1
102
RTVSPropertyOp51
 70
     0
102
RTVSPropertyOp52
 70
     0
102
RTVSPropertyOp53
 70
     1
102
RTVSPropertyOp54
 70
     1
102
RTVSPropertyOp55
 70
     1
102
RTVSPropertyOp56
 70
     1
102
RTVSPropertyOp57
 70
     1
102
RTVSPropertyOp58
 70
     1
102
RTVSPropertyOp59
 70
     1
102
RTVSPropertyOp60
 70
     1
102
RTVSPropertyOp61
 70
     1
102
RTVSPropertyOp62
 70
     1
  0
XRECORD
  5
528B
102
{ACAD_REACTORS
330
528A
102
}
330
528A
100
AcDbXrecord
280
     1
102
RTVSPost2010Prop28
280
     0
102
RTVSPost2010PropOp28
 70
     1
102
RTVSPost2010Prop29
280
     1
102
RTVSPost2010PropOp29
 70
     1
102
RTVSPost2010Prop30
280
     1
102
RTVSPost2010PropOp30
 70
     1
102
RTVSPost2010Prop31
280
     0
102
RTVSPost2010PropOp31
 70
     1
102
RTVSPost2010Prop32
280
     0
102
RTVSPost2010PropOp32
 70
     1
102
RTVSPost2010Prop33
280
     0
102
RTVSPost2010PropOp33
 70
     1
102
RTVSPost2010Prop34
280
     0
102
RTVSPost2010PropOp34
 70
     1
102
RTVSPost2010Prop35
280
     0
102
RTVSPost2010PropOp35
 70
     1
102
RTVSPost2010Prop36
280
     0
102
RTVSPost2010PropOp36
 70
     1
102
RTVSPost2010Prop37
 90
       50
102
RTVSPost2010PropOp37
 70
     1
102
RTVSPost2010Prop38
140
0.0
102
RTVSPost2010PropOp38
 70
     1
102
RTVSPost2010Prop39
140
1.0
102
RTVSPost2010PropOp39
 70
     1
102
RTVSPost2010Prop40
 90
        0
102
RTVSPost2010PropOp40
 70
     1
102
RTVSPost2010Prop41ColorIndex
 90
       18
102
RTVSPost2010Prop41ColorRGB
 90
        0
102
RTVSPost2010PropOp41
 70
     1
102
RTVSPost2010Prop42
 90
       50
102
RTVSPost2010PropOp42
 70
     1
102
RTVSPost2010Prop43
 90
        3
102
RTVSPost2010PropOp43
 70
     1
102
RTVSPost2010Prop44ColorIndex
 90
        5
102
RTVSPost2010Prop44ColorRGB
 90
      255
102
RTVSPost2010PropOp44
 70
     1
102
RTVSPost2010Prop45
280
     0
102
RTVSPost2010PropOp45
 70
     1
102
RTVSPost2010Prop46
 90
       50
102
RTVSPost2010PropOp46
 70
     1
102
RTVSPost2010Prop47
 90
       50
102
RTVSPost2010PropOp47
 70
     1
102
RTVSPost2010Prop48
 90
       50
102
RTVSPost2010PropOp48
 70
     1
102
RTVSPost2010Prop49
280
     0
102
RTVSPost2010PropOp49
 70
     1
102
RTVSPost2010Prop50
 90
       50
102
RTVSPost2010PropOp50
 70
     1
102
RTVSPost2010Prop51ColorIndex
 90
      256
102
RTVSPost2010Prop51ColorRGB
 90
-16777216
102
RTVSPost2010PropOp51
 70
     0
102
RTVSPost2010Prop52
140
1.0
102
RTVSPost2010PropOp52
 70
     0
102
RTVSPost2010Prop53
 90
        2
102
RTVSPost2010PropOp53
 70
     1
102
RTVSPost2010Prop54
  1
strokes_ogs.tif
102
RTVSPost2010PropOp54
 70
     1
102
RTVSPost2010Prop55
280
     0
102
RTVSPost2010PropOp55
 70
     1
102
RTVSPost2010Prop56
140
1.0
102
RTVSPost2010PropOp56
 70
     1
102
RTVSPost2010Prop57
140
1.0
102
RTVSPost2010PropOp57
 70
     1
102
RTVSPropertyOp0
 70
     1
102
RTVSPropertyOp1
 70
     1
102
RTVSPropertyOp2
 70
     1
102
RTVSPropertyOp3
 70
     1
102
RTVSPropertyOp4
 70
     1
102
RTVSPropertyOp5
 70
     1
102
RTVSPropertyOp6
 70
     1
102
RTVSPropertyOp7
 70
     1
102
RTVSPropertyOp8
 70
     1
102
RTVSPropertyOp9
 70
     1
102
RTVSPropertyOp10
 70
     1
102
RTVSPropertyOp11
 70
     1
102
RTVSPropertyOp12
 70
     1
102
RTVSPropertyOp13
 70
     1
102
RTVSPropertyOp14
 70
     1
102
RTVSPropertyOp15
 70
     1
102
RTVSPropertyOp16
 70
     1
102
RTVSPropertyOp17
 70
     1
102
RTVSPropertyOp18
 70
     1
102
RTVSPropertyOp19
 70
     1
102
RTVSPropertyOp20
 70
     1
102
RTVSPropertyOp21
 70
     1
102
RTVSPropertyOp22
 70
     1
102
RTVSPropertyOp23
 70
     1
102
RTVSPropertyOp24
 70
     1
102
RTVSPropertyOp25
 70
     1
102
RTVSPropertyOp26
 70
     1
102
RTVSPropertyOp27
 70
     1
102
RTVSPropertyOp28
 70
     1
102
RTVSPropertyOp29
 70
     1
102
RTVSPropertyOp30
 70
     1
102
RTVSPropertyOp31
 70
     1
102
RTVSPropertyOp32
 70
     1
102
RTVSPropertyOp33
 70
     1
102
RTVSPropertyOp34
 70
     1
102
RTVSPropertyOp35
 70
     1
102
RTVSPropertyOp36
 70
     1
102
RTVSPropertyOp37
 70
     1
102
RTVSPropertyOp38
 70
     1
102
RTVSPropertyOp39
 70
     1
102
RTVSPropertyOp40
 70
     1
102
RTVSPropertyOp41
 70
     1
102
RTVSPropertyOp42
 70
     1
102
RTVSPropertyOp43
 70
     1
102
RTVSPropertyOp44
 70
     1
102
RTVSPropertyOp45
 70
     1
102
RTVSPropertyOp46
 70
     1
102
RTVSPropertyOp47
 70
     1
102
RTVSPropertyOp48
 70
     1
102
RTVSPropertyOp49
 70
     1
102
RTVSPropertyOp50
 70
     1
102
RTVSPropertyOp51
 70
     0
102
RTVSPropertyOp52
 70
     0
102
RTVSPropertyOp53
 70
     1
102
RTVSPropertyOp54
 70
     1
102
RTVSPropertyOp55
 70
     1
102
RTVSPropertyOp56
 70
     1
102
RTVSPropertyOp57
 70
     1
102
RTVSPropertyOp58
 70
     1
102
RTVSPropertyOp59
 70
     1
102
RTVSPropertyOp60
 70
     1
102
RTVSPropertyOp61
 70
     1
102
RTVSPropertyOp62
 70
     1
  0
XRECORD
  5
5285
102
{ACAD_REACTORS
330
5284
102
}
330
5284
100
AcDbXrecord
280
     1
102
RTVSPost2010Prop28
280
     0
102
RTVSPost2010PropOp28
 70
     1
102
RTVSPost2010Prop29
280
     1
102
RTVSPost2010PropOp29
 70
     1
102
RTVSPost2010Prop30
280
     1
102
RTVSPost2010PropOp30
 70
     1
102
RTVSPost2010Prop31
280
     0
102
RTVSPost2010PropOp31
 70
     1
102
RTVSPost2010Prop32
280
     0
102
RTVSPost2010PropOp32
 70
     1
102
RTVSPost2010Prop33
280
     0
102
RTVSPost2010PropOp33
 70
     1
102
RTVSPost2010Prop34
280
     0
102
RTVSPost2010PropOp34
 70
     1
102
RTVSPost2010Prop35
280
     0
102
RTVSPost2010PropOp35
 70
     1
102
RTVSPost2010Prop36
280
     0
102
RTVSPost2010PropOp36
 70
     1
102
RTVSPost2010Prop37
 90
       50
102
RTVSPost2010PropOp37
 70
     1
102
RTVSPost2010Prop38
140
0.0
102
RTVSPost2010PropOp38
 70
     1
102
RTVSPost2010Prop39
140
1.0
102
RTVSPost2010PropOp39
 70
     1
102
RTVSPost2010Prop40
 90
        0
102
RTVSPost2010PropOp40
 70
     1
102
RTVSPost2010Prop41ColorIndex
 90
       18
102
RTVSPost2010Prop41ColorRGB
 90
        0
102
RTVSPost2010PropOp41
 70
     1
102
RTVSPost2010Prop42
 90
       50
102
RTVSPost2010PropOp42
 70
     1
102
RTVSPost2010Prop43
 90
        3
102
RTVSPost2010PropOp43
 70
     1
102
RTVSPost2010Prop44ColorIndex
 90
        5
102
RTVSPost2010Prop44ColorRGB
 90
      255
102
RTVSPost2010PropOp44
 70
     1
102
RTVSPost2010Prop45
280
     0
102
RTVSPost2010PropOp45
 70
     1
102
RTVSPost2010Prop46
 90
       50
102
RTVSPost2010PropOp46
 70
     1
102
RTVSPost2010Prop47
 90
       50
102
RTVSPost2010PropOp47
 70
     1
102
RTVSPost2010Prop48
 90
       50
102
RTVSPost2010PropOp48
 70
     1
102
RTVSPost2010Prop49
280
     0
102
RTVSPost2010PropOp49
 70
     1
102
RTVSPost2010Prop50
 90
       50
102
RTVSPost2010PropOp50
 70
     1
102
RTVSPost2010Prop51ColorIndex
 90
      256
102
RTVSPost2010Prop51ColorRGB
 90
-16777216
102
RTVSPost2010PropOp51
 70
     0
102
RTVSPost2010Prop52
140
1.0
102
RTVSPost2010PropOp52
 70
     0
102
RTVSPost2010Prop53
 90
        2
102
RTVSPost2010PropOp53
 70
     1
102
RTVSPost2010Prop54
  1
strokes_ogs.tif
102
RTVSPost2010PropOp54
 70
     1
102
RTVSPost2010Prop55
280
     0
102
RTVSPost2010PropOp55
 70
     1
102
RTVSPost2010Prop56
140
1.0
102
RTVSPost2010PropOp56
 70
     1
102
RTVSPost2010Prop57
140
1.0
102
RTVSPost2010PropOp57
 70
     1
102
RTVSPropertyOp0
 70
     1
102
RTVSPropertyOp1
 70
     1
102
RTVSPropertyOp2
 70
     1
102
RTVSPropertyOp3
 70
     1
102
RTVSPropertyOp4
 70
     1
102
RTVSPropertyOp5
 70
     1
102
RTVSPropertyOp6
 70
     1
102
RTVSPropertyOp7
 70
     1
102
RTVSPropertyOp8
 70
     1
102
RTVSPropertyOp9
 70
     1
102
RTVSPropertyOp10
 70
     1
102
RTVSPropertyOp11
 70
     1
102
RTVSPropertyOp12
 70
     1
102
RTVSPropertyOp13
 70
     1
102
RTVSPropertyOp14
 70
     1
102
RTVSPropertyOp15
 70
     1
102
RTVSPropertyOp16
 70
     1
102
RTVSPropertyOp17
 70
     1
102
RTVSPropertyOp18
 70
     1
102
RTVSPropertyOp19
 70
     1
102
RTVSPropertyOp20
 70
     1
102
RTVSPropertyOp21
 70
     1
102
RTVSPropertyOp22
 70
     1
102
RTVSPropertyOp23
 70
     1
102
RTVSPropertyOp24
 70
     1
102
RTVSPropertyOp25
 70
     1
102
RTVSPropertyOp26
 70
     1
102
RTVSPropertyOp27
 70
     1
102
RTVSPropertyOp28
 70
     1
102
RTVSPropertyOp29
 70
     1
102
RTVSPropertyOp30
 70
     1
102
RTVSPropertyOp31
 70
     1
102
RTVSPropertyOp32
 70
     1
102
RTVSPropertyOp33
 70
     1
102
RTVSPropertyOp34
 70
     1
102
RTVSPropertyOp35
 70
     1
102
RTVSPropertyOp36
 70
     1
102
RTVSPropertyOp37
 70
     1
102
RTVSPropertyOp38
 70
     1
102
RTVSPropertyOp39
 70
     1
102
RTVSPropertyOp40
 70
     1
102
RTVSPropertyOp41
 70
     1
102
RTVSPropertyOp42
 70
     1
102
RTVSPropertyOp43
 70
     1
102
RTVSPropertyOp44
 70
     1
102
RTVSPropertyOp45
 70
     1
102
RTVSPropertyOp46
 70
     1
102
RTVSPropertyOp47
 70
     1
102
RTVSPropertyOp48
 70
     1
102
RTVSPropertyOp49
 70
     1
102
RTVSPropertyOp50
 70
     1
102
RTVSPropertyOp51
 70
     0
102
RTVSPropertyOp52
 70
     0
102
RTVSPropertyOp53
 70
     1
102
RTVSPropertyOp54
 70
     1
102
RTVSPropertyOp55
 70
     1
102
RTVSPropertyOp56
 70
     1
102
RTVSPropertyOp57
 70
     1
102
RTVSPropertyOp58
 70
     1
102
RTVSPropertyOp59
 70
     1
102
RTVSPropertyOp60
 70
     1
102
RTVSPropertyOp61
 70
     1
102
RTVSPropertyOp62
 70
     1
  0
XRECORD
  5
5287
102
{ACAD_REACTORS
330
5286
102
}
330
5286
100
AcDbXrecord
280
     1
102
RTVSPost2010Prop28
280
     0
102
RTVSPost2010PropOp28
 70
     1
102
RTVSPost2010Prop29
280
     1
102
RTVSPost2010PropOp29
 70
     1
102
RTVSPost2010Prop30
280
     1
102
RTVSPost2010PropOp30
 70
     1
102
RTVSPost2010Prop31
280
     0
102
RTVSPost2010PropOp31
 70
     1
102
RTVSPost2010Prop32
280
     0
102
RTVSPost2010PropOp32
 70
     1
102
RTVSPost2010Prop33
280
     0
102
RTVSPost2010PropOp33
 70
     1
102
RTVSPost2010Prop34
280
     0
102
RTVSPost2010PropOp34
 70
     1
102
RTVSPost2010Prop35
280
     0
102
RTVSPost2010PropOp35
 70
     1
102
RTVSPost2010Prop36
280
     0
102
RTVSPost2010PropOp36
 70
     1
102
RTVSPost2010Prop37
 90
       50
102
RTVSPost2010PropOp37
 70
     1
102
RTVSPost2010Prop38
140
0.0
102
RTVSPost2010PropOp38
 70
     1
102
RTVSPost2010Prop39
140
1.0
102
RTVSPost2010PropOp39
 70
     1
102
RTVSPost2010Prop40
 90
        0
102
RTVSPost2010PropOp40
 70
     1
102
RTVSPost2010Prop41ColorIndex
 90
       18
102
RTVSPost2010Prop41ColorRGB
 90
        0
102
RTVSPost2010PropOp41
 70
     1
102
RTVSPost2010Prop42
 90
       50
102
RTVSPost2010PropOp42
 70
     1
102
RTVSPost2010Prop43
 90
        3
102
RTVSPost2010PropOp43
 70
     1
102
RTVSPost2010Prop44ColorIndex
 90
        5
102
RTVSPost2010Prop44ColorRGB
 90
      255
102
RTVSPost2010PropOp44
 70
     1
102
RTVSPost2010Prop45
280
     0
102
RTVSPost2010PropOp45
 70
     1
102
RTVSPost2010Prop46
 90
       50
102
RTVSPost2010PropOp46
 70
     1
102
RTVSPost2010Prop47
 90
       50
102
RTVSPost2010PropOp47
 70
     1
102
RTVSPost2010Prop48
 90
       50
102
RTVSPost2010PropOp48
 70
     1
102
RTVSPost2010Prop49
280
     0
102
RTVSPost2010PropOp49
 70
     1
102
RTVSPost2010Prop50
 90
       50
102
RTVSPost2010PropOp50
 70
     1
102
RTVSPost2010Prop51ColorIndex
 90
      256
102
RTVSPost2010Prop51ColorRGB
 90
-16777216
102
RTVSPost2010PropOp51
 70
     0
102
RTVSPost2010Prop52
140
1.0
102
RTVSPost2010PropOp52
 70
     0
102
RTVSPost2010Prop53
 90
        2
102
RTVSPost2010PropOp53
 70
     1
102
RTVSPost2010Prop54
  1
strokes_ogs.tif
102
RTVSPost2010PropOp54
 70
     1
102
RTVSPost2010Prop55
280
     0
102
RTVSPost2010PropOp55
 70
     1
102
RTVSPost2010Prop56
140
1.0
102
RTVSPost2010PropOp56
 70
     1
102
RTVSPost2010Prop57
140
1.0
102
RTVSPost2010PropOp57
 70
     1
102
RTVSPropertyOp0
 70
     1
102
RTVSPropertyOp1
 70
     1
102
RTVSPropertyOp2
 70
     1
102
RTVSPropertyOp3
 70
     1
102
RTVSPropertyOp4
 70
     1
102
RTVSPropertyOp5
 70
     1
102
RTVSPropertyOp6
 70
     1
102
RTVSPropertyOp7
 70
     1
102
RTVSPropertyOp8
 70
     1
102
RTVSPropertyOp9
 70
     1
102
RTVSPropertyOp10
 70
     1
102
RTVSPropertyOp11
 70
     1
102
RTVSPropertyOp12
 70
     1
102
RTVSPropertyOp13
 70
     1
102
RTVSPropertyOp14
 70
     1
102
RTVSPropertyOp15
 70
     1
102
RTVSPropertyOp16
 70
     1
102
RTVSPropertyOp17
 70
     1
102
RTVSPropertyOp18
 70
     1
102
RTVSPropertyOp19
 70
     1
102
RTVSPropertyOp20
 70
     1
102
RTVSPropertyOp21
 70
     1
102
RTVSPropertyOp22
 70
     1
102
RTVSPropertyOp23
 70
     1
102
RTVSPropertyOp24
 70
     1
102
RTVSPropertyOp25
 70
     1
102
RTVSPropertyOp26
 70
     1
102
RTVSPropertyOp27
 70
     1
102
RTVSPropertyOp28
 70
     1
102
RTVSPropertyOp29
 70
     1
102
RTVSPropertyOp30
 70
     1
102
RTVSPropertyOp31
 70
     1
102
RTVSPropertyOp32
 70
     1
102
RTVSPropertyOp33
 70
     1
102
RTVSPropertyOp34
 70
     1
102
RTVSPropertyOp35
 70
     1
102
RTVSPropertyOp36
 70
     1
102
RTVSPropertyOp37
 70
     1
102
RTVSPropertyOp38
 70
     1
102
RTVSPropertyOp39
 70
     1
102
RTVSPropertyOp40
 70
     1
102
RTVSPropertyOp41
 70
     1
102
RTVSPropertyOp42
 70
     1
102
RTVSPropertyOp43
 70
     1
102
RTVSPropertyOp44
 70
     1
102
RTVSPropertyOp45
 70
     1
102
RTVSPropertyOp46
 70
     1
102
RTVSPropertyOp47
 70
     1
102
RTVSPropertyOp48
 70
     1
102
RTVSPropertyOp49
 70
     1
102
RTVSPropertyOp50
 70
     1
102
RTVSPropertyOp51
 70
     0
102
RTVSPropertyOp52
 70
     0
102
RTVSPropertyOp53
 70
     1
102
RTVSPropertyOp54
 70
     1
102
RTVSPropertyOp55
 70
     1
102
RTVSPropertyOp56
 70
     1
102
RTVSPropertyOp57
 70
     1
102
RTVSPropertyOp58
 70
     1
102
RTVSPropertyOp59
 70
     1
102
RTVSPropertyOp60
 70
     1
102
RTVSPropertyOp61
 70
     1
102
RTVSPropertyOp62
 70
     1
  0
XRECORD
  5
527D
102
{ACAD_REACTORS
330
527C
102
}
330
527C
100
AcDbXrecord
280
     1
102
RTVSPost2010Prop28
280
     0
102
RTVSPost2010PropOp28
 70
     1
102
RTVSPost2010Prop29
280
     1
102
RTVSPost2010PropOp29
 70
     1
102
RTVSPost2010Prop30
280
     1
102
RTVSPost2010PropOp30
 70
     1
102
RTVSPost2010Prop31
280
     0
102
RTVSPost2010PropOp31
 70
     1
102
RTVSPost2010Prop32
280
     0
102
RTVSPost2010PropOp32
 70
     1
102
RTVSPost2010Prop33
280
     0
102
RTVSPost2010PropOp33
 70
     1
102
RTVSPost2010Prop34
280
     0
102
RTVSPost2010PropOp34
 70
     1
102
RTVSPost2010Prop35
280
     0
102
RTVSPost2010PropOp35
 70
     1
102
RTVSPost2010Prop36
280
     0
102
RTVSPost2010PropOp36
 70
     1
102
RTVSPost2010Prop37
 90
       50
102
RTVSPost2010PropOp37
 70
     1
102
RTVSPost2010Prop38
140
0.0
102
RTVSPost2010PropOp38
 70
     1
102
RTVSPost2010Prop39
140
1.0
102
RTVSPost2010PropOp39
 70
     1
102
RTVSPost2010Prop40
 90
        0
102
RTVSPost2010PropOp40
 70
     1
102
RTVSPost2010Prop41ColorIndex
 90
       18
102
RTVSPost2010Prop41ColorRGB
 90
        0
102
RTVSPost2010PropOp41
 70
     1
102
RTVSPost2010Prop42
 90
       50
102
RTVSPost2010PropOp42
 70
     1
102
RTVSPost2010Prop43
 90
        3
102
RTVSPost2010PropOp43
 70
     1
102
RTVSPost2010Prop44ColorIndex
 90
        5
102
RTVSPost2010Prop44ColorRGB
 90
      255
102
RTVSPost2010PropOp44
 70
     1
102
RTVSPost2010Prop45
280
     0
102
RTVSPost2010PropOp45
 70
     1
102
RTVSPost2010Prop46
 90
       50
102
RTVSPost2010PropOp46
 70
     1
102
RTVSPost2010Prop47
 90
       50
102
RTVSPost2010PropOp47
 70
     1
102
RTVSPost2010Prop48
 90
       50
102
RTVSPost2010PropOp48
 70
     1
102
RTVSPost2010Prop49
280
     0
102
RTVSPost2010PropOp49
 70
     1
102
RTVSPost2010Prop50
 90
       50
102
RTVSPost2010PropOp50
 70
     1
102
RTVSPost2010Prop51ColorIndex
 90
      256
102
RTVSPost2010Prop51ColorRGB
 90
-16777216
102
RTVSPost2010PropOp51
 70
     0
102
RTVSPost2010Prop52
140
1.0
102
RTVSPost2010PropOp52
 70
     0
102
RTVSPost2010Prop53
 90
        2
102
RTVSPost2010PropOp53
 70
     1
102
RTVSPost2010Prop54
  1
strokes_ogs.tif
102
RTVSPost2010PropOp54
 70
     1
102
RTVSPost2010Prop55
280
     0
102
RTVSPost2010PropOp55
 70
     1
102
RTVSPost2010Prop56
140
1.0
102
RTVSPost2010PropOp56
 70
     1
102
RTVSPost2010Prop57
140
1.0
102
RTVSPost2010PropOp57
 70
     1
102
RTVSPropertyOp0
 70
     1
102
RTVSPropertyOp1
 70
     1
102
RTVSPropertyOp2
 70
     1
102
RTVSPropertyOp3
 70
     1
102
RTVSPropertyOp4
 70
     1
102
RTVSPropertyOp5
 70
     1
102
RTVSPropertyOp6
 70
     1
102
RTVSPropertyOp7
 70
     1
102
RTVSPropertyOp8
 70
     1
102
RTVSPropertyOp9
 70
     1
102
RTVSPropertyOp10
 70
     1
102
RTVSPropertyOp11
 70
     1
102
RTVSPropertyOp12
 70
     1
102
RTVSPropertyOp13
 70
     1
102
RTVSPropertyOp14
 70
     1
102
RTVSPropertyOp15
 70
     1
102
RTVSPropertyOp16
 70
     1
102
RTVSPropertyOp17
 70
     1
102
RTVSPropertyOp18
 70
     1
102
RTVSPropertyOp19
 70
     1
102
RTVSPropertyOp20
 70
     1
102
RTVSPropertyOp21
 70
     1
102
RTVSPropertyOp22
 70
     1
102
RTVSPropertyOp23
 70
     1
102
RTVSPropertyOp24
 70
     1
102
RTVSPropertyOp25
 70
     1
102
RTVSPropertyOp26
 70
     1
102
RTVSPropertyOp27
 70
     1
102
RTVSPropertyOp28
 70
     1
102
RTVSPropertyOp29
 70
     1
102
RTVSPropertyOp30
 70
     1
102
RTVSPropertyOp31
 70
     1
102
RTVSPropertyOp32
 70
     1
102
RTVSPropertyOp33
 70
     1
102
RTVSPropertyOp34
 70
     1
102
RTVSPropertyOp35
 70
     1
102
RTVSPropertyOp36
 70
     1
102
RTVSPropertyOp37
 70
     1
102
RTVSPropertyOp38
 70
     1
102
RTVSPropertyOp39
 70
     1
102
RTVSPropertyOp40
 70
     1
102
RTVSPropertyOp41
 70
     1
102
RTVSPropertyOp42
 70
     1
102
RTVSPropertyOp43
 70
     1
102
RTVSPropertyOp44
 70
     1
102
RTVSPropertyOp45
 70
     1
102
RTVSPropertyOp46
 70
     1
102
RTVSPropertyOp47
 70
     1
102
RTVSPropertyOp48
 70
     1
102
RTVSPropertyOp49
 70
     1
102
RTVSPropertyOp50
 70
     1
102
RTVSPropertyOp51
 70
     0
102
RTVSPropertyOp52
 70
     0
102
RTVSPropertyOp53
 70
     1
102
RTVSPropertyOp54
 70
     1
102
RTVSPropertyOp55
 70
     1
102
RTVSPropertyOp56
 70
     1
102
RTVSPropertyOp57
 70
     1
102
RTVSPropertyOp58
 70
     1
102
RTVSPropertyOp59
 70
     1
102
RTVSPropertyOp60
 70
     1
102
RTVSPropertyOp61
 70
     1
102
RTVSPropertyOp62
 70
     1
  0
XRECORD
  5
5271
102
{ACAD_REACTORS
330
5270
102
}
330
5270
100
AcDbXrecord
280
     1
102
RTVSPost2010Prop28
280
     0
102
RTVSPost2010PropOp28
 70
     1
102
RTVSPost2010Prop29
280
     1
102
RTVSPost2010PropOp29
 70
     1
102
RTVSPost2010Prop30
280
     1
102
RTVSPost2010PropOp30
 70
     1
102
RTVSPost2010Prop31
280
     0
102
RTVSPost2010PropOp31
 70
     1
102
RTVSPost2010Prop32
280
     0
102
RTVSPost2010PropOp32
 70
     1
102
RTVSPost2010Prop33
280
     0
102
RTVSPost2010PropOp33
 70
     1
102
RTVSPost2010Prop34
280
     0
102
RTVSPost2010PropOp34
 70
     1
102
RTVSPost2010Prop35
280
     0
102
RTVSPost2010PropOp35
 70
     1
102
RTVSPost2010Prop36
280
     0
102
RTVSPost2010PropOp36
 70
     1
102
RTVSPost2010Prop37
 90
       50
102
RTVSPost2010PropOp37
 70
     1
102
RTVSPost2010Prop38
140
0.0
102
RTVSPost2010PropOp38
 70
     1
102
RTVSPost2010Prop39
140
1.0
102
RTVSPost2010PropOp39
 70
     1
102
RTVSPost2010Prop40
 90
        0
102
RTVSPost2010PropOp40
 70
     1
102
RTVSPost2010Prop41ColorIndex
 90
       18
102
RTVSPost2010Prop41ColorRGB
 90
        0
102
RTVSPost2010PropOp41
 70
     1
102
RTVSPost2010Prop42
 90
       50
102
RTVSPost2010PropOp42
 70
     1
102
RTVSPost2010Prop43
 90
        3
102
RTVSPost2010PropOp43
 70
     1
102
RTVSPost2010Prop44ColorIndex
 90
        5
102
RTVSPost2010Prop44ColorRGB
 90
      255
102
RTVSPost2010PropOp44
 70
     1
102
RTVSPost2010Prop45
280
     0
102
RTVSPost2010PropOp45
 70
     1
102
RTVSPost2010Prop46
 90
       50
102
RTVSPost2010PropOp46
 70
     1
102
RTVSPost2010Prop47
 90
       50
102
RTVSPost2010PropOp47
 70
     1
102
RTVSPost2010Prop48
 90
       50
102
RTVSPost2010PropOp48
 70
     1
102
RTVSPost2010Prop49
280
     0
102
RTVSPost2010PropOp49
 70
     1
102
RTVSPost2010Prop50
 90
       50
102
RTVSPost2010PropOp50
 70
     1
102
RTVSPost2010Prop51ColorIndex
 90
      256
102
RTVSPost2010Prop51ColorRGB
 90
-16777216
102
RTVSPost2010PropOp51
 70
     0
102
RTVSPost2010Prop52
140
1.0
102
RTVSPost2010PropOp52
 70
     0
102
RTVSPost2010Prop53
 90
        2
102
RTVSPost2010PropOp53
 70
     1
102
RTVSPost2010Prop54
  1
strokes_ogs.tif
102
RTVSPost2010PropOp54
 70
     1
102
RTVSPost2010Prop55
280
     0
102
RTVSPost2010PropOp55
 70
     1
102
RTVSPost2010Prop56
140
1.0
102
RTVSPost2010PropOp56
 70
     1
102
RTVSPost2010Prop57
140
1.0
102
RTVSPost2010PropOp57
 70
     1
102
RTVSPropertyOp0
 70
     1
102
RTVSPropertyOp1
 70
     1
102
RTVSPropertyOp2
 70
     1
102
RTVSPropertyOp3
 70
     1
102
RTVSPropertyOp4
 70
     1
102
RTVSPropertyOp5
 70
     1
102
RTVSPropertyOp6
 70
     1
102
RTVSPropertyOp7
 70
     1
102
RTVSPropertyOp8
 70
     1
102
RTVSPropertyOp9
 70
     1
102
RTVSPropertyOp10
 70
     1
102
RTVSPropertyOp11
 70
     1
102
RTVSPropertyOp12
 70
     1
102
RTVSPropertyOp13
 70
     1
102
RTVSPropertyOp14
 70
     1
102
RTVSPropertyOp15
 70
     1
102
RTVSPropertyOp16
 70
     1
102
RTVSPropertyOp17
 70
     1
102
RTVSPropertyOp18
 70
     1
102
RTVSPropertyOp19
 70
     1
102
RTVSPropertyOp20
 70
     1
102
RTVSPropertyOp21
 70
     1
102
RTVSPropertyOp22
 70
     1
102
RTVSPropertyOp23
 70
     1
102
RTVSPropertyOp24
 70
     1
102
RTVSPropertyOp25
 70
     1
102
RTVSPropertyOp26
 70
     1
102
RTVSPropertyOp27
 70
     1
102
RTVSPropertyOp28
 70
     1
102
RTVSPropertyOp29
 70
     1
102
RTVSPropertyOp30
 70
     1
102
RTVSPropertyOp31
 70
     1
102
RTVSPropertyOp32
 70
     1
102
RTVSPropertyOp33
 70
     1
102
RTVSPropertyOp34
 70
     1
102
RTVSPropertyOp35
 70
     1
102
RTVSPropertyOp36
 70
     1
102
RTVSPropertyOp37
 70
     1
102
RTVSPropertyOp38
 70
     1
102
RTVSPropertyOp39
 70
     1
102
RTVSPropertyOp40
 70
     1
102
RTVSPropertyOp41
 70
     1
102
RTVSPropertyOp42
 70
     1
102
RTVSPropertyOp43
 70
     1
102
RTVSPropertyOp44
 70
     1
102
RTVSPropertyOp45
 70
     1
102
RTVSPropertyOp46
 70
     1
102
RTVSPropertyOp47
 70
     1
102
RTVSPropertyOp48
 70
     1
102
RTVSPropertyOp49
 70
     1
102
RTVSPropertyOp50
 70
     1
102
RTVSPropertyOp51
 70
     0
102
RTVSPropertyOp52
 70
     0
102
RTVSPropertyOp53
 70
     1
102
RTVSPropertyOp54
 70
     1
102
RTVSPropertyOp55
 70
     1
102
RTVSPropertyOp56
 70
     1
102
RTVSPropertyOp57
 70
     1
102
RTVSPropertyOp58
 70
     1
102
RTVSPropertyOp59
 70
     1
102
RTVSPropertyOp60
 70
     1
102
RTVSPropertyOp61
 70
     1
102
RTVSPropertyOp62
 70
     1
  0
XRECORD
  5
5289
102
{ACAD_REACTORS
330
5288
102
}
330
5288
100
AcDbXrecord
280
     1
102
RTVSPost2010Prop28
280
     0
102
RTVSPost2010PropOp28
 70
     1
102
RTVSPost2010Prop29
280
     1
102
RTVSPost2010PropOp29
 70
     1
102
RTVSPost2010Prop30
280
     1
102
RTVSPost2010PropOp30
 70
     1
102
RTVSPost2010Prop31
280
     0
102
RTVSPost2010PropOp31
 70
     1
102
RTVSPost2010Prop32
280
     0
102
RTVSPost2010PropOp32
 70
     1
102
RTVSPost2010Prop33
280
     0
102
RTVSPost2010PropOp33
 70
     1
102
RTVSPost2010Prop34
280
     0
102
RTVSPost2010PropOp34
 70
     1
102
RTVSPost2010Prop35
280
     0
102
RTVSPost2010PropOp35
 70
     1
102
RTVSPost2010Prop36
280
     0
102
RTVSPost2010PropOp36
 70
     1
102
RTVSPost2010Prop37
 90
       50
102
RTVSPost2010PropOp37
 70
     1
102
RTVSPost2010Prop38
140
0.0
102
RTVSPost2010PropOp38
 70
     1
102
RTVSPost2010Prop39
140
1.0
102
RTVSPost2010PropOp39
 70
     1
102
RTVSPost2010Prop40
 90
        0
102
RTVSPost2010PropOp40
 70
     1
102
RTVSPost2010Prop41ColorIndex
 90
       18
102
RTVSPost2010Prop41ColorRGB
 90
        0
102
RTVSPost2010PropOp41
 70
     1
102
RTVSPost2010Prop42
 90
       50
102
RTVSPost2010PropOp42
 70
     1
102
RTVSPost2010Prop43
 90
        3
102
RTVSPost2010PropOp43
 70
     1
102
RTVSPost2010Prop44ColorIndex
 90
        5
102
RTVSPost2010Prop44ColorRGB
 90
      255
102
RTVSPost2010PropOp44
 70
     1
102
RTVSPost2010Prop45
280
     0
102
RTVSPost2010PropOp45
 70
     1
102
RTVSPost2010Prop46
 90
       50
102
RTVSPost2010PropOp46
 70
     1
102
RTVSPost2010Prop47
 90
       50
102
RTVSPost2010PropOp47
 70
     1
102
RTVSPost2010Prop48
 90
       50
102
RTVSPost2010PropOp48
 70
     1
102
RTVSPost2010Prop49
280
     0
102
RTVSPost2010PropOp49
 70
     1
102
RTVSPost2010Prop50
 90
       50
102
RTVSPost2010PropOp50
 70
     1
102
RTVSPost2010Prop51ColorIndex
 90
      256
102
RTVSPost2010Prop51ColorRGB
 90
-16777216
102
RTVSPost2010PropOp51
 70
     0
102
RTVSPost2010Prop52
140
1.0
102
RTVSPost2010PropOp52
 70
     0
102
RTVSPost2010Prop53
 90
        2
102
RTVSPost2010PropOp53
 70
     1
102
RTVSPost2010Prop54
  1
strokes_ogs.tif
102
RTVSPost2010PropOp54
 70
     1
102
RTVSPost2010Prop55
280
     0
102
RTVSPost2010PropOp55
 70
     1
102
RTVSPost2010Prop56
140
1.0
102
RTVSPost2010PropOp56
 70
     1
102
RTVSPost2010Prop57
140
1.0
102
RTVSPost2010PropOp57
 70
     1
102
RTVSPropertyOp0
 70
     1
102
RTVSPropertyOp1
 70
     1
102
RTVSPropertyOp2
 70
     1
102
RTVSPropertyOp3
 70
     1
102
RTVSPropertyOp4
 70
     1
102
RTVSPropertyOp5
 70
     1
102
RTVSPropertyOp6
 70
     1
102
RTVSPropertyOp7
 70
     1
102
RTVSPropertyOp8
 70
     1
102
RTVSPropertyOp9
 70
     1
102
RTVSPropertyOp10
 70
     1
102
RTVSPropertyOp11
 70
     1
102
RTVSPropertyOp12
 70
     1
102
RTVSPropertyOp13
 70
     1
102
RTVSPropertyOp14
 70
     1
102
RTVSPropertyOp15
 70
     1
102
RTVSPropertyOp16
 70
     1
102
RTVSPropertyOp17
 70
     1
102
RTVSPropertyOp18
 70
     1
102
RTVSPropertyOp19
 70
     1
102
RTVSPropertyOp20
 70
     1
102
RTVSPropertyOp21
 70
     1
102
RTVSPropertyOp22
 70
     1
102
RTVSPropertyOp23
 70
     1
102
RTVSPropertyOp24
 70
     1
102
RTVSPropertyOp25
 70
     1
102
RTVSPropertyOp26
 70
     1
102
RTVSPropertyOp27
 70
     1
102
RTVSPropertyOp28
 70
     1
102
RTVSPropertyOp29
 70
     1
102
RTVSPropertyOp30
 70
     1
102
RTVSPropertyOp31
 70
     1
102
RTVSPropertyOp32
 70
     1
102
RTVSPropertyOp33
 70
     1
102
RTVSPropertyOp34
 70
     1
102
RTVSPropertyOp35
 70
     1
102
RTVSPropertyOp36
 70
     1
102
RTVSPropertyOp37
 70
     1
102
RTVSPropertyOp38
 70
     1
102
RTVSPropertyOp39
 70
     1
102
RTVSPropertyOp40
 70
     1
102
RTVSPropertyOp41
 70
     1
102
RTVSPropertyOp42
 70
     1
102
RTVSPropertyOp43
 70
     1
102
RTVSPropertyOp44
 70
     1
102
RTVSPropertyOp45
 70
     1
102
RTVSPropertyOp46
 70
     1
102
RTVSPropertyOp47
 70
     1
102
RTVSPropertyOp48
 70
     1
102
RTVSPropertyOp49
 70
     1
102
RTVSPropertyOp50
 70
     1
102
RTVSPropertyOp51
 70
     0
102
RTVSPropertyOp52
 70
     0
102
RTVSPropertyOp53
 70
     1
102
RTVSPropertyOp54
 70
     1
102
RTVSPropertyOp55
 70
     1
102
RTVSPropertyOp56
 70
     1
102
RTVSPropertyOp57
 70
     1
102
RTVSPropertyOp58
 70
     1
102
RTVSPropertyOp59
 70
     1
102
RTVSPropertyOp60
 70
     1
102
RTVSPropertyOp61
 70
     1
102
RTVSPropertyOp62
 70
     1
  0
ENDSEC
  0
EOF
