  0
SECTION
  2
HEADER
  9
$ACADVER
  1
AC1027
  9
$DWGCODEPAGE
  3
ANSI_932
  9
$LTSCALE
 40
20.0
  9
$FILLMODE
 70
     1
  9
$CLAYER
  8
0
  9
$PDMODE
 70
     0
  9
$SPLFRAME
 70
     0
  9
$SPLINETYPE
 70
     6
  9
$SPLINESEGS
 70
     8
  9
$DIMASZ
 40
2.000000
  9
$DIMEXE
 40
1.500000
  9
$DIMEXO
 40
0.800000
  9
$DIMTAD
 70
     1
  9
$DIMTIH
 70
     0
  9
$DIMTOH
 70
     0
  9
$DIMTVP
 40
0.500000
  9
$DIMTXT
 40
3.100000
  9
$EXTMIN
 10
0.000000
 20
0.000000
 30
0.000000
  9
$EXTMAX
 10
297.000000
 20
420.000000
 30
0.000000
  9
$MEASUREMENT
 70
  1
  9
$LIMMIN
 10
0.000000
 20
0.000000
  9
$LIMMAX
 10
297.000000
 20
420.000000
  9
$HANDSEED
  5
11E
  9
$LWDISPLAY
290
     0
  9
$DIMBLK
  1
_OPEN
  9
$DIMDEC
 70
     2
  9
$DIMADEC
 70
     2
  9
$DIMAUNIT
 70
     0
  9
$DIMZIN
 70
     8
  9
$DIMAZIN
 70
     2
  9
$DIMTOFL
 70
     1
  0
ENDSEC
  0
SECTION
  2
CLASSES
  0
ENDSEC
  0
SECTION
  2
TABLES
  0
TABLE
  2
VPORT
  5
EE
100
AcDbSymbolTable
 70
     1
  0
VPORT
  5
EF
100
AcDbSymbolTableRecord
100
AcDbViewportTableRecord
  2
*ACTIVE
 70
     0
 12
187.627907
 22
80.610440
 40
141.220880
 41
2.515604
  0
ENDTAB
  0
TABLE
  2
LTYPE
  5
F0
100
AcDbSymbolTable
 70
     2
  0
LTYPE
  5
F1
100
AcDbSymbolTableRecord
100
AcDbLinetypeTableRecord
  2
BYBLOCK
 70
     0
  3

 72
    65
 73
     0
 40
0.0
  0
LTYPE
  5
F2
100
AcDbSymbolTableRecord
100
AcDbLinetypeTableRecord
  2
BYLAYER
 70
     0
  3

 72
    65
 73
     0
 40
0.0
  0
LTYPE
  5
F3
100
AcDbSymbolTableRecord
100
AcDbLinetypeTableRecord
  2
CONTINUOUS
 70
     0
  3
Solid line (NEC CAE2D for Win R18.0 : 2025.08.01)
 72
    65
 73
     0
 40
0.0
  0
LTYPE
  5
F4
100
AcDbSymbolTableRecord
100
AcDbLinetypeTableRecord
  2
CENTER
 70
     0
  3
____ _ ____ _ ____ _ ____ _ ____ _ ____
 72
    65
 73
     4
 40
2.0
 49
1.25
 74
     0
 49
-0.25
 74
     0
 49
0.25
 74
     0
 49
-0.25
 74
     0
  0
ENDTAB
  0
TABLE
  2
LAYER
  5
F5
100
AcDbSymbolTable
 70
    10
  0
LAYER
  5
F6
100
AcDbSymbolTableRecord
100
AcDbLayerTableRecord
  2
0
 70
     0
 62
     7
  6
CONTINUOUS
370
    -3
390

  0
LAYER
  5
F7
100
AcDbSymbolTableRecord
100
AcDbLayerTableRecord
  2
DXF0
 70
     0
 62
     7
  6
CONTINUOUS
370
    -3
390

  0
LAYER
  5
F8
100
AcDbSymbolTableRecord
100
AcDbLayerTableRecord
  2
4
 70
     0
 62
     1
  6
CONTINUOUS
370
    -3
390

  0
LAYER
  5
F9
100
AcDbSymbolTableRecord
100
AcDbLayerTableRecord
  2
5
 70
     0
 62
     6
  6
CONTINUOUS
370
    -3
390

  0
LAYER
  5
FA
100
AcDbSymbolTableRecord
100
AcDbLayerTableRecord
  2
1
 70
     0
 62
     7
  6
CONTINUOUS
370
    -3
390

  0
LAYER
  5
FB
100
AcDbSymbolTableRecord
100
AcDbLayerTableRecord
  2
2
 70
     0
 62
     4
  6
CONTINUOUS
370
    -3
390

  0
LAYER
  5
FC
100
AcDbSymbolTableRecord
100
AcDbLayerTableRecord
  2
3
 70
     0
 62
     2
  6
CONTINUOUS
370
    -3
390

  0
LAYER
  5
FD
100
AcDbSymbolTableRecord
100
AcDbLayerTableRecord
  2
6
 70
     0
 62
     5
  6
CONTINUOUS
370
    -3
390

  0
LAYER
  5
FE
100
AcDbSymbolTableRecord
100
AcDbLayerTableRecord
  2
7
 70
     0
 62
     3
  6
CONTINUOUS
370
    -3
390

  0
LAYER
  5
FF
100
AcDbSymbolTableRecord
100
AcDbLayerTableRecord
  2
DXF1023
 70
     0
 62
    16
  6
CONTINUOUS
370
    -3
390

  0
ENDTAB
  0
TABLE
  2
STYLE
  5
100
100
AcDbSymbolTable
 70
     4
  0
STYLE
  5
101
100
AcDbSymbolTableRecord
100
AcDbTextStyleTableRecord
  2
STANDARD
 70
    64
 40
0.0
 41
1.0
 50
0.0
 71
     0
 42
1.399999976158142
  3
TXT
  4

  0
STYLE
  5
102
100
AcDbSymbolTableRecord
100
AcDbTextStyleTableRecord
  2
ANKTATE
 70
    68
 40
0.0
 41
1.0
 50
0.0
 71
     0
 42
1.399999976158142
  3
TXT
  4

  0
STYLE
  5
103
100
AcDbSymbolTableRecord
100
AcDbTextStyleTableRecord
  2
KNJYOKO
 70
    64
 40
0.0
 41
1.0
 50
0.0
 71
     0
 42
1.399999976158142
  3
TXT
  4
BIGFONT
  0
STYLE
  5
104
100
AcDbSymbolTableRecord
100
AcDbTextStyleTableRecord
  2
KNJTATE
 70
    68
 40
0.0
 41
1.0
 50
0.0
 71
     0
 42
1.399999976158142
  3
TXT
  4
BIGFONT
  0
ENDTAB
  0
TABLE
  2
VIEW
  5
105
100
AcDbSymbolTable
 70
     0
  0
ENDTAB
  0
TABLE
  2
UCS
  5
106
100
AcDbSymbolTable
 70
     0
  0
ENDTAB
  0
TABLE
  2
APPID
  5
107
100
AcDbSymbolTable
 70
     1
  0
APPID
  5
108
100
AcDbSymbolTableRecord
100
AcDbRegAppTableRecord
  2
ACAD
 70
     0
  0
ENDTAB
  0
TABLE
  2
DIMSTYLE
  5
109
100
AcDbSymbolTable
 70
     2
100
AcDbDimStyleTable
  0
DIMSTYLE
105
10A
100
AcDbSymbolTableRecord
100
AcDbDimStyleTableRecord
  2
STANDARD
 70
     0
 41
2.000000
 44
1.500000
 42
0.800000
145
0.661290
140
3.100000
144
1.000000
146
0.645161
340
101
  0
DIMSTYLE
105
10B
100
AcDbSymbolTableRecord
100
AcDbDimStyleTableRecord
  2
DXF001
 70
     0
 41
2.000000
 44
1.500000
 42
0.800000
145
0.661290
140
3.100000
144
1.000000
146
0.645161
 77
     1
 73
     0
 74
     0
271
     2
179
     2
275
     0
 78
     8
 79
     2
172
     1
340
101
  0
ENDTAB
  0
TABLE
  2
BLOCK_RECORD
  5
10C
100
AcDbSymbolTable
 70
    12
  0
BLOCK_RECORD
  5
10D
100
AcDbSymbolTableRecord
100
AcDbBlockTableRecord
  2
*MODEL_SPACE
  0
BLOCK_RECORD
  5
10E
100
AcDbSymbolTableRecord
100
AcDbBlockTableRecord
  2
*PAPER_SPACE
  0
BLOCK_RECORD
  5
10F
100
AcDbSymbolTableRecord
100
AcDbBlockTableRecord
  2
*PAPER_SPACE0
  0
BLOCK_RECORD
  5
1
100
AcDbSymbolTableRecord
100
AcDbBlockTableRecord
  2
_NONE
  0
BLOCK_RECORD
  5
4
100
AcDbSymbolTableRecord
100
AcDbBlockTableRecord
  2
_CLOSED
  0
BLOCK_RECORD
  5
B
100
AcDbSymbolTableRecord
100
AcDbBlockTableRecord
  2
_DOT
  0
BLOCK_RECORD
  5
13
100
AcDbSymbolTableRecord
100
AcDbBlockTableRecord
  2
_OPEN
  0
BLOCK_RECORD
  5
19
100
AcDbSymbolTableRecord
100
AcDbBlockTableRecord
  2
_ORIGIN
  0
BLOCK_RECORD
  5
1E
100
AcDbSymbolTableRecord
100
AcDbBlockTableRecord
  2
_OPEN30
  0
BLOCK_RECORD
  5
24
100
AcDbSymbolTableRecord
100
AcDbBlockTableRecord
  2
_BOXFILLED
  0
BLOCK_RECORD
  5
29
100
AcDbSymbolTableRecord
100
AcDbBlockTableRecord
  2
_BOXBLANK
  0
BLOCK_RECORD
  5
31
100
AcDbSymbolTableRecord
100
AcDbBlockTableRecord
  2
_OBLIQUE
  0
BLOCK_RECORD
  5
35
100
AcDbSymbolTableRecord
100
AcDbBlockTableRecord
  2
_OPEN90
  0
BLOCK_RECORD
  5
3B
100
AcDbSymbolTableRecord
100
AcDbBlockTableRecord
  2
_CLOSEDBLANK
  0
BLOCK_RECORD
  5
41
100
AcDbSymbolTableRecord
100
AcDbBlockTableRecord
  2
_DOTBLANK
  0
ENDTAB
  0
ENDSEC
  0
SECTION
  2
BLOCKS
  0
BLOCK
  5
110
100
AcDbEntity
  8
0
100
AcDbBlockBegin
  2
*MODEL_SPACE
 70
     0
 10
0.0
 20
0.0
 30
0.0
  3
*MODEL_SPACE
  1

  0
ENDBLK
  5
111
100
AcDbEntity
  8
0
100
AcDbBlockEnd
  0
BLOCK
  5
112
100
AcDbEntity
  8
0
100
AcDbBlockBegin
  2
*PAPER_SPACE
 70
     0
 10
0.0
 20
0.0
 30
0.0
  3
*PAPER_SPACE
  1

  0
ENDBLK
  5
113
100
AcDbEntity
  8
0
100
AcDbBlockEnd
  0
BLOCK
  5
114
100
AcDbEntity
  8
0
100
AcDbBlockBegin
  2
*PAPER_SPACE0
 70
     0
 10
0.0
 20
0.0
 30
0.0
  3
*PAPER_SPACE0
  1

  0
ENDBLK
  5
115
100
AcDbEntity
  8
0
100
AcDbBlockEnd
  0
BLOCK
  5
2
330
1
100
AcDbEntity
  8
0
100
AcDbBlockBegin
  2
_NONE
 70
     0
 10
0.0
 20
0.0
 30
0.0
  3
_NONE
  1

  0
ENDBLK
  5
3
330
1
100
AcDbEntity
  8
0
100
AcDbBlockEnd
  0
BLOCK
  5
5
330
4
100
AcDbEntity
  8
0
100
AcDbBlockBegin
  2
_CLOSED
 70
     0
 10
0.0
 20
0.0
 30
0.0
  3
_CLOSED
  1

  0
LINE
  5
6
330
4
100
AcDbEntity
  8
0
  6
BYBLOCK
 62
     0
370
    -2
100
AcDbLine
 10
-1.0
 20
0.166667
 30
0.0
 11
0.0
 21
0.0
 31
0.0
  0
LINE
  5
7
330
4
100
AcDbEntity
  8
0
  6
BYBLOCK
 62
     0
370
    -2
100
AcDbLine
 10
0.0
 20
0.0
 30
0.0
 11
-1.0
 21
-0.166667
 31
0.0
  0
LINE
  5
8
330
4
100
AcDbEntity
  8
0
  6
BYBLOCK
 62
     0
370
    -2
100
AcDbLine
 10
-1.0
 20
0.166667
 30
0.0
 11
-1.0
 21
-0.166667
 31
0.0
  0
LINE
  5
9
330
4
100
AcDbEntity
  8
0
  6
BYBLOCK
 62
     0
370
    -2
100
AcDbLine
 10
0.0
 20
0.0
 30
0.0
 11
-1.0
 21
0.0
 31
0.0
  0
ENDBLK
  5
A
330
4
100
AcDbEntity
  8
0
100
AcDbBlockEnd
  0
BLOCK
  5
C
330
B
100
AcDbEntity
  8
0
100
AcDbBlockBegin
  2
_DOT
 70
     0
 10
0.0
 20
0.0
 30
0.0
  3
_DOT
  1

  0
POLYLINE
  5
D
330
B
100
AcDbEntity
  8
0
  6
BYBLOCK
 62
     0
370
    -2
100
AcDb2dPolyline
 66
     1
 10
0.0
 20
0.0
 30
0.0
 70
     1
 40
0.5
 41
0.5
  0
VERTEX
  5
E
330
B
100
AcDbEntity
  8
0
  6
BYBLOCK
 62
     0
370
    -2
100
AcDbVertex
100
AcDb2dVertex
 10
-0.25
 20
0.0
 30
0.0
 42
1.0
  0
VERTEX
  5
F
330
B
100
AcDbEntity
  8
0
  6
BYBLOCK
 62
     0
370
    -2
100
AcDbVertex
100
AcDb2dVertex
 10
0.25
 20
0.0
 30
0.0
 42
1.0
  0
SEQEND
  5
10
330
B
100
AcDbEntity
  8
0
  6
BYBLOCK
 62
     0
370
    -2
  0
LINE
  5
11
330
B
100
AcDbEntity
  8
0
  6
BYBLOCK
 62
     0
370
    -2
100
AcDbLine
 10
-0.5
 20
0.0
 30
0.0
 11
-1.0
 21
0.0
 31
0.0
  0
ENDBLK
  5
12
330
B
100
AcDbEntity
  8
0
100
AcDbBlockEnd
  0
BLOCK
  5
14
330
13
100
AcDbEntity
  8
0
100
AcDbBlockBegin
  2
_OPEN
 70
     0
 10
0.0
 20
0.0
 30
0.0
  3
_OPEN
  1

  0
LINE
  5
15
330
13
100
AcDbEntity
  8
0
  6
BYBLOCK
 62
     0
370
    -2
100
AcDbLine
 10
-1.0
 20
0.166667
 30
0.0
 11
0.0
 21
0.0
 31
0.0
  0
LINE
  5
16
330
13
100
AcDbEntity
  8
0
  6
BYBLOCK
 62
     0
370
    -2
100
AcDbLine
 10
0.0
 20
0.0
 30
0.0
 11
-1.0
 21
-0.166667
 31
0.0
  0
LINE
  5
17
330
13
100
AcDbEntity
  8
0
  6
BYBLOCK
 62
     0
370
    -2
100
AcDbLine
 10
0.0
 20
0.0
 30
0.0
 11
-1.0
 21
0.0
 31
0.0
  0
ENDBLK
  5
18
330
13
100
AcDbEntity
  8
0
100
AcDbBlockEnd
  0
BLOCK
  5
1A
330
19
100
AcDbEntity
  8
0
100
AcDbBlockBegin
  2
_ORIGIN
 70
     0
 10
0.0
 20
0.0
 30
0.0
  3
_ORIGIN
  1

  0
CIRCLE
  5
1B
330
19
100
AcDbEntity
  8
0
  6
BYBLOCK
 62
     0
370
    -2
100
AcDbCircle
 10
0.0
 20
0.0
 30
0.0
 40
0.5
  0
LINE
  5
1C
330
19
100
AcDbEntity
  8
0
  6
BYBLOCK
 62
     0
370
    -2
100
AcDbLine
 10
0.0
 20
0.0
 30
0.0
 11
-1.0
 21
0.0
 31
0.0
  0
ENDBLK
  5
1D
330
19
100
AcDbEntity
  8
0
100
AcDbBlockEnd
  0
BLOCK
  5
1F
330
1E
100
AcDbEntity
  8
0
100
AcDbBlockBegin
  2
_OPEN30
 70
     0
 10
0.0
 20
0.0
 30
0.0
  3
_OPEN30
  1

  0
LINE
  5
20
330
1E
100
AcDbEntity
  8
0
  6
BYBLOCK
 62
     0
370
    -2
100
AcDbLine
 10
-1.0
 20
0.267949
 30
0.0
 11
0.0
 21
0.0
 31
0.0
  0
LINE
  5
21
330
1E
100
AcDbEntity
  8
0
  6
BYBLOCK
 62
     0
370
    -2
100
AcDbLine
 10
0.0
 20
0.0
 30
0.0
 11
-1.0
 21
-0.267949
 31
0.0
  0
LINE
  5
22
330
1E
100
AcDbEntity
  8
0
  6
BYBLOCK
 62
     0
370
    -2
100
AcDbLine
 10
0.0
 20
0.0
 30
0.0
 11
-1.0
 21
0.0
 31
0.0
  0
ENDBLK
  5
23
330
1E
100
AcDbEntity
  8
0
100
AcDbBlockEnd
  0
BLOCK
  5
25
330
24
100
AcDbEntity
  8
0
100
AcDbBlockBegin
  2
_BOXFILLED
 70
     0
 10
0.0
 20
0.0
 30
0.0
  3
_BOXFILLED
  1

  0
SOLID
  5
26
330
24
100
AcDbEntity
  8
0
  6
BYBLOCK
 62
     0
370
    -2
100
AcDbTrace
 10
-0.5
 20
0.5
 30
0.0
 11
0.5
 21
0.5
 31
0.0
 12
-0.5
 22
-0.5
 32
0.0
 13
0.5
 23
-0.5
 33
0.0
  0
LINE
  5
27
330
24
100
AcDbEntity
  8
0
  6
BYBLOCK
 62
     0
370
    -2
100
AcDbLine
 10
-0.5
 20
0.0
 30
0.0
 11
-1.0
 21
0.0
 31
0.0
  0
ENDBLK
  5
28
330
24
100
AcDbEntity
  8
0
100
AcDbBlockEnd
  0
BLOCK
  5
2A
330
29
100
AcDbEntity
  8
0
100
AcDbBlockBegin
  2
_BOXBLANK
 70
     0
 10
0.0
 20
0.0
 30
0.0
  3
_BOXBLANK
  1

  0
LINE
  5
2B
330
29
100
AcDbEntity
  8
0
  6
BYBLOCK
 62
     0
370
    -2
100
AcDbLine
 10
-0.5
 20
-0.5
 30
0.0
 11
0.5
 21
-0.5
 31
0.0
  0
LINE
  5
2C
330
29
100
AcDbEntity
  8
0
  6
BYBLOCK
 62
     0
370
    -2
100
AcDbLine
 10
0.5
 20
-0.5
 30
0.0
 11
0.5
 21
0.5
 31
0.0
  0
LINE
  5
2D
330
29
100
AcDbEntity
  8
0
  6
BYBLOCK
 62
     0
370
    -2
100
AcDbLine
 10
0.5
 20
0.5
 30
0.0
 11
-0.5
 21
0.5
 31
0.0
  0
LINE
  5
2E
330
29
100
AcDbEntity
  8
0
  6
BYBLOCK
 62
     0
370
    -2
100
AcDbLine
 10
-0.5
 20
0.5
 30
0.0
 11
-0.5
 21
-0.5
 31
0.0
  0
LINE
  5
2F
330
29
100
AcDbEntity
  8
0
  6
BYBLOCK
 62
     0
370
    -2
100
AcDbLine
 10
-0.5
 20
0.0
 30
0.0
 11
-1.0
 21
0.0
 31
0.0
  0
ENDBLK
  5
30
330
29
100
AcDbEntity
  8
0
100
AcDbBlockEnd
  0
BLOCK
  5
32
330
31
100
AcDbEntity
  8
0
100
AcDbBlockBegin
  2
_OBLIQUE
 70
     0
 10
0.0
 20
0.0
 30
0.0
  3
_OBLIQUE
  1

  0
LINE
  5
33
330
31
100
AcDbEntity
  8
0
  6
BYBLOCK
 62
     0
370
    -2
100
AcDbLine
 10
-0.5
 20
-0.5
 30
0.0
 11
0.5
 21
0.5
 31
0.0
  0
ENDBLK
  5
34
330
31
100
AcDbEntity
  8
0
100
AcDbBlockEnd
  0
BLOCK
  5
36
330
35
100
AcDbEntity
  8
0
100
AcDbBlockBegin
  2
_OPEN90
 70
     0
 10
0.0
 20
0.0
 30
0.0
  3
_OPEN90
  1

  0
LINE
  5
37
330
35
100
AcDbEntity
  8
0
  6
BYBLOCK
 62
     0
370
    -2
100
AcDbLine
 10
-0.5
 20
0.5
 30
0.0
 11
0.0
 21
0.0
 31
0.0
  0
LINE
  5
38
330
35
100
AcDbEntity
  8
0
  6
BYBLOCK
 62
     0
370
    -2
100
AcDbLine
 10
0.0
 20
0.0
 30
0.0
 11
-0.5
 21
-0.5
 31
0.0
  0
LINE
  5
39
330
35
100
AcDbEntity
  8
0
  6
BYBLOCK
 62
     0
370
    -2
100
AcDbLine
 10
0.0
 20
0.0
 30
0.0
 11
-1.0
 21
0.0
 31
0.0
  0
ENDBLK
  5
3A
330
35
100
AcDbEntity
  8
0
100
AcDbBlockEnd
  0
BLOCK
  5
3C
330
3B
100
AcDbEntity
  8
0
100
AcDbBlockBegin
  2
_CLOSEDBLANK
 70
     0
 10
0.0
 20
0.0
 30
0.0
  3
_CLOSEDBLANK
  1

  0
LINE
  5
3D
330
3B
100
AcDbEntity
  8
0
  6
BYBLOCK
 62
     0
370
    -2
100
AcDbLine
 10
-1.0
 20
0.1666666666666666
 30
0.0
 11
0.0
 21
0.0
 31
0.0
  0
LINE
  5
3E
330
3B
100
AcDbEntity
  8
0
  6
BYBLOCK
 62
     0
370
    -2
100
AcDbLine
 10
0.0
 20
0.0
 30
0.0
 11
-1.0
 21
-0.1666666666666666
 31
0.0
  0
LINE
  5
3F
330
3B
100
AcDbEntity
  8
0
  6
BYBLOCK
 62
     0
370
    -2
100
AcDbLine
 10
-1.0
 20
0.1666666666666666
 30
0.0
 11
-1.0
 21
-0.1666666666666666
 31
0.0
  0
ENDBLK
  5
40
330
3B
100
AcDbEntity
  8
0
100
AcDbBlockEnd
  0
BLOCK
  5
42
330
41
100
AcDbEntity
  8
0
100
AcDbBlockBegin
  2
_DOTBLANK
 70
     0
 10
0.0
 20
0.0
 30
0.0
  3
_DOTBLANK
  1

  0
CIRCLE
  5
43
330
41
100
AcDbEntity
  8
0
  6
BYBLOCK
 62
     0
370
    -2
100
AcDbCircle
 10
0.0
 20
0.0
 30
0.0
 40
0.5
  0
LINE
  5
44
330
41
100
AcDbEntity
  8
0
  6
BYBLOCK
 62
     0
370
    -2
100
AcDbLine
 10
-0.5
 20
0.0
 30
0.0
 11
-1.0
 21
0.0
 31
0.0
  0
ENDBLK
  5
45
330
41
100
AcDbEntity
  8
0
100
AcDbBlockEnd
  0
ENDSEC
  0
SECTION
  2
ENTITIES
  0
MTEXT
  5
46
100
AcDbEntity
  8
7
  6
CONTINUOUS
 62
3
100
AcDbMText
 10
10.00000000000000
 20
18.00000000000000
 30
0.000000000000000
 40
3.000000000000000
 41
0.000000000000000
 44
0.6739999771118164
 71
     7
 72
     1
  1
{\H0.93x;{TYPE No.TL-42-3}}
 11
1.000000000000000
 21
0.000000000000000
 31
0.000000000000000
  7
STANDARD
  0
MTEXT
  5
47
100
AcDbEntity
  8
7
  6
CONTINUOUS
 62
3
100
AcDbMText
 10
10.00000000000000
 20
26.00000000000000
 30
0.000000000000000
 40
3.000000000000000
 41
0.000000000000000
 44
0.6739999771118164
 71
     7
 72
     1
  1
{\H0.93x;{CODE No.11373}}
 11
1.000000000000000
 21
0.000000000000000
 31
0.000000000000000
  7
STANDARD
  0
MTEXT
  5
48
100
AcDbEntity
  8
1
  6
CONTINUOUS
 62
7
100
AcDbMText
 10
10.00000000000000
 20
10.00000000000000
 30
0.000000000000000
 40
1.399999976158142
 41
0.000000000000000
 44
0.6728571767952983
 71
     7
 72
     1
  1
{\H0.92x;{LAYER}}
 11
1.000000000000000
 21
0.000000000000000
 31
0.000000000000000
  7
STANDARD
  0
MTEXT
  5
49
100
AcDbEntity
  8
1
  6
CONTINUOUS
 62
7
100
AcDbMText
 10
17.97951099999998
 20
10.04873699999998
 30
0.000000000000000
 40
1.399999976158142
 41
0.000000000000000
 44
0.6728571767952983
 71
     7
 72
     1
  1
{\H0.82x;{1}}
 11
1.000000000000000
 21
0.000000000000000
 31
0.000000000000000
  7
STANDARD
  0
MTEXT
  5
4A
100
AcDbEntity
  8
7
  6
CONTINUOUS
 62
3
100
AcDbMText
 10
29.97951099999999
 20
10.04873699999998
 30
0.000000000000000
 40
1.399999976158142
 41
0.000000000000000
 44
0.6728571767952983
 71
     7
 72
     1
  1
{\H0.82x;{7}}
 11
1.000000000000000
 21
0.000000000000000
 31
0.000000000000000
  7
STANDARD
  0
MTEXT
  5
4B
100
AcDbEntity
  8
4
  6
CONTINUOUS
 62
1
100
AcDbMText
 10
23.97951099999999
 20
10.04873699999998
 30
0.000000000000000
 40
1.399999976158142
 41
0.000000000000000
 44
0.6728571767952983
 71
     7
 72
     1
  1
{\H0.82x;{4}}
 11
1.000000000000000
 21
0.000000000000000
 31
0.000000000000000
  7
STANDARD
  0
MTEXT
  5
4C
100
AcDbEntity
  8
3
  6
CONTINUOUS
 62
2
100
AcDbMText
 10
21.97951100000000
 20
10.04873699999998
 30
0.000000000000000
 40
1.399999976158142
 41
0.000000000000000
 44
0.6728571767952983
 71
     7
 72
     1
  1
{\H0.82x;{3}}
 11
1.000000000000000
 21
0.000000000000000
 31
0.000000000000000
  7
STANDARD
  0
MTEXT
  5
4D
100
AcDbEntity
  8
2
  6
CONTINUOUS
 62
4
100
AcDbMText
 10
19.97951099999999
 20
10.04873699999998
 30
0.000000000000000
 40
1.399999976158142
 41
0.000000000000000
 44
0.6728571767952983
 71
     7
 72
     1
  1
{\H0.82x;{2}}
 11
1.000000000000000
 21
0.000000000000000
 31
0.000000000000000
  7
STANDARD
  0
MTEXT
  5
4E
100
AcDbEntity
  8
6
  6
CONTINUOUS
 62
5
100
AcDbMText
 10
27.97951100000000
 20
10.04873699999998
 30
0.000000000000000
 40
1.399999976158142
 41
0.000000000000000
 44
0.6728571767952983
 71
     7
 72
     1
  1
{\H0.82x;{6}}
 11
1.000000000000000
 21
0.000000000000000
 31
0.000000000000000
  7
STANDARD
  0
MTEXT
  5
4F
100
AcDbEntity
  8
5
  6
CONTINUOUS
 62
6
100
AcDbMText
 10
25.97951099999999
 20
10.04873699999998
 30
0.000000000000000
 40
1.399999976158142
 41
0.000000000000000
 44
0.6728571767952983
 71
     7
 72
     1
  1
{\H0.82x;{5}}
 11
1.000000000000000
 21
0.000000000000000
 31
0.000000000000000
  7
STANDARD
  0
LINE
  5
50
100
AcDbEntity
  8
1
  6
CONTINUOUS
 62
7
100
AcDbLine
 10
76.84551399999998
 20
84.23688000000000
 30
0.000000000000000
 11
76.84551399999998
 21
41.23657999999998
 31
0.000000000000000
  0
LINE
  5
51
100
AcDbEntity
  8
4
  6
CENTER
 62
1
100
AcDbLine
 10
90.84581400000000
 20
62.73658000000001
 30
0.000000000000000
 11
74.84551399999998
 21
62.73658000000001
 31
0.000000000000000
  0
LINE
  5
52
100
AcDbEntity
  8
1
  6
CONTINUOUS
 62
7
100
AcDbLine
 10
78.84551399999998
 20
65.53658000000000
 30
0.000000000000000
 11
78.84551399999998
 21
59.93657999999999
 31
0.000000000000000
  0
LINE
  5
53
100
AcDbEntity
  8
1
  6
CONTINUOUS
 62
7
100
AcDbLine
 10
88.84551399999997
 20
59.43658000000000
 30
0.000000000000000
 11
79.34551399999998
 21
59.43658000000000
 31
0.000000000000000
  0
LINE
  5
54
100
AcDbEntity
  8
1
  6
CONTINUOUS
 62
7
100
AcDbLine
 10
88.84551399999997
 20
66.03658000000000
 30
0.000000000000000
 11
79.34551399999998
 21
66.03658000000000
 31
0.000000000000000
  0
LINE
  5
55
100
AcDbEntity
  8
1
  6
CONTINUOUS
 62
7
100
AcDbLine
 10
22.46811399999999
 20
84.23688000000000
 30
0.000000000000000
 11
22.46811399999999
 21
41.23657999999998
 31
0.000000000000000
  0
LINE
  5
56
100
AcDbEntity
  8
1
  6
CONTINUOUS
 62
7
100
AcDbLine
 10
14.46811400000000
 20
84.23688000000000
 30
0.000000000000000
 11
14.46811400000000
 21
41.23657999999998
 31
0.000000000000000
  0
LINE
  5
57
100
AcDbEntity
  8
4
  6
CENTER
 62
1
100
AcDbLine
 10
24.46811400000000
 20
62.73658000000001
 30
0.000000000000000
 11
12.46811400000000
 21
62.73658000000001
 31
0.000000000000000
  0
LINE
  5
58
100
AcDbEntity
  8
4
  6
CENTER
 62
1
100
AcDbLine
 10
18.46811399999999
 20
39.23657999999999
 30
0.000000000000000
 11
18.46811399999999
 21
86.23687999999999
 31
0.000000000000000
  0
LINE
  5
59
100
AcDbEntity
  8
4
  6
CENTER
 62
1
100
AcDbLine
 10
21.96811400000000
 20
45.23658000000000
 30
0.000000000000000
 11
14.96811400000000
 21
45.23658000000000
 31
0.000000000000000
  0
LINE
  5
5A
100
AcDbEntity
  8
4
  6
CENTER
 62
1
100
AcDbLine
 10
21.96811400000000
 20
80.23658000000002
 30
0.000000000000000
 11
14.96811400000000
 21
80.23658000000002
 31
0.000000000000000
  0
LINE
  5
5B
100
AcDbEntity
  8
1
  6
CONTINUOUS
 62
7
100
AcDbLine
 10
76.84551399999998
 20
149.2208800000000
 30
0.000000000000000
 11
76.84551399999998
 21
141.2208799999999
 31
0.000000000000000
  0
LINE
  5
5C
100
AcDbEntity
  8
1
  6
CONTINUOUS
 62
7
100
AcDbLine
 10
76.84551399999998
 20
149.2208800000000
 30
0.000000000000000
 11
84.84551399999999
 21
149.2208800000000
 31
0.000000000000000
  0
LINE
  5
5D
100
AcDbEntity
  8
1
  6
CONTINUOUS
 62
7
100
AcDbLine
 10
76.84551399999998
 20
141.2208799999999
 30
0.000000000000000
 11
84.84551399999999
 21
141.2208799999999
 31
0.000000000000000
  0
LINE
  5
5E
100
AcDbEntity
  8
4
  6
CENTER
 62
1
100
AcDbLine
 10
74.84551399999998
 20
145.2208800000000
 30
0.000000000000000
 11
90.84581400000000
 21
145.2208800000000
 31
0.000000000000000
  0
LINE
  5
5F
100
AcDbEntity
  8
1
  6
CONTINUOUS
 62
7
100
AcDbLine
 10
82.40031399999997
 20
146.9598799999999
 30
0.000000000000000
 11
86.58361399999998
 21
142.7758800000000
 31
0.000000000000000
  0
LINE
  5
60
100
AcDbEntity
  8
1
  6
CONTINUOUS
 62
7
100
AcDbLine
 10
83.10741400000003
 20
147.6668799999998
 30
0.000000000000000
 11
87.29071399999997
 21
143.4828800000000
 31
0.000000000000000
  0
LINE
  5
61
100
AcDbEntity
  8
1
  6
CONTINUOUS
 62
7
100
AcDbLine
 10
88.84551399999997
 20
76.03658000000000
 30
0.000000000000000
 11
78.84551399999998
 21
76.03658000000000
 31
0.000000000000000
  0
LINE
  5
62
100
AcDbEntity
  8
1
  6
CONTINUOUS
 62
7
100
AcDbLine
 10
88.84551399999997
 20
49.43658000000000
 30
0.000000000000000
 11
78.84551399999998
 21
49.43658000000000
 31
0.000000000000000
  0
LINE
  5
63
100
AcDbEntity
  8
1
  6
CONTINUOUS
 62
7
100
AcDbLine
 10
22.46811399999999
 20
41.23657999999998
 30
0.000000000000000
 11
14.46811400000000
 21
41.23657999999998
 31
0.000000000000000
  0
LINE
  5
64
100
AcDbEntity
  8
1
  6
CONTINUOUS
 62
7
100
AcDbLine
 10
22.46811399999999
 20
84.23688000000000
 30
0.000000000000000
 11
14.46811400000000
 21
84.23688000000000
 31
0.000000000000000
  0
LINE
  5
65
100
AcDbEntity
  8
1
  6
CONTINUOUS
 62
7
100
AcDbLine
 10
78.84551399999998
 20
84.23688000000000
 30
0.000000000000000
 11
76.84551399999998
 21
84.23688000000000
 31
0.000000000000000
  0
LINE
  5
66
100
AcDbEntity
  8
1
  6
CONTINUOUS
 62
7
100
AcDbLine
 10
78.84551399999998
 20
41.23657999999998
 30
0.000000000000000
 11
76.84551399999998
 21
41.23657999999998
 31
0.000000000000000
  0
LINE
  5
67
100
AcDbEntity
  8
1
  6
CONTINUOUS
 62
7
100
AcDbLine
 10
78.84551399999998
 20
84.23688000000000
 30
0.000000000000000
 11
78.84551399999998
 21
76.03658000000000
 31
0.000000000000000
  0
LINE
  5
68
100
AcDbEntity
  8
1
  6
CONTINUOUS
 62
7
100
AcDbLine
 10
78.84551399999998
 20
49.43658000000000
 30
0.000000000000000
 11
78.84551399999998
 21
41.23657999999998
 31
0.000000000000000
  0
LINE
  5
69
100
AcDbEntity
  8
1
  6
CONTINUOUS
 62
7
100
AcDbLine
 10
88.84551399999997
 20
76.03658000000000
 30
0.000000000000000
 11
88.84551399999997
 21
66.03658000000000
 31
0.000000000000000
  0
LINE
  5
6A
100
AcDbEntity
  8
1
  6
CONTINUOUS
 62
7
100
AcDbLine
 10
88.84551399999997
 20
59.43658000000000
 30
0.000000000000000
 11
88.84551399999997
 21
49.43658000000000
 31
0.000000000000000
  0
LINE
  5
6B
100
AcDbEntity
  8
1
  6
CONTINUOUS
 62
7
100
AcDbLine
 10
299.1328140000000
 20
74.73658000000000
 30
0.000000000000000
 11
299.1328140000000
 21
50.73658000000000
 31
0.000000000000000
  0
LINE
  5
6C
100
AcDbEntity
  8
1
  6
CONTINUOUS
 62
7
100
AcDbLine
 10
223.2558140000000
 20
50.73658000000000
 30
0.000000000000000
 11
230.2558139999999
 21
50.73658000000000
 31
0.000000000000000
  0
LINE
  5
6D
100
AcDbEntity
  8
1
  6
CONTINUOUS
 62
7
100
AcDbLine
 10
223.2558140000000
 20
74.73658000000000
 30
0.000000000000000
 11
230.2558139999999
 21
74.73658000000000
 31
0.000000000000000
  0
LINE
  5
6E
100
AcDbEntity
  8
1
  6
CONTINUOUS
 62
7
100
AcDbLine
 10
230.2558139999999
 20
50.73658000000000
 30
0.000000000000000
 11
230.2558139999999
 21
74.73658000000000
 31
0.000000000000000
  0
LINE
  5
6F
100
AcDbEntity
  8
1
  6
CONTINUOUS
 62
7
100
AcDbLine
 10
223.2558140000000
 20
50.73658000000000
 30
0.000000000000000
 11
223.2558140000000
 21
74.73658000000000
 31
0.000000000000000
  0
LINE
  5
70
100
AcDbEntity
  8
4
  6
CENTER
 62
1
100
AcDbLine
 10
221.2558140000000
 20
62.73658000000001
 30
0.000000000000000
 11
232.2558139999999
 21
62.73658000000001
 31
0.000000000000000
  0
LINE
  5
71
100
AcDbEntity
  8
4
  6
CENTER
 62
1
100
AcDbLine
 10
226.7558139999999
 20
48.73657999999998
 30
0.000000000000000
 11
226.7558139999999
 21
76.73658000000000
 31
0.000000000000000
  0
LINE
  5
72
100
AcDbEntity
  8
4
  6
CENTER
 62
1
100
AcDbLine
 10
221.9558140000000
 20
70.73658000000000
 30
0.000000000000000
 11
231.5558140000000
 21
70.73658000000000
 31
0.000000000000000
  0
LINE
  5
73
100
AcDbEntity
  8
4
  6
CENTER
 62
1
100
AcDbLine
 10
221.9558140000000
 20
54.73658000000000
 30
0.000000000000000
 11
231.5558140000000
 21
54.73658000000000
 31
0.000000000000000
  0
LINE
  5
74
100
AcDbEntity
  8
1
  6
CONTINUOUS
 62
7
100
AcDbLine
 10
223.2558140000000
 20
60.08658000000000
 30
0.000000000000000
 11
230.2558139999999
 21
60.08658000000000
 31
0.000000000000000
  0
LINE
  5
75
100
AcDbEntity
  8
1
  6
CONTINUOUS
 62
7
100
AcDbLine
 10
223.2558140000000
 20
65.38658000000001
 30
0.000000000000000
 11
230.2558139999999
 21
65.38658000000001
 31
0.000000000000000
  0
LINE
  5
76
100
AcDbEntity
  8
4
  6
CENTER
 62
1
100
AcDbLine
 10
285.9828140000000
 20
62.73658000000001
 30
0.000000000000000
 11
301.7828139999999
 21
62.73658000000001
 31
0.000000000000000
  0
LINE
  5
77
100
AcDbEntity
  8
4
  6
CENTER
 62
1
100
AcDbLine
 10
354.9558139999998
 20
54.73658000000000
 30
0.000000000000000
 11
364.5558139999999
 21
54.73658000000000
 31
0.000000000000000
  0
LINE
  5
78
100
AcDbEntity
  8
4
  6
CENTER
 62
1
100
AcDbLine
 10
354.9558139999998
 20
70.73658000000000
 30
0.000000000000000
 11
364.5558139999999
 21
70.73658000000000
 31
0.000000000000000
  0
LINE
  5
79
100
AcDbEntity
  8
1
  6
CONTINUOUS
 62
7
100
AcDbLine
 10
356.2558140000000
 20
50.73658000000000
 30
0.000000000000000
 11
363.2558139999999
 21
50.73658000000000
 31
0.000000000000000
  0
LINE
  5
7A
100
AcDbEntity
  8
1
  6
CONTINUOUS
 62
7
100
AcDbLine
 10
356.2558140000000
 20
74.73658000000000
 30
0.000000000000000
 11
363.2558139999999
 21
74.73658000000000
 31
0.000000000000000
  0
LINE
  5
7B
100
AcDbEntity
  8
1
  6
CONTINUOUS
 62
7
100
AcDbLine
 10
356.2558140000000
 20
50.73658000000000
 30
0.000000000000000
 11
356.2558140000000
 21
74.73658000000000
 31
0.000000000000000
  0
LINE
  5
7C
100
AcDbEntity
  8
4
  6
CENTER
 62
1
100
AcDbLine
 10
359.7558139999999
 20
48.73657999999998
 30
0.000000000000000
 11
359.7558139999999
 21
76.73658000000000
 31
0.000000000000000
  0
LINE
  5
7D
100
AcDbEntity
  8
1
  6
CONTINUOUS
 62
7
100
AcDbLine
 10
363.2558139999999
 20
50.73658000000000
 30
0.000000000000000
 11
363.2558139999999
 21
74.73658000000000
 31
0.000000000000000
  0
LINE
  5
7E
100
AcDbEntity
  8
4
  6
CENTER
 62
1
100
AcDbLine
 10
354.2558140000000
 20
62.73658000000001
 30
0.000000000000000
 11
365.2558140000000
 21
62.73658000000001
 31
0.000000000000000
  0
LINE
  5
7F
100
AcDbEntity
  8
4
  6
CENTER
 62
1
100
AcDbLine
 10
80.84551399999998
 20
45.23658000000000
 30
0.000000000000000
 11
74.84551399999998
 21
45.23658000000000
 31
0.000000000000000
  0
LINE
  5
80
100
AcDbEntity
  8
4
  6
CENTER
 62
1
100
AcDbLine
 10
80.84551399999998
 20
80.23658000000002
 30
0.000000000000000
 11
74.84551399999998
 21
80.23658000000002
 31
0.000000000000000
  0
LINE
  5
81
100
AcDbEntity
  8
1
  6
CONTINUOUS
 62
7
100
AcDbLine
 10
297.1328140000000
 20
74.73658000000000
 30
0.000000000000000
 11
297.1328140000000
 21
67.48658000000000
 31
0.000000000000000
  0
LINE
  5
82
100
AcDbEntity
  8
1
  6
CONTINUOUS
 62
7
100
AcDbLine
 10
297.1328140000000
 20
74.73658000000000
 30
0.000000000000000
 11
299.1328140000000
 21
74.73658000000000
 31
0.000000000000000
  0
LINE
  5
83
100
AcDbEntity
  8
1
  6
CONTINUOUS
 62
7
100
AcDbLine
 10
297.1328140000000
 20
50.73658000000000
 30
0.000000000000000
 11
299.1328140000000
 21
50.73658000000000
 31
0.000000000000000
  0
LINE
  5
84
100
AcDbEntity
  8
1
  6
CONTINUOUS
 62
7
100
AcDbLine
 10
290.3688139999998
 20
65.33318000000000
 30
0.000000000000000
 11
293.4078140000000
 21
64.57568000000001
 31
0.000000000000000
  0
LINE
  5
85
100
AcDbEntity
  8
1
  6
CONTINUOUS
 62
7
100
AcDbLine
 10
290.3688139999999
 20
60.14008000000000
 30
0.000000000000000
 11
293.4078140000000
 21
60.89757999999999
 31
0.000000000000000
  0
LINE
  5
86
100
AcDbEntity
  8
1
  6
CONTINUOUS
 62
7
100
AcDbLine
 10
297.1328140000000
 20
57.98657999999999
 30
0.000000000000000
 11
297.1328140000000
 21
50.73658000000000
 31
0.000000000000000
  0
LINE
  5
87
100
AcDbEntity
  8
4
  6
CENTER
 62
1
100
AcDbLine
 10
154.9678139999998
 20
80.23658000000002
 30
0.000000000000000
 11
147.9678139999998
 21
80.23658000000002
 31
0.000000000000000
  0
LINE
  5
88
100
AcDbEntity
  8
4
  6
CENTER
 62
1
100
AcDbLine
 10
157.4678139999998
 20
62.73658000000001
 30
0.000000000000000
 11
145.4678139999998
 21
62.73658000000001
 31
0.000000000000000
  0
LINE
  5
89
100
AcDbEntity
  8
4
  6
CENTER
 62
1
100
AcDbLine
 10
151.4678139999998
 20
39.23657999999999
 30
0.000000000000000
 11
151.4678139999998
 21
86.23687999999999
 31
0.000000000000000
  0
LINE
  5
8A
100
AcDbEntity
  8
4
  6
CENTER
 62
1
100
AcDbLine
 10
154.9678139999998
 20
45.23658000000000
 30
0.000000000000000
 11
147.9678139999998
 21
45.23658000000000
 31
0.000000000000000
  0
LINE
  5
8B
100
AcDbEntity
  8
1
  6
CONTINUOUS
 62
7
100
AcDbLine
 10
147.4678139999998
 20
84.23688000000000
 30
0.000000000000000
 11
147.4678139999998
 21
41.23657999999998
 31
0.000000000000000
  0
LINE
  5
8C
100
AcDbEntity
  8
1
  6
CONTINUOUS
 62
7
100
AcDbLine
 10
155.4678139999998
 20
84.23688000000000
 30
0.000000000000000
 11
155.4678139999998
 21
41.23657999999998
 31
0.000000000000000
  0
LINE
  5
8D
100
AcDbEntity
  8
1
  6
CONTINUOUS
 62
7
100
AcDbLine
 10
155.4678139999998
 20
41.23657999999998
 30
0.000000000000000
 11
147.4678139999998
 21
41.23657999999998
 31
0.000000000000000
  0
LINE
  5
8E
100
AcDbEntity
  8
1
  6
CONTINUOUS
 62
7
100
AcDbLine
 10
155.4678139999998
 20
84.23688000000000
 30
0.000000000000000
 11
147.4678139999998
 21
84.23688000000000
 31
0.000000000000000
  0
LINE
  5
8F
100
AcDbEntity
  8
1
  6
CONTINUOUS
 62
7
100
AcDbLine
 10
155.4678139999998
 20
49.43658000000000
 30
0.000000000000000
 11
147.4678139999998
 21
49.43658000000000
 31
0.000000000000000
  0
LINE
  5
90
100
AcDbEntity
  8
1
  6
CONTINUOUS
 62
7
100
AcDbLine
 10
155.4678139999998
 20
76.03658000000000
 30
0.000000000000000
 11
147.4678139999998
 21
76.03658000000000
 31
0.000000000000000
  0
LINE
  5
91
100
AcDbEntity
  8
1
  6
CONTINUOUS
 62
7
100
AcDbLine
 10
155.4678139999998
 20
66.03658000000000
 30
0.000000000000000
 11
147.4678139999998
 21
66.03658000000000
 31
0.000000000000000
  0
LINE
  5
92
100
AcDbEntity
  8
1
  6
CONTINUOUS
 62
7
100
AcDbLine
 10
155.4678139999998
 20
59.43658000000000
 30
0.000000000000000
 11
147.4678139999998
 21
59.43658000000000
 31
0.000000000000000
  0
LINE
  5
93
100
AcDbEntity
  8
1
  6
CONTINUOUS
 62
7
100
AcDbLine
 10
288.1328139999999
 20
61.88658000000000
 30
0.000000000000000
 11
288.1328139999999
 21
63.58658000000001
 31
0.000000000000000
  0
LINE
  5
94
100
AcDbEntity
  8
1
  6
CONTINUOUS
 62
7
100
AcDbLine
 10
78.84551399999998
 20
149.2208800000000
 30
0.000000000000000
 11
78.84551399999998
 21
141.2208799999999
 31
0.000000000000000
  0
LINE
  5
95
100
AcDbEntity
  8
1
  6
CONTINUOUS
 62
7
100
AcDbLine
 10
288.1328139999999
 20
141.7208800000000
 30
0.000000000000000
 11
288.1328139999999
 21
148.7208799999999
 31
0.000000000000000
  0
LINE
  5
96
100
AcDbEntity
  8
1
  6
CONTINUOUS
 62
7
100
AcDbLine
 10
299.1328140000000
 20
141.7208800000000
 30
0.000000000000000
 11
299.1328140000000
 21
148.7208799999999
 31
0.000000000000000
  0
LINE
  5
97
100
AcDbEntity
  8
1
  6
CONTINUOUS
 62
7
100
AcDbLine
 10
288.1328139999999
 20
141.7208800000000
 30
0.000000000000000
 11
299.1328140000000
 21
141.7208800000000
 31
0.000000000000000
  0
LINE
  5
98
100
AcDbEntity
  8
1
  6
CONTINUOUS
 62
7
100
AcDbLine
 10
288.1328139999999
 20
148.7208799999999
 30
0.000000000000000
 11
299.1328140000000
 21
148.7208799999999
 31
0.000000000000000
  0
LINE
  5
99
100
AcDbEntity
  8
1
  6
CONTINUOUS
 62
7
100
AcDbLine
 10
297.1328140000000
 20
141.7208800000000
 30
0.000000000000000
 11
297.1328140000000
 21
148.7208799999999
 31
0.000000000000000
  0
LINE
  5
9A
100
AcDbEntity
  8
1
  6
CONTINUOUS
 62
7
100
AcDbLine
 10
295.7108140000000
 20
142.4708799999999
 30
0.000000000000000
 11
295.7108140000000
 21
147.9708800000000
 31
0.000000000000000
  0
LINE
  5
9B
100
AcDbEntity
  8
4
  6
CENTER
 62
1
100
AcDbLine
 10
84.84551399999999
 20
62.23658000000000
 30
0.000000000000000
 11
84.84551399999999
 21
58.43658000000002
 31
0.000000000000000
  0
LINE
  5
9C
100
AcDbEntity
  8
4
  6
CENTER
 62
1
100
AcDbLine
 10
84.84551399999999
 20
63.23658000000000
 30
0.000000000000000
 11
84.84551399999999
 21
67.03658000000000
 31
0.000000000000000
  0
LINE
  5
9D
100
AcDbEntity
  8
4
  6
CENTER
 62
1
100
AcDbLine
 10
295.1328140000000
 20
70.73658000000000
 30
0.000000000000000
 11
301.1328139999998
 21
70.73658000000000
 31
0.000000000000000
  0
LINE
  5
9E
100
AcDbEntity
  8
4
  6
CENTER
 62
1
100
AcDbLine
 10
295.1328140000000
 20
54.73658000000000
 30
0.000000000000000
 11
301.1328139999998
 21
54.73658000000000
 31
0.000000000000000
  0
LINE
  5
9F
100
AcDbEntity
  8
4
  6
CENTER
 62
1
100
AcDbLine
 10
84.84551399999999
 20
151.2208799999999
 30
0.000000000000000
 11
84.84551399999999
 21
139.2208799999999
 31
0.000000000000000
  0
LINE
  5
A0
100
AcDbEntity
  8
1
  6
CONTINUOUS
 62
7
100
AcDbLine
 10
154.9678139999998
 20
60.73658000000000
 30
0.000000000000000
 11
154.9678139999998
 21
64.73658000000000
 31
0.000000000000000
  0
LINE
  5
A1
100
AcDbEntity
  8
1
  6
CONTINUOUS
 62
7
100
AcDbLine
 10
147.9678139999998
 20
60.73658000000000
 30
0.000000000000000
 11
147.9678139999998
 21
64.73658000000000
 31
0.000000000000000
  0
LINE
  5
A2
100
AcDbEntity
  8
1
  6
CONTINUOUS
 62
7
100
AcDbLine
 10
154.9678139999998
 20
64.73658000000000
 30
0.000000000000000
 11
153.0578139999998
 21
64.73658000000000
 31
0.000000000000000
  0
LINE
  5
A3
100
AcDbEntity
  8
1
  6
CONTINUOUS
 62
7
100
AcDbLine
 10
154.9678139999998
 20
60.73658000000000
 30
0.000000000000000
 11
153.0578139999998
 21
60.73658000000000
 31
0.000000000000000
  0
LINE
  5
A4
100
AcDbEntity
  8
1
  6
CONTINUOUS
 62
7
100
AcDbLine
 10
149.8778139999998
 20
64.73658000000000
 30
0.000000000000000
 11
147.9678139999998
 21
64.73658000000000
 31
0.000000000000000
  0
LINE
  5
A5
100
AcDbEntity
  8
1
  6
CONTINUOUS
 62
7
100
AcDbLine
 10
149.8778139999998
 20
60.73658000000000
 30
0.000000000000000
 11
147.9678139999998
 21
60.73658000000000
 31
0.000000000000000
  0
ARC
  5
A6
100
AcDbEntity
  8
1
  6
CONTINUOUS
 62
7
100
AcDbCircle
 10
84.84551399999999
 20
58.45857999999999
 30
0.000000000000000
 40
2.778000000000000
100
AcDbArc
 50
20.61290000000000
 51
159.3870000000000
  0
ARC
  5
A7
100
AcDbEntity
  8
1
  6
CONTINUOUS
 62
7
100
AcDbCircle
 10
84.84551399999999
 20
67.01458000000001
 30
0.000000000000000
 40
2.778000000000000
100
AcDbArc
 50
200.6130000000000
 51
339.3869999999998
  0
ARC
  5
A8
100
AcDbEntity
  8
1
  6
CONTINUOUS
 62
7
100
AcDbCircle
 10
84.84551399999999
 20
145.2208800000000
 30
0.000000000000000
 40
4.000000000000000
100
AcDbArc
 50
270.0000000000000
 51
450.0000000000000
  0
CIRCLE
  5
A9
100
AcDbEntity
  8
1
  6
CONTINUOUS
 62
7
100
AcDbCircle
 10
84.84551399999999
 20
145.2208800000000
 30
0.000000000000000
 40
3.000000000000000
  0
CIRCLE
  5
AA
100
AcDbEntity
  8
1
  6
CONTINUOUS
 62
7
100
AcDbCircle
 10
18.46811399999999
 20
80.23658000000002
 30
0.000000000000000
 40
1.399999999999999
  0
CIRCLE
  5
AB
100
AcDbEntity
  8
1
  6
CONTINUOUS
 62
7
100
AcDbCircle
 10
18.46811399999999
 20
45.23658000000000
 30
0.000000000000000
 40
1.399999999999999
  0
CIRCLE
  5
AC
100
AcDbEntity
  8
1
  6
CONTINUOUS
 62
7
100
AcDbCircle
 10
226.7558139999999
 20
70.73658000000000
 30
0.000000000000000
 40
2.799999999999998
  0
CIRCLE
  5
AD
100
AcDbEntity
  8
1
  6
CONTINUOUS
 62
7
100
AcDbCircle
 10
226.7558139999999
 20
54.73658000000000
 30
0.000000000000000
 40
2.799999999999998
  0
ARC
  5
AE
100
AcDbEntity
  8
1
  6
CONTINUOUS
 62
7
100
AcDbCircle
 10
289.9328140000000
 20
63.58658000000001
 30
0.000000000000000
 40
1.800000000000000
100
AcDbArc
 50
76.00409999999998
 51
180.0000000000000
  0
ARC
  5
AF
100
AcDbEntity
  8
1
  6
CONTINUOUS
 62
7
100
AcDbCircle
 10
294.1328139999999
 20
67.48658000000000
 30
0.000000000000000
 40
3.000000000000000
100
AcDbArc
 50
256.0040000000000
 51
360.0000000000000
  0
ARC
  5
B0
100
AcDbEntity
  8
1
  6
CONTINUOUS
 62
7
100
AcDbCircle
 10
294.1328139999999
 20
57.98657999999999
 30
0.000000000000000
 40
3.000000000000000
100
AcDbArc
 50
0.000000000000000
 51
103.9960000000000
  0
ARC
  5
B1
100
AcDbEntity
  8
1
  6
CONTINUOUS
 62
7
100
AcDbCircle
 10
289.9328140000000
 20
61.88658000000000
 30
0.000000000000000
 40
1.800000000000000
100
AcDbArc
 50
180.0000000000000
 51
283.9959999999999
  0
CIRCLE
  5
B2
100
AcDbEntity
  8
1
  6
CONTINUOUS
 62
7
100
AcDbCircle
 10
151.4678139999998
 20
80.23658000000002
 30
0.000000000000000
 40
1.399999999999999
  0
CIRCLE
  5
B3
100
AcDbEntity
  8
1
  6
CONTINUOUS
 62
7
100
AcDbCircle
 10
151.4678139999998
 20
45.23658000000000
 30
0.000000000000000
 40
1.399999999999999
  0
CIRCLE
  5
B4
100
AcDbEntity
  8
1
  6
CONTINUOUS
 62
7
100
AcDbCircle
 10
151.4678139999998
 20
45.23658000000000
 30
0.000000000000000
 40
2.799999999999998
  0
CIRCLE
  5
B5
100
AcDbEntity
  8
1
  6
CONTINUOUS
 62
7
100
AcDbCircle
 10
151.4678139999998
 20
80.23658000000002
 30
0.000000000000000
 40
2.799999999999998
  0
ARC
  5
B6
100
AcDbEntity
  8
1
  6
CONTINUOUS
 62
7
100
AcDbCircle
 10
151.4678139999998
 20
58.45857999999999
 30
0.000000000000000
 40
2.778000000000000
100
AcDbArc
 50
20.61290000000000
 51
159.3870000000000
  0
ARC
  5
B7
100
AcDbEntity
  8
1
  6
CONTINUOUS
 62
7
100
AcDbCircle
 10
151.4678139999998
 20
67.01458000000001
 30
0.000000000000000
 40
2.778000000000000
100
AcDbArc
 50
200.6130000000000
 51
339.3869999999998
  0
CIRCLE
  5
B8
100
AcDbEntity
  8
1
  6
CONTINUOUS
 62
7
100
AcDbCircle
 10
226.7558139999999
 20
70.73658000000000
 30
0.000000000000000
 40
1.399999999999999
  0
CIRCLE
  5
B9
100
AcDbEntity
  8
1
  6
CONTINUOUS
 62
7
100
AcDbCircle
 10
226.7558139999999
 20
54.73658000000000
 30
0.000000000000000
 40
1.399999999999999
  0
CIRCLE
  5
BA
100
AcDbEntity
  8
1
  6
CONTINUOUS
 62
7
100
AcDbCircle
 10
359.7558139999999
 20
70.73658000000000
 30
0.000000000000000
 40
1.399999999999999
  0
CIRCLE
  5
BB
100
AcDbEntity
  8
1
  6
CONTINUOUS
 62
7
100
AcDbCircle
 10
359.7558139999999
 20
54.73658000000000
 30
0.000000000000000
 40
1.399999999999999
  0
ARC
  5
BC
100
AcDbEntity
  8
1
  6
CONTINUOUS
 62
7
100
AcDbCircle
 10
151.4678139999998
 20
65.53627200000000
 30
0.000000000000000
 40
4.299698000000000
100
AcDbArc
 50
234.4619999999999
 51
305.5379999999999
  0
ARC
  5
BD
100
AcDbEntity
  8
1
  6
CONTINUOUS
 62
7
100
AcDbCircle
 10
151.4678139999998
 20
59.93688699999999
 30
0.000000000000000
 40
4.299698000000000
100
AcDbArc
 50
54.46200000000001
 51
125.5376999999999
  0
LINE
  5
BE
100
AcDbEntity
  8
1
  6
CONTINUOUS
 62
7
100
AcDbLine
 10
152.3014629999998
 20
63.13682599999999
 30
0.000000000000000
 11
152.3014629999998
 21
63.67747900000001
 31
0.000000000000000
  0
LINE
  5
BF
100
AcDbEntity
  8
1
  6
CONTINUOUS
 62
7
100
AcDbLine
 10
152.3014629999998
 20
62.73691800000000
 30
0.000000000000000
 11
152.1350030000000
 21
62.73691800000000
 31
0.000000000000000
  0
ARC
  5
C0
100
AcDbEntity
  8
1
  6
CONTINUOUS
 62
7
100
AcDbCircle
 10
152.1350030000000
 20
63.67747900000001
 30
0.000000000000000
 40
0.1666960000000000
100
AcDbArc
 50
0.000000000000000
 51
79.89600000000000
  0
ARC
  5
C1
100
AcDbEntity
  8
1
  6
CONTINUOUS
 62
7
100
AcDbCircle
 10
151.4678139999998
 20
59.93688699999999
 30
0.000000000000000
 40
3.966394000000000
100
AcDbArc
 50
79.89600000000000
 51
82.20700000000001
  0
ARC
  5
C2
100
AcDbEntity
  8
1
  6
CONTINUOUS
 62
7
100
AcDbCircle
 10
152.0017010000000
 20
63.83378800000000
 30
0.000000000000000
 40
0.03333900000000000
100
AcDbArc
 50
82.20700000000001
 51
180.0000000000000
  0
ARC
  5
C3
100
AcDbEntity
  8
1
  6
CONTINUOUS
 62
7
100
AcDbCircle
 10
152.1350030000000
 20
61.79567999999999
 30
0.000000000000000
 40
0.1666960000000000
100
AcDbArc
 50
280.1040000000000
 51
360.0000000000000
  0
ARC
  5
C4
100
AcDbEntity
  8
1
  6
CONTINUOUS
 62
7
100
AcDbCircle
 10
152.0017010000000
 20
61.63937100000000
 30
0.000000000000000
 40
0.03333900000000000
100
AcDbArc
 50
180.0000000000000
 51
277.7930000000001
  0
ARC
  5
C5
100
AcDbEntity
  8
1
  6
CONTINUOUS
 62
7
100
AcDbCircle
 10
151.4678139999998
 20
65.53627200000000
 30
0.000000000000000
 40
3.966394000000000
100
AcDbArc
 50
277.7930000000001
 51
280.1040000000000
  0
LINE
  5
C6
100
AcDbEntity
  8
1
  6
CONTINUOUS
 62
7
100
AcDbLine
 10
151.6349500000000
 20
63.89942399999998
 30
0.000000000000000
 11
151.6349500000000
 21
61.57373500000000
 31
0.000000000000000
  0
LINE
  5
C7
100
AcDbEntity
  8
1
  6
CONTINUOUS
 62
7
100
AcDbLine
 10
151.9678679999999
 20
63.83378800000000
 30
0.000000000000000
 11
151.9678679999999
 21
61.63937100000000
 31
0.000000000000000
  0
LINE
  5
C8
100
AcDbEntity
  8
1
  6
CONTINUOUS
 62
7
100
AcDbLine
 10
152.3014629999998
 20
61.79567999999999
 30
0.000000000000000
 11
152.3014629999998
 21
62.73691800000000
 31
0.000000000000000
  0
LINE
  5
C9
100
AcDbEntity
  8
1
  6
CONTINUOUS
 62
7
100
AcDbLine
 10
149.3018170000000
 20
63.65108900000000
 30
0.000000000000000
 11
149.3018170000000
 21
62.21385800000000
 31
0.000000000000000
  0
LINE
  5
CA
100
AcDbEntity
  8
1
  6
CONTINUOUS
 62
7
100
AcDbLine
 10
149.6347350000000
 20
62.12183100000000
 30
0.000000000000000
 11
149.6347350000000
 21
63.35132800000000
 31
0.000000000000000
  0
LINE
  5
CB
100
AcDbEntity
  8
1
  6
CONTINUOUS
 62
7
100
AcDbLine
 10
149.9683290000000
 20
63.55906300000000
 30
0.000000000000000
 11
149.9683290000000
 21
61.91477299999998
 31
0.000000000000000
  0
LINE
  5
CC
100
AcDbEntity
  8
1
  6
CONTINUOUS
 62
7
100
AcDbLine
 10
150.6348419999999
 20
63.13682599999999
 30
0.000000000000000
 11
150.6348419999999
 21
63.77288899999999
 31
0.000000000000000
  0
LINE
  5
CD
100
AcDbEntity
  8
1
  6
CONTINUOUS
 62
7
100
AcDbLine
 10
151.3013550000000
 20
62.73691800000000
 30
0.000000000000000
 11
150.9684369999999
 21
62.73691800000000
 31
0.000000000000000
  0
ARC
  5
CE
100
AcDbEntity
  8
1
  6
CONTINUOUS
 62
7
100
AcDbCircle
 10
149.4682760000000
 20
62.73691800000000
 30
0.000000000000000
 40
0.8589900000000000
100
AcDbArc
 50
125.5376999999999
 51
166.5373999999999
  0
ARC
  5
CF
100
AcDbEntity
  8
1
  6
CONTINUOUS
 62
7
100
AcDbCircle
 10
149.4682760000000
 20
62.73691800000000
 30
0.000000000000000
 40
0.8589900000000000
100
AcDbArc
 50
180.0000000000000
 51
234.4619999999999
  0
ARC
  5
D0
100
AcDbEntity
  8
1
  6
CONTINUOUS
 62
7
100
AcDbCircle
 10
149.8018700000000
 20
63.35132800000000
 30
0.000000000000000
 40
0.1666960000000000
100
AcDbArc
 50
116.0144000000000
 51
180.0000000000000
  0
ARC
  5
D1
100
AcDbEntity
  8
1
  6
CONTINUOUS
 62
7
100
AcDbCircle
 10
151.4678139999998
 20
59.93688699999999
 30
0.000000000000000
 40
3.966394000000000
100
AcDbArc
 50
112.9439999999999
 51
116.0144000000000
  0
ARC
  5
D2
100
AcDbEntity
  8
1
  6
CONTINUOUS
 62
7
100
AcDbCircle
 10
149.9351729999998
 20
63.55906300000000
 30
0.000000000000000
 40
0.03333900000000000
100
AcDbArc
 50
0.000000000000000
 51
112.9439999999999
  0
ARC
  5
D3
100
AcDbEntity
  8
1
  6
CONTINUOUS
 62
7
100
AcDbCircle
 10
149.8018700000000
 20
62.12183100000000
 30
0.000000000000000
 40
0.1666960000000000
100
AcDbArc
 50
180.0000000000000
 51
243.9859999999999
  0
ARC
  5
D4
100
AcDbEntity
  8
1
  6
CONTINUOUS
 62
7
100
AcDbCircle
 10
150.6016860000000
 20
63.77288899999999
 30
0.000000000000000
 40
0.03333900000000000
100
AcDbArc
 50
0.000000000000000
 51
102.7288999999999
  0
ARC
  5
D5
100
AcDbEntity
  8
1
  6
CONTINUOUS
 62
7
100
AcDbCircle
 10
151.4678139999998
 20
59.93688699999999
 30
0.000000000000000
 40
3.966394000000000
100
AcDbArc
 50
102.7288999999999
 51
103.2680999999999
  0
ARC
  5
D6
100
AcDbEntity
  8
1
  6
CONTINUOUS
 62
7
100
AcDbCircle
 10
151.4678139999998
 20
59.93688699999999
 30
0.000000000000000
 40
3.966394000000000
100
AcDbArc
 50
103.2680999999999
 51
105.2575000000000
  0
ARC
  5
D7
100
AcDbEntity
  8
1
  6
CONTINUOUS
 62
7
100
AcDbCircle
 10
150.4683829999999
 20
63.60236999999999
 30
0.000000000000000
 40
0.1666960000000000
100
AcDbArc
 50
105.2575000000000
 51
180.0000000000000
  0
ARC
  5
D8
100
AcDbEntity
  8
1
  6
CONTINUOUS
 62
7
100
AcDbCircle
 10
150.4683829999999
 20
61.87079000000000
 30
0.000000000000000
 40
0.1666960000000000
100
AcDbArc
 50
180.0000000000000
 51
254.7419999999999
  0
ARC
  5
D9
100
AcDbEntity
  8
1
  6
CONTINUOUS
 62
7
100
AcDbCircle
 10
151.4678139999998
 20
65.53627200000000
 30
0.000000000000000
 40
3.966394000000000
100
AcDbArc
 50
254.7419999999999
 51
254.7940000000000
  0
ARC
  5
DA
100
AcDbEntity
  8
1
  6
CONTINUOUS
 62
7
100
AcDbCircle
 10
151.4678139999998
 20
65.53627200000000
 30
0.000000000000000
 40
3.966394000000000
100
AcDbArc
 50
254.7940000000000
 51
257.2709999999998
  0
ARC
  5
DB
100
AcDbEntity
  8
1
  6
CONTINUOUS
 62
7
100
AcDbCircle
 10
150.6016860000000
 20
61.70027099999999
 30
0.000000000000000
 40
0.03333900000000000
100
AcDbArc
 50
257.2709999999998
 51
360.0000000000000
  0
LINE
  5
DC
100
AcDbEntity
  8
1
  6
CONTINUOUS
 62
7
100
AcDbLine
 10
150.3012469999999
 20
63.60236999999999
 30
0.000000000000000
 11
150.3012469999999
 21
61.87079000000000
 31
0.000000000000000
  0
LINE
  5
DD
100
AcDbEntity
  8
1
  6
CONTINUOUS
 62
7
100
AcDbLine
 10
150.6348419999999
 20
61.70027099999999
 30
0.000000000000000
 11
150.6348419999999
 21
62.33700999999999
 31
0.000000000000000
  0
LINE
  5
DE
100
AcDbEntity
  8
1
  6
CONTINUOUS
 62
7
100
AcDbLine
 10
150.9684369999999
 20
63.87168100000000
 30
0.000000000000000
 11
150.9684369999999
 21
61.60147800000000
 31
0.000000000000000
  0
LINE
  5
DF
100
AcDbEntity
  8
1
  6
CONTINUOUS
 62
7
100
AcDbLine
 10
151.3013550000000
 20
63.89942399999998
 30
0.000000000000000
 11
151.3013550000000
 21
61.57373500000000
 31
0.000000000000000
  0
ARC
  5
E0
100
AcDbEntity
  8
1
  6
CONTINUOUS
 62
7
100
AcDbCircle
 10
149.9351729999998
 20
61.91477299999998
 30
0.000000000000000
 40
0.03333900000000000
100
AcDbArc
 50
247.0559999999999
 51
360.0000000000000
  0
ARC
  5
E1
100
AcDbEntity
  8
1
  6
CONTINUOUS
 62
7
100
AcDbCircle
 10
151.4678139999998
 20
65.53627200000000
 30
0.000000000000000
 40
3.966394000000000
100
AcDbArc
 50
243.9859999999999
 51
247.0559999999999
  0
LINE
  5
E2
100
AcDbEntity
  8
1
  6
CONTINUOUS
 62
7
100
AcDbLine
 10
152.9679749999999
 20
63.67544900000000
 30
0.000000000000000
 11
152.9679749999999
 21
62.90337700000000
 31
0.000000000000000
  0
LINE
  5
E3
100
AcDbEntity
  8
1
  6
CONTINUOUS
 62
7
100
AcDbLine
 10
153.3015699999999
 20
62.90337700000000
 30
0.000000000000000
 11
153.3015699999999
 21
63.61522600000000
 31
0.000000000000000
  0
LINE
  5
E4
100
AcDbEntity
  8
1
  6
CONTINUOUS
 62
7
100
AcDbLine
 10
153.1344339999999
 20
62.73691800000000
 30
0.000000000000000
 11
153.1344339999999
 21
61.93710300000000
 31
0.000000000000000
  0
LINE
  5
E5
100
AcDbEntity
  8
1
  6
CONTINUOUS
 62
7
100
AcDbLine
 10
153.4707359999999
 20
62.11303500000000
 30
0.000000000000000
 11
153.8476369999999
 21
63.51778700000002
 31
0.000000000000000
  0
LINE
  5
E6
100
AcDbEntity
  8
1
  6
CONTINUOUS
 62
7
100
AcDbLine
 10
154.3267139999999
 20
62.73691800000000
 30
0.000000000000000
 11
153.6378709999999
 21
62.73691800000000
 31
0.000000000000000
  0
ARC
  5
E7
100
AcDbEntity
  8
1
  6
CONTINUOUS
 62
7
100
AcDbCircle
 10
153.1344339999999
 20
62.90337700000000
 30
0.000000000000000
 40
0.1666960000000000
100
AcDbArc
 50
180.0000000000000
 51
360.0000000000000
  0
ARC
  5
E8
100
AcDbEntity
  8
1
  6
CONTINUOUS
 62
7
100
AcDbCircle
 10
153.4680290000000
 20
62.73691800000000
 30
0.000000000000000
 40
0.8589900000000000
100
AcDbArc
 50
332.2500000000000
 51
414.4620000000000
  0
ARC
  5
E9
100
AcDbEntity
  8
1
  6
CONTINUOUS
 62
7
100
AcDbCircle
 10
153.4680290000000
 20
62.73691800000000
 30
0.000000000000000
 40
0.8589900000000000
100
AcDbArc
 50
305.5379999999999
 51
315.6990000000000
  0
LINE
  5
EA
100
AcDbEntity
  8
1
  6
CONTINUOUS
 62
7
100
AcDbLine
 10
152.6343810000000
 20
63.83243499999998
 30
0.000000000000000
 11
152.6343810000000
 21
61.74560699999999
 31
0.000000000000000
  0
LINE
  5
EB
100
AcDbEntity
  8
4
  6
CENTER
 62
1
100
AcDbLine
 10
285.9828140000000
 20
145.2208800000000
 30
0.000000000000000
 11
301.7828139999999
 21
145.2208800000000
 31
0.000000000000000
  0
LINE
  5
EC
100
AcDbEntity
  8
1
  6
CONTINUOUS
 62
7
100
AcDbLine
 10
79.34551399999997
 20
66.03657999999997
 30
0.000000000000000
 11
78.84551399999997
 21
65.53657999999997
 31
0.000000000000000
  0
LINE
  5
ED
100
AcDbEntity
  8
1
  6
CONTINUOUS
 62
7
100
AcDbLine
 10
78.84551399999998
 20
59.93657999999999
 30
0.000000000000000
 11
79.34551399999998
 21
59.43658000000000
 31
0.000000000000000
  0
ENDSEC
  0
SECTION
  2
OBJECTS
  0
DICTIONARY
  5
116
100
AcDbDictionary
  3
ACAD_GROUP
350
117
  3
ACAD_LAYOUT
350
118
  3
ACAD_MLINESTYLE
350
119
  0
DICTIONARY
  5
117
102
{ACAD_REACTORS
330
116
102
}
330
116
100
AcDbDictionary
  0
DICTIONARY
  5
118
102
{ACAD_REACTORS
330
116
102
}
330
116
100
AcDbDictionary
  3
Model
350
11A
  3
ﾚｲｱｳﾄ1
350
11B
  3
ﾚｲｱｳﾄ2
350
11C
  0
DICTIONARY
  5
119
102
{ACAD_REACTORS
330
116
102
}
330
116
100
AcDbDictionary
  3
STANDARD
350
11D
  0
LAYOUT
  5
11A
102
{ACAD_REACTORS
330
118
102
}
330
118
100
AcDbPlotSettings
 70
11952
  4
A3
 44
297.000000
 45
420.000000
 73
  1
 72
  1
100
AcDbLayout
  1
Model
 71
0
330
10D
  0
LAYOUT
  5
11B
102
{ACAD_REACTORS
330
118
102
}
330
118
100
AcDbPlotSettings
100
AcDbLayout
  1
ﾚｲｱｳﾄ1
 71
1
330
10E
  0
LAYOUT
  5
11C
102
{ACAD_REACTORS
330
118
102
}
330
118
100
AcDbPlotSettings
100
AcDbLayout
  1
ﾚｲｱｳﾄ2
 71
2
330
10F
  0
MLINESTYLE
  5
11D
102
{ACAD_REACTORS
330
119
102
}
330
119
100
AcDbMlineStyle
  2
STANDARD
 70
     0
  3

 62
   256
 51
90.00
 52
90.00
 71
     2
 49
0.50
 62
   256
  6
BYLAYER
 49
-0.50
 62
   256
  6
BYLAYER
  0
ENDSEC
  0
EOF
