  0
SECTION
  2
HEADER
  9
$ACADVER
  1
AC1015
  9
$DWGCODEPAGE
  3
ANSI_932
  9
$LTSCALE
 40
20.0
  9
$FILLMODE
 70
     1
  9
$CLAYER
  8
0
  9
$PDMODE
 70
     0
  9
$SPLFRAME
 70
     0
  9
$SPLINETYPE
 70
     6
  9
$SPLINESEGS
 70
     8
  9
$DIMASZ
 40
2.000000
  9
$DIMEXE
 40
1.500000
  9
$DIMEXO
 40
0.800000
  9
$DIMTAD
 70
     1
  9
$DIMTIH
 70
     0
  9
$DIMTOH
 70
     0
  9
$DIMTVP
 40
0.500000
  9
$DIMTXT
 40
3.100000
  9
$EXTMIN
 10
0.000000
 20
0.000000
 30
0.000000
  9
$EXTMAX
 10
297.000000
 20
420.000000
 30
0.000000
  9
$MEASUREMENT
 70
  1
  9
$LIMMIN
 10
0.000000
 20
0.000000
  9
$LIMMAX
 10
297.000000
 20
420.000000
  9
$HANDSEED
  5
35C
  9
$LWDISPLAY
290
     0
  9
$DIMBLK
  1
_OPEN
  9
$DIMDEC
 70
     2
  9
$DIMADEC
 70
     2
  9
$DIMAUNIT
 70
     0
  9
$DIMZIN
 70
     8
  9
$DIMAZIN
 70
     2
  9
$DIMTOFL
 70
     1
  0
ENDSEC
  0
SECTION
  2
CLASSES
  0
ENDSEC
  0
SECTION
  2
TABLES
  0
TABLE
  2
VPORT
  5
328
100
AcDbSymbolTable
 70
     1
  0
VPORT
  5
329
100
AcDbSymbolTableRecord
100
AcDbViewportTableRecord
  2
*ACTIVE
 70
     0
 12
210.000000
 22
147.007551
 40
291.419539
 41
1.963149
  0
ENDTAB
  0
TABLE
  2
LTYPE
  5
32A
100
AcDbSymbolTable
 70
     2
  0
LTYPE
  5
32B
100
AcDbSymbolTableRecord
100
AcDbLinetypeTableRecord
  2
BYBLOCK
 70
     0
  3

 72
    65
 73
     0
 40
0.0
  0
LTYPE
  5
32C
100
AcDbSymbolTableRecord
100
AcDbLinetypeTableRecord
  2
BYLAYER
 70
     0
  3

 72
    65
 73
     0
 40
0.0
  0
LTYPE
  5
32D
100
AcDbSymbolTableRecord
100
AcDbLinetypeTableRecord
  2
CONTINUOUS
 70
     0
  3
Solid line (NEC CAE2D for Win R15.2 : 2019.12.25)
 72
    65
 73
     0
 40
0.0
  0
LTYPE
  5
32E
100
AcDbSymbolTableRecord
100
AcDbLinetypeTableRecord
  2
CENTER
 70
     0
  3
____ _ ____ _ ____ _ ____ _ ____ _ ____
 72
    65
 73
     4
 40
2.0
 49
1.25
 74
     0
 49
-0.25
 74
     0
 49
0.25
 74
     0
 49
-0.25
 74
     0
  0
ENDTAB
  0
TABLE
  2
LAYER
  5
32F
100
AcDbSymbolTable
 70
    14
  0
LAYER
  5
330
100
AcDbSymbolTableRecord
100
AcDbLayerTableRecord
  2
0
 70
     0
 62
     7
  6
CONTINUOUS
370
    -3
390

  0
LAYER
  5
331
100
AcDbSymbolTableRecord
100
AcDbLayerTableRecord
  2
A0
 70
     0
 62
     9
  6
CONTINUOUS
370
    -3
390

  0
LAYER
  5
332
100
AcDbSymbolTableRecord
100
AcDbLayerTableRecord
  2
A2
 70
     0
 62
     9
  6
CONTINUOUS
370
    -3
390

  0
LAYER
  5
333
100
AcDbSymbolTableRecord
100
AcDbLayerTableRecord
  2
A3
 70
     0
 62
    12
  6
CONTINUOUS
370
    -3
390

  0
LAYER
  5
334
100
AcDbSymbolTableRecord
100
AcDbLayerTableRecord
  2
A4
 70
     0
 62
     9
  6
CONTINUOUS
370
    -3
390

  0
LAYER
  5
335
100
AcDbSymbolTableRecord
100
AcDbLayerTableRecord
  2
A5
 70
     0
 62
     8
  6
CONTINUOUS
370
    -3
390

  0
LAYER
  5
336
100
AcDbSymbolTableRecord
100
AcDbLayerTableRecord
  2
A6
 70
     0
 62
    12
  6
CONTINUOUS
370
    -3
390

  0
LAYER
  5
337
100
AcDbSymbolTableRecord
100
AcDbLayerTableRecord
  2
A8
 70
     0
 62
    10
  6
CONTINUOUS
370
    -3
390

  0
LAYER
  5
338
100
AcDbSymbolTableRecord
100
AcDbLayerTableRecord
  2
A10
 70
     0
 62
     6
  6
CONTINUOUS
370
    -3
390

  0
LAYER
  5
339
100
AcDbSymbolTableRecord
100
AcDbLayerTableRecord
  2
A20
 70
     0
 62
     1
  6
CONTINUOUS
370
    -3
390

  0
LAYER
  5
33A
100
AcDbSymbolTableRecord
100
AcDbLayerTableRecord
  2
A30
 70
     0
 62
     1
  6
CONTINUOUS
370
    -3
390

  0
LAYER
  5
33B
100
AcDbSymbolTableRecord
100
AcDbLayerTableRecord
  2
A40
 70
     0
 62
     9
  6
CONTINUOUS
370
    -3
390

  0
LAYER
  5
33C
100
AcDbSymbolTableRecord
100
AcDbLayerTableRecord
  2
A50
 70
     0
 62
    12
  6
CONTINUOUS
370
    -3
390

  0
LAYER
  5
33D
100
AcDbSymbolTableRecord
100
AcDbLayerTableRecord
  2
A1023
 70
     0
 62
    16
  6
CONTINUOUS
370
    -3
390

  0
ENDTAB
  0
TABLE
  2
STYLE
  5
33E
100
AcDbSymbolTable
 70
     4
  0
STYLE
  5
33F
100
AcDbSymbolTableRecord
100
AcDbTextStyleTableRecord
  2
STANDARD
 70
    64
 40
0.0
 41
1.0
 50
0.0
 71
     0
 42
3.000000000000000
  3
TXT
  4

  0
STYLE
  5
340
100
AcDbSymbolTableRecord
100
AcDbTextStyleTableRecord
  2
ANKTATE
 70
    68
 40
0.0
 41
1.0
 50
0.0
 71
     0
 42
3.000000000000000
  3
TXT
  4

  0
STYLE
  5
341
100
AcDbSymbolTableRecord
100
AcDbTextStyleTableRecord
  2
KNJYOKO
 70
    64
 40
0.0
 41
1.0
 50
0.0
 71
     0
 42
3.000000000000000
  3
TXT
  4
BIGFONT
  0
STYLE
  5
342
100
AcDbSymbolTableRecord
100
AcDbTextStyleTableRecord
  2
KNJTATE
 70
    68
 40
0.0
 41
1.0
 50
0.0
 71
     0
 42
3.000000000000000
  3
TXT
  4
BIGFONT
  0
ENDTAB
  0
TABLE
  2
VIEW
  5
343
100
AcDbSymbolTable
 70
     0
  0
ENDTAB
  0
TABLE
  2
UCS
  5
344
100
AcDbSymbolTable
 70
     0
  0
ENDTAB
  0
TABLE
  2
APPID
  5
345
100
AcDbSymbolTable
 70
     1
  0
APPID
  5
346
100
AcDbSymbolTableRecord
100
AcDbRegAppTableRecord
  2
ACAD
 70
     0
  0
ENDTAB
  0
TABLE
  2
DIMSTYLE
  5
347
100
AcDbSymbolTable
 70
     2
100
AcDbDimStyleTable
  0
DIMSTYLE
105
348
100
AcDbSymbolTableRecord
100
AcDbDimStyleTableRecord
  2
STANDARD
 70
     0
 41
2.000000
 44
1.500000
 42
0.800000
145
0.661290
140
3.100000
144
1.000000
146
0.645161
340
33F
  0
DIMSTYLE
105
349
100
AcDbSymbolTableRecord
100
AcDbDimStyleTableRecord
  2
A001
 70
     0
 41
2.000000
 44
1.500000
 42
0.800000
145
0.661290
140
3.100000
144
1.000000
146
0.645161
 77
     1
 73
     0
 74
     0
271
     2
179
     2
275
     0
 78
     8
 79
     2
172
     1
340
33F
  0
ENDTAB
  0
TABLE
  2
BLOCK_RECORD
  5
34A
100
AcDbSymbolTable
 70
    12
  0
BLOCK_RECORD
  5
34B
100
AcDbSymbolTableRecord
100
AcDbBlockTableRecord
  2
*MODEL_SPACE
  0
BLOCK_RECORD
  5
34C
100
AcDbSymbolTableRecord
100
AcDbBlockTableRecord
  2
*PAPER_SPACE
  0
BLOCK_RECORD
  5
34D
100
AcDbSymbolTableRecord
100
AcDbBlockTableRecord
  2
*PAPER_SPACE0
  0
BLOCK_RECORD
  5
1
100
AcDbSymbolTableRecord
100
AcDbBlockTableRecord
  2
_NONE
  0
BLOCK_RECORD
  5
4
100
AcDbSymbolTableRecord
100
AcDbBlockTableRecord
  2
_CLOSED
  0
BLOCK_RECORD
  5
B
100
AcDbSymbolTableRecord
100
AcDbBlockTableRecord
  2
_DOT
  0
BLOCK_RECORD
  5
13
100
AcDbSymbolTableRecord
100
AcDbBlockTableRecord
  2
_OPEN
  0
BLOCK_RECORD
  5
19
100
AcDbSymbolTableRecord
100
AcDbBlockTableRecord
  2
_ORIGIN
  0
BLOCK_RECORD
  5
1E
100
AcDbSymbolTableRecord
100
AcDbBlockTableRecord
  2
_OPEN30
  0
BLOCK_RECORD
  5
24
100
AcDbSymbolTableRecord
100
AcDbBlockTableRecord
  2
_BOXFILLED
  0
BLOCK_RECORD
  5
29
100
AcDbSymbolTableRecord
100
AcDbBlockTableRecord
  2
_BOXBLANK
  0
BLOCK_RECORD
  5
31
100
AcDbSymbolTableRecord
100
AcDbBlockTableRecord
  2
_OBLIQUE
  0
BLOCK_RECORD
  5
35
100
AcDbSymbolTableRecord
100
AcDbBlockTableRecord
  2
_OPEN90
  0
BLOCK_RECORD
  5
3B
100
AcDbSymbolTableRecord
100
AcDbBlockTableRecord
  2
_CLOSEDBLANK
  0
BLOCK_RECORD
  5
41
100
AcDbSymbolTableRecord
100
AcDbBlockTableRecord
  2
_DOTBLANK
  0
ENDTAB
  0
ENDSEC
  0
SECTION
  2
BLOCKS
  0
BLOCK
  5
34E
100
AcDbEntity
  8
0
100
AcDbBlockBegin
  2
*MODEL_SPACE
 70
     0
 10
0.0
 20
0.0
 30
0.0
  3
*MODEL_SPACE
  1

  0
ENDBLK
  5
34F
100
AcDbEntity
  8
0
100
AcDbBlockEnd
  0
BLOCK
  5
350
100
AcDbEntity
  8
0
100
AcDbBlockBegin
  2
*PAPER_SPACE
 70
     0
 10
0.0
 20
0.0
 30
0.0
  3
*PAPER_SPACE
  1

  0
ENDBLK
  5
351
100
AcDbEntity
  8
0
100
AcDbBlockEnd
  0
BLOCK
  5
352
100
AcDbEntity
  8
0
100
AcDbBlockBegin
  2
*PAPER_SPACE0
 70
     0
 10
0.0
 20
0.0
 30
0.0
  3
*PAPER_SPACE0
  1

  0
ENDBLK
  5
353
100
AcDbEntity
  8
0
100
AcDbBlockEnd
  0
BLOCK
  5
2
330
1
100
AcDbEntity
  8
0
100
AcDbBlockBegin
  2
_NONE
 70
     0
 10
0.0
 20
0.0
 30
0.0
  3
_NONE
  1

  0
ENDBLK
  5
3
330
1
100
AcDbEntity
  8
0
100
AcDbBlockEnd
  0
BLOCK
  5
5
330
4
100
AcDbEntity
  8
0
100
AcDbBlockBegin
  2
_CLOSED
 70
     0
 10
0.0
 20
0.0
 30
0.0
  3
_CLOSED
  1

  0
LINE
  5
6
330
4
100
AcDbEntity
  8
0
  6
BYBLOCK
 62
     0
370
    -2
100
AcDbLine
 10
-1.0
 20
0.166667
 30
0.0
 11
0.0
 21
0.0
 31
0.0
  0
LINE
  5
7
330
4
100
AcDbEntity
  8
0
  6
BYBLOCK
 62
     0
370
    -2
100
AcDbLine
 10
0.0
 20
0.0
 30
0.0
 11
-1.0
 21
-0.166667
 31
0.0
  0
LINE
  5
8
330
4
100
AcDbEntity
  8
0
  6
BYBLOCK
 62
     0
370
    -2
100
AcDbLine
 10
-1.0
 20
0.166667
 30
0.0
 11
-1.0
 21
-0.166667
 31
0.0
  0
LINE
  5
9
330
4
100
AcDbEntity
  8
0
  6
BYBLOCK
 62
     0
370
    -2
100
AcDbLine
 10
0.0
 20
0.0
 30
0.0
 11
-1.0
 21
0.0
 31
0.0
  0
ENDBLK
  5
A
330
4
100
AcDbEntity
  8
0
100
AcDbBlockEnd
  0
BLOCK
  5
C
330
B
100
AcDbEntity
  8
0
100
AcDbBlockBegin
  2
_DOT
 70
     0
 10
0.0
 20
0.0
 30
0.0
  3
_DOT
  1

  0
POLYLINE
  5
D
330
B
100
AcDbEntity
  8
0
  6
BYBLOCK
 62
     0
370
    -2
100
AcDb2dPolyline
 66
     1
 10
0.0
 20
0.0
 30
0.0
 70
     1
 40
0.5
 41
0.5
  0
VERTEX
  5
E
330
B
100
AcDbEntity
  8
0
  6
BYBLOCK
 62
     0
370
    -2
100
AcDbVertex
100
AcDb2dVertex
 10
-0.25
 20
0.0
 30
0.0
 42
1.0
  0
VERTEX
  5
F
330
B
100
AcDbEntity
  8
0
  6
BYBLOCK
 62
     0
370
    -2
100
AcDbVertex
100
AcDb2dVertex
 10
0.25
 20
0.0
 30
0.0
 42
1.0
  0
SEQEND
  5
10
330
B
100
AcDbEntity
  8
0
  6
BYBLOCK
 62
     0
370
    -2
  0
LINE
  5
11
330
B
100
AcDbEntity
  8
0
  6
BYBLOCK
 62
     0
370
    -2
100
AcDbLine
 10
-0.5
 20
0.0
 30
0.0
 11
-1.0
 21
0.0
 31
0.0
  0
ENDBLK
  5
12
330
B
100
AcDbEntity
  8
0
100
AcDbBlockEnd
  0
BLOCK
  5
14
330
13
100
AcDbEntity
  8
0
100
AcDbBlockBegin
  2
_OPEN
 70
     0
 10
0.0
 20
0.0
 30
0.0
  3
_OPEN
  1

  0
LINE
  5
15
330
13
100
AcDbEntity
  8
0
  6
BYBLOCK
 62
     0
370
    -2
100
AcDbLine
 10
-1.0
 20
0.166667
 30
0.0
 11
0.0
 21
0.0
 31
0.0
  0
LINE
  5
16
330
13
100
AcDbEntity
  8
0
  6
BYBLOCK
 62
     0
370
    -2
100
AcDbLine
 10
0.0
 20
0.0
 30
0.0
 11
-1.0
 21
-0.166667
 31
0.0
  0
LINE
  5
17
330
13
100
AcDbEntity
  8
0
  6
BYBLOCK
 62
     0
370
    -2
100
AcDbLine
 10
0.0
 20
0.0
 30
0.0
 11
-1.0
 21
0.0
 31
0.0
  0
ENDBLK
  5
18
330
13
100
AcDbEntity
  8
0
100
AcDbBlockEnd
  0
BLOCK
  5
1A
330
19
100
AcDbEntity
  8
0
100
AcDbBlockBegin
  2
_ORIGIN
 70
     0
 10
0.0
 20
0.0
 30
0.0
  3
_ORIGIN
  1

  0
CIRCLE
  5
1B
330
19
100
AcDbEntity
  8
0
  6
BYBLOCK
 62
     0
370
    -2
100
AcDbCircle
 10
0.0
 20
0.0
 30
0.0
 40
0.5
  0
LINE
  5
1C
330
19
100
AcDbEntity
  8
0
  6
BYBLOCK
 62
     0
370
    -2
100
AcDbLine
 10
0.0
 20
0.0
 30
0.0
 11
-1.0
 21
0.0
 31
0.0
  0
ENDBLK
  5
1D
330
19
100
AcDbEntity
  8
0
100
AcDbBlockEnd
  0
BLOCK
  5
1F
330
1E
100
AcDbEntity
  8
0
100
AcDbBlockBegin
  2
_OPEN30
 70
     0
 10
0.0
 20
0.0
 30
0.0
  3
_OPEN30
  1

  0
LINE
  5
20
330
1E
100
AcDbEntity
  8
0
  6
BYBLOCK
 62
     0
370
    -2
100
AcDbLine
 10
-1.0
 20
0.267949
 30
0.0
 11
0.0
 21
0.0
 31
0.0
  0
LINE
  5
21
330
1E
100
AcDbEntity
  8
0
  6
BYBLOCK
 62
     0
370
    -2
100
AcDbLine
 10
0.0
 20
0.0
 30
0.0
 11
-1.0
 21
-0.267949
 31
0.0
  0
LINE
  5
22
330
1E
100
AcDbEntity
  8
0
  6
BYBLOCK
 62
     0
370
    -2
100
AcDbLine
 10
0.0
 20
0.0
 30
0.0
 11
-1.0
 21
0.0
 31
0.0
  0
ENDBLK
  5
23
330
1E
100
AcDbEntity
  8
0
100
AcDbBlockEnd
  0
BLOCK
  5
25
330
24
100
AcDbEntity
  8
0
100
AcDbBlockBegin
  2
_BOXFILLED
 70
     0
 10
0.0
 20
0.0
 30
0.0
  3
_BOXFILLED
  1

  0
SOLID
  5
26
330
24
100
AcDbEntity
  8
0
  6
BYBLOCK
 62
     0
370
    -2
100
AcDbTrace
 10
-0.5
 20
0.5
 30
0.0
 11
0.5
 21
0.5
 31
0.0
 12
-0.5
 22
-0.5
 32
0.0
 13
0.5
 23
-0.5
 33
0.0
  0
LINE
  5
27
330
24
100
AcDbEntity
  8
0
  6
BYBLOCK
 62
     0
370
    -2
100
AcDbLine
 10
-0.5
 20
0.0
 30
0.0
 11
-1.0
 21
0.0
 31
0.0
  0
ENDBLK
  5
28
330
24
100
AcDbEntity
  8
0
100
AcDbBlockEnd
  0
BLOCK
  5
2A
330
29
100
AcDbEntity
  8
0
100
AcDbBlockBegin
  2
_BOXBLANK
 70
     0
 10
0.0
 20
0.0
 30
0.0
  3
_BOXBLANK
  1

  0
LINE
  5
2B
330
29
100
AcDbEntity
  8
0
  6
BYBLOCK
 62
     0
370
    -2
100
AcDbLine
 10
-0.5
 20
-0.5
 30
0.0
 11
0.5
 21
-0.5
 31
0.0
  0
LINE
  5
2C
330
29
100
AcDbEntity
  8
0
  6
BYBLOCK
 62
     0
370
    -2
100
AcDbLine
 10
0.5
 20
-0.5
 30
0.0
 11
0.5
 21
0.5
 31
0.0
  0
LINE
  5
2D
330
29
100
AcDbEntity
  8
0
  6
BYBLOCK
 62
     0
370
    -2
100
AcDbLine
 10
0.5
 20
0.5
 30
0.0
 11
-0.5
 21
0.5
 31
0.0
  0
LINE
  5
2E
330
29
100
AcDbEntity
  8
0
  6
BYBLOCK
 62
     0
370
    -2
100
AcDbLine
 10
-0.5
 20
0.5
 30
0.0
 11
-0.5
 21
-0.5
 31
0.0
  0
LINE
  5
2F
330
29
100
AcDbEntity
  8
0
  6
BYBLOCK
 62
     0
370
    -2
100
AcDbLine
 10
-0.5
 20
0.0
 30
0.0
 11
-1.0
 21
0.0
 31
0.0
  0
ENDBLK
  5
30
330
29
100
AcDbEntity
  8
0
100
AcDbBlockEnd
  0
BLOCK
  5
32
330
31
100
AcDbEntity
  8
0
100
AcDbBlockBegin
  2
_OBLIQUE
 70
     0
 10
0.0
 20
0.0
 30
0.0
  3
_OBLIQUE
  1

  0
LINE
  5
33
330
31
100
AcDbEntity
  8
0
  6
BYBLOCK
 62
     0
370
    -2
100
AcDbLine
 10
-0.5
 20
-0.5
 30
0.0
 11
0.5
 21
0.5
 31
0.0
  0
ENDBLK
  5
34
330
31
100
AcDbEntity
  8
0
100
AcDbBlockEnd
  0
BLOCK
  5
36
330
35
100
AcDbEntity
  8
0
100
AcDbBlockBegin
  2
_OPEN90
 70
     0
 10
0.0
 20
0.0
 30
0.0
  3
_OPEN90
  1

  0
LINE
  5
37
330
35
100
AcDbEntity
  8
0
  6
BYBLOCK
 62
     0
370
    -2
100
AcDbLine
 10
-0.5
 20
0.5
 30
0.0
 11
0.0
 21
0.0
 31
0.0
  0
LINE
  5
38
330
35
100
AcDbEntity
  8
0
  6
BYBLOCK
 62
     0
370
    -2
100
AcDbLine
 10
0.0
 20
0.0
 30
0.0
 11
-0.5
 21
-0.5
 31
0.0
  0
LINE
  5
39
330
35
100
AcDbEntity
  8
0
  6
BYBLOCK
 62
     0
370
    -2
100
AcDbLine
 10
0.0
 20
0.0
 30
0.0
 11
-1.0
 21
0.0
 31
0.0
  0
ENDBLK
  5
3A
330
35
100
AcDbEntity
  8
0
100
AcDbBlockEnd
  0
BLOCK
  5
3C
330
3B
100
AcDbEntity
  8
0
100
AcDbBlockBegin
  2
_CLOSEDBLANK
 70
     0
 10
0.0
 20
0.0
 30
0.0
  3
_CLOSEDBLANK
  1

  0
LINE
  5
3D
330
3B
100
AcDbEntity
  8
0
  6
BYBLOCK
 62
     0
370
    -2
100
AcDbLine
 10
-1.0
 20
0.1666666666666666
 30
0.0
 11
0.0
 21
0.0
 31
0.0
  0
LINE
  5
3E
330
3B
100
AcDbEntity
  8
0
  6
BYBLOCK
 62
     0
370
    -2
100
AcDbLine
 10
0.0
 20
0.0
 30
0.0
 11
-1.0
 21
-0.1666666666666666
 31
0.0
  0
LINE
  5
3F
330
3B
100
AcDbEntity
  8
0
  6
BYBLOCK
 62
     0
370
    -2
100
AcDbLine
 10
-1.0
 20
0.1666666666666666
 30
0.0
 11
-1.0
 21
-0.1666666666666666
 31
0.0
  0
ENDBLK
  5
40
330
3B
100
AcDbEntity
  8
0
100
AcDbBlockEnd
  0
BLOCK
  5
42
330
41
100
AcDbEntity
  8
0
100
AcDbBlockBegin
  2
_DOTBLANK
 70
     0
 10
0.0
 20
0.0
 30
0.0
  3
_DOTBLANK
  1

  0
CIRCLE
  5
43
330
41
100
AcDbEntity
  8
0
  6
BYBLOCK
 62
     0
370
    -2
100
AcDbCircle
 10
0.0
 20
0.0
 30
0.0
 40
0.5
  0
LINE
  5
44
330
41
100
AcDbEntity
  8
0
  6
BYBLOCK
 62
     0
370
    -2
100
AcDbLine
 10
-0.5
 20
0.0
 30
0.0
 11
-1.0
 21
0.0
 31
0.0
  0
ENDBLK
  5
45
330
41
100
AcDbEntity
  8
0
100
AcDbBlockEnd
  0
ENDSEC
  0
SECTION
  2
ENTITIES
  0
MTEXT
  5
46
100
AcDbEntity
  8
A8
  6
CONTINUOUS
 62
7
100
AcDbMText
 10
9.999997526638502
 20
18.00000076076889
 30
0.0000000000000000
 40
3.000000000000000
 41
0.0000000000000000
 44
0.6739999771118164
 71
     7
 72
     1
  1
{\H0.93x;{TYPE No.TL-435-R}}
 11
1.000000000000000
 21
0.0000000000000000
 31
0.0000000000000000
  7
STANDARD
  0
POINT
  5
47
100
AcDbEntity
  8
A0
  6
CONTINUOUS
 62
5
100
AcDbPoint
 10
9.999997526638502
 20
18.00000076076889
 30
0.0000000000000000
  0
LINE
  5
48
100
AcDbEntity
  8
A2
  6
CONTINUOUS
 62
7
100
AcDbLine
 10
239.9000000000000
 20
103.6491470389050
 30
0.0000000000000000
 11
239.9000000000000
 21
116.3508529610749
 31
0.0000000000000000
  0
LINE
  5
49
100
AcDbEntity
  8
A2
  6
CONTINUOUS
 62
7
100
AcDbLine
 10
239.9000000000100
 20
116.3508529610809
 30
0.0000000000000000
 11
228.9000000000100
 21
122.7017059221658
 31
0.0000000000000000
  0
LINE
  5
4A
100
AcDbEntity
  8
A2
  6
CONTINUOUS
 62
7
100
AcDbLine
 10
228.9000000000100
 20
122.7017059221769
 30
0.0000000000000000
 11
217.9000000000099
 21
116.3508529610919
 31
0.0000000000000000
  0
LINE
  5
4B
100
AcDbEntity
  8
A2
  6
CONTINUOUS
 62
7
100
AcDbLine
 10
217.8999999999900
 20
103.6491470389190
 30
0.0000000000000000
 11
228.8999999999901
 21
97.29829407783403
 31
0.0000000000000000
  0
LINE
  5
4C
100
AcDbEntity
  8
A2
  6
CONTINUOUS
 62
7
100
AcDbLine
 10
228.8999999999899
 20
97.29829407782400
 30
0.0000000000000000
 11
239.8999999999900
 21
103.6491470389090
 31
0.0000000000000000
  0
CIRCLE
  5
4D
100
AcDbEntity
  8
A2
  6
CONTINUOUS
 62
7
100
AcDbCircle
 10
228.9000000000000
 20
110.0000000000000
 30
0.0000000000000000
 40
11.00000000000000
  0
LINE
  5
4E
100
AcDbEntity
  8
A2
  6
CONTINUOUS
 62
7
100
AcDbLine
 10
217.9000000000000
 20
116.3508529610949
 30
0.0000000000000000
 11
217.9000000000000
 21
103.6491470389260
 31
0.0000000000000000
  0
ARC
  5
4F
100
AcDbEntity
  8
A6
  6
CONTINUOUS
 62
7
100
AcDbCircle
 10
228.9000000002000
 20
110.0000000003800
 30
0.0000000000000000
 40
3.500000000000000
100
AcDbArc
 50
140.4823472030600
 51
219.5176527973998
  0
ARC
  5
50
100
AcDbEntity
  8
A6
  6
CONTINUOUS
 62
7
100
AcDbCircle
 10
228.9000000002000
 20
110.0000000003700
 30
0.0000000000000000
 40
3.500000000000000
100
AcDbArc
 50
320.4823472028000
 51
399.5176527970360
  0
CIRCLE
  5
51
100
AcDbEntity
  8
A6
  6
CONTINUOUS
 62
7
100
AcDbCircle
 10
228.9000000002000
 20
110.0000000003599
 30
0.0000000000000000
 40
6.499999999999900
  0
ARC
  5
52
100
AcDbEntity
  8
A6
  6
CONTINUOUS
 62
7
100
AcDbCircle
 10
231.6260175592000
 20
103.4441760042399
 30
0.0000000000000000
 40
0.3000000000001100
100
AcDbArc
 50
24.99999999839500
 51
112.5783305751000
  0
ARC
  5
53
100
AcDbEntity
  8
A6
  6
CONTINUOUS
 62
7
100
AcDbCircle
 10
228.9000000002000
 20
110.0000000003599
 30
0.0000000000000000
 40
6.799999999999900
100
AcDbArc
 50
157.4216693869700
 51
292.5783306130200
  0
ARC
  5
54
100
AcDbEntity
  8
A6
  6
CONTINUOUS
 62
7
100
AcDbCircle
 10
222.3441760043000
 20
112.7260175595000
 30
0.0000000000000000
 40
0.3000000000000000
100
AcDbArc
 50
337.4216693877700
 51
425.0000000191410
  0
LINE
  5
55
100
AcDbEntity
  8
A6
  6
CONTINUOUS
 62
7
100
AcDbLine
 10
221.2011834056000
 20
113.5900171371601
 30
0.0000000000000000
 11
222.4709614827000
 21
112.9979098956501
 31
0.0000000000000000
  0
ARC
  5
56
100
AcDbEntity
  8
A6
  6
CONTINUOUS
 62
7
100
AcDbCircle
 10
221.3279688837999
 20
113.8619094734199
 30
0.0000000000000000
 40
0.2999999999999900
100
AcDbArc
 50
152.9773759445200
 51
245.0000000679600
  0
ARC
  5
57
100
AcDbEntity
  8
A6
  6
CONTINUOUS
 62
7
100
AcDbCircle
 10
228.9000000002000
 20
110.0000000003499
 30
0.0000000000000000
 40
8.799999999999800
100
AcDbArc
 50
117.5801992035200
 51
152.9773759468600
  0
LINE
  5
58
100
AcDbEntity
  8
A6
  6
CONTINUOUS
 62
7
100
AcDbLine
 10
232.9743097576999
 20
117.8000000003600
 30
0.0000000000000000
 11
224.8256902427000
 21
117.8000000003600
 31
0.0000000000000000
  0
ARC
  5
59
100
AcDbEntity
  8
A6
  6
CONTINUOUS
 62
7
100
AcDbCircle
 10
228.9000000002000
 20
110.0000000003700
 30
0.0000000000000000
 40
8.800000000000100
100
AcDbArc
 50
27.58019920352400
 51
62.41980079633400
  0
LINE
  5
5A
100
AcDbEntity
  8
A6
  6
CONTINUOUS
 62
7
100
AcDbLine
 10
236.7000000002000
 20
105.9256902428700
 30
0.0000000000000000
 11
236.7000000002000
 21
114.0743097578500
 31
0.0000000000000000
  0
ARC
  5
5B
100
AcDbEntity
  8
A6
  6
CONTINUOUS
 62
7
100
AcDbCircle
 10
228.9000000002000
 20
110.0000000003499
 30
0.0000000000000000
 40
8.800000000000200
100
AcDbArc
 50
297.0226240531000
 51
332.4198007964600
  0
ARC
  5
5C
100
AcDbEntity
  8
A6
  6
CONTINUOUS
 62
7
100
AcDbCircle
 10
232.7619094729000
 20
102.4279688841700
 30
0.0000000000000000
 40
0.3000000000002100
100
AcDbArc
 50
204.9999999984700
 51
297.0226240963400
  0
LINE
  5
5D
100
AcDbEntity
  8
A6
  6
CONTINUOUS
 62
7
100
AcDbLine
 10
231.8979098954999
 20
103.5709614828399
 30
0.0000000000000000
 11
232.4900171369999
 21
102.3011834057500
 31
0.0000000000000000
  0
CIRCLE
  5
5E
100
AcDbEntity
  8
A6
  6
CONTINUOUS
 62
7
100
AcDbCircle
 10
228.9000000002000
 20
110.0000000003599
 30
0.0000000000000000
 40
2.500000000000000
  0
ARC
  5
5F
100
AcDbEntity
  8
A6
  6
CONTINUOUS
 62
7
100
AcDbCircle
 10
228.9000000002000
 20
110.0000000003499
 30
0.0000000000000000
 40
3.499999999999800
100
AcDbArc
 50
39.51765279719200
 51
140.4823472027200
  0
LINE
  5
60
100
AcDbEntity
  8
A6
  6
CONTINUOUS
 62
7
100
AcDbLine
 10
231.6000000001999
 20
112.2271057454900
 30
0.0000000000000000
 11
231.6000000001999
 21
111.7261641068600
 31
0.0000000000000000
  0
LINE
  5
61
100
AcDbEntity
  8
A6
  6
CONTINUOUS
 62
7
100
AcDbLine
 10
231.6000000001999
 20
111.7261641068600
 30
0.0000000000000000
 11
231.6000000001999
 21
111.1970856489700
 31
0.0000000000000000
  0
LINE
  5
62
100
AcDbEntity
  8
A6
  6
CONTINUOUS
 62
7
100
AcDbLine
 10
231.6000000001999
 20
111.1970856489700
 30
0.0000000000000000
 11
231.6000000001999
 21
110.7430787318100
 31
0.0000000000000000
  0
LINE
  5
63
100
AcDbEntity
  8
A6
  6
CONTINUOUS
 62
7
100
AcDbLine
 10
231.6000000001999
 20
110.7430787318100
 30
0.0000000000000000
 11
231.6000000001999
 21
110.2625494317899
 31
0.0000000000000000
  0
LINE
  5
64
100
AcDbEntity
  8
A6
  6
CONTINUOUS
 62
7
100
AcDbLine
 10
231.6000000001999
 20
110.2625494317899
 30
0.0000000000000000
 11
231.6000000001999
 21
109.7848076806399
 31
0.0000000000000000
  0
LINE
  5
65
100
AcDbEntity
  8
A6
  6
CONTINUOUS
 62
7
100
AcDbLine
 10
231.6000000001999
 20
109.7848076806399
 30
0.0000000000000000
 11
231.6000000001999
 21
109.2988226237700
 31
0.0000000000000000
  0
LINE
  5
66
100
AcDbEntity
  8
A6
  6
CONTINUOUS
 62
7
100
AcDbLine
 10
231.6000000001999
 20
109.2988226237700
 30
0.0000000000000000
 11
231.6000000001999
 21
108.9715401683800
 31
0.0000000000000000
  0
LINE
  5
67
100
AcDbEntity
  8
A6
  6
CONTINUOUS
 62
7
100
AcDbLine
 10
231.6000000001999
 20
108.9715401683800
 30
0.0000000000000000
 11
231.6000000001999
 21
108.6515636920600
 31
0.0000000000000000
  0
LINE
  5
68
100
AcDbEntity
  8
A6
  6
CONTINUOUS
 62
7
100
AcDbLine
 10
231.6000000001999
 20
108.6515636920600
 30
0.0000000000000000
 11
231.6000000001999
 21
108.0286074880700
 31
0.0000000000000000
  0
LINE
  5
69
100
AcDbEntity
  8
A6
  6
CONTINUOUS
 62
7
100
AcDbLine
 10
231.6000000001999
 20
108.0286074880700
 30
0.0000000000000000
 11
231.6000000001999
 21
107.7728942552300
 31
0.0000000000000000
  0
ARC
  5
6A
100
AcDbEntity
  8
A6
  6
CONTINUOUS
 62
7
100
AcDbCircle
 10
228.9000000002000
 20
110.0000000003499
 30
0.0000000000000000
 40
3.500000000000300
100
AcDbArc
 50
219.5176527971500
 51
320.4823472029600
  0
LINE
  5
6B
100
AcDbEntity
  8
A6
  6
CONTINUOUS
 62
7
100
AcDbLine
 10
226.2000000002000
 20
107.7728942552300
 30
0.0000000000000000
 11
226.2000000002000
 21
108.0286074880700
 31
0.0000000000000000
  0
LINE
  5
6C
100
AcDbEntity
  8
A6
  6
CONTINUOUS
 62
7
100
AcDbLine
 10
226.2000000002000
 20
108.0286074880700
 30
0.0000000000000000
 11
226.2000000002000
 21
108.6386288363800
 31
0.0000000000000000
  0
LINE
  5
6D
100
AcDbEntity
  8
A6
  6
CONTINUOUS
 62
7
100
AcDbLine
 10
226.2000000002000
 20
108.6386288363800
 30
0.0000000000000000
 11
226.2000000002000
 21
108.9623545463100
 31
0.0000000000000000
  0
LINE
  5
6E
100
AcDbEntity
  8
A6
  6
CONTINUOUS
 62
7
100
AcDbLine
 10
226.2000000002000
 20
108.9623545463100
 30
0.0000000000000000
 11
226.2000000002000
 21
109.2988226237700
 31
0.0000000000000000
  0
LINE
  5
6F
100
AcDbEntity
  8
A6
  6
CONTINUOUS
 62
7
100
AcDbLine
 10
226.2000000002000
 20
109.2988226237700
 30
0.0000000000000000
 11
226.2000000002000
 21
109.7702815045000
 31
0.0000000000000000
  0
LINE
  5
70
100
AcDbEntity
  8
A6
  6
CONTINUOUS
 62
7
100
AcDbLine
 10
226.2000000002000
 20
109.7702815045000
 30
0.0000000000000000
 11
226.2000000002000
 21
110.2625494317899
 31
0.0000000000000000
  0
LINE
  5
71
100
AcDbEntity
  8
A6
  6
CONTINUOUS
 62
7
100
AcDbLine
 10
226.2000000002000
 20
110.2625494317899
 30
0.0000000000000000
 11
226.2000000002000
 21
110.7332353823999
 31
0.0000000000000000
  0
LINE
  5
72
100
AcDbEntity
  8
A6
  6
CONTINUOUS
 62
7
100
AcDbLine
 10
226.2000000002000
 20
110.7332353823999
 30
0.0000000000000000
 11
226.2000000002000
 21
111.1970856489700
 31
0.0000000000000000
  0
LINE
  5
73
100
AcDbEntity
  8
A6
  6
CONTINUOUS
 62
7
100
AcDbLine
 10
226.2000000002000
 20
111.1970856489700
 30
0.0000000000000000
 11
226.2000000002000
 21
111.7219714193700
 31
0.0000000000000000
  0
LINE
  5
74
100
AcDbEntity
  8
A6
  6
CONTINUOUS
 62
7
100
AcDbLine
 10
226.2000000002000
 20
111.7219714193700
 30
0.0000000000000000
 11
226.2000000002000
 21
112.2271057454900
 31
0.0000000000000000
  0
ARC
  5
75
100
AcDbEntity
  8
A6
  6
CONTINUOUS
 62
7
100
AcDbCircle
 10
228.9000000002000
 20
110.0000000003599
 30
0.0000000000000000
 40
8.599999999999900
100
AcDbArc
 50
244.9999999999700
 51
294.9999999999500
  0
LINE
  5
76
100
AcDbEntity
  8
A6
  6
CONTINUOUS
 62
7
100
AcDbLine
 10
225.2654829491999
 20
102.2057530318400
 30
0.0000000000000000
 11
225.7303630370999
 21
103.2026915975900
 31
0.0000000000000000
  0
ARC
  5
77
100
AcDbEntity
  8
A6
  6
CONTINUOUS
 62
7
100
AcDbCircle
 10
228.9000000002000
 20
110.0000000003599
 30
0.0000000000000000
 40
7.500000000000000
100
AcDbArc
 50
244.9999999999900
 51
294.9999999999900
  0
LINE
  5
78
100
AcDbEntity
  8
A6
  6
CONTINUOUS
 62
7
100
AcDbLine
 10
232.4900171369999
 20
102.3011834057500
 30
0.0000000000000000
 11
232.5345170511999
 21
102.2057530318399
 31
0.0000000000000000
  0
ARC
  5
79
100
AcDbEntity
  8
A6
  6
CONTINUOUS
 62
7
100
AcDbCircle
 10
228.9000000002000
 20
110.0000000003599
 30
0.0000000000000000
 40
7.299999999999900
100
AcDbArc
 50
245.0000000000400
 51
295.0000000000600
  0
LINE
  5
7A
100
AcDbEntity
  8
A6
  6
CONTINUOUS
 62
7
100
AcDbLine
 10
225.7303630370999
 20
103.2026915975899
 30
0.0000000000000000
 11
225.8148866894999
 21
103.3839531549898
 31
0.0000000000000000
  0
ARC
  5
7B
100
AcDbEntity
  8
A6
  6
CONTINUOUS
 62
7
100
AcDbCircle
 10
228.9000000002000
 20
110.0000000003599
 30
0.0000000000000000
 40
8.800000000000001
100
AcDbArc
 50
245.0000000000100
 51
295.0000000000100
  0
LINE
  5
7C
100
AcDbEntity
  8
A6
  6
CONTINUOUS
 62
7
100
AcDbLine
 10
225.1809592968999
 20
102.0244914744400
 30
0.0000000000000000
 11
225.2654829491999
 21
102.2057530318399
 31
0.0000000000000000
  0
LINE
  5
7D
100
AcDbEntity
  8
A6
  6
CONTINUOUS
 62
7
100
AcDbLine
 10
232.5345170512000
 20
102.2057530318399
 30
0.0000000000000000
 11
232.6190407035000
 21
102.0244914744399
 31
0.0000000000000000
  0
LINE
  5
7E
100
AcDbEntity
  8
A6
  6
CONTINUOUS
 62
7
100
AcDbLine
 10
221.0000000002000
 20
113.8768543953600
 30
0.0000000000000000
 11
221.0000000002000
 21
106.1231456053599
 31
0.0000000000000000
  0
ARC
  5
7F
100
AcDbEntity
  8
A6
  6
CONTINUOUS
 62
7
100
AcDbCircle
 10
228.9000000003999
 20
110.0000000007200
 30
0.0000000000000000
 40
8.799999999999899
100
AcDbArc
 50
152.9773759495200
 51
153.8609170374800
  0
LINE
  5
80
100
AcDbEntity
  8
A6
  6
CONTINUOUS
 62
7
100
AcDbLine
 10
236.8000000001999
 20
106.1231456053599
 30
0.0000000000000000
 11
236.8000000001999
 21
113.8768543953600
 31
0.0000000000000000
  0
ARC
  5
81
100
AcDbEntity
  8
A6
  6
CONTINUOUS
 62
7
100
AcDbCircle
 10
228.9000000000000
 20
110.0000000002600
 30
0.0000000000000000
 40
8.800000000000001
100
AcDbArc
 50
295.0000000014400
 51
297.0226240545100
  0
ARC
  5
82
100
AcDbEntity
  8
A6
  6
CONTINUOUS
 62
7
100
AcDbCircle
 10
228.9000000002000
 20
110.0000000003499
 30
0.0000000000000000
 40
8.799999999999899
100
AcDbArc
 50
206.1390829650400
 51
244.9999999999100
  0
ARC
  5
83
100
AcDbEntity
  8
A6
  6
CONTINUOUS
 62
7
100
AcDbCircle
 10
228.9000000002000
 20
110.0000000003599
 30
0.0000000000000000
 40
7.299999999999900
100
AcDbArc
 50
155.0000000000000
 51
245.0000000000000
  0
LINE
  5
84
100
AcDbEntity
  8
A6
  6
CONTINUOUS
 62
7
100
AcDbLine
 10
236.8000000001999
 20
104.7236376170499
 30
0.0000000000000000
 11
236.8000000001999
 21
105.4146669465699
 31
0.0000000000000000
  0
LINE
  5
85
100
AcDbEntity
  8
A6
  6
CONTINUOUS
 62
7
100
AcDbLine
 10
236.8000000001999
 20
105.4146669465699
 30
0.0000000000000000
 11
236.8000000001999
 21
106.1231456053599
 31
0.0000000000000000
  0
LINE
  5
86
100
AcDbEntity
  8
A6
  6
CONTINUOUS
 62
7
100
AcDbLine
 10
221.0000000002000
 20
106.1231456053599
 30
0.0000000000000000
 11
221.0000000002000
 21
105.4161444441400
 31
0.0000000000000000
  0
LINE
  5
87
100
AcDbEntity
  8
A6
  6
CONTINUOUS
 62
7
100
AcDbLine
 10
221.0000000002000
 20
105.4161444441400
 30
0.0000000000000000
 11
221.0000000002000
 21
104.7236376170499
 31
0.0000000000000000
  0
ARC
  5
88
100
AcDbEntity
  8
A6
  6
CONTINUOUS
 62
7
100
AcDbCircle
 10
228.9000000002000
 20
110.0000000003599
 30
0.0000000000000000
 40
9.499999999999901
100
AcDbArc
 50
33.73872264873100
 51
146.2612773512800
  0
LINE
  5
89
100
AcDbEntity
  8
A6
  6
CONTINUOUS
 62
7
100
AcDbLine
 10
236.8000000001999
 20
113.8768543953600
 30
0.0000000000000000
 11
236.8000000001999
 21
114.5838555565799
 31
0.0000000000000000
  0
LINE
  5
8A
100
AcDbEntity
  8
A6
  6
CONTINUOUS
 62
7
100
AcDbLine
 10
236.8000000001999
 20
114.5838555565799
 30
0.0000000000000000
 11
236.8000000001999
 21
115.2763623836700
 31
0.0000000000000000
  0
LINE
  5
8B
100
AcDbEntity
  8
A6
  6
CONTINUOUS
 62
7
100
AcDbLine
 10
221.0000000002000
 20
115.2763623836700
 30
0.0000000000000000
 11
221.0000000002000
 21
114.5853330541500
 31
0.0000000000000000
  0
LINE
  5
8C
100
AcDbEntity
  8
A6
  6
CONTINUOUS
 62
7
100
AcDbLine
 10
221.0000000002000
 20
114.5853330541500
 30
0.0000000000000000
 11
221.0000000002000
 21
113.8768543953600
 31
0.0000000000000000
  0
CIRCLE
  5
8D
100
AcDbEntity
  8
A6
  6
CONTINUOUS
 62
7
100
AcDbCircle
 10
228.9000000002000
 20
110.0000000003599
 30
0.0000000000000000
 40
11.00000000000000
  0
ARC
  5
8E
100
AcDbEntity
  8
A2
  6
CONTINUOUS
 62
1
100
AcDbCircle
 10
228.9000000000000
 20
110.0000000000000
 30
0.0000000000000000
 40
9.000000000000000
100
AcDbArc
 50
28.62455095342400
 51
151.3754490465800
  0
LINE
  5
8F
100
AcDbEntity
  8
A2
  6
CENTER
 62
1
100
AcDbLine
 10
228.9000000000000
 20
123.0000000000000
 30
0.0000000000000000
 11
228.9000000000000
 21
96.99999999999996
 31
0.0000000000000000
  0
LINE
  5
90
100
AcDbEntity
  8
A2
  6
CENTER
 62
1
100
AcDbLine
 10
241.9000000000000
 20
110.0000000000000
 30
0.0000000000000000
 11
215.9000000000000
 21
110.0000000000000
 31
0.0000000000000000
  0
LINE
  5
91
100
AcDbEntity
  8
A5
  6
CONTINUOUS
 62
7
100
AcDbLine
 10
144.2999999998800
 20
115.5000000000001
 30
0.0000000000000000
 11
143.8087598137600
 21
116.3508529610801
 31
0.0000000000000000
  0
LINE
  5
92
100
AcDbEntity
  8
A5
  6
CONTINUOUS
 62
7
100
AcDbLine
 10
143.8087598137500
 20
103.6491470389100
 30
0.0000000000000000
 11
144.2999999998800
 21
104.5000000000000
 31
0.0000000000000000
  0
LINE
  5
93
100
AcDbEntity
  8
A5
  6
CONTINUOUS
 62
7
100
AcDbLine
 10
140.3000000000000
 20
116.5000000000000
 30
0.0000000000000000
 11
139.5000000000000
 21
116.5000000000000
 31
0.0000000000000000
  0
LINE
  5
94
100
AcDbEntity
  8
A5
  6
CONTINUOUS
 62
7
100
AcDbLine
 10
139.5000000000000
 20
103.5000000000000
 30
0.0000000000000000
 11
140.3000000000000
 21
103.5000000000000
 31
0.0000000000000000
  0
LINE
  5
95
100
AcDbEntity
  8
A5
  6
CONTINUOUS
 62
7
100
AcDbLine
 10
120.8000000000000
 20
120.7500000000000
 30
0.0000000000000000
 11
119.8000000000000
 21
120.7500000000000
 31
0.0000000000000000
  0
LINE
  5
96
100
AcDbEntity
  8
A5
  6
CONTINUOUS
 62
7
100
AcDbLine
 10
119.8000000000000
 20
99.25000000000000
 30
0.0000000000000000
 11
120.8000000000000
 21
99.25000000000000
 31
0.0000000000000000
  0
LINE
  5
97
100
AcDbEntity
  8
A5
  6
CONTINUOUS
 62
7
100
AcDbLine
 10
136.6250000000000
 20
106.0000000000000
 30
0.0000000000000000
 11
136.7000000000000
 21
106.0750000000001
 31
0.0000000000000000
  0
LINE
  5
98
100
AcDbEntity
  8
A5
  6
CONTINUOUS
 62
7
100
AcDbLine
 10
136.1000000000000
 20
106.0000000000000
 30
0.0000000000000000
 11
136.6250000000000
 21
106.0000000000000
 31
0.0000000000000000
  0
LINE
  5
99
100
AcDbEntity
  8
A5
  6
CONTINUOUS
 62
7
100
AcDbLine
 10
136.6250000000000
 20
114.0000000000000
 30
0.0000000000000000
 11
136.1000000000000
 21
114.0000000000000
 31
0.0000000000000000
  0
LINE
  5
9A
100
AcDbEntity
  8
A5
  6
CONTINUOUS
 62
7
100
AcDbLine
 10
146.9000000000000
 20
113.5000000000000
 30
0.0000000000000000
 11
144.2999999998580
 21
113.5000000000000
 31
0.0000000000000000
  0
LINE
  5
9B
100
AcDbEntity
  8
A5
  6
CONTINUOUS
 62
7
100
AcDbLine
 10
139.5000000000000
 20
113.5000000000000
 30
0.0000000000000000
 11
137.9000000000000
 21
113.5000000000000
 31
0.0000000000000000
  0
LINE
  5
9C
100
AcDbEntity
  8
A5
  6
CONTINUOUS
 62
7
100
AcDbLine
 10
146.9000000000000
 20
106.4999999999999
 30
0.0000000000000000
 11
147.9000000000000
 21
107.4999999999999
 31
0.0000000000000000
  0
LINE
  5
9D
100
AcDbEntity
  8
A5
  6
CONTINUOUS
 62
7
100
AcDbLine
 10
147.8999999999999
 20
112.4999999999999
 30
0.0000000000000000
 11
146.8999999999999
 21
113.4999999999999
 31
0.0000000000000000
  0
LINE
  5
9E
100
AcDbEntity
  8
A5
  6
CONTINUOUS
 62
7
100
AcDbLine
 10
137.9000000000000
 20
106.5000000000000
 30
0.0000000000000000
 11
139.5000000000000
 21
106.5000000000000
 31
0.0000000000000000
  0
LINE
  5
9F
100
AcDbEntity
  8
A5
  6
CONTINUOUS
 62
7
100
AcDbLine
 10
144.2999999998800
 20
106.5000000000000
 30
0.0000000000000000
 11
146.9000000000000
 21
106.5000000000000
 31
0.0000000000000000
  0
LINE
  5
A0
100
AcDbEntity
  8
A5
  6
CONTINUOUS
 62
7
100
AcDbLine
 10
119.6000000000000
 20
98.99999999999996
 30
0.0000000000000000
 11
119.8000000000000
 21
99.19999999999997
 31
0.0000000000000000
  0
LINE
  5
A1
100
AcDbEntity
  8
A5
  6
CONTINUOUS
 62
7
100
AcDbLine
 10
119.8000000000000
 20
120.7999999999999
 30
0.0000000000000000
 11
119.6000000000000
 21
120.9999999999999
 31
0.0000000000000000
  0
LINE
  5
A2
100
AcDbEntity
  8
A5
  6
CONTINUOUS
 62
7
100
AcDbLine
 10
118.8000000000000
 20
99.00000000000000
 30
0.0000000000000000
 11
119.6000000000000
 21
99.00000000000000
 31
0.0000000000000000
  0
LINE
  5
A3
100
AcDbEntity
  8
A5
  6
CONTINUOUS
 62
7
100
AcDbLine
 10
119.6000000000000
 20
121.0000000000000
 30
0.0000000000000000
 11
118.8000000000000
 21
121.0000000000000
 31
0.0000000000000000
  0
LINE
  5
A4
100
AcDbEntity
  8
A5
  6
CONTINUOUS
 62
7
100
AcDbLine
 10
134.5999999999999
 20
118.8000000000000
 30
0.0000000000000000
 11
133.8999999999999
 21
119.5000000000000
 31
0.0000000000000000
  0
LINE
  5
A5
100
AcDbEntity
  8
A5
  6
CONTINUOUS
 62
7
100
AcDbLine
 10
133.9000000000000
 20
100.5000000000000
 30
0.0000000000000000
 11
134.6000000000000
 21
101.2000000000000
 31
0.0000000000000000
  0
LINE
  5
A6
100
AcDbEntity
  8
A5
  6
CONTINUOUS
 62
7
100
AcDbLine
 10
136.1000000000000
 20
118.8000000000000
 30
0.0000000000000000
 11
134.6000000000000
 21
118.8000000000000
 31
0.0000000000000000
  0
LINE
  5
A7
100
AcDbEntity
  8
A5
  6
CONTINUOUS
 62
7
100
AcDbLine
 10
134.6000000000000
 20
101.2000000000000
 30
0.0000000000000000
 11
137.4000000000000
 21
101.2000000000000
 31
0.0000000000000000
  0
LINE
  5
A8
100
AcDbEntity
  8
A5
  6
CONTINUOUS
 62
7
100
AcDbLine
 10
137.4000000000000
 20
101.2000000000000
 30
0.0000000000000000
 11
137.5999999999999
 21
101.3999999999999
 31
0.0000000000000000
  0
LINE
  5
A9
100
AcDbEntity
  8
A5
  6
CONTINUOUS
 62
7
100
AcDbLine
 10
143.8087598137400
 20
106.8245735194500
 30
0.0000000000000000
 11
140.7912401861300
 21
106.8245735194500
 31
0.0000000000000000
  0
LINE
  5
AA
100
AcDbEntity
  8
A5
  6
CONTINUOUS
 62
7
100
AcDbLine
 10
143.8087598137400
 20
113.1754264806000
 30
0.0000000000000000
 11
140.7912401861400
 21
113.1754264806000
 31
0.0000000000000000
  0
LINE
  5
AB
100
AcDbEntity
  8
A5
  6
CONTINUOUS
 62
7
100
AcDbLine
 10
144.2999999998800
 20
104.5000000000000
 30
0.0000000000000000
 11
144.2999999998800
 21
115.5000000000001
 31
0.0000000000000000
  0
LINE
  5
AC
100
AcDbEntity
  8
A5
  6
CONTINUOUS
 62
7
100
AcDbLine
 10
143.8087598137400
 20
103.6491470389100
 30
0.0000000000000000
 11
140.7912401861300
 21
103.6491470389100
 31
0.0000000000000000
  0
LINE
  5
AD
100
AcDbEntity
  8
A5
  6
CONTINUOUS
 62
7
100
AcDbLine
 10
143.8087598137400
 20
116.3508529610800
 30
0.0000000000000000
 11
140.7912401861200
 21
116.3508529610800
 31
0.0000000000000000
  0
LINE
  5
AE
100
AcDbEntity
  8
A5
  6
CONTINUOUS
 62
7
100
AcDbLine
 10
139.5000000000000
 20
103.5000000000000
 30
0.0000000000000000
 11
139.5000000000000
 21
116.5000000000000
 31
0.0000000000000000
  0
LINE
  5
AF
100
AcDbEntity
  8
A5
  6
CONTINUOUS
 62
7
100
AcDbLine
 10
140.3000000000000
 20
103.5000000000000
 30
0.0000000000000000
 11
140.3000000000000
 21
116.5000000000000
 31
0.0000000000000000
  0
LINE
  5
B0
100
AcDbEntity
  8
A5
  6
CONTINUOUS
 62
7
100
AcDbLine
 10
120.8000000000000
 20
110.0000000000000
 30
0.0000000000000000
 11
120.8000000000000
 21
120.7500000000000
 31
0.0000000000000000
  0
LINE
  5
B1
100
AcDbEntity
  8
A5
  6
CONTINUOUS
 62
7
100
AcDbLine
 10
120.8000000000000
 20
99.25000000000000
 30
0.0000000000000000
 11
120.8000000000000
 21
110.0000000000000
 31
0.0000000000000000
  0
LINE
  5
B2
100
AcDbEntity
  8
A5
  6
CONTINUOUS
 62
7
100
AcDbLine
 10
136.6250000000000
 20
106.0000000000000
 30
0.0000000000000000
 11
136.6250000000000
 21
114.0000000000000
 31
0.0000000000000000
  0
LINE
  5
B3
100
AcDbEntity
  8
A5
  6
CONTINUOUS
 62
7
100
AcDbLine
 10
146.9000000000000
 20
112.2271057451300
 30
0.0000000000000000
 11
146.9000000000000
 21
113.5000000000000
 31
0.0000000000000000
  0
LINE
  5
B4
100
AcDbEntity
  8
A5
  6
CONTINUOUS
 62
7
100
AcDbLine
 10
137.9000000000000
 20
112.2271057451300
 30
0.0000000000000000
 11
139.5000000000000
 21
112.2271057451300
 31
0.0000000000000000
  0
LINE
  5
B5
100
AcDbEntity
  8
A5
  6
CONTINUOUS
 62
7
100
AcDbLine
 10
144.2999999998660
 20
112.2271057451300
 30
0.0000000000000000
 11
146.9000000000000
 21
112.2271057451300
 31
0.0000000000000000
  0
LINE
  5
B6
100
AcDbEntity
  8
A5
  6
CONTINUOUS
 62
7
100
AcDbLine
 10
147.9000000000000
 20
112.5000000000000
 30
0.0000000000000000
 11
147.9000000000000
 21
107.5000000000000
 31
0.0000000000000000
  0
LINE
  5
B7
100
AcDbEntity
  8
A5
  6
CONTINUOUS
 62
7
100
AcDbLine
 10
146.9000000000000
 20
106.5000000000000
 30
0.0000000000000000
 11
146.9000000000000
 21
107.7728942548700
 31
0.0000000000000000
  0
LINE
  5
B8
100
AcDbEntity
  8
A5
  6
CONTINUOUS
 62
7
100
AcDbLine
 10
146.9000000000000
 20
107.7728942548700
 30
0.0000000000000000
 11
144.2999999998800
 21
107.7728942548700
 31
0.0000000000000000
  0
LINE
  5
B9
100
AcDbEntity
  8
A5
  6
CONTINUOUS
 62
7
100
AcDbLine
 10
139.5000000000000
 20
107.7728942548700
 30
0.0000000000000000
 11
137.9000000000000
 21
107.7728942548700
 31
0.0000000000000000
  0
LINE
  5
BA
100
AcDbEntity
  8
A5
  6
CONTINUOUS
 62
7
100
AcDbLine
 10
119.6000000000000
 20
110.0000000000000
 30
0.0000000000000000
 11
119.6000000000000
 21
121.0000000000000
 31
0.0000000000000000
  0
LINE
  5
BB
100
AcDbEntity
  8
A5
  6
CONTINUOUS
 62
7
100
AcDbLine
 10
119.6000000000000
 20
99.00000000000000
 30
0.0000000000000000
 11
119.6000000000000
 21
110.0000000000000
 31
0.0000000000000000
  0
LINE
  5
BC
100
AcDbEntity
  8
A5
  6
CONTINUOUS
 62
7
100
AcDbLine
 10
119.8000000000000
 20
110.0000000000000
 30
0.0000000000000000
 11
119.8000000000000
 21
99.19999999999999
 31
0.0000000000000000
  0
LINE
  5
BD
100
AcDbEntity
  8
A5
  6
CONTINUOUS
 62
7
100
AcDbLine
 10
119.8000000000000
 20
120.8000000000000
 30
0.0000000000000000
 11
119.8000000000000
 21
110.0000000000000
 31
0.0000000000000000
  0
LINE
  5
BE
100
AcDbEntity
  8
A5
  6
CONTINUOUS
 62
7
100
AcDbLine
 10
118.8000000000000
 20
110.0000000000000
 30
0.0000000000000000
 11
118.8000000000000
 21
121.0000000000000
 31
0.0000000000000000
  0
LINE
  5
BF
100
AcDbEntity
  8
A5
  6
CONTINUOUS
 62
7
100
AcDbLine
 10
118.8000000000000
 20
99.00000000000000
 30
0.0000000000000000
 11
118.8000000000000
 21
110.0000000000000
 31
0.0000000000000000
  0
LINE
  5
C0
100
AcDbEntity
  8
A5
  6
CONTINUOUS
 62
7
100
AcDbLine
 10
134.6000000000000
 20
113.8768543950000
 30
0.0000000000000000
 11
134.6000000000000
 21
118.8000000000000
 31
0.0000000000000000
  0
LINE
  5
C1
100
AcDbEntity
  8
A5
  6
CONTINUOUS
 62
7
100
AcDbLine
 10
133.9000000000000
 20
115.2763623833100
 30
0.0000000000000000
 11
133.9000000000000
 21
119.5000000000000
 31
0.0000000000000000
  0
LINE
  5
C2
100
AcDbEntity
  8
A5
  6
CONTINUOUS
 62
7
100
AcDbLine
 10
136.1000000000000
 20
106.1231456050000
 30
0.0000000000000000
 11
134.6000000000000
 21
106.1231456050000
 31
0.0000000000000000
  0
LINE
  5
C3
100
AcDbEntity
  8
A5
  6
CONTINUOUS
 62
7
100
AcDbLine
 10
134.6000000000000
 20
113.8768543950000
 30
0.0000000000000000
 11
136.1000000000000
 21
113.8768543950000
 31
0.0000000000000000
  0
LINE
  5
C4
100
AcDbEntity
  8
A5
  6
CONTINUOUS
 62
7
100
AcDbLine
 10
136.1000000000000
 20
113.8768543950000
 30
0.0000000000000000
 11
136.1000000000000
 21
106.1231456050000
 31
0.0000000000000000
  0
LINE
  5
C5
100
AcDbEntity
  8
A5
  6
CONTINUOUS
 62
7
100
AcDbLine
 10
133.9000000000000
 20
100.5000000000000
 30
0.0000000000000000
 11
133.9000000000000
 21
104.7236376166900
 31
0.0000000000000000
  0
LINE
  5
C6
100
AcDbEntity
  8
A5
  6
CONTINUOUS
 62
7
100
AcDbLine
 10
134.6000000000000
 20
101.2000000000000
 30
0.0000000000000000
 11
134.6000000000000
 21
106.1231456050000
 31
0.0000000000000000
  0
LINE
  5
C7
100
AcDbEntity
  8
A5
  6
CONTINUOUS
 62
7
100
AcDbLine
 10
136.1000000000000
 20
118.8000000000000
 30
0.0000000000000000
 11
136.1000000000000
 21
113.8768543950000
 31
0.0000000000000000
  0
LINE
  5
C8
100
AcDbEntity
  8
A5
  6
CONTINUOUS
 62
7
100
AcDbLine
 10
136.1000000000000
 20
106.1231456050000
 30
0.0000000000000000
 11
136.1000000000000
 21
102.0244914740800
 31
0.0000000000000000
  0
LINE
  5
C9
100
AcDbEntity
  8
A5
  6
CONTINUOUS
 62
7
100
AcDbLine
 10
137.4000000000000
 20
102.0244914740800
 30
0.0000000000000000
 11
136.1000000000000
 21
102.0244914740800
 31
0.0000000000000000
  0
LINE
  5
CA
100
AcDbEntity
  8
A5
  6
CONTINUOUS
 62
7
100
AcDbLine
 10
137.4000000000000
 20
101.2000000000000
 30
0.0000000000000000
 11
137.4000000000000
 21
102.0244914740800
 31
0.0000000000000000
  0
LINE
  5
CB
100
AcDbEntity
  8
A5
  6
CONTINUOUS
 62
7
100
AcDbLine
 10
136.1000000000000
 20
103.3839531546300
 30
0.0000000000000000
 11
137.4000000000000
 21
103.3839531546300
 31
0.0000000000000000
  0
LINE
  5
CC
100
AcDbEntity
  8
A5
  6
CONTINUOUS
 62
7
100
AcDbLine
 10
137.4000000000000
 20
102.0244914740800
 30
0.0000000000000000
 11
137.6000000000000
 21
102.2057530314800
 31
0.0000000000000000
  0
LINE
  5
CD
100
AcDbEntity
  8
A5
  6
CONTINUOUS
 62
7
100
AcDbLine
 10
137.5999999999999
 20
103.2026915972299
 30
0.0000000000000000
 11
137.3999999999999
 21
103.3839531546299
 31
0.0000000000000000
  0
LINE
  5
CE
100
AcDbEntity
  8
A5
  6
CONTINUOUS
 62
7
100
AcDbLine
 10
137.6000000000000
 20
102.2057530314800
 30
0.0000000000000000
 11
137.6000000000000
 21
103.2026915972300
 31
0.0000000000000000
  0
LINE
  5
CF
100
AcDbEntity
  8
A5
  6
CONTINUOUS
 62
7
100
AcDbLine
 10
137.6000000000000
 20
102.2057530314800
 30
0.0000000000000000
 11
137.6000000000000
 21
101.4000000000000
 31
0.0000000000000000
  0
LINE
  5
D0
100
AcDbEntity
  8
A2
  6
CENTER
 62
1
100
AcDbLine
 10
149.9000000000000
 20
110.0000000000000
 30
0.0000000000000000
 11
108.9999999999950
 21
110.0000000000000
 31
0.0000000000000000
  0
LINE
  5
D1
100
AcDbEntity
  8
A2
  6
CONTINUOUS
 62
1
100
AcDbLine
 10
139.5000000000000
 20
111.3950003018985
 30
0.0000000000000000
 11
137.9000000000000
 21
112.1781583661201
 31
0.0000000000000000
  0
LINE
  5
D2
100
AcDbEntity
  8
A2
  6
CONTINUOUS
 62
1
100
AcDbLine
 10
137.9000000000000
 20
107.8218416338800
 30
0.0000000000000000
 11
139.5000000000000
 21
108.6049996981015
 31
0.0000000000000000
  0
LINE
  5
D3
100
AcDbEntity
  8
A2
  6
CONTINUOUS
 62
1
100
AcDbLine
 10
144.2999999998740
 20
110.9544738907168
 30
0.0000000000000000
 11
146.9000000000000
 21
112.2271057451301
 31
0.0000000000000000
  0
LINE
  5
D4
100
AcDbEntity
  8
A2
  6
CONTINUOUS
 62
1
100
AcDbLine
 10
146.8999999999999
 20
107.7728942548700
 30
0.0000000000000000
 11
144.2999999998799
 21
109.0455261092883
 31
0.0000000000000000
  0
LINE
  5
D5
100
AcDbEntity
  8
A2
  6
CONTINUOUS
 62
1
100
AcDbLine
 10
138.8000000000000
 20
113.1250000000000
 30
0.0000000000000000
 11
139.5000000000000
 21
113.1250000000000
 31
0.0000000000000000
  0
LINE
  5
D6
100
AcDbEntity
  8
A2
  6
CONTINUOUS
 62
1
100
AcDbLine
 10
144.2999999998603
 20
113.1250000000000
 30
0.0000000000000000
 11
147.2750000000000
 21
113.1250000000000
 31
0.0000000000000000
  0
LINE
  5
D7
100
AcDbEntity
  8
A2
  6
CONTINUOUS
 62
1
100
AcDbLine
 10
138.8000000000000
 20
106.8750000000000
 30
0.0000000000000000
 11
139.5000000000000
 21
106.8750000000000
 31
0.0000000000000000
  0
LINE
  5
D8
100
AcDbEntity
  8
A2
  6
CONTINUOUS
 62
1
100
AcDbLine
 10
144.2999999998800
 20
106.8750000000000
 30
0.0000000000000000
 11
147.2750000000000
 21
106.8750000000000
 31
0.0000000000000000
  0
LINE
  5
D9
100
AcDbEntity
  8
A2
  6
CONTINUOUS
 62
7
100
AcDbLine
 10
121.8000000000000
 20
104.7236376166900
 30
0.0000000000000000
 11
121.8000000000000
 21
100.5000000000000
 31
0.0000000000000000
  0
LINE
  5
DA
100
AcDbEntity
  8
A2
  6
CONTINUOUS
 62
7
100
AcDbLine
 10
121.8000000000000
 20
119.5000000000000
 30
0.0000000000000000
 11
121.8000000000000
 21
115.2763623833100
 31
0.0000000000000000
  0
LINE
  5
DB
100
AcDbEntity
  8
A2
  6
CONTINUOUS
 62
7
100
AcDbLine
 10
138.8000000000000
 20
113.5000000000000
 30
0.0000000000000000
 11
138.8000000000000
 21
112.2271057451300
 31
0.0000000000000000
  0
LINE
  5
DC
100
AcDbEntity
  8
A2
  6
CONTINUOUS
 62
7
100
AcDbLine
 10
138.8000000000000
 20
106.5000000000000
 30
0.0000000000000000
 11
138.8000000000000
 21
107.7728942548700
 31
0.0000000000000000
  0
LINE
  5
DD
100
AcDbEntity
  8
A5
  6
CONTINUOUS
 62
7
100
AcDbLine
 10
137.6000000000000
 20
102.1279688839100
 30
0.0000000000000000
 11
137.9000000000000
 21
102.1279688839100
 31
0.0000000000000000
  0
LINE
  5
DE
100
AcDbEntity
  8
A5
  6
CONTINUOUS
 62
7
100
AcDbLine
 10
136.7000000000000
 20
117.8000000000000
 30
0.0000000000000000
 11
136.7000000000000
 21
103.3839531546300
 31
0.0000000000000000
  0
LINE
  5
DF
100
AcDbEntity
  8
A5
  6
CONTINUOUS
 62
7
100
AcDbLine
 10
137.9000000000000
 20
117.8000000000000
 30
0.0000000000000000
 11
136.7000000000000
 21
117.8000000000000
 31
0.0000000000000000
  0
LINE
  5
E0
100
AcDbEntity
  8
A5
  6
CONTINUOUS
 62
7
100
AcDbLine
 10
137.9000000000000
 20
117.8000000000000
 30
0.0000000000000000
 11
137.9000000000000
 21
102.1279688839100
 31
0.0000000000000000
  0
LINE
  5
E1
100
AcDbEntity
  8
A2
  6
CONTINUOUS
 62
7
100
AcDbLine
 10
136.7000000000000
 20
113.7190407032800
 30
0.0000000000000000
 11
137.9000000000000
 21
113.7190407032800
 31
0.0000000000000000
  0
LINE
  5
E2
100
AcDbEntity
  8
A2
  6
CONTINUOUS
 62
7
100
AcDbLine
 10
136.7000000000000
 20
112.8738041798000
 30
0.0000000000000000
 11
137.9000000000000
 21
112.8738041798000
 31
0.0000000000000000
  0
CIRCLE
  5
E3
100
AcDbEntity
  8
A4
  6
CONTINUOUS
 62
7
100
AcDbCircle
 10
30.00000000000000
 20
110.0000000000000
 30
0.0000000000000000
 40
11.00000000000000
  0
LINE
  5
E4
100
AcDbEntity
  8
A2
  6
CENTER
 62
1
100
AcDbLine
 10
30.00000000000000
 20
123.0000000000000
 30
0.0000000000000000
 11
30.00000000000000
 21
97.00000000000000
 31
0.0000000000000000
  0
LINE
  5
E5
100
AcDbEntity
  8
A2
  6
CENTER
 62
1
100
AcDbLine
 10
43.00000000000000
 20
110.0000000000000
 30
0.0000000000000000
 11
17.00000000000000
 21
110.0000000000000
 31
0.0000000000000000
  0
ARC
  5
E6
100
AcDbEntity
  8
A2
  6
CONTINUOUS
 62
7
100
AcDbCircle
 10
228.9000000000000
 20
110.0000000000000
 30
0.0000000000000000
 40
3.125000000000000
100
AcDbArc
 50
30.23128624783914
 51
149.7687137375956
  0
ARC
  5
E7
100
AcDbEntity
  8
A2
  6
CONTINUOUS
 62
7
100
AcDbCircle
 10
228.9000000000000
 20
110.0000000000000
 30
0.0000000000000000
 40
3.125000000000000
100
AcDbArc
 50
210.2312862624044
 51
329.7687137521608
  0
LINE
  5
E8
100
AcDbEntity
  8
A10
  6
CONTINUOUS
 62
7
100
AcDbLine
 10
125.6000000000000
 20
122.0000000000003
 30
0.0000000000000000
 11
125.6000000000000
 21
98.00000000000028
 31
0.0000000000000000
  0
LINE
  5
E9
100
AcDbEntity
  8
A10
  6
CONTINUOUS
 62
7
100
AcDbLine
 10
126.8000000000000
 20
121.9999999999997
 30
0.0000000000000000
 11
125.6000000000129
 21
122.0000000000003
 31
0.0000000000000000
  0
LINE
  5
EA
100
AcDbEntity
  8
A10
  6
CONTINUOUS
 62
7
100
AcDbLine
 10
126.8000000000000
 20
97.99999999999969
 30
0.0000000000000000
 11
125.6000000000129
 21
98.00000000000027
 31
0.0000000000000000
  0
ARC
  5
EB
100
AcDbEntity
  8
A6
  6
CONTINUOUS
 62
1
100
AcDbCircle
 10
228.9000000002000
 20
110.0000000003599
 30
0.0000000000000000
 40
9.500000000000099
100
AcDbArc
 50
146.2612773512616
 51
213.7387226487383
  0
ARC
  5
EC
100
AcDbEntity
  8
A6
  6
CONTINUOUS
 62
7
100
AcDbCircle
 10
228.9000000002000
 20
110.0000000003599
 30
0.0000000000000000
 40
9.500000000000099
100
AcDbArc
 50
213.7387226487383
 51
326.2612773512500
  0
ARC
  5
ED
100
AcDbEntity
  8
A2
  6
CONTINUOUS
 62
7
100
AcDbCircle
 10
228.9000000000000
 20
110.0000000000000
 30
0.0000000000000000
 40
9.000000000000000
100
AcDbArc
 50
151.3754490439169
 51
208.6245509560831
  0
ARC
  5
EE
100
AcDbEntity
  8
A2
  6
CONTINUOUS
 62
1
100
AcDbCircle
 10
228.9000000000000
 20
110.0000000000000
 30
0.0000000000000000
 40
9.000000000000000
100
AcDbArc
 50
208.6245509560831
 51
331.3754490465800
  0
ARC
  5
EF
100
AcDbEntity
  8
A2
  6
CONTINUOUS
 62
7
100
AcDbCircle
 10
228.9000000000000
 20
110.0000000000000
 30
0.0000000000000000
 40
9.000000000000000
100
AcDbArc
 50
331.3754490439169
 51
388.6245509560831
  0
ARC
  5
F0
100
AcDbEntity
  8
A6
  6
CONTINUOUS
 62
1
100
AcDbCircle
 10
228.8999999998000
 20
110.0000000003599
 30
0.0000000000000000
 40
9.500000000000099
100
AcDbArc
 50
326.2612773512617
 51
393.7387226487383
  0
LINE
  5
F1
100
AcDbEntity
  8
A2
  6
CONTINUOUS
 62
7
100
AcDbLine
 10
30.00000000001002
 20
122.7017059221769
 30
0.0000000000000000
 11
19.00000000000999
 21
116.3508529610919
 31
0.0000000000000000
  0
LINE
  5
F2
100
AcDbEntity
  8
A2
  6
CONTINUOUS
 62
7
100
AcDbLine
 10
19.00000000000000
 20
116.3508529610950
 30
0.0000000000000000
 11
19.00000000000000
 21
103.6491470389260
 31
0.0000000000000000
  0
LINE
  5
F3
100
AcDbEntity
  8
A2
  6
CONTINUOUS
 62
7
100
AcDbLine
 10
41.00000000001000
 20
116.3508529610809
 30
0.0000000000000000
 11
30.00000000001002
 21
122.7017059221659
 31
0.0000000000000000
  0
LINE
  5
F4
100
AcDbEntity
  8
A2
  6
CONTINUOUS
 62
7
100
AcDbLine
 10
41.00000000000000
 20
103.6491470389050
 30
0.0000000000000000
 11
41.00000000000000
 21
116.3508529610750
 31
0.0000000000000000
  0
LINE
  5
F5
100
AcDbEntity
  8
A2
  6
CONTINUOUS
 62
7
100
AcDbLine
 10
29.99999999998994
 20
97.29829407782404
 30
0.0000000000000000
 11
40.99999999998998
 21
103.6491470389091
 31
0.0000000000000000
  0
LINE
  5
F6
100
AcDbEntity
  8
A2
  6
CONTINUOUS
 62
7
100
AcDbLine
 10
18.99999999999008
 20
103.6491470389191
 30
0.0000000000000000
 11
29.99999999999010
 21
97.29829407783404
 31
0.0000000000000000
  0
ARC
  5
F7
100
AcDbEntity
  8
A2
  6
CONTINUOUS
 62
7
100
AcDbCircle
 10
110.1333333341900
 20
110.0000000000335
 30
0.0000000000000000
 40
20.66666666581800
100
AcDbArc
 50
342.1034488703801
 51
377.8965511296240
  0
LINE
  5
F8
100
AcDbEntity
  8
A2
  6
CONTINUOUS
 62
7
100
AcDbLine
 10
129.8000000000000
 20
97.29829407778355
 30
0.0000000000000000
 11
130.8000000000000
 21
98.99999999994354
 31
0.0000000000000000
  0
ARC
  5
F9
100
AcDbEntity
  8
A2
  6
CONTINUOUS
 62
7
100
AcDbCircle
 10
114.6966834245100
 20
97.14766342130747
 30
0.0000000000000000
 40
16.44321929579000
100
AcDbArc
 50
11.67004408717900
 51
23.29029631822799
  0
LINE
  5
FA
100
AcDbEntity
  8
A2
  6
CONTINUOUS
 62
7
100
AcDbLine
 10
130.8000000000000
 20
98.99999999994350
 30
0.0000000000000000
 11
130.8000000000000
 21
120.9999999999435
 31
0.0000000000000000
  0
LINE
  5
FB
100
AcDbEntity
  8
A2
  6
CONTINUOUS
 62
7
100
AcDbLine
 10
129.8000000000000
 20
122.7017059221045
 30
0.0000000000000000
 11
126.8000000000000
 21
122.7017059221045
 31
0.0000000000000000
  0
LINE
  5
FC
100
AcDbEntity
  8
A2
  6
CONTINUOUS
 62
7
100
AcDbLine
 10
126.8000000000000
 20
97.29829407789549
 30
0.0000000000000000
 11
129.8000000000700
 21
97.29829407789549
 31
0.0000000000000000
  0
LINE
  5
FD
100
AcDbEntity
  8
A2
  6
CONTINUOUS
 62
7
100
AcDbLine
 10
126.8000000000001
 20
103.6491470390815
 30
0.0000000000000000
 11
129.8000000000001
 21
103.6491470389015
 31
0.0000000000000000
  0
LINE
  5
FE
100
AcDbEntity
  8
A2
  6
CONTINUOUS
 62
7
100
AcDbLine
 10
129.8000000000000
 20
122.7017059221045
 30
0.0000000000000000
 11
130.8000000000000
 21
120.9999999999435
 31
0.0000000000000000
  0
ARC
  5
FF
100
AcDbEntity
  8
A2
  6
CONTINUOUS
 62
7
100
AcDbCircle
 10
114.6966834245100
 20
122.8523365785795
 30
0.0000000000000000
 40
16.44321929579000
100
AcDbArc
 50
336.7097036817700
 51
348.3299559128200
  0
LINE
  5
100
100
AcDbEntity
  8
A2
  6
CONTINUOUS
 62
7
100
AcDbLine
 10
126.8000000000000
 20
116.3508529609855
 30
0.0000000000000000
 11
129.8000000000000
 21
116.3508529609855
 31
0.0000000000000000
  0
LINE
  5
101
100
AcDbEntity
  8
A2
  6
CONTINUOUS
 62
1
100
AcDbLine
 10
125.6000000000001
 20
112.0193895419464
 30
0.0000000000000000
 11
120.8000000000000
 21
114.7148153416932
 31
0.0000000000000000
  0
LINE
  5
102
100
AcDbEntity
  8
A5
  6
CONTINUOUS
 62
7
100
AcDbLine
 10
120.8000000000000
 20
115.2763623833100
 30
0.0000000000000000
 11
125.6000000000000
 21
115.2763623833100
 31
0.0000000000000000
  0
LINE
  5
103
100
AcDbEntity
  8
A2
  6
CONTINUOUS
 62
1
100
AcDbLine
 10
121.8000000000000
 20
119.0000000000000
 30
0.0000000000000000
 11
125.6000000000000
 21
119.0000000000000
 31
0.0000000000000000
  0
LINE
  5
104
100
AcDbEntity
  8
A5
  6
CONTINUOUS
 62
7
100
AcDbLine
 10
125.6000000000000
 20
119.5000000000000
 30
0.0000000000000000
 11
120.8000000000000
 21
119.5000000000000
 31
0.0000000000000000
  0
LINE
  5
105
100
AcDbEntity
  8
A2
  6
CONTINUOUS
 62
1
100
AcDbLine
 10
120.8000000000000
 20
105.2851846583099
 30
0.0000000000000000
 11
125.6000000000000
 21
107.9806104580561
 31
0.0000000000000000
  0
LINE
  5
106
100
AcDbEntity
  8
A5
  6
CONTINUOUS
 62
7
100
AcDbLine
 10
125.6000000000000
 20
104.7236376166900
 30
0.0000000000000000
 11
120.8000000000000
 21
104.7236376166900
 31
0.0000000000000000
  0
LINE
  5
107
100
AcDbEntity
  8
A2
  6
CONTINUOUS
 62
1
100
AcDbLine
 10
121.8000000000000
 20
101.0000000000000
 30
0.0000000000000000
 11
125.6000000000000
 21
101.0000000000000
 31
0.0000000000000000
  0
LINE
  5
108
100
AcDbEntity
  8
A5
  6
CONTINUOUS
 62
7
100
AcDbLine
 10
120.8000000000000
 20
100.5000000000000
 30
0.0000000000000000
 11
125.6000000000000
 21
100.5000000000000
 31
0.0000000000000000
  0
LINE
  5
109
100
AcDbEntity
  8
A2
  6
CONTINUOUS
 62
1
100
AcDbLine
 10
130.8000000000000
 20
101.0000000000000
 30
0.0000000000000000
 11
134.4000000000000
 21
101.0000000000000
 31
0.0000000000000000
  0
LINE
  5
10A
100
AcDbEntity
  8
A5
  6
CONTINUOUS
 62
7
100
AcDbLine
 10
130.8000000000000
 20
100.5000000000000
 30
0.0000000000000000
 11
133.9000000000000
 21
100.5000000000000
 31
0.0000000000000000
  0
LINE
  5
10B
100
AcDbEntity
  8
A5
  6
CONTINUOUS
 62
7
100
AcDbLine
 10
133.9000000000000
 20
104.7236376166900
 30
0.0000000000000000
 11
130.8000000000000
 21
104.7236376166900
 31
0.0000000000000000
  0
LINE
  5
10C
100
AcDbEntity
  8
A2
  6
CONTINUOUS
 62
1
100
AcDbLine
 10
130.8000000000000
 20
110.9006550744478
 30
0.0000000000000000
 11
136.0999999999985
 21
113.8768543950001
 31
0.0000000000000000
  0
LINE
  5
10D
100
AcDbEntity
  8
A2
  6
CONTINUOUS
 62
1
100
AcDbLine
 10
136.1000000000001
 20
106.1231456050000
 30
0.0000000000000000
 11
130.8000000000000
 21
109.0993449255539
 31
0.0000000000000000
  0
LINE
  5
10E
100
AcDbEntity
  8
A5
  6
CONTINUOUS
 62
7
100
AcDbLine
 10
130.8000000000000
 20
115.2763623833100
 30
0.0000000000000000
 11
133.9000000000000
 21
115.2763623833100
 31
0.0000000000000000
  0
LINE
  5
10F
100
AcDbEntity
  8
A2
  6
CONTINUOUS
 62
1
100
AcDbLine
 10
130.8000000000000
 20
119.0000000000000
 30
0.0000000000000000
 11
134.4000000000000
 21
119.0000000000000
 31
0.0000000000000000
  0
LINE
  5
110
100
AcDbEntity
  8
A5
  6
CONTINUOUS
 62
7
100
AcDbLine
 10
133.9000000000000
 20
119.5000000000000
 30
0.0000000000000000
 11
130.8000000000000
 21
119.5000000000000
 31
0.0000000000000000
  0
LINE
  5
111
100
AcDbEntity
  8
A2
  6
CONTINUOUS
 62
7
100
AcDbLine
 10
126.8000000000000
 20
97.29829407789549
 30
0.0000000000000000
 11
126.8000000000000
 21
122.7017059221045
 31
0.0000000000000000
  0
LINE
  5
112
100
AcDbEntity
  8
A5
  6
CONTINUOUS
 62
7
100
AcDbLine
 10
136.6249999999998
 20
35.99999999999996
 30
0.0000000000000000
 11
136.6999999999998
 21
36.07500000000001
 31
0.0000000000000000
  0
LINE
  5
113
100
AcDbEntity
  8
A5
  6
CONTINUOUS
 62
7
100
AcDbLine
 10
136.0999999999999
 20
36.00000000000000
 30
0.0000000000000000
 11
136.6249999999998
 21
36.00000000000000
 31
0.0000000000000000
  0
LINE
  5
114
100
AcDbEntity
  8
A5
  6
CONTINUOUS
 62
7
100
AcDbLine
 10
136.6249999999998
 20
44.00000000000000
 30
0.0000000000000000
 11
136.0999999999999
 21
44.00000000000000
 31
0.0000000000000000
  0
LINE
  5
115
100
AcDbEntity
  8
A5
  6
CONTINUOUS
 62
7
100
AcDbLine
 10
147.6999999999997
 20
37.29999999999990
 30
0.0000000000000000
 11
147.8999999999997
 21
37.49999999999996
 31
0.0000000000000000
  0
LINE
  5
116
100
AcDbEntity
  8
A5
  6
CONTINUOUS
 62
7
100
AcDbLine
 10
147.8999999999997
 20
42.49999999999991
 30
0.0000000000000000
 11
147.6999999999997
 21
42.69999999999991
 31
0.0000000000000000
  0
LINE
  5
117
100
AcDbEntity
  8
A5
  6
CONTINUOUS
 62
7
100
AcDbLine
 10
119.5999999999998
 20
28.99999999999991
 30
0.0000000000000000
 11
119.7999999999998
 21
29.19999999999997
 31
0.0000000000000000
  0
LINE
  5
118
100
AcDbEntity
  8
A5
  6
CONTINUOUS
 62
7
100
AcDbLine
 10
119.7999999999998
 20
50.79999999999990
 30
0.0000000000000000
 11
119.5999999999998
 21
50.99999999999990
 31
0.0000000000000000
  0
LINE
  5
119
100
AcDbEntity
  8
A5
  6
CONTINUOUS
 62
7
100
AcDbLine
 10
118.7999999999998
 20
29.00000000000000
 30
0.0000000000000000
 11
119.5999999999999
 21
29.00000000000000
 31
0.0000000000000000
  0
LINE
  5
11A
100
AcDbEntity
  8
A5
  6
CONTINUOUS
 62
7
100
AcDbLine
 10
119.5999999999999
 20
51.00000000000000
 30
0.0000000000000000
 11
118.7999999999998
 21
51.00000000000000
 31
0.0000000000000000
  0
LINE
  5
11B
100
AcDbEntity
  8
A5
  6
CONTINUOUS
 62
7
100
AcDbLine
 10
146.8999999999998
 20
37.29999999999990
 30
0.0000000000000000
 11
146.8999999999998
 21
42.69999999999990
 31
0.0000000000000000
  0
LINE
  5
11C
100
AcDbEntity
  8
A5
  6
CONTINUOUS
 62
7
100
AcDbLine
 10
147.8999999999998
 20
42.50000000000000
 30
0.0000000000000000
 11
147.8999999999998
 21
37.50000000000000
 31
0.0000000000000000
  0
LINE
  5
11D
100
AcDbEntity
  8
A5
  6
CONTINUOUS
 62
7
100
AcDbLine
 10
119.5999999999999
 20
40.00000000000000
 30
0.0000000000000000
 11
119.5999999999999
 21
51.00000000000000
 31
0.0000000000000000
  0
LINE
  5
11E
100
AcDbEntity
  8
A5
  6
CONTINUOUS
 62
7
100
AcDbLine
 10
119.5999999999999
 20
29.00000000000000
 30
0.0000000000000000
 11
119.5999999999999
 21
40.00000000000000
 31
0.0000000000000000
  0
LINE
  5
11F
100
AcDbEntity
  8
A5
  6
CONTINUOUS
 62
7
100
AcDbLine
 10
118.7999999999998
 20
40.00000000000000
 30
0.0000000000000000
 11
118.7999999999998
 21
51.00000000000000
 31
0.0000000000000000
  0
LINE
  5
120
100
AcDbEntity
  8
A5
  6
CONTINUOUS
 62
7
100
AcDbLine
 10
118.7999999999998
 20
29.00000000000000
 30
0.0000000000000000
 11
118.7999999999998
 21
40.00000000000000
 31
0.0000000000000000
  0
LINE
  5
121
100
AcDbEntity
  8
A5
  6
CONTINUOUS
 62
7
100
AcDbLine
 10
110.7999999999998
 20
30.66520311223002
 30
0.0000000000000000
 11
110.7999999999998
 21
49.33479688776998
 31
0.0000000000000000
  0
LINE
  5
122
100
AcDbEntity
  8
A5
  6
CONTINUOUS
 62
7
100
AcDbLine
 10
136.0999999999999
 20
47.89999999999994
 30
0.0000000000000000
 11
136.0999999999999
 21
43.71904070349988
 31
0.0000000000000000
  0
LINE
  5
123
100
AcDbEntity
  8
A5
  6
CONTINUOUS
 62
7
100
AcDbLine
 10
136.0999999999999
 20
36.28095929650030
 30
0.0000000000000000
 11
136.0999999999999
 21
32.09999999999994
 31
0.0000000000000000
  0
LINE
  5
124
100
AcDbEntity
  8
A2
  6
CONTINUOUS
 62
7
100
AcDbLine
 10
121.7999999999998
 20
47.89999999999999
 30
0.0000000000000000
 11
121.7999999999998
 21
32.09999999999998
 31
0.0000000000000000
  0
LINE
  5
125
100
AcDbEntity
  8
A2
  6
CONTINUOUS
 62
7
100
AcDbLine
 10
138.7999999999998
 20
42.69999999999993
 30
0.0000000000000000
 11
138.7999999999998
 21
36.50000000000000
 31
0.0000000000000000
  0
LINE
  5
126
100
AcDbEntity
  8
A5
  6
CONTINUOUS
 62
7
100
AcDbLine
 10
137.8999999999998
 20
47.80000000000001
 30
0.0000000000000000
 11
136.6999999999998
 21
47.80000000000001
 31
0.0000000000000000
  0
LINE
  5
127
100
AcDbEntity
  8
A5
  6
CONTINUOUS
 62
7
100
AcDbLine
 10
137.8999999999998
 20
47.80000000000001
 30
0.0000000000000000
 11
137.8999999999998
 21
32.12796888391000
 31
0.0000000000000000
  0
LINE
  5
128
100
AcDbEntity
  8
A10
  6
CONTINUOUS
 62
7
100
AcDbLine
 10
119.7999999999998
 20
50.79999999999983
 30
0.0000000000000000
 11
119.7999999999997
 21
29.19999999999996
 31
0.0000000000000000
  0
LINE
  5
129
100
AcDbEntity
  8
A10
  6
CONTINUOUS
 62
7
100
AcDbLine
 10
120.7999999999998
 20
50.79999999999959
 30
0.0000000000000000
 11
119.8000000000059
 21
50.79999999999951
 31
0.0000000000000000
  0
LINE
  5
12A
100
AcDbEntity
  8
A10
  6
CONTINUOUS
 62
7
100
AcDbLine
 10
120.7999999999998
 20
29.20000000000053
 30
0.0000000000000000
 11
119.8000000000059
 21
29.20000000000061
 31
0.0000000000000000
  0
LINE
  5
12B
100
AcDbEntity
  8
A2
  6
CONTINUOUS
 62
7
100
AcDbLine
 10
125.6000000000129
 20
27.99999999999989
 30
0.0000000000000000
 11
126.8000000000129
 21
27.99999999999989
 31
0.0000000000000000
  0
LINE
  5
12C
100
AcDbEntity
  8
A2
  6
CONTINUOUS
 62
7
100
AcDbLine
 10
126.8000000000129
 20
51.99999999999989
 30
0.0000000000000000
 11
125.6000000000129
 21
51.99999999999989
 31
0.0000000000000000
  0
LINE
  5
12D
100
AcDbEntity
  8
A2
  6
CONTINUOUS
 62
7
100
AcDbLine
 10
130.8000000000129
 20
28.99999999999991
 30
0.0000000000000000
 11
130.8000000000129
 21
50.99999999999991
 31
0.0000000000000000
  0
LINE
  5
12E
100
AcDbEntity
  8
A5
  6
CONTINUOUS
 62
7
100
AcDbLine
 10
140.3000000000000
 20
46.49999999999991
 30
0.0000000000000000
 11
139.5000000000000
 21
46.49999999999991
 31
0.0000000000000000
  0
LINE
  5
12F
100
AcDbEntity
  8
A5
  6
CONTINUOUS
 62
7
100
AcDbLine
 10
139.5000000000000
 20
33.49999999999991
 30
0.0000000000000000
 11
140.3000000000000
 21
33.49999999999991
 31
0.0000000000000000
  0
LINE
  5
130
100
AcDbEntity
  8
A5
  6
CONTINUOUS
 62
7
100
AcDbLine
 10
139.5000000000000
 20
33.49999999999991
 30
0.0000000000000000
 11
139.5000000000000
 21
46.49999999999991
 31
0.0000000000000000
  0
LINE
  5
131
100
AcDbEntity
  8
A5
  6
CONTINUOUS
 62
7
100
AcDbLine
 10
140.3000000000000
 20
35.23686027917986
 30
0.0000000000000000
 11
140.3026735337100
 21
35.12398966552989
 31
0.0000000000000000
  0
LINE
  5
132
100
AcDbEntity
  8
A5
  6
CONTINUOUS
 62
7
100
AcDbLine
 10
137.8999999999998
 20
36.50000000000000
 30
0.0000000000000000
 11
139.5000000000000
 21
36.50000000000000
 31
0.0000000000000000
  0
LINE
  5
133
100
AcDbEntity
  8
A5
  6
CONTINUOUS
 62
7
100
AcDbLine
 10
140.3000000000000
 20
33.49999999999991
 30
0.0000000000000000
 11
140.3000000000000
 21
46.49999999999991
 31
0.0000000000000000
  0
LINE
  5
134
100
AcDbEntity
  8
A2
  6
CONTINUOUS
 62
7
100
AcDbLine
 10
126.8000000000129
 20
27.99999999999989
 30
0.0000000000000000
 11
126.8000000000129
 21
51.99999999999989
 31
0.0000000000000000
  0
LINE
  5
135
100
AcDbEntity
  8
A2
  6
CONTINUOUS
 62
7
100
AcDbLine
 10
125.6000000000129
 20
27.99999999999989
 30
0.0000000000000000
 11
125.6000000000129
 21
51.99999999999989
 31
0.0000000000000000
  0
LINE
  5
136
100
AcDbEntity
  8
A10
  6
CONTINUOUS
 62
7
100
AcDbLine
 10
120.7999999999998
 20
29.20000000000056
 30
0.0000000000000000
 11
120.7999999999998
 21
50.79999999999957
 31
0.0000000000000000
  0
LINE
  5
137
100
AcDbEntity
  8
A2
  6
CENTER
 62
1
100
AcDbLine
 10
33.34360190910028
 20
179.9999999999999
 30
0.0000000000000000
 11
81.79360190910185
 21
179.9999999999999
 31
0.0000000000000000
  0
LINE
  5
138
100
AcDbEntity
  8
A2
  6
CONTINUOUS
 62
7
100
AcDbLine
 10
40.43156130521631
 20
189.5000000000000
 30
0.0000000000000000
 11
36.59360190909027
 21
183.7430609058101
 31
0.0000000000000000
  0
LINE
  5
139
100
AcDbEntity
  8
A2
  6
CONTINUOUS
 62
7
100
AcDbLine
 10
43.15837319312323
 20
175.9393045259250
 30
0.0000000000000000
 11
42.86581347843426
 21
176.5140715100450
 31
0.0000000000000000
  0
ARC
  5
13A
100
AcDbEntity
  8
A2
  6
CONTINUOUS
 62
7
100
AcDbCircle
 10
46.11502820792271
 20
176.8001655987499
 30
0.0000000000000000
 40
1.274190665414150
100
AcDbArc
 50
326.9483903277001
 51
354.3627859928301
  0
ARC
  5
13B
100
AcDbEntity
  8
A2
  6
CONTINUOUS
 62
7
100
AcDbCircle
 10
43.71215114058828
 20
176.4073471107049
 30
0.0000000000000000
 40
0.7250750831910000
100
AcDbArc
 50
220.2038588862300
 51
257.0737565320800
  0
ARC
  5
13C
100
AcDbEntity
  8
A2
  6
CONTINUOUS
 62
7
100
AcDbCircle
 10
43.08643713817628
 20
177.9272214751699
 30
0.0000000000000000
 40
0.6810031681379500
100
AcDbArc
 50
197.7667294412700
 51
254.4532705587400
  0
ARC
  5
13D
100
AcDbEntity
  8
A2
  6
CONTINUOUS
 62
7
100
AcDbCircle
 10
42.65552754963926
 20
178.1985367287649
 30
0.0000000000000000
 40
0.3379969989693100
100
AcDbArc
 50
99.78816888524599
 51
202.4685523770700
  0
LINE
  5
13E
100
AcDbEntity
  8
A2
  6
CONTINUOUS
 62
7
100
AcDbLine
 10
42.44552091605660
 20
177.6970221892499
 30
0.0000000000000000
 11
42.34318809392610
 21
178.0693622896648
 31
0.0000000000000000
  0
ARC
  5
13F
100
AcDbEntity
  8
A2
  6
CONTINUOUS
 62
7
100
AcDbCircle
 10
42.49066838329372
 20
181.4517197167299
 30
0.0000000000000000
 40
0.3020086577902450
100
AcDbArc
 50
186.0126365013301
 51
267.4016462834900
  0
LINE
  5
140
100
AcDbEntity
  8
A2
  6
CONTINUOUS
 62
7
100
AcDbLine
 10
43.55799797543376
 20
176.1932928501249
 30
0.0000000000000000
 11
46.62414513438524
 21
176.1932928501249
 31
0.0000000000000000
  0
ARC
  5
141
100
AcDbEntity
  8
A2
  6
CONTINUOUS
 62
7
100
AcDbCircle
 10
47.05821884009470
 20
176.6580057669099
 30
0.0000000000000000
 40
0.3252821802262000
100
AcDbArc
 50
359.2247555919400
 51
430.6773160306461
  0
ARC
  5
142
100
AcDbEntity
  8
A2
  6
CONTINUOUS
 62
7
100
AcDbCircle
 10
46.39472704868228
 20
176.5690579874049
 30
0.0000000000000000
 40
0.9146347904216500
100
AcDbArc
 50
288.2931875971300
 51
329.5278841760401
  0
LINE
  5
143
100
AcDbEntity
  8
A2
  6
CONTINUOUS
 62
7
100
AcDbLine
 10
43.54995433348325
 20
175.7006462744049
 30
0.0000000000000000
 11
46.68181222170677
 21
175.7006462744049
 31
0.0000000000000000
  0
ARC
  5
144
100
AcDbEntity
  8
A2
  6
CONTINUOUS
 62
7
100
AcDbCircle
 10
43.18229835357124
 20
176.6295289794350
 30
0.0000000000000000
 40
0.3368873749912850
100
AcDbArc
 50
84.67932729779898
 51
200.0425745653100
  0
LINE
  5
145
100
AcDbEntity
  8
A2
  6
CONTINUOUS
 62
7
100
AcDbLine
 10
43.21353786783425
 20
176.9649648096299
 30
0.0000000000000000
 11
47.16585081892470
 21
176.9649648096299
 31
0.0000000000000000
  0
ARC
  5
146
100
AcDbEntity
  8
A2
  6
CONTINUOUS
 62
7
100
AcDbCircle
 10
47.10777536004468
 20
177.9490158275549
 30
0.0000000000000000
 40
0.6779264837577000
100
AcDbArc
 50
269.3370051678300
 51
338.1547276926800
  0
LINE
  5
147
100
AcDbEntity
  8
A2
  6
CONTINUOUS
 62
7
100
AcDbLine
 10
47.09993094761422
 20
177.2711347298849
 30
0.0000000000000000
 11
42.90391180383427
 21
177.2711347298849
 31
0.0000000000000000
  0
LINE
  5
148
100
AcDbEntity
  8
A2
  6
CONTINUOUS
 62
7
100
AcDbLine
 10
42.92953779962171
 20
177.7641219738899
 30
0.0000000000000000
 11
47.25615951668124
 21
177.7641219738899
 31
0.0000000000000000
  0
LINE
  5
149
100
AcDbEntity
  8
A2
  6
CONTINUOUS
 62
7
100
AcDbLine
 10
46.49246378638666
 20
174.9247262071549
 30
0.0000000000000000
 11
46.77536045615570
 21
175.3585944316950
 31
0.0000000000000000
  0
LINE
  5
14A
100
AcDbEntity
  8
A2
  6
CONTINUOUS
 62
7
100
AcDbLine
 10
43.55799797543369
 20
176.1932928501248
 30
0.0000000000000000
 11
43.44705315990421
 21
176.4746633117248
 31
0.0000000000000000
  0
LINE
  5
14B
100
AcDbEntity
  8
A2
  6
CONTINUOUS
 62
7
100
AcDbLine
 10
46.76526388013611
 20
176.4746633117249
 30
0.0000000000000000
 11
43.44705315990416
 21
176.4746633117249
 31
0.0000000000000000
  0
LINE
  5
14C
100
AcDbEntity
  8
A2
  6
CONTINUOUS
 62
7
100
AcDbLine
 10
46.62410751740323
 20
176.1930445822049
 30
0.0000000000000000
 11
46.76530440199022
 21
176.4746633117250
 31
0.0000000000000000
  0
LINE
  5
14D
100
AcDbEntity
  8
A2
  6
CONTINUOUS
 62
7
100
AcDbLine
 10
42.92953779962176
 20
177.7641219738899
 30
0.0000000000000000
 11
42.85375620783324
 21
178.0454924354898
 31
0.0000000000000000
  0
LINE
  5
14E
100
AcDbEntity
  8
A2
  6
CONTINUOUS
 62
7
100
AcDbLine
 10
42.85375620783328
 20
178.0454924354899
 30
0.0000000000000000
 11
44.12002783632125
 21
178.0454924354899
 31
0.0000000000000000
  0
LINE
  5
14F
100
AcDbEntity
  8
A2
  6
CONTINUOUS
 62
7
100
AcDbLine
 10
46.01892205073069
 20
178.0454924354899
 30
0.0000000000000000
 11
47.32425033117875
 21
178.0454924354899
 31
0.0000000000000000
  0
LINE
  5
150
100
AcDbEntity
  8
A2
  6
CONTINUOUS
 62
7
100
AcDbLine
 10
47.25615951668136
 20
177.7775969558299
 30
0.0000000000000000
 11
47.32425033117887
 21
178.0454924354899
 31
0.0000000000000000
  0
LINE
  5
151
100
AcDbEntity
  8
A2
  6
CONTINUOUS
 62
7
100
AcDbLine
 10
42.59806602615971
 20
178.5365518577649
 30
0.0000000000000000
 11
44.12002783632125
 21
178.5365518577649
 31
0.0000000000000000
  0
LINE
  5
152
100
AcDbEntity
  8
A2
  6
CONTINUOUS
 62
7
100
AcDbLine
 10
44.12002783632110
 20
178.0454924354898
 30
0.0000000000000000
 11
44.12002783632110
 21
178.5365518577648
 31
0.0000000000000000
  0
LINE
  5
153
100
AcDbEntity
  8
A2
  6
CONTINUOUS
 62
7
100
AcDbLine
 10
46.01892205073065
 20
178.5365518577649
 30
0.0000000000000000
 11
47.69305459327617
 21
178.5365518577649
 31
0.0000000000000000
  0
LINE
  5
154
100
AcDbEntity
  8
A2
  6
CONTINUOUS
 62
7
100
AcDbLine
 10
46.01892205073069
 20
178.0441535499649
 30
0.0000000000000000
 11
46.01892205073069
 21
178.5365518577649
 31
0.0000000000000000
  0
ARC
  5
155
100
AcDbEntity
  8
A2
  6
CONTINUOUS
 62
7
100
AcDbCircle
 10
47.49293750760273
 20
178.2221673801849
 30
0.0000000000000000
 40
0.3726720377499600
100
AcDbArc
 50
351.3895723665800
 51
417.5217728704009
  0
LINE
  5
156
100
AcDbEntity
  8
A2
  6
CONTINUOUS
 62
7
100
AcDbLine
 10
47.73292707997378
 20
177.6813008764149
 30
0.0000000000000000
 11
47.86140921462579
 21
178.1663726775299
 31
0.0000000000000000
  0
LINE
  5
157
100
AcDbEntity
  8
A2
  6
CONTINUOUS
 62
7
100
AcDbLine
 10
42.16786208120028
 20
178.8200276790199
 30
0.0000000000000000
 11
42.16786208120028
 21
179.3124259868199
 31
0.0000000000000000
  0
LINE
  5
158
100
AcDbEntity
  8
A2
  6
CONTINUOUS
 62
7
100
AcDbLine
 10
44.81050737194960
 20
179.5937964484199
 30
0.0000000000000000
 11
42.16786208120016
 21
179.5937964484199
 31
0.0000000000000000
  0
LINE
  5
159
100
AcDbEntity
  8
A2
  6
CONTINUOUS
 62
7
100
AcDbLine
 10
42.16786208120028
 20
179.5937964484199
 30
0.0000000000000000
 11
42.16786208120028
 21
180.0861947562199
 31
0.0000000000000000
  0
LINE
  5
15A
100
AcDbEntity
  8
A2
  6
CONTINUOUS
 62
7
100
AcDbLine
 10
42.16786208120028
 20
180.0861947562199
 30
0.0000000000000000
 11
48.04539730432419
 21
180.0861947562199
 31
0.0000000000000000
  0
LINE
  5
15B
100
AcDbEntity
  8
A2
  6
CONTINUOUS
 62
7
100
AcDbLine
 10
48.04539730432419
 20
180.0861947562199
 30
0.0000000000000000
 11
48.04539730432419
 21
179.5937964484199
 31
0.0000000000000000
  0
LINE
  5
15C
100
AcDbEntity
  8
A2
  6
CONTINUOUS
 62
7
100
AcDbLine
 10
48.04539730432419
 20
179.5937964484199
 30
0.0000000000000000
 11
45.28496775189570
 21
179.5937964484199
 31
0.0000000000000000
  0
LINE
  5
15D
100
AcDbEntity
  8
A2
  6
CONTINUOUS
 62
7
100
AcDbLine
 10
45.28496775189566
 20
179.3124259868198
 30
0.0000000000000000
 11
45.28496775189566
 21
179.5937964484199
 31
0.0000000000000000
  0
LINE
  5
15E
100
AcDbEntity
  8
A2
  6
CONTINUOUS
 62
7
100
AcDbLine
 10
42.16786208120016
 20
179.3124259868199
 30
0.0000000000000000
 11
44.81050737194960
 21
179.3124259868199
 31
0.0000000000000000
  0
LINE
  5
15F
100
AcDbEntity
  8
A2
  6
CONTINUOUS
 62
7
100
AcDbLine
 10
44.81050737194968
 20
179.3124259868198
 30
0.0000000000000000
 11
44.81050737194968
 21
179.5937964484199
 31
0.0000000000000000
  0
LINE
  5
160
100
AcDbEntity
  8
A2
  6
CONTINUOUS
 62
7
100
AcDbLine
 10
42.16786208120028
 20
178.8200276790199
 30
0.0000000000000000
 11
48.04539730432419
 21
178.8200276790199
 31
0.0000000000000000
  0
LINE
  5
161
100
AcDbEntity
  8
A2
  6
CONTINUOUS
 62
7
100
AcDbLine
 10
48.04539730432419
 20
178.8200276790199
 30
0.0000000000000000
 11
48.04539730432419
 21
179.3124259868199
 31
0.0000000000000000
  0
LINE
  5
162
100
AcDbEntity
  8
A2
  6
CONTINUOUS
 62
7
100
AcDbLine
 10
48.04539730432419
 20
179.3124259868199
 30
0.0000000000000000
 11
45.28496775189570
 21
179.3124259868199
 31
0.0000000000000000
  0
LINE
  5
163
100
AcDbEntity
  8
A2
  6
CONTINUOUS
 62
7
100
AcDbLine
 10
42.13932172111672
 20
180.3872566935198
 30
0.0000000000000000
 11
48.04539730432415
 21
180.3872566935198
 31
0.0000000000000000
  0
LINE
  5
164
100
AcDbEntity
  8
A2
  6
CONTINUOUS
 62
7
100
AcDbLine
 10
48.04539730432419
 20
180.3829765189299
 30
0.0000000000000000
 11
48.04539730432419
 21
180.8796550013199
 31
0.0000000000000000
  0
LINE
  5
165
100
AcDbEntity
  8
A2
  6
CONTINUOUS
 62
7
100
AcDbLine
 10
48.04539730432415
 20
180.8796550013199
 30
0.0000000000000000
 11
42.13932172111672
 21
180.8796550013199
 31
0.0000000000000000
  0
LINE
  5
166
100
AcDbEntity
  8
A2
  6
CONTINUOUS
 62
7
100
AcDbLine
 10
42.13932172111675
 20
180.3872566935199
 30
0.0000000000000000
 11
42.13932172111675
 21
180.8796550013199
 31
0.0000000000000000
  0
LINE
  5
167
100
AcDbEntity
  8
A2
  6
CONTINUOUS
 62
7
100
AcDbLine
 10
42.47697703684322
 20
181.1500215622599
 30
0.0000000000000000
 11
47.66139685911470
 21
181.1500215622599
 31
0.0000000000000000
  0
LINE
  5
168
100
AcDbEntity
  8
A2
  6
CONTINUOUS
 62
7
100
AcDbLine
 10
47.34920066260756
 20
181.6295144718048
 30
0.0000000000000000
 11
47.34920066260756
 21
181.9108849334048
 31
0.0000000000000000
  0
LINE
  5
169
100
AcDbEntity
  8
A2
  6
CONTINUOUS
 62
7
100
AcDbLine
 10
47.34920066260771
 20
181.9108849334049
 30
0.0000000000000000
 11
45.25589194035377
 21
181.9108849334049
 31
0.0000000000000000
  0
LINE
  5
16A
100
AcDbEntity
  8
A2
  6
CONTINUOUS
 62
7
100
AcDbLine
 10
45.25589194035377
 20
181.8455368674099
 30
0.0000000000000000
 11
45.25589194035377
 21
181.9108849334049
 31
0.0000000000000000
  0
ARC
  5
16B
100
AcDbEntity
  8
A2
  6
CONTINUOUS
 62
7
100
AcDbCircle
 10
47.62983364674778
 20
181.5018026645749
 30
0.0000000000000000
 40
0.3531942529579500
100
AcDbArc
 50
275.1270783642000
 51
337.5281075721700
  0
LINE
  5
16C
100
AcDbEntity
  8
A2
  6
CONTINUOUS
 62
7
100
AcDbLine
 10
42.71393194695828
 20
181.6295144718049
 30
0.0000000000000000
 11
47.34920066260771
 21
181.6295144718049
 31
0.0000000000000000
  0
LINE
  5
16D
100
AcDbEntity
  8
A2
  6
CONTINUOUS
 62
7
100
AcDbLine
 10
42.71393194695828
 20
181.6295144718049
 30
0.0000000000000000
 11
42.71393194695828
 21
181.9158794828099
 31
0.0000000000000000
  0
LINE
  5
16E
100
AcDbEntity
  8
A2
  6
CONTINUOUS
 62
7
100
AcDbLine
 10
44.07036614186075
 20
181.9158794828099
 30
0.0000000000000000
 11
44.07036614186075
 21
182.3875996964899
 31
0.0000000000000000
  0
LINE
  5
16F
100
AcDbEntity
  8
A2
  6
CONTINUOUS
 62
7
100
AcDbLine
 10
42.71393194695828
 20
181.9158794828099
 30
0.0000000000000000
 11
44.07036614186075
 21
181.9158794828099
 31
0.0000000000000000
  0
LINE
  5
170
100
AcDbEntity
  8
A2
  6
CONTINUOUS
 62
7
100
AcDbLine
 10
42.71393194695828
 20
182.3875996964899
 30
0.0000000000000000
 11
44.07036614186075
 21
182.3875996964899
 31
0.0000000000000000
  0
ARC
  5
171
100
AcDbEntity
  8
A2
  6
CONTINUOUS
 62
7
100
AcDbCircle
 10
42.79976667735025
 20
181.7635152649599
 30
0.0000000000000000
 40
0.6299595055404000
100
AcDbArc
 50
97.83115980408300
 51
165.3380519431400
  0
LINE
  5
172
100
AcDbEntity
  8
A2
  6
CONTINUOUS
 62
7
100
AcDbLine
 10
44.81050737194972
 20
181.8455368674099
 30
0.0000000000000000
 11
44.81050737194972
 21
182.3875996964899
 31
0.0000000000000000
  0
LINE
  5
173
100
AcDbEntity
  8
A2
  6
CONTINUOUS
 62
7
100
AcDbLine
 10
44.81050737194972
 20
182.3875996964899
 30
0.0000000000000000
 11
47.38171493880976
 21
182.3875996964899
 31
0.0000000000000000
  0
ARC
  5
174
100
AcDbEntity
  8
A2
  6
CONTINUOUS
 62
7
100
AcDbCircle
 10
47.26070245450228
 20
181.6779462443949
 30
0.0000000000000000
 40
0.7198972450474000
100
AcDbArc
 50
14.95717851222998
 51
80.32281368224302
  0
LINE
  5
175
100
AcDbEntity
  8
A2
  6
CONTINUOUS
 62
7
100
AcDbLine
 10
47.95620885496609
 20
181.3668011690948
 30
0.0000000000000000
 11
47.95620885496609
 21
181.8637496091148
 31
0.0000000000000000
  0
LINE
  5
176
100
AcDbEntity
  8
A2
  6
CONTINUOUS
 62
7
100
AcDbLine
 10
44.81050737194972
 20
181.8455368674099
 30
0.0000000000000000
 11
45.25589194035377
 21
181.8455368674099
 31
0.0000000000000000
  0
LINE
  5
177
100
AcDbEntity
  8
A2
  6
CONTINUOUS
 62
7
100
AcDbLine
 10
47.63311127344526
 20
182.6621039922499
 30
0.0000000000000000
 11
47.63311127344526
 21
183.1545023000499
 31
0.0000000000000000
  0
LINE
  5
178
100
AcDbEntity
  8
A2
  6
CONTINUOUS
 62
7
100
AcDbLine
 10
42.44767956462022
 20
182.6621039922499
 30
0.0000000000000000
 11
47.63311127344526
 21
182.6621039922499
 31
0.0000000000000000
  0
LINE
  5
179
100
AcDbEntity
  8
A2
  6
CONTINUOUS
 62
7
100
AcDbLine
 10
42.44767956462022
 20
182.6621039922499
 30
0.0000000000000000
 11
42.44767956462022
 21
183.1545023000499
 31
0.0000000000000000
  0
LINE
  5
17A
100
AcDbEntity
  8
A2
  6
CONTINUOUS
 62
7
100
AcDbLine
 10
47.63311127344526
 20
183.1545023000499
 30
0.0000000000000000
 11
42.44767956462022
 21
183.1545023000499
 31
0.0000000000000000
  0
LINE
  5
17B
100
AcDbEntity
  8
A2
  6
CONTINUOUS
 62
7
100
AcDbLine
 10
45.15114163934778
 20
183.8977305171549
 30
0.0000000000000000
 11
47.18967267960921
 21
183.8977305171549
 31
0.0000000000000000
  0
ARC
  5
17C
100
AcDbEntity
  8
A2
  6
CONTINUOUS
 62
7
100
AcDbCircle
 10
44.51597654341822
 20
184.1240289494149
 30
0.0000000000000000
 40
0.7378247539793999
100
AcDbArc
 50
283.0749098448101
 51
329.4134762690201
  0
LINE
  5
17D
100
AcDbEntity
  8
A2
  6
CONTINUOUS
 62
7
100
AcDbLine
 10
42.67952445050970
 20
183.4053322093549
 30
0.0000000000000000
 11
44.68289078309670
 21
183.4053322093549
 31
0.0000000000000000
  0
LINE
  5
17E
100
AcDbEntity
  8
A2
  6
CONTINUOUS
 62
7
100
AcDbLine
 10
45.15114163934778
 20
183.7485949758649
 30
0.0000000000000000
 11
45.15114163934778
 21
183.8977305171549
 31
0.0000000000000000
  0
LINE
  5
17F
100
AcDbEntity
  8
A2
  6
CONTINUOUS
 62
7
100
AcDbLine
 10
42.67952445050970
 20
183.4053322093549
 30
0.0000000000000000
 11
42.67952445050970
 21
183.8977305171549
 31
0.0000000000000000
  0
LINE
  5
180
100
AcDbEntity
  8
A2
  6
CONTINUOUS
 62
7
100
AcDbLine
 10
43.02171808588026
 20
184.1791009787549
 30
0.0000000000000000
 11
44.58296249112028
 21
184.1791009787549
 31
0.0000000000000000
  0
LINE
  5
181
100
AcDbEntity
  8
A2
  6
CONTINUOUS
 62
7
100
AcDbLine
 10
43.02171808588026
 20
184.1791009787549
 30
0.0000000000000000
 11
43.02171808588026
 21
184.6714992865549
 31
0.0000000000000000
  0
LINE
  5
182
100
AcDbEntity
  8
A2
  6
CONTINUOUS
 62
7
100
AcDbLine
 10
43.02171808588026
 20
184.6714992865549
 30
0.0000000000000000
 11
44.71349440630025
 21
184.6714992865549
 31
0.0000000000000000
  0
ARC
  5
183
100
AcDbEntity
  8
A2
  6
CONTINUOUS
 62
7
100
AcDbCircle
 10
44.58838114105572
 20
184.0384771268049
 30
0.0000000000000000
 40
0.1406852308000000
100
AcDbArc
 50
270.0000000000100
 51
451.6925384319961
  0
LINE
  5
184
100
AcDbEntity
  8
A2
  6
CONTINUOUS
 62
7
100
AcDbLine
 10
42.67952445050970
 20
183.8977305171549
 30
0.0000000000000000
 11
44.58838114105573
 21
183.8977305171549
 31
0.0000000000000000
  0
LINE
  5
185
100
AcDbEntity
  8
A2
  6
CONTINUOUS
 62
7
100
AcDbLine
 10
47.18967267960921
 20
183.8977305171549
 30
0.0000000000000000
 11
47.18967267960921
 21
184.3901288249549
 31
0.0000000000000000
  0
ARC
  5
186
100
AcDbEntity
  8
A2
  6
CONTINUOUS
 62
7
100
AcDbCircle
 10
44.65492294574028
 20
184.1102472077000
 30
0.0000000000000000
 40
0.5643000195045000
100
AcDbArc
 50
29.73440436994903
 51
84.04226031931002
  0
LINE
  5
187
100
AcDbEntity
  8
A2
  6
CONTINUOUS
 62
7
100
AcDbLine
 10
47.18967267960921
 20
184.3901288249549
 30
0.0000000000000000
 11
45.14492375424471
 21
184.3901288249549
 31
0.0000000000000000
  0
LINE
  5
188
100
AcDbEntity
  8
A2
  6
CONTINUOUS
 62
7
100
AcDbLine
 10
46.84655037752574
 20
184.5367793451249
 30
0.0000000000000000
 11
46.48447881601768
 21
185.1145585894849
 31
0.0000000000000000
  0
LINE
  5
189
100
AcDbEntity
  8
A2
  6
CONTINUOUS
 62
7
100
AcDbLine
 10
46.48648716893773
 20
185.1113537406200
 30
0.0000000000000000
 11
45.22393386712327
 21
185.3757601567800
 31
0.0000000000000000
  0
LINE
  5
18A
100
AcDbEntity
  8
A2
  6
CONTINUOUS
 62
7
100
AcDbLine
 10
45.22393386712326
 20
185.3757601567800
 30
0.0000000000000000
 11
45.16869799137237
 21
186.4335179200149
 31
0.0000000000000000
  0
LINE
  5
18B
100
AcDbEntity
  8
A2
  6
CONTINUOUS
 62
7
100
AcDbLine
 10
44.73153555932377
 20
185.4773513958649
 30
0.0000000000000000
 11
44.69575583258823
 21
186.3866113372899
 31
0.0000000000000000
  0
LINE
  5
18C
100
AcDbEntity
  8
A2
  6
CONTINUOUS
 62
7
100
AcDbLine
 10
43.09556134423327
 20
174.9247262071549
 30
0.0000000000000000
 11
46.49246378638669
 21
174.9247262071549
 31
0.0000000000000000
  0
LINE
  5
18D
100
AcDbEntity
  8
A2
  6
CONTINUOUS
 62
7
100
AcDbLine
 10
42.81210991169892
 20
175.4171197803499
 30
0.0000000000000000
 11
46.77445149971931
 21
175.4171815448049
 31
0.0000000000000000
  0
LINE
  5
18E
100
AcDbEntity
  8
A2
  6
CONTINUOUS
 62
7
100
AcDbLine
 10
45.09360190909025
 20
173.5649916252050
 30
0.0000000000000000
 11
45.49879479259219
 21
173.6151997019250
 31
0.0000000000000000
  0
LINE
  5
18F
100
AcDbEntity
  8
A2
  6
CONTINUOUS
 62
7
100
AcDbLine
 10
45.49879479259239
 20
173.6151997019249
 30
0.0000000000000000
 11
45.89766477666737
 21
173.7650404518449
 31
0.0000000000000000
  0
LINE
  5
190
100
AcDbEntity
  8
A2
  6
CONTINUOUS
 62
7
100
AcDbLine
 10
45.89766477666738
 20
173.7650404518450
 30
0.0000000000000000
 11
46.28398762861988
 21
174.0121756601801
 31
0.0000000000000000
  0
LINE
  5
191
100
AcDbEntity
  8
A2
  6
CONTINUOUS
 62
7
100
AcDbLine
 10
46.28398762861980
 20
174.0121756601800
 30
0.0000000000000000
 11
46.65173490955372
 21
174.3527488646600
 31
0.0000000000000000
  0
LINE
  5
192
100
AcDbEntity
  8
A2
  6
CONTINUOUS
 62
7
100
AcDbLine
 10
46.65173490955381
 20
174.3527488646599
 30
0.0000000000000000
 11
46.99516804614672
 21
174.7814455343299
 31
0.0000000000000000
  0
LINE
  5
193
100
AcDbEntity
  8
A2
  6
CONTINUOUS
 62
7
100
AcDbLine
 10
46.99516804614682
 20
174.7814455343299
 30
0.0000000000000000
 11
47.30892787916575
 21
175.2915760010499
 31
0.0000000000000000
  0
LINE
  5
194
100
AcDbEntity
  8
A2
  6
CONTINUOUS
 62
7
100
AcDbLine
 10
47.30892787916576
 20
175.2915760010500
 30
0.0000000000000000
 11
47.58811829135726
 21
175.8751798495000
 31
0.0000000000000000
  0
LINE
  5
195
100
AcDbEntity
  8
A2
  6
CONTINUOUS
 62
7
100
AcDbLine
 10
47.58811829135723
 20
175.8751798495000
 30
0.0000000000000000
 11
47.82838260971576
 21
176.5231501368150
 31
0.0000000000000000
  0
LINE
  5
196
100
AcDbEntity
  8
A2
  6
CONTINUOUS
 62
7
100
AcDbLine
 10
47.82838260971566
 20
176.5231501368150
 30
0.0000000000000000
 11
48.02597158991208
 21
177.2253755033850
 31
0.0000000000000000
  0
LINE
  5
197
100
AcDbEntity
  8
A2
  6
CONTINUOUS
 62
7
100
AcDbLine
 10
48.02597158991220
 20
177.2253755033849
 30
0.0000000000000000
 11
48.17780192199567
 21
177.9708979572249
 31
0.0000000000000000
  0
LINE
  5
198
100
AcDbEntity
  8
A2
  6
CONTINUOUS
 62
7
100
AcDbLine
 10
48.17780192199569
 20
177.9708979572249
 30
0.0000000000000000
 11
48.28150434441528
 21
178.7480838697899
 31
0.0000000000000000
  0
LINE
  5
199
100
AcDbEntity
  8
A2
  6
CONTINUOUS
 62
7
100
AcDbLine
 10
48.28150434441515
 20
178.7480838697899
 30
0.0000000000000000
 11
48.33546061555322
 21
179.5448055148549
 31
0.0000000000000000
  0
LINE
  5
19A
100
AcDbEntity
  8
A2
  6
CONTINUOUS
 62
7
100
AcDbLine
 10
48.33546061555342
 20
179.5448055148549
 30
0.0000000000000000
 11
48.33882876584494
 21
180.3486303176199
 31
0.0000000000000000
  0
LINE
  5
19B
100
AcDbEntity
  8
A2
  6
CONTINUOUS
 62
7
100
AcDbLine
 10
48.33882876584478
 20
180.3486303176199
 30
0.0000000000000000
 11
48.29155623643028
 21
181.1470148608749
 31
0.0000000000000000
  0
LINE
  5
19C
100
AcDbEntity
  8
A2
  6
CONTINUOUS
 62
7
100
AcDbLine
 10
48.29155623643010
 20
181.1470148608748
 30
0.0000000000000000
 11
48.19438069932164
 21
181.9275006208598
 31
0.0000000000000000
  0
LINE
  5
19D
100
AcDbEntity
  8
A2
  6
CONTINUOUS
 62
7
100
AcDbLine
 10
48.19438069932175
 20
181.9275006208599
 30
0.0000000000000000
 11
48.04881854627376
 21
182.6779083783249
 31
0.0000000000000000
  0
LINE
  5
19E
100
AcDbEntity
  8
A2
  6
CONTINUOUS
 62
7
100
AcDbLine
 10
48.04881854627386
 20
182.6779083783250
 30
0.0000000000000000
 11
47.85714122600039
 21
183.3865282711950
 31
0.0000000000000000
  0
LINE
  5
19F
100
AcDbEntity
  8
A2
  6
CONTINUOUS
 62
7
100
AcDbLine
 10
47.85714122600027
 20
183.3865282711949
 30
0.0000000000000000
 11
47.62233979897586
 21
184.0423025230449
 31
0.0000000000000000
  0
LINE
  5
1A0
100
AcDbEntity
  8
A2
  6
CONTINUOUS
 62
7
100
AcDbLine
 10
47.62233979897568
 20
184.0423025230449
 30
0.0000000000000000
 11
47.34807826293824
 21
184.6349979960049
 31
0.0000000000000000
  0
LINE
  5
1A1
100
AcDbEntity
  8
A2
  6
CONTINUOUS
 62
7
100
AcDbLine
 10
47.34807826293815
 20
184.6349979960050
 30
0.0000000000000000
 11
47.03863637742766
 21
185.1553658754549
 31
0.0000000000000000
  0
LINE
  5
1A2
100
AcDbEntity
  8
A2
  6
CONTINUOUS
 62
7
100
AcDbLine
 10
47.03863637742769
 20
185.1553658754550
 30
0.0000000000000000
 11
46.69884287957269
 21
185.5952859946750
 31
0.0000000000000000
  0
LINE
  5
1A3
100
AcDbEntity
  8
A2
  6
CONTINUOUS
 62
7
100
AcDbLine
 10
46.69884287957279
 20
185.5952859946748
 30
0.0000000000000000
 11
46.33400013326025
 21
185.9478935473398
 31
0.0000000000000000
  0
LINE
  5
1A4
100
AcDbEntity
  8
A2
  6
CONTINUOUS
 62
7
100
AcDbLine
 10
46.33400013326037
 20
185.9478935473400
 30
0.0000000000000000
 11
46.28268638797987
 21
185.9888378627900
 31
0.0000000000000000
  0
LINE
  5
1A5
100
AcDbEntity
  8
A2
  6
CONTINUOUS
 62
7
100
AcDbLine
 10
45.82521263453976
 20
186.2698418278249
 30
0.0000000000000000
 11
45.82521263453976
 21
186.8017378200699
 31
0.0000000000000000
  0
LINE
  5
1A6
100
AcDbEntity
  8
A2
  6
CONTINUOUS
 62
7
100
AcDbLine
 10
46.28268638797977
 20
185.9888378627899
 30
0.0000000000000000
 11
46.28268638797977
 21
186.5771243222149
 31
0.0000000000000000
  0
LINE
  5
1A7
100
AcDbEntity
  8
A2
  6
CONTINUOUS
 62
7
100
AcDbLine
 10
42.19032113022275
 20
181.4200849739199
 30
0.0000000000000000
 11
42.19032113022275
 21
181.9229677773499
 31
0.0000000000000000
  0
LINE
  5
1A8
100
AcDbEntity
  8
A2
  6
CONTINUOUS
 62
7
100
AcDbLine
 10
46.77536045615576
 20
175.3585944316949
 30
0.0000000000000000
 11
46.77422529699921
 21
175.4171815412799
 31
0.0000000000000000
  0
LINE
  5
1A9
100
AcDbEntity
  8
A2
  6
CONTINUOUS
 62
7
100
AcDbLine
 10
45.09360190909035
 20
173.0649999999999
 30
0.0000000000000000
 11
45.56113215928485
 21
173.1191091777649
 31
0.0000000000000000
  0
LINE
  5
1AA
100
AcDbEntity
  8
A2
  6
CONTINUOUS
 62
7
100
AcDbLine
 10
45.56113215928467
 20
173.1191091777650
 30
0.0000000000000000
 11
46.02136675629472
 21
173.2805923554350
 31
0.0000000000000000
  0
LINE
  5
1AB
100
AcDbEntity
  8
A2
  6
CONTINUOUS
 62
7
100
AcDbLine
 10
46.02136675629467
 20
173.2805923554350
 30
0.0000000000000000
 11
46.46712389316272
 21
173.5469296420350
 31
0.0000000000000000
  0
LINE
  5
1AC
100
AcDbEntity
  8
A2
  6
CONTINUOUS
 62
7
100
AcDbLine
 10
46.46712389316293
 20
173.5469296420349
 30
0.0000000000000000
 11
46.89144767885591
 21
173.9139649332899
 31
0.0000000000000000
  0
LINE
  5
1AD
100
AcDbEntity
  8
A2
  6
CONTINUOUS
 62
7
100
AcDbLine
 10
46.89144767885571
 20
173.9139649332900
 30
0.0000000000000000
 11
47.28771668261665
 21
174.3759707662300
 31
0.0000000000000000
  0
LINE
  5
1AE
100
AcDbEntity
  8
A2
  6
CONTINUOUS
 62
7
100
AcDbLine
 10
47.28771668261682
 20
174.3759707662299
 30
0.0000000000000000
 11
47.64974725917780
 21
174.9257376943599
 31
0.0000000000000000
  0
LINE
  5
1AF
100
AcDbEntity
  8
A2
  6
CONTINUOUS
 62
7
100
AcDbLine
 10
47.64974725917774
 20
174.9257376943599
 30
0.0000000000000000
 11
47.97189004247528
 21
175.5546867886349
 31
0.0000000000000000
  0
LINE
  5
1B0
100
AcDbEntity
  8
A2
  6
CONTINUOUS
 62
7
100
AcDbLine
 10
47.97189004247533
 20
175.5546867886350
 30
0.0000000000000000
 11
48.24911810211980
 21
176.2530035088050
 31
0.0000000000000000
  0
LINE
  5
1B1
100
AcDbEntity
  8
A2
  6
CONTINUOUS
 62
7
100
AcDbLine
 10
48.24911810211979
 20
176.2530035088049
 30
0.0000000000000000
 11
48.47710538696180
 21
177.0097908559999
 31
0.0000000000000000
  0
LINE
  5
1B2
100
AcDbEntity
  8
A2
  6
CONTINUOUS
 62
7
100
AcDbLine
 10
48.47710538696174
 20
177.0097908560000
 30
0.0000000000000000
 11
48.65229423167375
 21
177.8132394167850
 31
0.0000000000000000
  0
LINE
  5
1B3
100
AcDbEntity
  8
A2
  6
CONTINUOUS
 62
7
100
AcDbLine
 10
48.65229423167364
 20
177.8132394167849
 30
0.0000000000000000
 11
48.77195087292660
 21
178.6508116450949
 31
0.0000000000000000
  0
LINE
  5
1B4
100
AcDbEntity
  8
A2
  6
CONTINUOUS
 62
7
100
AcDbLine
 10
48.77195087292685
 20
178.6508116450950
 30
0.0000000000000000
 11
48.83420810885540
 21
179.5094375064350
 31
0.0000000000000000
  0
LINE
  5
1B5
100
AcDbEntity
  8
A2
  6
CONTINUOUS
 62
7
100
AcDbLine
 10
48.83420810885528
 20
179.5094375064348
 30
0.0000000000000000
 11
48.83809443611418
 21
180.3757184314099
 31
0.0000000000000000
  0
LINE
  5
1B6
100
AcDbEntity
  8
A2
  6
CONTINUOUS
 62
7
100
AcDbLine
 10
48.83809443611430
 20
180.3757184314100
 30
0.0000000000000000
 11
48.78354920986730
 21
181.2361363959299
 31
0.0000000000000000
  0
LINE
  5
1B7
100
AcDbEntity
  8
A2
  6
CONTINUOUS
 62
7
100
AcDbLine
 10
48.78354920986720
 20
181.2361363959300
 30
0.0000000000000000
 11
48.67142359012615
 21
182.0772648654249
 31
0.0000000000000000
  0
LINE
  5
1B8
100
AcDbEntity
  8
A2
  6
CONTINUOUS
 62
7
100
AcDbLine
 10
48.67142359012617
 20
182.0772648654249
 30
0.0000000000000000
 11
48.50346725968616
 21
182.8859783114549
 31
0.0000000000000000
  0
LINE
  5
1B9
100
AcDbEntity
  8
A2
  6
CONTINUOUS
 62
7
100
AcDbLine
 10
48.50346725968632
 20
182.8859783114549
 30
0.0000000000000000
 11
48.28230112090932
 21
183.6496570311750
 31
0.0000000000000000
  0
LINE
  5
1BA
100
AcDbEntity
  8
A2
  6
CONTINUOUS
 62
7
100
AcDbLine
 10
48.28230112090926
 20
183.6496570311749
 30
0.0000000000000000
 11
48.01137639741972
 21
184.3563840735799
 31
0.0000000000000000
  0
LINE
  5
1BB
100
AcDbEntity
  8
A2
  6
CONTINUOUS
 62
7
100
AcDbLine
 10
48.01137639741966
 20
184.3563840735799
 30
0.0000000000000000
 11
47.69492077891471
 21
184.9951311995499
 31
0.0000000000000000
  0
LINE
  5
1BC
100
AcDbEntity
  8
A2
  6
CONTINUOUS
 62
7
100
AcDbLine
 10
47.69492077891474
 20
184.9951311995500
 30
0.0000000000000000
 11
47.33787244947976
 21
185.5559309738150
 31
0.0000000000000000
  0
LINE
  5
1BD
100
AcDbEntity
  8
A2
  6
CONTINUOUS
 62
7
100
AcDbLine
 10
47.33787244947973
 20
185.5559309738149
 30
0.0000000000000000
 11
46.94580302887778
 21
186.0300323034649
 31
0.0000000000000000
  0
LINE
  5
1BE
100
AcDbEntity
  8
A2
  6
CONTINUOUS
 62
7
100
AcDbLine
 10
46.94580302887780
 20
186.0300323034650
 30
0.0000000000000000
 11
46.52483062928631
 21
186.4100369958150
 31
0.0000000000000000
  0
LINE
  5
1BF
100
AcDbEntity
  8
A2
  6
CONTINUOUS
 62
7
100
AcDbLine
 10
46.52483062928627
 20
186.4100369958149
 30
0.0000000000000000
 11
46.28268638797978
 21
186.5771243222149
 31
0.0000000000000000
  0
LINE
  5
1C0
100
AcDbEntity
  8
A2
  6
CONTINUOUS
 62
7
100
AcDbLine
 10
45.82521263453982
 20
186.8017378200700
 30
0.0000000000000000
 11
45.36095812270531
 21
186.9173523277200
 31
0.0000000000000000
  0
LINE
  5
1C1
100
AcDbEntity
  8
A2
  6
CONTINUOUS
 62
7
100
AcDbLine
 10
45.36095812270531
 20
186.9173523277199
 30
0.0000000000000000
 11
44.89253160657618
 21
186.9250238658599
 31
0.0000000000000000
  0
LINE
  5
1C2
100
AcDbEntity
  8
A2
  6
CONTINUOUS
 62
7
100
AcDbLine
 10
44.89253160657631
 20
186.9250238658599
 30
0.0000000000000000
 11
44.42724272526884
 21
186.8246327227099
 31
0.0000000000000000
  0
LINE
  5
1C3
100
AcDbEntity
  8
A2
  6
CONTINUOUS
 62
7
100
AcDbLine
 10
44.42724272526878
 20
186.8246327227099
 30
0.0000000000000000
 11
43.97235215615481
 21
186.6177454684799
 31
0.0000000000000000
  0
LINE
  5
1C4
100
AcDbEntity
  8
A2
  6
CONTINUOUS
 62
7
100
AcDbLine
 10
43.97235215615484
 20
186.6177454684801
 30
0.0000000000000000
 11
43.53495831442382
 21
186.3075905095750
 31
0.0000000000000000
  0
LINE
  5
1C5
100
AcDbEntity
  8
A2
  6
CONTINUOUS
 62
7
100
AcDbLine
 10
43.53495831442372
 20
186.3075905095747
 30
0.0000000000000000
 11
43.12188658468568
 21
185.8990077103997
 31
0.0000000000000000
  0
LINE
  5
1C6
100
AcDbEntity
  8
A2
  6
CONTINUOUS
 62
7
100
AcDbLine
 10
43.12188658468580
 20
185.8990077104000
 30
0.0000000000000000
 11
42.73958281312828
 21
185.3983728688750
 31
0.0000000000000000
  0
LINE
  5
1C7
100
AcDbEntity
  8
A2
  6
CONTINUOUS
 62
7
100
AcDbLine
 10
42.73958281312827
 20
185.3983728688750
 30
0.0000000000000000
 11
42.39401272224081
 21
184.8134982242650
 31
0.0000000000000000
  0
LINE
  5
1C8
100
AcDbEntity
  8
A2
  6
CONTINUOUS
 62
7
100
AcDbLine
 10
42.39401272224069
 20
184.8134982242649
 30
0.0000000000000000
 11
42.09056881771261
 21
184.1535105497799
 31
0.0000000000000000
  0
LINE
  5
1C9
100
AcDbEntity
  8
A2
  6
CONTINUOUS
 62
7
100
AcDbLine
 10
42.09056881771274
 20
184.1535105497800
 30
0.0000000000000000
 11
41.83398624018580
 21
183.4287087323451
 31
0.0000000000000000
  0
LINE
  5
1CA
100
AcDbEntity
  8
A2
  6
CONTINUOUS
 62
7
100
AcDbLine
 10
41.83398624018562
 20
183.4287087323449
 30
0.0000000000000000
 11
41.62826887496512
 21
182.6504030618999
 31
0.0000000000000000
  0
LINE
  5
1CB
100
AcDbEntity
  8
A2
  6
CONTINUOUS
 62
7
100
AcDbLine
 10
41.62826887496519
 20
182.6504030619000
 30
0.0000000000000000
 11
41.47662687273120
 21
181.8307387381249
 31
0.0000000000000000
  0
LINE
  5
1CC
100
AcDbEntity
  8
A2
  6
CONTINUOUS
 62
7
100
AcDbLine
 10
41.47662687273115
 20
181.8307387381249
 30
0.0000000000000000
 11
41.38142655621166
 21
180.9825063486499
 31
0.0000000000000000
  0
LINE
  5
1CD
100
AcDbEntity
  8
A2
  6
CONTINUOUS
 62
7
100
AcDbLine
 10
41.38142655621181
 20
180.9825063486499
 30
0.0000000000000000
 11
41.34415349450438
 21
180.1189422762150
 31
0.0000000000000000
  0
LINE
  5
1CE
100
AcDbEntity
  8
A2
  6
CONTINUOUS
 62
7
100
AcDbLine
 10
41.34415349450414
 20
180.1189422762149
 30
0.0000000000000000
 11
41.36538932127068
 21
179.2535221493349
 31
0.0000000000000000
  0
LINE
  5
1CF
100
AcDbEntity
  8
A2
  6
CONTINUOUS
 62
7
100
AcDbLine
 10
41.36538932127068
 20
179.2535221493349
 30
0.0000000000000000
 11
41.44480265853717
 21
178.3997505596499
 31
0.0000000000000000
  0
LINE
  5
1D0
100
AcDbEntity
  8
A2
  6
CONTINUOUS
 62
7
100
AcDbLine
 10
41.44480265853727
 20
178.3997505596500
 30
0.0000000000000000
 11
41.58115428773627
 21
177.5709503272650
 31
0.0000000000000000
  0
LINE
  5
1D1
100
AcDbEntity
  8
A2
  6
CONTINUOUS
 62
7
100
AcDbLine
 10
41.58115428773630
 20
177.5709503272649
 30
0.0000000000000000
 11
41.77231648729828
 21
176.7800546026099
 31
0.0000000000000000
  0
LINE
  5
1D2
100
AcDbEntity
  8
A2
  6
CONTINUOUS
 62
7
100
AcDbLine
 10
41.77231648729826
 20
176.7800546026099
 30
0.0000000000000000
 11
42.01530623503428
 21
176.0394050489349
 31
0.0000000000000000
  0
LINE
  5
1D3
100
AcDbEntity
  8
A2
  6
CONTINUOUS
 62
7
100
AcDbLine
 10
42.01530623503426
 20
176.0394050489349
 30
0.0000000000000000
 11
42.30633175720120
 21
175.3605592548199
 31
0.0000000000000000
  0
LINE
  5
1D4
100
AcDbEntity
  8
A2
  6
CONTINUOUS
 62
7
100
AcDbLine
 10
42.30633175720126
 20
175.3605592548200
 30
0.0000000000000000
 11
42.64085169786171
 21
174.7541103818350
 31
0.0000000000000000
  0
LINE
  5
1D5
100
AcDbEntity
  8
A2
  6
CONTINUOUS
 62
7
100
AcDbLine
 10
42.64085169786176
 20
174.7541103818349
 30
0.0000000000000000
 11
43.01364598522524
 21
174.2295218618049
 31
0.0000000000000000
  0
LINE
  5
1D6
100
AcDbEntity
  8
A2
  6
CONTINUOUS
 62
7
100
AcDbLine
 10
43.01364598522528
 20
174.2295218618050
 30
0.0000000000000000
 11
43.41889728912129
 21
173.7949797231349
 31
0.0000000000000000
  0
LINE
  5
1D7
100
AcDbEntity
  8
A2
  6
CONTINUOUS
 62
7
100
AcDbLine
 10
43.41889728912107
 20
173.7949797231349
 30
0.0000000000000000
 11
43.85028179849206
 21
173.4572648505649
 31
0.0000000000000000
  0
LINE
  5
1D8
100
AcDbEntity
  8
A2
  6
CONTINUOUS
 62
7
100
AcDbLine
 10
43.85028179849219
 20
173.4572648505649
 30
0.0000000000000000
 11
44.30106790235023
 21
173.2216471717248
 31
0.0000000000000000
  0
LINE
  5
1D9
100
AcDbEntity
  8
A2
  6
CONTINUOUS
 62
7
100
AcDbLine
 10
44.30106790235016
 20
173.2216471717250
 30
0.0000000000000000
 11
44.68129210310026
 21
173.1070455252101
 31
0.0000000000000000
  0
LINE
  5
1DA
100
AcDbEntity
  8
A2
  6
CONTINUOUS
 62
7
100
AcDbLine
 10
44.68129210310020
 20
173.1070455252099
 30
0.0000000000000000
 11
44.68129210310020
 21
173.6169861746299
 31
0.0000000000000000
  0
LINE
  5
1DB
100
AcDbEntity
  8
A2
  6
CONTINUOUS
 62
7
100
AcDbLine
 10
45.09360190909004
 20
173.0649999999997
 30
0.0000000000000000
 11
45.09360190909004
 21
173.5649916252048
 31
0.0000000000000000
  0
LINE
  5
1DC
100
AcDbEntity
  8
A2
  6
CONTINUOUS
 62
7
100
AcDbLine
 10
44.26052491478784
 20
170.4999999999850
 30
0.0000000000000000
 11
52.26360190909041
 21
176.5000000533800
 31
0.0000000000000000
  0
LINE
  5
1DD
100
AcDbEntity
  8
A2
  6
CONTINUOUS
 62
7
100
AcDbLine
 10
52.26360190909014
 20
176.5000000533798
 30
0.0000000000000000
 11
52.26360190909014
 21
183.4999999468098
 31
0.0000000000000000
  0
LINE
  5
1DE
100
AcDbEntity
  8
A2
  6
CONTINUOUS
 62
7
100
AcDbLine
 10
40.43156130542366
 20
170.4999999999999
 30
0.0000000000000000
 11
44.26052491480812
 21
170.4999999999999
 31
0.0000000000000000
  0
LINE
  5
1DF
100
AcDbEntity
  8
A2
  6
CONTINUOUS
 62
7
100
AcDbLine
 10
44.26052491506870
 20
189.4999999999999
 30
0.0000000000000000
 11
40.43156130521619
 21
189.4999999999999
 31
0.0000000000000000
  0
LINE
  5
1E0
100
AcDbEntity
  8
A2
  6
CONTINUOUS
 62
7
100
AcDbLine
 10
43.09556134423319
 20
174.9247262071549
 30
0.0000000000000000
 11
43.43072525872122
 21
174.4710962943400
 31
0.0000000000000000
  0
LINE
  5
1E1
100
AcDbEntity
  8
A2
  6
CONTINUOUS
 62
7
100
AcDbLine
 10
43.43072525872124
 20
174.4710962943400
 30
0.0000000000000000
 11
43.79183780717482
 21
174.1037430746599
 31
0.0000000000000000
  0
LINE
  5
1E2
100
AcDbEntity
  8
A2
  6
CONTINUOUS
 62
7
100
AcDbLine
 10
43.79183780717471
 20
174.1037430746599
 30
0.0000000000000000
 11
44.17326394905214
 21
173.8283989722500
 31
0.0000000000000000
  0
LINE
  5
1E3
100
AcDbEntity
  8
A2
  6
CONTINUOUS
 62
7
100
AcDbLine
 10
44.17326394905218
 20
173.8283989722499
 30
0.0000000000000000
 11
44.56905165698117
 21
173.6493606397350
 31
0.0000000000000000
  0
LINE
  5
1E4
100
AcDbEntity
  8
A2
  6
CONTINUOUS
 62
7
100
AcDbLine
 10
44.56905165698123
 20
173.6493606397350
 30
0.0000000000000000
 11
44.68129210310024
 21
173.6169861746300
 31
0.0000000000000000
  0
LINE
  5
1E5
100
AcDbEntity
  8
A2
  6
CONTINUOUS
 62
7
100
AcDbLine
 10
46.84655037752569
 20
184.5367793451249
 30
0.0000000000000000
 11
43.23842503743120
 21
185.2836096173399
 31
0.0000000000000000
  0
LINE
  5
1E6
100
AcDbEntity
  8
A2
  6
CONTINUOUS
 62
7
100
AcDbLine
 10
45.82521263453976
 20
186.2698418278249
 30
0.0000000000000000
 11
45.42471151524871
 21
186.4015251473399
 31
0.0000000000000000
  0
LINE
  5
1E7
100
AcDbEntity
  8
A2
  6
CONTINUOUS
 62
7
100
AcDbLine
 10
45.42471151524865
 20
186.4015251473398
 30
0.0000000000000000
 11
45.01904354129622
 21
186.4333148079799
 31
0.0000000000000000
  0
LINE
  5
1E8
100
AcDbEntity
  8
A2
  6
CONTINUOUS
 62
7
100
AcDbLine
 10
45.01904354129641
 20
186.4333148079799
 30
0.0000000000000000
 11
44.61453902573641
 21
186.3647147427149
 31
0.0000000000000000
  0
LINE
  5
1E9
100
AcDbEntity
  8
A2
  6
CONTINUOUS
 62
7
100
AcDbLine
 10
44.61453902573629
 20
186.3647147427149
 30
0.0000000000000000
 11
44.21751012624421
 21
186.1967954326249
 31
0.0000000000000000
  0
LINE
  5
1EA
100
AcDbEntity
  8
A2
  6
CONTINUOUS
 62
7
100
AcDbLine
 10
44.21751012624418
 20
186.1967954326249
 30
0.0000000000000000
 11
43.83415234600723
 21
185.9321772023799
 31
0.0000000000000000
  0
LINE
  5
1EB
100
AcDbEntity
  8
A2
  6
CONTINUOUS
 62
7
100
AcDbLine
 10
43.83415234600709
 20
185.9321772023799
 30
0.0000000000000000
 11
43.59708521237808
 21
185.7122088712849
 31
0.0000000000000000
  0
LINE
  5
1EC
100
AcDbEntity
  8
A2
  6
CONTINUOUS
 62
7
100
AcDbLine
 10
43.23842503743122
 20
185.2836096173399
 30
0.0000000000000000
 11
42.92020693511069
 21
184.7844230507899
 31
0.0000000000000000
  0
LINE
  5
1ED
100
AcDbEntity
  8
A2
  6
CONTINUOUS
 62
7
100
AcDbLine
 10
42.92020693511070
 20
184.7844230507899
 30
0.0000000000000000
 11
42.63590393444868
 21
184.2105771627199
 31
0.0000000000000000
  0
LINE
  5
1EE
100
AcDbEntity
  8
A2
  6
CONTINUOUS
 62
7
100
AcDbLine
 10
42.63590393444871
 20
184.2105771627200
 30
0.0000000000000000
 11
42.38995248868217
 21
183.5710266262900
 31
0.0000000000000000
  0
LINE
  5
1EF
100
AcDbEntity
  8
A2
  6
CONTINUOUS
 62
7
100
AcDbLine
 10
42.38995248868233
 20
183.5710266262899
 30
0.0000000000000000
 11
42.18619058786228
 21
182.8757514137199
 31
0.0000000000000000
  0
LINE
  5
1F0
100
AcDbEntity
  8
A2
  6
CONTINUOUS
 62
7
100
AcDbLine
 10
42.18619058786220
 20
182.8757514137200
 30
0.0000000000000000
 11
42.02779786830120
 21
182.1356010621599
 31
0.0000000000000000
  0
LINE
  5
1F1
100
AcDbEntity
  8
A2
  6
CONTINUOUS
 62
7
100
AcDbLine
 10
42.02779786830131
 20
182.1356010621600
 30
0.0000000000000000
 11
41.91724599541230
 21
181.3621253702900
 31
0.0000000000000000
  0
LINE
  5
1F2
100
AcDbEntity
  8
A2
  6
CONTINUOUS
 62
7
100
AcDbLine
 10
41.91724599541223
 20
181.3621253702899
 30
0.0000000000000000
 11
41.85626009419613
 21
180.5673941675950
 31
0.0000000000000000
  0
LINE
  5
1F3
100
AcDbEntity
  8
A2
  6
CONTINUOUS
 62
7
100
AcDbLine
 10
41.85626009419625
 20
180.5673941675949
 30
0.0000000000000000
 11
41.84579182924424
 21
179.7638089686849
 31
0.0000000000000000
  0
LINE
  5
1F4
100
AcDbEntity
  8
A2
  6
CONTINUOUS
 62
7
100
AcDbLine
 10
41.84579182924428
 20
179.7638089686849
 30
0.0000000000000000
 11
41.88600455433075
 21
178.9639094518199
 31
0.0000000000000000
  0
LINE
  5
1F5
100
AcDbEntity
  8
A2
  6
CONTINUOUS
 62
7
100
AcDbLine
 10
41.88600455433082
 20
178.9639094518200
 30
0.0000000000000000
 11
41.97627076332934
 21
178.1801777814349
 31
0.0000000000000000
  0
LINE
  5
1F6
100
AcDbEntity
  8
A2
  6
CONTINUOUS
 62
7
100
AcDbLine
 10
41.97627076332929
 20
178.1801777814349
 30
0.0000000000000000
 11
42.11518188223880
 21
177.4248438281098
 31
0.0000000000000000
  0
LINE
  5
1F7
100
AcDbEntity
  8
A2
  6
CONTINUOUS
 62
7
100
AcDbLine
 10
42.11518188223868
 20
177.4248438281099
 30
0.0000000000000000
 11
42.30057024950923
 21
176.7096943255649
 31
0.0000000000000000
  0
LINE
  5
1F8
100
AcDbEntity
  8
A2
  6
CONTINUOUS
 62
7
100
AcDbLine
 10
42.30057024950925
 20
176.7096943255649
 30
0.0000000000000000
 11
42.52954294167371
 21
176.0458889425999
 31
0.0000000000000000
  0
LINE
  5
1F9
100
AcDbEntity
  8
A2
  6
CONTINUOUS
 62
7
100
AcDbLine
 10
42.52954294167375
 20
176.0458889425998
 30
0.0000000000000000
 11
42.79852691645318
 21
175.4437861401998
 31
0.0000000000000000
  0
LINE
  5
1FA
100
AcDbEntity
  8
A2
  6
CONTINUOUS
 62
7
100
AcDbLine
 10
42.79852691645340
 20
175.4437861402000
 30
0.0000000000000000
 11
42.81210991169881
 21
175.4171197803500
 31
0.0000000000000000
  0
LINE
  5
1FB
100
AcDbEntity
  8
A2
  6
CONTINUOUS
 62
7
100
AcDbLine
 10
43.59708521237839
 20
185.7122088712849
 30
0.0000000000000000
 11
44.73153555932374
 21
185.4773513958650
 31
0.0000000000000000
  0
ARC
  5
1FC
100
AcDbEntity
  8
A3
  6
CONTINUOUS
 62
7
100
AcDbCircle
 10
37.09360190910024
 20
176.3999999999999
 30
0.0000000000000000
 40
0.5000000000000000
100
AcDbArc
 50
180.0000000000000
 51
269.9999999985800
  0
LINE
  5
1FD
100
AcDbEntity
  8
A3
  6
CONTINUOUS
 62
7
100
AcDbLine
 10
37.09360190909025
 20
175.8999999999999
 30
0.0000000000000000
 11
39.59360190909025
 21
175.8999999999999
 31
0.0000000000000000
  0
ARC
  5
1FE
100
AcDbEntity
  8
A3
  6
CONTINUOUS
 62
7
100
AcDbCircle
 10
39.59360190909024
 20
176.4000000000099
 30
0.0000000000000000
 40
0.5000000000000000
100
AcDbArc
 50
270.0000000000000
 51
360.0000000000000
  0
ARC
  5
1FF
100
AcDbEntity
  8
A3
  6
CONTINUOUS
 62
7
100
AcDbCircle
 10
39.59360190910024
 20
183.5999999999999
 30
0.0000000000000000
 40
0.5000000000000000
100
AcDbArc
 50
0.0000000000000000
 51
90.00000000121202
  0
LINE
  5
200
100
AcDbEntity
  8
A3
  6
CONTINUOUS
 62
7
100
AcDbLine
 10
39.59360190909025
 20
184.0999999999999
 30
0.0000000000000000
 11
37.09360190909025
 21
184.0999999999999
 31
0.0000000000000000
  0
ARC
  5
201
100
AcDbEntity
  8
A3
  6
CONTINUOUS
 62
7
100
AcDbCircle
 10
37.09360190909024
 20
183.6000000000099
 30
0.0000000000000000
 40
0.5000000000000000
100
AcDbArc
 50
90.00000000000000
 51
180.0000000014100
  0
LINE
  5
202
100
AcDbEntity
  8
A3
  6
CONTINUOUS
 62
7
100
AcDbLine
 10
54.79744806293452
 20
175.2499999999699
 30
0.0000000000000000
 11
61.69360190910184
 21
175.2499999999699
 31
0.0000000000000000
  0
LINE
  5
203
100
AcDbEntity
  8
A3
  6
CONTINUOUS
 62
7
100
AcDbLine
 10
45.62603223475014
 20
168.3977927722099
 30
0.0000000000000000
 11
54.79744806293442
 21
175.2499999999698
 31
0.0000000000000000
  0
ARC
  5
204
100
AcDbEntity
  8
A3
  6
CONTINUOUS
 62
7
100
AcDbCircle
 10
44.42898085770969
 20
169.9999999999799
 30
0.0000000000000000
 40
1.999999999999900
100
AcDbArc
 50
270.0000000000700
 51
306.7643806751300
  0
LINE
  5
205
100
AcDbEntity
  8
A3
  6
CONTINUOUS
 62
7
100
AcDbLine
 10
40.16396942601023
 20
167.9999999999799
 30
0.0000000000000000
 11
44.42898085771970
 21
167.9999999999799
 31
0.0000000000000000
  0
ARC
  5
206
100
AcDbEntity
  8
A3
  6
CONTINUOUS
 62
7
100
AcDbCircle
 10
40.16396942600022
 20
169.9999999999799
 30
0.0000000000000000
 40
2.000000000000000
100
AcDbArc
 50
213.6900675258600
 51
270.0000000001700
  0
LINE
  5
207
100
AcDbEntity
  8
A3
  6
CONTINUOUS
 62
7
100
AcDbLine
 10
34.42950132042023
 20
174.9961508829500
 30
0.0000000000000000
 11
38.49986883733028
 21
168.8905996075399
 31
0.0000000000000000
  0
ARC
  5
208
100
AcDbEntity
  8
A3
  6
CONTINUOUS
 62
7
100
AcDbCircle
 10
36.09360190910024
 20
176.1055512753999
 30
0.0000000000000000
 40
2.000000000000000
100
AcDbArc
 50
180.0000000001800
 51
213.6900675259800
  0
ARC
  5
209
100
AcDbEntity
  8
A3
  6
CONTINUOUS
 62
7
100
AcDbCircle
 10
36.09360190910024
 20
183.8944487246100
 30
0.0000000000000000
 40
2.000000000000000
100
AcDbArc
 50
146.3099324741900
 51
179.9999999999500
  0
LINE
  5
20A
100
AcDbEntity
  8
A3
  6
CONTINUOUS
 62
7
100
AcDbLine
 10
38.49986883733011
 20
191.1094003924598
 30
0.0000000000000000
 11
34.42950132042009
 21
185.0038491170498
 31
0.0000000000000000
  0
ARC
  5
20B
100
AcDbEntity
  8
A3
  6
CONTINUOUS
 62
7
100
AcDbCircle
 10
40.16396942600022
 20
190.0000000000099
 30
0.0000000000000000
 40
1.999999999999900
100
AcDbArc
 50
89.99999999980800
 51
146.3099324738900
  0
LINE
  5
20C
100
AcDbEntity
  8
A3
  6
CONTINUOUS
 62
7
100
AcDbLine
 10
44.42898085771971
 20
192.0000000000199
 30
0.0000000000000000
 11
40.16396942601024
 21
192.0000000000199
 31
0.0000000000000000
  0
ARC
  5
20D
100
AcDbEntity
  8
A3
  6
CONTINUOUS
 62
7
100
AcDbCircle
 10
44.42898085771969
 20
190.0000000000200
 30
0.0000000000000000
 40
2.000000000000000
100
AcDbArc
 50
53.23561932500200
 51
90.00000000004702
  0
LINE
  5
20E
100
AcDbEntity
  8
A3
  6
CONTINUOUS
 62
7
100
AcDbLine
 10
54.79744806297506
 20
184.7499999999998
 30
0.0000000000000000
 11
45.62603223475027
 21
191.6022072277900
 31
0.0000000000000000
  0
LINE
  5
20F
100
AcDbEntity
  8
A3
  6
CONTINUOUS
 62
7
100
AcDbLine
 10
61.69360190910182
 20
184.7499999999998
 30
0.0000000000000000
 11
54.79744806297511
 21
184.7499999999998
 31
0.0000000000000000
  0
LINE
  5
210
100
AcDbEntity
  8
A3
  6
CONTINUOUS
 62
7
100
AcDbLine
 10
40.09360190909025
 20
176.4000000000099
 30
0.0000000000000000
 11
40.09360190909025
 21
183.5999999999999
 31
0.0000000000000000
  0
LINE
  5
211
100
AcDbEntity
  8
A2
  6
CONTINUOUS
 62
7
100
AcDbLine
 10
40.16396942600761
 20
189.9999999999998
 30
0.0000000000000000
 11
36.09360190910010
 21
183.8944487246347
 31
0.0000000000000000
  0
LINE
  5
212
100
AcDbEntity
  8
A2
  6
CONTINUOUS
 62
7
100
AcDbLine
 10
39.03505259596064
 20
190.1094003924498
 30
0.0000000000000000
 11
35.42950132042413
 21
184.7010734791448
 31
0.0000000000000000
  0
ARC
  5
213
100
AcDbEntity
  8
A2
  6
CONTINUOUS
 62
7
100
AcDbCircle
 10
37.09360190910024
 20
183.5916730866949
 30
0.0000000000000000
 40
2.000000000000000
100
AcDbArc
 50
146.3099324740201
 51
180.0000000000000
  0
LINE
  5
214
100
AcDbEntity
  8
A2
  6
CONTINUOUS
 62
7
100
AcDbLine
 10
52.76360190910025
 20
183.7500576273600
 30
0.0000000000000000
 11
44.42714031359920
 21
189.9999999999999
 31
0.0000000000000000
  0
LINE
  5
215
100
AcDbEntity
  8
A2
  6
CONTINUOUS
 62
7
100
AcDbLine
 10
44.26052491479167
 20
189.4999999999998
 30
0.0000000000000000
 11
52.26360190910010
 21
183.4999999465948
 31
0.0000000000000000
  0
LINE
  5
216
100
AcDbEntity
  8
A2
  6
CONTINUOUS
 62
7
100
AcDbLine
 10
53.76360190910006
 20
175.7498270109398
 30
0.0000000000000000
 11
53.76360190910006
 21
184.2501729890498
 31
0.0000000000000000
  0
LINE
  5
217
100
AcDbEntity
  8
A2
  6
CONTINUOUS
 62
7
100
AcDbLine
 10
52.76360190910010
 20
176.2499423724799
 30
0.0000000000000000
 11
52.76360190910010
 21
183.7500576273599
 31
0.0000000000000000
  0
LINE
  5
218
100
AcDbEntity
  8
A2
  6
CONTINUOUS
 62
7
100
AcDbLine
 10
53.76360190910022
 20
184.2501729890498
 30
0.0000000000000000
 11
45.29361418381166
 21
190.6002214566849
 31
0.0000000000000000
  0
LINE
  5
219
100
AcDbEntity
  8
A2
  6
CONTINUOUS
 62
7
100
AcDbLine
 10
44.42714031380507
 20
169.9999999999999
 30
0.0000000000000000
 11
52.76360190910022
 21
176.2499423724801
 31
0.0000000000000000
  0
LINE
  5
21A
100
AcDbEntity
  8
A2
  6
CONTINUOUS
 62
7
100
AcDbLine
 10
45.29361418382135
 20
169.3997785433151
 30
0.0000000000000000
 11
53.76360190910030
 21
175.7498270109400
 31
0.0000000000000000
  0
LINE
  5
21B
100
AcDbEntity
  8
A2
  6
CONTINUOUS
 62
7
100
AcDbLine
 10
36.09360190910017
 20
176.1055512754199
 30
0.0000000000000000
 11
40.16396942604766
 21
169.9999999999999
 31
0.0000000000000000
  0
LINE
  5
21C
100
AcDbEntity
  8
A2
  6
CONTINUOUS
 62
7
100
AcDbLine
 10
40.43156130543116
 20
170.5000000000000
 30
0.0000000000000000
 11
36.59360190910023
 21
176.2569390944950
 31
0.0000000000000000
  0
LINE
  5
21D
100
AcDbEntity
  8
A2
  6
CONTINUOUS
 62
7
100
AcDbLine
 10
35.42950132042421
 20
175.2989265207000
 30
0.0000000000000000
 11
39.03505259585820
 21
169.8905996075499
 31
0.0000000000000000
  0
ARC
  5
21E
100
AcDbEntity
  8
A2
  6
CONTINUOUS
 62
7
100
AcDbCircle
 10
37.09360190910024
 20
176.4083269131499
 30
0.0000000000000000
 40
2.000000000000000
100
AcDbArc
 50
180.0000000000000
 51
213.6900675259800
  0
LINE
  5
21F
100
AcDbEntity
  8
A2
  6
CONTINUOUS
 62
7
100
AcDbLine
 10
44.42714031359925
 20
189.9999999999999
 30
0.0000000000000000
 11
40.16396942600774
 21
189.9999999999999
 31
0.0000000000000000
  0
ARC
  5
220
100
AcDbEntity
  8
A2
  6
CONTINUOUS
 62
7
100
AcDbCircle
 10
40.69915318463620
 20
188.9999999999999
 30
0.0000000000000000
 40
2.000000000000000
100
AcDbArc
 50
90.00000000000000
 51
146.3099324740201
  0
ARC
  5
221
100
AcDbEntity
  8
A2
  6
CONTINUOUS
 62
7
100
AcDbCircle
 10
44.09390951616967
 20
188.9999999999999
 30
0.0000000000000000
 40
2.000000000000000
100
AcDbArc
 50
53.14067743331201
 51
90.00000000000000
  0
LINE
  5
222
100
AcDbEntity
  8
A2
  6
CONTINUOUS
 62
7
100
AcDbLine
 10
44.09390951616969
 20
190.9999999999999
 30
0.0000000000000000
 11
40.69915318463622
 21
190.9999999999999
 31
0.0000000000000000
  0
LINE
  5
223
100
AcDbEntity
  8
A2
  6
CONTINUOUS
 62
7
100
AcDbLine
 10
40.16396942604775
 20
169.9999999999999
 30
0.0000000000000000
 11
44.42714031380525
 21
169.9999999999999
 31
0.0000000000000000
  0
LINE
  5
224
100
AcDbEntity
  8
A2
  6
CONTINUOUS
 62
7
100
AcDbLine
 10
40.69915318453423
 20
168.9999999999999
 30
0.0000000000000000
 11
44.09390951617878
 21
168.9999999999999
 31
0.0000000000000000
  0
ARC
  5
225
100
AcDbEntity
  8
A2
  6
CONTINUOUS
 62
7
100
AcDbCircle
 10
44.09390951617877
 20
170.9999999999999
 30
0.0000000000000000
 40
2.000000000000000
100
AcDbArc
 50
270.0000000000000
 51
306.8593225666900
  0
ARC
  5
226
100
AcDbEntity
  8
A2
  6
CONTINUOUS
 62
7
100
AcDbCircle
 10
40.69915318453423
 20
170.9999999999999
 30
0.0000000000000000
 40
2.000000000000000
100
AcDbArc
 50
213.6900675259800
 51
270.0000000000000
  0
LINE
  5
227
100
AcDbEntity
  8
A10
  6
CONTINUOUS
 62
7
100
AcDbLine
 10
29.59360190915928
 20
180.9990243893081
 30
0.0000000000000000
 11
21.56241276587357
 21
181.5009737107592
 31
0.0000000000000000
  0
LINE
  5
228
100
AcDbEntity
  8
A10
  6
CONTINUOUS
 62
7
100
AcDbLine
 10
37.59360190895091
 20
181.5000000000003
 30
0.0000000000000000
 11
21.59360190895094
 21
181.5000000000003
 31
0.0000000000000000
  0
LINE
  5
229
100
AcDbEntity
  8
A10
  6
CONTINUOUS
 62
7
100
AcDbLine
 10
21.59360190902043
 20
182.5000000000003
 30
0.0000000000000000
 11
37.59360190909018
 21
182.5000000000003
 31
0.0000000000000000
  0
LINE
  5
22A
100
AcDbEntity
  8
A10
  6
CONTINUOUS
 62
7
100
AcDbLine
 10
21.59360190909045
 20
183.5000000000000
 30
0.0000000000000000
 11
29.59360190915909
 21
183.4999999999930
 31
0.0000000000000000
  0
ARC
  5
22B
100
AcDbEntity
  8
A10
  6
CONTINUOUS
 62
7
100
AcDbCircle
 10
21.59360190909030
 20
183.0000000000001
 30
0.0000000000000000
 40
0.5000000000000000
100
AcDbArc
 50
90.00000000000000
 51
270.0000000000000
  0
ARC
  5
22C
100
AcDbEntity
  8
A10
  6
CONTINUOUS
 62
7
100
AcDbCircle
 10
21.59360190895069
 20
182.0000000000001
 30
0.0000000000000000
 40
0.5000000000000000
100
AcDbArc
 50
90.00000000000000
 51
270.0000000000000
  0
LINE
  5
22D
100
AcDbEntity
  8
A10
  6
CONTINUOUS
 62
7
100
AcDbLine
 10
34.09360190910028
 20
182.7195107136834
 30
0.0000000000000000
 11
29.59360190915908
 21
183.0004868567536
 31
0.0000000000000000
  0
LINE
  5
22E
100
AcDbEntity
  8
A10
  6
CONTINUOUS
 62
7
100
AcDbLine
 10
29.59360190915926
 20
182.5000000000003
 30
0.0000000000000000
 11
29.59360190915926
 21
183.4999999999933
 31
0.0000000000000000
  0
LINE
  5
22F
100
AcDbEntity
  8
A10
  6
CONTINUOUS
 62
7
100
AcDbLine
 10
29.59360190915926
 20
180.4999999999933
 30
0.0000000000000000
 11
29.59360190915926
 21
181.5000000000002
 31
0.0000000000000000
  0
LINE
  5
230
100
AcDbEntity
  8
A10
  6
CONTINUOUS
 62
7
100
AcDbLine
 10
37.59360190909038
 20
180.5000000000005
 30
0.0000000000000000
 11
29.59360190915933
 21
180.4999999999935
 31
0.0000000000000000
  0
ARC
  5
231
100
AcDbEntity
  8
A10
  6
CONTINUOUS
 62
7
100
AcDbCircle
 10
37.59360190909041
 20
181.0000000000003
 30
0.0000000000000000
 40
0.5000000000000000
100
AcDbArc
 50
270.0000000000000
 51
450.0000000000000
  0
ARC
  5
232
100
AcDbEntity
  8
A10
  6
CONTINUOUS
 62
7
100
AcDbCircle
 10
37.59360190895077
 20
182.0000000000003
 30
0.0000000000000000
 40
0.5000000000000000
100
AcDbArc
 50
270.0000000000000
 51
450.0000000000000
  0
LINE
  5
233
100
AcDbEntity
  8
A3
  6
CONTINUOUS
 62
7
100
AcDbLine
 10
52.70599462438963
 20
170.8638339426289
 30
0.0000000000000000
 11
59.56035289172300
 21
169.0272141802634
 31
0.0000000000000000
  0
LINE
  5
234
100
AcDbEntity
  8
A3
  6
CONTINUOUS
 62
7
100
AcDbLine
 10
42.07360548077651
 20
166.6188471011396
 30
0.0000000000000000
 11
52.70599462438952
 21
170.8638339426288
 31
0.0000000000000000
  0
LINE
  5
235
100
AcDbEntity
  8
A3
  6
CONTINUOUS
 62
7
100
AcDbLine
 10
42.07360548077651
 20
166.6188471011396
 30
0.0000000000000000
 11
52.70599462438952
 21
170.8638339426288
 31
0.0000000000000000
  0
LINE
  5
236
100
AcDbEntity
  8
A2
  6
CONTINUOUS
 62
7
100
AcDbLine
 10
37.60022312353653
 20
169.9938513604147
 30
0.0000000000000000
 11
37.80006619519476
 21
169.9403035707510
 31
0.0000000000000000
  0
LINE
  5
237
100
AcDbEntity
  8
A2
  6
CONTINUOUS
 62
7
100
AcDbLine
 10
37.21233969379084
 20
169.5801463219674
 30
0.0000000000000000
 11
38.22020965601663
 21
169.3100883795134
 31
0.0000000000000000
  0
ARC
  5
238
100
AcDbEntity
  8
A2
  6
CONTINUOUS
 62
7
100
AcDbCircle
 10
41.26718936771971
 20
169.5289288068187
 30
0.0000000000000000
 40
2.000000000000000
100
AcDbArc
 50
255.0000000000000
 51
291.8593225666900
  0
LINE
  5
239
100
AcDbEntity
  8
A2
  6
CONTINUOUS
 62
7
100
AcDbLine
 10
37.47046846282091
 20
168.4757047463526
 30
0.0000000000000000
 11
40.74955127751471
 21
167.5970771542406
 31
0.0000000000000000
  0
LINE
  5
23A
100
AcDbEntity
  8
A3
  6
CONTINUOUS
 62
7
100
AcDbLine
 10
36.69470160354443
 20
167.6482946693797
 30
0.0000000000000000
 11
40.81438629485072
 21
166.5444284832734
 31
0.0000000000000000
  0
ARC
  5
23B
100
AcDbEntity
  8
A3
  6
CONTINUOUS
 62
7
100
AcDbCircle
 10
41.33202438504603
 20
168.4762801358541
 30
0.0000000000000000
 40
1.999999999999900
100
AcDbArc
 50
255.0000000000700
 51
291.7643806751301
  0
ARC
  5
23C
100
AcDbEntity
  8
A3
  6
CONTINUOUS
 62
7
100
AcDbCircle
 10
37.21233969373978
 20
169.5801463219605
 30
0.0000000000000000
 40
2.000000000000000
100
AcDbArc
 50
198.6900675258600
 51
255.0000000001700
  0
ARC
  5
23D
100
AcDbEntity
  8
A2
  6
CONTINUOUS
 62
7
100
AcDbCircle
 10
37.98810655302591
 20
170.4075563989307
 30
0.0000000000000000
 40
2.000000000000000
100
AcDbArc
 50
198.6900675259800
 51
255.0000000000000
  0
LINE
  5
23E
100
AcDbEntity
  8
A2
  6
CONTINUOUS
 62
7
100
AcDbLine
 10
34.01065777898312
 20
175.9238868140855
 30
0.0000000000000000
 11
36.09357486667055
 21
169.7666588334837
 31
0.0000000000000000
  0
LINE
  5
23F
100
AcDbEntity
  8
A2
  6
CONTINUOUS
 62
7
100
AcDbLine
 10
36.35952664881563
 20
172.1011128903354
 30
0.0000000000000000
 11
37.21233969379070
 21
169.5801463219674
 31
0.0000000000000000
  0
LINE
  5
240
100
AcDbEntity
  8
A2
  6
CONTINUOUS
 62
7
100
AcDbLine
 10
37.60022312354376
 20
169.9938513604128
 30
0.0000000000000000
 11
37.43112513983611
 21
170.4937151537931
 31
0.0000000000000000
  0
LINE
  5
241
100
AcDbEntity
  8
A3
  6
CONTINUOUS
 62
7
100
AcDbLine
 10
32.96636785124753
 20
175.8902470511152
 30
0.0000000000000000
 11
35.31780800739295
 21
168.9392487565215
 31
0.0000000000000000
  0
ARC
  5
242
100
AcDbEntity
  8
A3
  6
CONTINUOUS
 62
7
100
AcDbCircle
 10
34.86089953760663
 20
176.5311446165612
 30
0.0000000000000000
 40
2.000000000000000
100
AcDbArc
 50
165.0000000001801
 51
198.6900675259800
  0
LINE
  5
243
100
AcDbEntity
  8
A3
  6
CONTINUOUS
 62
7
100
AcDbLine
 10
33.85379877165401
 20
180.4999999999972
 30
0.0000000000000000
 11
32.92904788502587
 21
177.0487827067566
 31
0.0000000000000000
  0
LINE
  5
244
100
AcDbEntity
  8
A2
  6
CONTINUOUS
 62
7
100
AcDbLine
 10
33.97333781276036
 20
177.0824224697375
 30
0.0000000000000000
 11
34.09360190910028
 21
177.5312541876044
 31
0.0000000000000000
  0
ARC
  5
245
100
AcDbEntity
  8
A2
  6
CONTINUOUS
 62
7
100
AcDbCircle
 10
35.90518946533845
 20
176.5647843795325
 30
0.0000000000000000
 40
2.000000000000000
100
AcDbArc
 50
165.0000000000000
 51
198.6900675259800
  0
LINE
  5
246
100
AcDbEntity
  8
A2
  6
CONTINUOUS
 62
7
100
AcDbLine
 10
37.32059540024547
 20
183.7790028945570
 30
0.0000000000000000
 11
36.97788760753184
 21
182.4999999999999
 31
0.0000000000000000
  0
LINE
  5
247
100
AcDbEntity
  8
A2
  6
CONTINUOUS
 62
7
100
AcDbLine
 10
36.59360190909030
 20
182.9976779013330
 30
0.0000000000000000
 11
36.87681453781917
 21
184.0546418210943
 31
0.0000000000000000
  0
LINE
  5
248
100
AcDbEntity
  8
A3
  6
CONTINUOUS
 62
7
100
AcDbLine
 10
38.83288956892173
 20
175.8999999999999
 30
0.0000000000000000
 11
40.09360190909022
 21
180.6050425072379
 31
0.0000000000000000
  0
LINE
  5
249
100
AcDbEntity
  8
A3
  6
CONTINUOUS
 62
7
100
AcDbLine
 10
40.09360190909033
 20
183.4055085819778
 30
0.0000000000000000
 11
37.89594094890813
 21
183.9943700614961
 31
0.0000000000000000
  0
LINE
  5
24A
100
AcDbEntity
  8
A2
  6
CONTINUOUS
 62
7
100
AcDbLine
 10
37.68585101749971
 20
184.0999999999999
 30
0.0000000000000000
 11
37.32059540024555
 21
183.7790028945570
 31
0.0000000000000000
  0
ARC
  5
24B
100
AcDbEntity
  8
A3
  6
CONTINUOUS
 62
7
100
AcDbCircle
 10
37.76653142635939
 20
183.5114071483612
 30
0.0000000000000000
 40
0.5000000000000000
100
AcDbArc
 50
75.00000000000001
 51
165.0000000014100
  0
LINE
  5
24C
100
AcDbEntity
  8
A2
  6
CONTINUOUS
 62
7
100
AcDbLine
 10
51.83674067368706
 20
171.6142088355201
 30
0.0000000000000000
 11
52.31372709798475
 21
173.3943464055196
 31
0.0000000000000000
  0
LINE
  5
24D
100
AcDbEntity
  8
A2
  6
CONTINUOUS
 62
7
100
AcDbLine
 10
47.72124957698486
 20
169.9631850393524
 30
0.0000000000000000
 11
51.83674067368719
 21
171.6142088355201
 31
0.0000000000000000
  0
LINE
  5
24E
100
AcDbEntity
  8
A2
  6
CONTINUOUS
 62
7
100
AcDbLine
 10
42.01184730074340
 20
167.6727271575405
 30
0.0000000000000000
 11
42.82763715936198
 21
167.9999999999798
 31
0.0000000000000000
  0
LINE
  5
24F
100
AcDbEntity
  8
A2
  6
CONTINUOUS
 62
7
100
AcDbLine
 10
36.59360190909022
 20
183.7430609058099
 30
0.0000000000000000
 11
36.59360190909022
 21
182.5000000000003
 31
0.0000000000000000
  0
LINE
  5
250
100
AcDbEntity
  8
A2
  6
CONTINUOUS
 62
7
100
AcDbLine
 10
36.59360190909022
 20
180.4999999999996
 30
0.0000000000000000
 11
36.59360190909022
 21
176.2569390944999
 31
0.0000000000000000
  0
LINE
  5
251
100
AcDbEntity
  8
A2
  6
CONTINUOUS
 62
7
100
AcDbLine
 10
36.09360190910023
 20
182.5000000000003
 30
0.0000000000000000
 11
36.09360190910023
 21
183.8944487246349
 31
0.0000000000000000
  0
LINE
  5
252
100
AcDbEntity
  8
A2
  6
CONTINUOUS
 62
7
100
AcDbLine
 10
36.09360190910023
 20
176.1055512754199
 30
0.0000000000000000
 11
36.09360190910023
 21
180.4999999999992
 31
0.0000000000000000
  0
LINE
  5
253
100
AcDbEntity
  8
A2
  6
CONTINUOUS
 62
7
100
AcDbLine
 10
35.09360190910026
 20
182.5000000000003
 30
0.0000000000000000
 11
35.09360190910026
 21
183.5916730866949
 31
0.0000000000000000
  0
LINE
  5
254
100
AcDbEntity
  8
A2
  6
CONTINUOUS
 62
7
100
AcDbLine
 10
35.09360190910026
 20
176.4083269131499
 30
0.0000000000000000
 11
35.09360190910026
 21
180.4999999999983
 31
0.0000000000000000
  0
LINE
  5
255
100
AcDbEntity
  8
A3
  6
CONTINUOUS
 62
7
100
AcDbLine
 10
34.09360190910026
 20
183.8944487246100
 30
0.0000000000000000
 11
34.09360190910026
 21
182.5000000000003
 31
0.0000000000000000
  0
LINE
  5
256
100
AcDbEntity
  8
A3
  6
CONTINUOUS
 62
7
100
AcDbLine
 10
34.09360190910026
 20
180.4999999999974
 30
0.0000000000000000
 11
34.09360190910026
 21
176.1055512753899
 31
0.0000000000000000
  0
LINE
  5
257
100
AcDbEntity
  8
A3
  6
CONTINUOUS
 62
7
100
AcDbLine
 10
61.69360190910184
 20
176.3828427124444
 30
0.0000000000000000
 11
61.69360190910184
 21
177.0999999999698
 31
0.0000000000000000
  0
LINE
  5
258
100
AcDbEntity
  8
A3
  6
CONTINUOUS
 62
7
100
AcDbLine
 10
62.09360190910181
 20
175.6499999999699
 30
0.0000000000000000
 11
62.09360190910181
 21
175.8171572874952
 31
0.0000000000000000
  0
LINE
  5
259
100
AcDbEntity
  8
A3
  6
CONTINUOUS
 62
7
100
AcDbLine
 10
62.09360190910181
 20
184.1828427125045
 30
0.0000000000000000
 11
62.09360190910181
 21
184.3499999999998
 31
0.0000000000000000
  0
POINT
  5
25A
100
AcDbEntity
  8
A10
  6
CONTINUOUS
 62
5
100
AcDbPoint
 10
62.09360190910181
 20
179.9999999999999
 30
0.0000000000000000
  0
ARC
  5
25B
100
AcDbEntity
  8
A4
  6
CONTINUOUS
 62
7
100
AcDbCircle
 10
77.17848139455182
 20
181.6999999999999
 30
0.0000000000000000
 40
0.9999999999999500
100
AcDbArc
 50
76.86597769090004
 51
89.99999999722000
  0
LINE
  5
25C
100
AcDbEntity
  8
A4
  6
CONTINUOUS
 62
7
100
AcDbLine
 10
77.79360190910185
 20
182.5833333333308
 30
0.0000000000000000
 11
77.79360190910185
 21
177.4166666666698
 31
0.0000000000000000
  0
ARC
  5
25D
100
AcDbEntity
  8
A4
  6
CONTINUOUS
 62
7
100
AcDbCircle
 10
77.17848139446184
 20
178.2999999999699
 30
0.0000000000000000
 40
1.000000000000000
100
AcDbArc
 50
270.0000000080445
 51
283.1340223146631
  0
LINE
  5
25E
100
AcDbEntity
  8
A4
  6
CONTINUOUS
 62
7
100
AcDbLine
 10
77.40571101021186
 20
182.6738412097407
 30
0.0000000000000000
 11
79.31935494342147
 21
182.2273242919918
 31
0.0000000000000000
  0
LINE
  5
25F
100
AcDbEntity
  8
A4
  6
CONTINUOUS
 62
7
100
AcDbLine
 10
77.40571101021186
 20
177.3261587902598
 30
0.0000000000000000
 11
79.31935494342194
 21
177.7726757080090
 31
0.0000000000000000
  0
LINE
  5
260
100
AcDbEntity
  8
A10
  6
CONTINUOUS
 62
7
100
AcDbLine
 10
77.17848139460040
 20
182.6999999999998
 30
0.0000000000000000
 11
61.89360190910185
 21
182.6999999999998
 31
0.0000000000000000
  0
LINE
  5
261
100
AcDbEntity
  8
A10
  6
CONTINUOUS
 62
7
100
AcDbLine
 10
77.17848139460227
 20
177.2999999999698
 30
0.0000000000000000
 11
61.89360190910185
 21
177.2999999999698
 31
0.0000000000000000
  0
ARC
  5
262
100
AcDbEntity
  8
A3
  6
CONTINUOUS
 62
7
100
AcDbCircle
 10
61.69360190910180
 20
184.3499999999998
 30
0.0000000000000000
 40
0.4000000000000000
100
AcDbArc
 50
0.0000000000000000
 51
90.00000000000000
  0
ARC
  5
263
100
AcDbEntity
  8
A3
  6
CONTINUOUS
 62
7
100
AcDbCircle
 10
61.69360190910183
 20
175.6499999999699
 30
0.0000000000000000
 40
0.4000000000000000
100
AcDbArc
 50
270.0000000000000
 51
360.0000000000000
  0
LINE
  5
264
100
AcDbEntity
  8
A10
  6
CONTINUOUS
 62
7
100
AcDbLine
 10
61.75218055286453
 20
176.2414213562072
 30
0.0000000000000000
 11
62.03502326533913
 21
175.9585786437326
 31
0.0000000000000000
  0
ARC
  5
265
100
AcDbEntity
  8
A10
  6
CONTINUOUS
 62
7
100
AcDbCircle
 10
61.89360190910182
 20
175.8171572874952
 30
0.0000000000000000
 40
0.2000000000000000
100
AcDbArc
 50
0.0000000000000000
 51
45.00000000000000
  0
ARC
  5
266
100
AcDbEntity
  8
A10
  6
CONTINUOUS
 62
7
100
AcDbCircle
 10
61.89360190910185
 20
176.3828427124445
 30
0.0000000000000000
 40
0.2000000000000000
100
AcDbArc
 50
180.0000000000000
 51
225.0000000000029
  0
ARC
  5
267
100
AcDbEntity
  8
A3
  6
CONTINUOUS
 62
7
100
AcDbCircle
 10
61.89360190910185
 20
177.0999999999699
 30
0.0000000000000000
 40
0.2000000000000000
100
AcDbArc
 50
90.00000000000000
 51
180.0000000000000
  0
ARC
  5
268
100
AcDbEntity
  8
A3
  6
CONTINUOUS
 62
7
100
AcDbCircle
 10
61.89360190910185
 20
182.9000000000298
 30
0.0000000000000000
 40
0.2000000000000000
100
AcDbArc
 50
180.0000000000000
 51
270.0000000000000
  0
LINE
  5
269
100
AcDbEntity
  8
A3
  6
CONTINUOUS
 62
7
100
AcDbLine
 10
61.69360190910184
 20
183.6171572875552
 30
0.0000000000000000
 11
61.69360190910184
 21
182.9000000000298
 31
0.0000000000000000
  0
ARC
  5
26A
100
AcDbEntity
  8
A10
  6
CONTINUOUS
 62
7
100
AcDbCircle
 10
61.89360190910185
 20
183.6171572875552
 30
0.0000000000000000
 40
0.2000000000000000
100
AcDbArc
 50
134.9999999999971
 51
180.0000000000000
  0
LINE
  5
26B
100
AcDbEntity
  8
A10
  6
CONTINUOUS
 62
7
100
AcDbLine
 10
61.75218055286457
 20
183.7585786437926
 30
0.0000000000000000
 11
62.03502326533918
 21
184.0414213562672
 31
0.0000000000000000
  0
ARC
  5
26C
100
AcDbEntity
  8
A10
  6
CONTINUOUS
 62
7
100
AcDbCircle
 10
61.89360190910182
 20
184.1828427125045
 30
0.0000000000000000
 40
0.2000000000000000
100
AcDbArc
 50
314.9999999999999
 51
360.0000000000000
  0
LINE
  5
26D
100
AcDbEntity
  8
A3
  6
CONTINUOUS
 62
7
100
AcDbLine
 10
59.66036899555932
 20
170.1732200223864
 30
0.0000000000000000
 11
59.84598295990495
 21
170.8659407679185
 31
0.0000000000000000
  0
LINE
  5
26E
100
AcDbEntity
  8
A3
  6
CONTINUOUS
 62
7
100
AcDbLine
 10
59.85706567502192
 20
169.3618207017584
 30
0.0000000000000000
 11
59.90032916456114
 21
169.5232822428316
 31
0.0000000000000000
  0
ARC
  5
26F
100
AcDbEntity
  8
A4
  6
CONTINUOUS
 62
7
100
AcDbCircle
 10
75.99379557935421
 20
171.3014178469255
 30
0.0000000000000000
 40
0.9999999999999500
100
AcDbArc
 50
61.86597769090005
 51
74.99999999722002
  0
LINE
  5
270
100
AcDbEntity
  8
A4
  6
CONTINUOUS
 62
7
100
AcDbLine
 10
76.81657986047831
 20
171.9954474226132
 30
0.0000000000000000
 11
75.47934812745009
 21
167.0048306534584
 31
0.0000000000000000
  0
ARC
  5
271
100
AcDbEntity
  8
A4
  6
CONTINUOUS
 62
7
100
AcDbCircle
 10
75.11381082591097
 20
168.0172700375369
 30
0.0000000000000000
 40
1.000000000000000
100
AcDbArc
 50
255.0000000080445
 51
268.1340223146631
  0
LINE
  5
272
100
AcDbEntity
  8
A4
  6
CONTINUOUS
 62
7
100
AcDbLine
 10
76.46533118560457
 20
172.1832648699747
 30
0.0000000000000000
 11
78.19820220073925
 21
171.2566751517865
 31
0.0000000000000000
  0
LINE
  5
273
100
AcDbEntity
  8
A4
  6
CONTINUOUS
 62
7
100
AcDbLine
 10
75.08124912828301
 20
167.0178003102060
 30
0.0000000000000000
 11
77.04525430796599
 21
166.9538150374753
 31
0.0000000000000000
  0
LINE
  5
274
100
AcDbEntity
  8
A10
  6
CONTINUOUS
 62
7
100
AcDbLine
 10
76.25261462450362
 20
172.2673436732019
 30
0.0000000000000000
 11
61.87334438834118
 21
176.1202575207305
 31
0.0000000000000000
  0
LINE
  5
275
100
AcDbEntity
  8
A10
  6
CONTINUOUS
 62
7
100
AcDbLine
 10
74.85499178094416
 20
167.0513442112115
 30
0.0000000000000000
 11
60.09093193418333
 21
171.0073621241559
 31
0.0000000000000000
  0
ARC
  5
276
100
AcDbEntity
  8
A3
  6
CONTINUOUS
 62
7
100
AcDbCircle
 10
59.47069534450625
 20
169.4653483197994
 30
0.0000000000000000
 40
0.4000000000000000
100
AcDbArc
 50
255.0000000000000
 51
345.0000000000000
  0
LINE
  5
277
100
AcDbEntity
  8
A10
  6
CONTINUOUS
 62
7
100
AcDbLine
 10
59.68034908006027
 20
170.0214562133659
 30
0.0000000000000000
 11
59.88034908006026
 21
169.6750460518521
 31
0.0000000000000000
  0
ARC
  5
278
100
AcDbEntity
  8
A10
  6
CONTINUOUS
 62
7
100
AcDbCircle
 10
59.70714399930330
 20
169.5750460518520
 30
0.0000000000000000
 40
0.2000000000000000
100
AcDbArc
 50
345.0000000000000
 51
390.0000000000000
  0
ARC
  5
279
100
AcDbEntity
  8
A10
  6
CONTINUOUS
 62
7
100
AcDbCircle
 10
59.85355416081714
 20
170.1214562133658
 30
0.0000000000000000
 40
0.2000000000000000
100
AcDbArc
 50
165.0000000000000
 51
210.0000000000029
  0
ARC
  5
27A
100
AcDbEntity
  8
A3
  6
CONTINUOUS
 62
7
100
AcDbCircle
 10
60.03916812516277
 20
170.8141769588980
 30
0.0000000000000000
 40
0.2000000000000000
100
AcDbArc
 50
75.00000000000001
 51
165.0000000000000
  0
ARC
  5
27B
100
AcDbEntity
  8
A10
  6
CONTINUOUS
 62
7
100
AcDbCircle
 10
79.09212532781535
 20
178.7465169177508
 30
0.0000000000000000
 40
1.000000000000000
100
AcDbArc
 50
283.1340223064041
 51
341.7375133143976
  0
ARC
  5
27C
100
AcDbEntity
  8
A10
  6
CONTINUOUS
 62
7
100
AcDbCircle
 10
75.29360190910180
 20
179.9999999999999
 30
0.0000000000000000
 40
5.000000000000000
100
AcDbArc
 50
341.7375133143977
 51
378.2624866856186
  0
ARC
  5
27D
100
AcDbEntity
  8
A4
  6
CONTINUOUS
 62
7
100
AcDbCircle
 10
79.09212532781501
 20
181.2534830822500
 30
0.0000000000000000
 40
1.000000000000000
100
AcDbArc
 50
18.26248668561863
 51
76.86597769360371
  0
ARC
  5
27E
100
AcDbEntity
  8
A10
  6
CONTINUOUS
 62
7
100
AcDbCircle
 10
77.07781600574074
 20
167.9532847647997
 30
0.0000000000000000
 40
1.000000000000000
100
AcDbArc
 50
268.1340223064035
 51
326.7375133143976
  0
ARC
  5
27F
100
AcDbEntity
  8
A10
  6
CONTINUOUS
 62
7
100
AcDbCircle
 10
73.73314942824132
 20
170.1471866507915
 30
0.0000000000000000
 40
5.000000000000000
100
AcDbArc
 50
326.7375133143977
 51
363.2624866856186
  0
ARC
  5
280
100
AcDbEntity
  8
A4
  6
CONTINUOUS
 62
7
100
AcDbCircle
 10
77.72666659454038
 20
170.3748281287225
 30
0.0000000000000000
 40
1.000000000000000
100
AcDbArc
 50
3.262486685618594
 51
61.86597769360291
  0
LINE
  5
281
100
AcDbEntity
  8
A10
  6
CONTINUOUS
 62
7
100
AcDbLine
 10
130.8000000000129
 20
51.00000000000987
 30
0.0000000000000000
 11
126.8000000000129
 21
51.00000000000987
 31
0.0000000000000000
  0
LINE
  5
282
100
AcDbEntity
  8
A10
  6
CONTINUOUS
 62
7
100
AcDbLine
 10
130.8000000000129
 20
28.99999999999990
 30
0.0000000000000000
 11
126.8000000000129
 21
28.99999999999990
 31
0.0000000000000000
  0
LINE
  5
283
100
AcDbEntity
  8
A5
  6
CENTER
 62
1
100
AcDbLine
 10
109.6622305212698
 20
40.00000000000001
 30
0.0000000000000000
 11
150.3435016223164
 21
39.99999999999989
 31
0.0000000000000000
  0
LINE
  5
284
100
AcDbEntity
  8
A10
  6
CONTINUOUS
 62
7
100
AcDbLine
 10
126.8000000000129
 20
39.99999999999996
 30
0.0000000000000000
 11
129.8000000000129
 21
39.99999999999996
 31
0.0000000000000000
  0
ARC
  5
285
100
AcDbEntity
  8
A10
  6
CONTINUOUS
 62
7
100
AcDbCircle
 10
115.1749999999858
 20
45.50000000000492
 30
0.0000000000000000
 40
15.62500000002711
100
AcDbArc
 50
339.3903070624860
 51
380.6096929375141
  0
ARC
  5
286
100
AcDbEntity
  8
A10
  6
CONTINUOUS
 62
7
100
AcDbCircle
 10
115.1750000000121
 20
34.49999999999993
 30
0.0000000000000000
 40
15.62500000000077
100
AcDbArc
 50
339.3903070624688
 51
380.6096929375312
  0
LINE
  5
287
100
AcDbEntity
  8
A10
  6
CONTINUOUS
 62
7
100
AcDbLine
 10
137.8999999999998
 20
32.12796888379986
 30
0.0000000000000000
 11
136.6999999999998
 21
32.12796888379986
 31
0.0000000000000000
  0
LINE
  5
288
100
AcDbEntity
  8
A10
  6
CONTINUOUS
 62
7
100
AcDbLine
 10
137.8999999999998
 20
35.92569024269990
 30
0.0000000000000000
 11
136.6999999999998
 21
35.92569024269990
 31
0.0000000000000000
  0
LINE
  5
289
100
AcDbEntity
  8
A10
  6
CONTINUOUS
 62
7
100
AcDbLine
 10
137.8999999999998
 20
44.07430975769985
 30
0.0000000000000000
 11
136.6999999999998
 21
44.07430975769985
 31
0.0000000000000000
  0
LINE
  5
28A
100
AcDbEntity
  8
A10
  6
CONTINUOUS
 62
7
100
AcDbLine
 10
137.8999999999998
 20
42.69999999999993
 30
0.0000000000000000
 11
139.5000000000000
 21
42.69999999999992
 31
0.0000000000000000
  0
LINE
  5
28B
100
AcDbEntity
  8
A10
  6
CONTINUOUS
 62
7
100
AcDbLine
 10
144.2999999998631
 20
42.69999999999991
 30
0.0000000000000000
 11
147.6999999999997
 21
42.69999999999990
 31
0.0000000000000000
  0
LINE
  5
28C
100
AcDbEntity
  8
A10
  6
CONTINUOUS
 62
7
100
AcDbLine
 10
137.8999999999998
 20
37.29999999999993
 30
0.0000000000000000
 11
139.5000000000000
 21
37.29999999999992
 31
0.0000000000000000
  0
LINE
  5
28D
100
AcDbEntity
  8
A10
  6
CONTINUOUS
 62
7
100
AcDbLine
 10
144.2999999998800
 20
37.29999999999990
 30
0.0000000000000000
 11
147.6999999999997
 21
37.29999999999990
 31
0.0000000000000000
  0
LINE
  5
28E
100
AcDbEntity
  8
A10
  6
CONTINUOUS
 62
7
100
AcDbLine
 10
144.2999999998428
 20
34.50000000019988
 30
0.0000000000000000
 11
140.3000000000000
 21
34.50000000019988
 31
0.0000000000000000
  0
LINE
  5
28F
100
AcDbEntity
  8
A10
  6
CONTINUOUS
 62
7
100
AcDbLine
 10
143.8087598137400
 20
39.99999999999993
 30
0.0000000000000000
 11
140.7912401861400
 21
39.99999999999993
 31
0.0000000000000000
  0
LINE
  5
290
100
AcDbEntity
  8
A10
  6
CONTINUOUS
 62
7
100
AcDbLine
 10
144.2999999998454
 20
45.50000000019988
 30
0.0000000000000000
 11
140.3000000000000
 21
45.50000000019988
 31
0.0000000000000000
  0
LINE
  5
291
100
AcDbEntity
  8
A10
  6
CONTINUOUS
 62
7
100
AcDbLine
 10
144.2999999998454
 20
45.50000000019988
 30
0.0000000000000000
 11
144.2999999998428
 21
34.50000000019645
 31
0.0000000000000000
  0
ARC
  5
292
100
AcDbEntity
  8
A10
  6
CONTINUOUS
 62
7
100
AcDbCircle
 10
136.3570251153253
 20
42.75000000009990
 30
0.0000000000000000
 40
7.942974884519520
100
AcDbArc
 50
339.7438420010693
 51
380.2561579989308
  0
ARC
  5
293
100
AcDbEntity
  8
A10
  6
CONTINUOUS
 62
7
100
AcDbCircle
 10
136.3570251164234
 20
37.25000000009990
 30
0.0000000000000000
 40
7.942974883420050
100
AcDbArc
 50
339.7438419996798
 51
380.2561580003202
  0
ARC
  5
294
100
AcDbEntity
  8
A10
  6
CONTINUOUS
 62
7
100
AcDbCircle
 10
148.2429748845015
 20
42.75000000010456
 30
0.0000000000000000
 40
7.942974884519520
100
AcDbArc
 50
159.7438420011142
 51
200.2561579989756
  0
ARC
  5
295
100
AcDbEntity
  8
A10
  6
CONTINUOUS
 62
7
100
AcDbCircle
 10
148.2429748834077
 20
37.25000000010456
 30
0.0000000000000000
 40
7.942974883420050
100
AcDbArc
 50
159.7438419997248
 51
200.2561580003651
  0
LINE
  5
296
100
AcDbEntity
  8
A5
  6
CONTINUOUS
 62
7
100
AcDbLine
 10
136.6249999999998
 20
44.00000000000020
 30
0.0000000000000000
 11
136.6999999999998
 21
43.92500000000015
 31
0.0000000000000000
  0
LINE
  5
297
100
AcDbEntity
  8
A10
  6
CONTINUOUS
 62
7
100
AcDbLine
 10
120.7999999999998
 20
47.89999999999998
 30
0.0000000000000000
 11
125.6000000000129
 21
47.89999999999996
 31
0.0000000000000000
  0
LINE
  5
298
100
AcDbEntity
  8
A10
  6
CONTINUOUS
 62
7
100
AcDbLine
 10
130.8000000000129
 20
47.89999999999995
 30
0.0000000000000000
 11
136.0999999999998
 21
47.89999999999993
 31
0.0000000000000000
  0
LINE
  5
299
100
AcDbEntity
  8
A10
  6
CONTINUOUS
 62
7
100
AcDbLine
 10
120.7999999999998
 20
32.09999999999998
 30
0.0000000000000000
 11
125.6000000000129
 21
32.09999999999997
 31
0.0000000000000000
  0
LINE
  5
29A
100
AcDbEntity
  8
A10
  6
CONTINUOUS
 62
7
100
AcDbLine
 10
130.8000000000129
 20
32.09999999999995
 30
0.0000000000000000
 11
136.0999999999999
 21
32.09999999999994
 31
0.0000000000000000
  0
ARC
  5
29B
100
AcDbEntity
  8
A10
  6
CONTINUOUS
 62
7
100
AcDbCircle
 10
141.4885949766962
 20
105.2368602791800
 30
0.0000000000000000
 40
2.811405023183852
100
AcDbArc
 50
325.6157525308573
 51
394.3842474691440
  0
ARC
  5
29C
100
AcDbEntity
  8
A10
  6
CONTINUOUS
 62
7
100
AcDbCircle
 10
141.4885949766211
 20
114.7631397208400
 30
0.0000000000000000
 40
2.811405023228872
100
AcDbArc
 50
325.6157525322250
 51
394.3842474677750
  0
ARC
  5
29D
100
AcDbEntity
  8
A10
  6
CONTINUOUS
 62
7
100
AcDbCircle
 10
133.7912401861022
 20
110.0000000000250
 30
0.0000000000000000
 40
10.50875981377780
100
AcDbArc
 50
342.4120462256525
 51
377.5879537743475
  0
LINE
  5
29E
100
AcDbEntity
  8
A5
  6
CONTINUOUS
 62
7
100
AcDbLine
 10
140.7912401861707
 20
116.3508529610776
 30
0.0000000000000000
 11
143.8087598137907
 21
116.3508529610824
 31
0.0000000000000000
  0
LINE
  5
29F
100
AcDbEntity
  8
A5
  6
CONTINUOUS
 62
7
100
AcDbLine
 10
140.3000000000320
 20
115.4999999999970
 30
0.0000000000000000
 11
140.7912401861507
 21
116.3508529610777
 31
0.0000000000000000
  0
ARC
  5
2A0
100
AcDbEntity
  8
A10
  6
CONTINUOUS
 62
7
100
AcDbCircle
 10
143.1114050232921
 20
114.7631397208413
 30
0.0000000000000000
 40
2.811405023228872
100
AcDbArc
 50
145.6157525323148
 51
214.3842474678648
  0
ARC
  5
2A1
100
AcDbEntity
  8
A10
  6
CONTINUOUS
 62
7
100
AcDbCircle
 10
150.8087598138185
 20
110.0000000000384
 30
0.0000000000000000
 40
10.50875981377780
100
AcDbArc
 50
162.4120462257424
 51
197.5879537744373
  0
ARC
  5
2A2
100
AcDbEntity
  8
A10
  6
CONTINUOUS
 62
7
100
AcDbCircle
 10
143.1114050232320
 20
105.2368602791813
 30
0.0000000000000000
 40
2.811405023183852
100
AcDbArc
 50
145.6157525309459
 51
214.3842474692326
  0
LINE
  5
2A3
100
AcDbEntity
  8
A5
  6
CONTINUOUS
 62
7
100
AcDbLine
 10
140.7912401861806
 20
103.6491470389076
 30
0.0000000000000000
 11
140.3000000000493
 21
104.4999999999968
 31
0.0000000000000000
  0
ARC
  5
2A4
100
AcDbEntity
  8
A10
  6
CONTINUOUS
 62
7
100
AcDbCircle
 10
144.1506279643024
 20
110.0000000000000
 30
0.0000000000000000
 40
3.538226475321613
100
AcDbArc
 50
320.9910879687204
 51
399.0089120312796
  0
LINE
  5
2A5
100
AcDbEntity
  8
A10
  6
CONTINUOUS
 62
7
100
AcDbLine
 10
134.6000000000000
 20
113.8768543950000
 30
0.0000000000000000
 11
133.9000000000000
 21
115.2763623833100
 31
0.0000000000000000
  0
LINE
  5
2A6
100
AcDbEntity
  8
A10
  6
CONTINUOUS
 62
7
100
AcDbLine
 10
134.6000000000000
 20
106.1231456050000
 30
0.0000000000000000
 11
133.8999999999999
 21
104.7236376166900
 31
0.0000000000000000
  0
LINE
  5
2A7
100
AcDbEntity
  8
A10
  6
CONTINUOUS
 62
7
100
AcDbLine
 10
228.9000000001000
 20
116.3508529614401
 30
0.0000000000000000
 11
223.4000000001999
 21
113.1754264809599
 31
0.0000000000000000
  0
LINE
  5
2A8
100
AcDbEntity
  8
A10
  6
CONTINUOUS
 62
7
100
AcDbLine
 10
223.4000000002000
 20
113.1754264809599
 30
0.0000000000000000
 11
223.4000000002000
 21
106.8245735198100
 31
0.0000000000000000
  0
LINE
  5
2A9
100
AcDbEntity
  8
A10
  6
CONTINUOUS
 62
7
100
AcDbLine
 10
223.4000000002000
 20
106.8245735198100
 30
0.0000000000000000
 11
228.9000000002001
 21
103.6491470392699
 31
0.0000000000000000
  0
LINE
  5
2AA
100
AcDbEntity
  8
A10
  6
CONTINUOUS
 62
7
100
AcDbLine
 10
228.9000000002000
 20
103.6491470392699
 30
0.0000000000000000
 11
234.4000000002000
 21
106.8245735198100
 31
0.0000000000000000
  0
LINE
  5
2AB
100
AcDbEntity
  8
A10
  6
CONTINUOUS
 62
7
100
AcDbLine
 10
234.4000000002000
 20
106.8245735198100
 30
0.0000000000000000
 11
234.4000000002000
 21
113.1754264808300
 31
0.0000000000000000
  0
LINE
  5
2AC
100
AcDbEntity
  8
A10
  6
CONTINUOUS
 62
7
100
AcDbLine
 10
234.4000000002000
 20
113.1754264808300
 30
0.0000000000000000
 11
228.9000000001001
 21
116.3508529614400
 31
0.0000000000000000
  0
CIRCLE
  5
2AD
100
AcDbEntity
  8
A10
  6
CONTINUOUS
 62
7
100
AcDbCircle
 10
228.9000000002000
 20
110.0000000000000
 30
0.0000000000000000
 40
5.500000000000000
  0
LINE
  5
2AE
100
AcDbEntity
  8
A5
  6
CONTINUOUS
 62
7
100
AcDbLine
 10
136.6249999999998
 20
183.9999999999999
 30
0.0000000000000000
 11
136.6999999999998
 21
183.9249999999999
 31
0.0000000000000000
  0
LINE
  5
2AF
100
AcDbEntity
  8
A5
  6
CONTINUOUS
 62
7
100
AcDbLine
 10
136.0999999999999
 20
183.9999999999999
 30
0.0000000000000000
 11
136.6249999999998
 21
183.9999999999999
 31
0.0000000000000000
  0
LINE
  5
2B0
100
AcDbEntity
  8
A5
  6
CONTINUOUS
 62
7
100
AcDbLine
 10
136.6249999999998
 20
175.9999999999999
 30
0.0000000000000000
 11
136.0999999999999
 21
175.9999999999999
 31
0.0000000000000000
  0
LINE
  5
2B1
100
AcDbEntity
  8
A5
  6
CONTINUOUS
 62
7
100
AcDbLine
 10
147.6999999999997
 20
182.7000000000000
 30
0.0000000000000000
 11
147.8999999999997
 21
182.4999999999999
 31
0.0000000000000000
  0
LINE
  5
2B2
100
AcDbEntity
  8
A5
  6
CONTINUOUS
 62
7
100
AcDbLine
 10
147.8999999999997
 20
177.4999999999999
 30
0.0000000000000000
 11
147.6999999999997
 21
177.3000000000000
 31
0.0000000000000000
  0
LINE
  5
2B3
100
AcDbEntity
  8
A5
  6
CONTINUOUS
 62
7
100
AcDbLine
 10
119.5999999999997
 20
191.0000000000000
 30
0.0000000000000000
 11
119.7999999999998
 21
190.8000000000000
 31
0.0000000000000000
  0
LINE
  5
2B4
100
AcDbEntity
  8
A5
  6
CONTINUOUS
 62
7
100
AcDbLine
 10
119.7999999999998
 20
169.2000000000000
 30
0.0000000000000000
 11
119.5999999999998
 21
168.9999999999999
 31
0.0000000000000000
  0
LINE
  5
2B5
100
AcDbEntity
  8
A5
  6
CONTINUOUS
 62
7
100
AcDbLine
 10
118.7999999999998
 20
190.9999999999999
 30
0.0000000000000000
 11
119.5999999999999
 21
190.9999999999999
 31
0.0000000000000000
  0
LINE
  5
2B6
100
AcDbEntity
  8
A5
  6
CONTINUOUS
 62
7
100
AcDbLine
 10
119.5999999999999
 20
168.9999999999999
 30
0.0000000000000000
 11
118.7999999999998
 21
168.9999999999999
 31
0.0000000000000000
  0
LINE
  5
2B7
100
AcDbEntity
  8
A5
  6
CONTINUOUS
 62
7
100
AcDbLine
 10
136.6249999999998
 20
183.9999999999999
 30
0.0000000000000000
 11
136.6249999999998
 21
175.9999999999999
 31
0.0000000000000000
  0
LINE
  5
2B8
100
AcDbEntity
  8
A5
  6
CONTINUOUS
 62
7
100
AcDbLine
 10
146.8999999999998
 20
182.7000000000000
 30
0.0000000000000000
 11
146.8999999999998
 21
177.3000000000000
 31
0.0000000000000000
  0
LINE
  5
2B9
100
AcDbEntity
  8
A5
  6
CONTINUOUS
 62
7
100
AcDbLine
 10
147.8999999999998
 20
177.4999999999999
 30
0.0000000000000000
 11
147.8999999999998
 21
182.4999999999999
 31
0.0000000000000000
  0
LINE
  5
2BA
100
AcDbEntity
  8
A5
  6
CONTINUOUS
 62
7
100
AcDbLine
 10
119.5999999999999
 20
179.9999999999999
 30
0.0000000000000000
 11
119.5999999999999
 21
168.9999999999999
 31
0.0000000000000000
  0
LINE
  5
2BB
100
AcDbEntity
  8
A5
  6
CONTINUOUS
 62
7
100
AcDbLine
 10
119.5999999999999
 20
190.9999999999999
 30
0.0000000000000000
 11
119.5999999999999
 21
179.9999999999999
 31
0.0000000000000000
  0
LINE
  5
2BC
100
AcDbEntity
  8
A5
  6
CONTINUOUS
 62
7
100
AcDbLine
 10
118.7999999999998
 20
179.9999999999999
 30
0.0000000000000000
 11
118.7999999999998
 21
168.9999999999999
 31
0.0000000000000000
  0
LINE
  5
2BD
100
AcDbEntity
  8
A5
  6
CONTINUOUS
 62
7
100
AcDbLine
 10
118.7999999999998
 20
190.9999999999999
 30
0.0000000000000000
 11
118.7999999999998
 21
179.9999999999999
 31
0.0000000000000000
  0
LINE
  5
2BE
100
AcDbEntity
  8
A5
  6
CONTINUOUS
 62
7
100
AcDbLine
 10
136.0999999999999
 20
176.1231456049999
 30
0.0000000000000000
 11
136.0999999999999
 21
183.8768543949998
 31
0.0000000000000000
  0
LINE
  5
2BF
100
AcDbEntity
  8
A5
  6
CONTINUOUS
 62
7
100
AcDbLine
 10
136.0999999999999
 20
172.0999999999999
 30
0.0000000000000000
 11
136.0999999999999
 21
176.1231456049999
 31
0.0000000000000000
  0
LINE
  5
2C0
100
AcDbEntity
  8
A5
  6
CONTINUOUS
 62
7
100
AcDbLine
 10
136.0999999999999
 20
183.8768543949998
 30
0.0000000000000000
 11
136.0999999999999
 21
187.8999999999999
 31
0.0000000000000000
  0
LINE
  5
2C1
100
AcDbEntity
  8
A2
  6
CONTINUOUS
 62
7
100
AcDbLine
 10
121.7999999999998
 20
172.0999999999999
 30
0.0000000000000000
 11
121.7999999999998
 21
187.8999999999999
 31
0.0000000000000000
  0
LINE
  5
2C2
100
AcDbEntity
  8
A2
  6
CONTINUOUS
 62
7
100
AcDbLine
 10
138.7999999999998
 20
177.3000000000000
 30
0.0000000000000000
 11
138.7999999999998
 21
183.4999999999999
 31
0.0000000000000000
  0
LINE
  5
2C3
100
AcDbEntity
  8
A5
  6
CONTINUOUS
 62
7
100
AcDbLine
 10
136.6999999999998
 20
172.1999999999999
 30
0.0000000000000000
 11
136.6999999999998
 21
187.8720311162000
 31
0.0000000000000000
  0
LINE
  5
2C4
100
AcDbEntity
  8
A5
  6
CONTINUOUS
 62
7
100
AcDbLine
 10
137.8999999999998
 20
172.1999999999999
 30
0.0000000000000000
 11
136.6999999999998
 21
172.1999999999999
 31
0.0000000000000000
  0
LINE
  5
2C5
100
AcDbEntity
  8
A5
  6
CONTINUOUS
 62
7
100
AcDbLine
 10
137.8999999999998
 20
172.1999999999999
 30
0.0000000000000000
 11
137.8999999999998
 21
187.8720311160899
 31
0.0000000000000000
  0
LINE
  5
2C6
100
AcDbEntity
  8
A10
  6
CONTINUOUS
 62
7
100
AcDbLine
 10
119.7999999999998
 20
169.2000000000001
 30
0.0000000000000000
 11
119.7999999999997
 21
190.8000000000000
 31
0.0000000000000000
  0
LINE
  5
2C7
100
AcDbEntity
  8
A10
  6
CONTINUOUS
 62
7
100
AcDbLine
 10
120.7999999999998
 20
169.2000000000003
 30
0.0000000000000000
 11
119.8000000000059
 21
169.2000000000004
 31
0.0000000000000000
  0
LINE
  5
2C8
100
AcDbEntity
  8
A10
  6
CONTINUOUS
 62
7
100
AcDbLine
 10
120.7999999999998
 20
190.7999999999994
 30
0.0000000000000000
 11
119.8000000000059
 21
190.7999999999993
 31
0.0000000000000000
  0
LINE
  5
2C9
100
AcDbEntity
  8
A2
  6
CONTINUOUS
 62
7
100
AcDbLine
 10
125.6000000000129
 20
192.0000000000000
 30
0.0000000000000000
 11
126.8000000000129
 21
192.0000000000000
 31
0.0000000000000000
  0
LINE
  5
2CA
100
AcDbEntity
  8
A2
  6
CONTINUOUS
 62
7
100
AcDbLine
 10
126.8000000000129
 20
168.0000000000000
 30
0.0000000000000000
 11
125.6000000000129
 21
168.0000000000000
 31
0.0000000000000000
  0
LINE
  5
2CB
100
AcDbEntity
  8
A2
  6
CONTINUOUS
 62
7
100
AcDbLine
 10
130.8000000000129
 20
191.0000000000000
 30
0.0000000000000000
 11
130.8000000000129
 21
169.0000000000000
 31
0.0000000000000000
  0
LINE
  5
2CC
100
AcDbEntity
  8
A5
  6
CONTINUOUS
 62
7
100
AcDbLine
 10
140.3000000000000
 20
173.5000000000000
 30
0.0000000000000000
 11
139.5000000000000
 21
173.5000000000000
 31
0.0000000000000000
  0
LINE
  5
2CD
100
AcDbEntity
  8
A5
  6
CONTINUOUS
 62
7
100
AcDbLine
 10
139.5000000000000
 20
186.5000000000000
 30
0.0000000000000000
 11
140.3000000000000
 21
186.5000000000000
 31
0.0000000000000000
  0
LINE
  5
2CE
100
AcDbEntity
  8
A5
  6
CONTINUOUS
 62
7
100
AcDbLine
 10
139.5000000000000
 20
186.5000000000000
 30
0.0000000000000000
 11
139.5000000000000
 21
173.5000000000000
 31
0.0000000000000000
  0
LINE
  5
2CF
100
AcDbEntity
  8
A5
  6
CONTINUOUS
 62
7
100
AcDbLine
 10
140.3000000000000
 20
184.7631397208200
 30
0.0000000000000000
 11
140.3026735337100
 21
184.8760103344700
 31
0.0000000000000000
  0
LINE
  5
2D0
100
AcDbEntity
  8
A5
  6
CONTINUOUS
 62
7
100
AcDbLine
 10
137.8999999999998
 20
183.4999999999999
 30
0.0000000000000000
 11
139.5000000000000
 21
183.4999999999999
 31
0.0000000000000000
  0
LINE
  5
2D1
100
AcDbEntity
  8
A5
  6
CONTINUOUS
 62
7
100
AcDbLine
 10
140.3000000000000
 20
186.5000000000000
 30
0.0000000000000000
 11
140.3000000000000
 21
173.5000000000000
 31
0.0000000000000000
  0
LINE
  5
2D2
100
AcDbEntity
  8
A2
  6
CONTINUOUS
 62
7
100
AcDbLine
 10
126.8000000000129
 20
192.0000000000000
 30
0.0000000000000000
 11
126.8000000000129
 21
168.0000000000000
 31
0.0000000000000000
  0
LINE
  5
2D3
100
AcDbEntity
  8
A2
  6
CONTINUOUS
 62
7
100
AcDbLine
 10
125.6000000000129
 20
192.0000000000000
 30
0.0000000000000000
 11
125.6000000000129
 21
168.0000000000000
 31
0.0000000000000000
  0
LINE
  5
2D4
100
AcDbEntity
  8
A10
  6
CONTINUOUS
 62
7
100
AcDbLine
 10
120.7999999999998
 20
190.7999999999993
 30
0.0000000000000000
 11
120.7999999999998
 21
169.2000000000003
 31
0.0000000000000000
  0
LINE
  5
2D5
100
AcDbEntity
  8
A10
  6
CONTINUOUS
 62
7
100
AcDbLine
 10
130.8000000000129
 20
168.9999999999900
 30
0.0000000000000000
 11
126.8000000000129
 21
168.9999999999900
 31
0.0000000000000000
  0
LINE
  5
2D6
100
AcDbEntity
  8
A10
  6
CONTINUOUS
 62
7
100
AcDbLine
 10
130.8000000000129
 20
191.0000000000000
 30
0.0000000000000000
 11
126.8000000000129
 21
191.0000000000000
 31
0.0000000000000000
  0
LINE
  5
2D7
100
AcDbEntity
  8
A5
  6
CENTER
 62
1
100
AcDbLine
 10
109.6622305212698
 20
179.9999999999999
 30
0.0000000000000000
 11
149.7036836058249
 21
180.0000000000000
 31
0.0000000000000000
  0
LINE
  5
2D8
100
AcDbEntity
  8
A10
  6
CONTINUOUS
 62
7
100
AcDbLine
 10
126.8000000000129
 20
179.9999999999999
 30
0.0000000000000000
 11
129.8000000000129
 21
179.9999999999999
 31
0.0000000000000000
  0
ARC
  5
2D9
100
AcDbEntity
  8
A10
  6
CONTINUOUS
 62
7
100
AcDbCircle
 10
115.1749999999858
 20
174.4999999999950
 30
0.0000000000000000
 40
15.62500000002711
100
AcDbArc
 50
339.3903070624860
 51
380.6096929375141
  0
ARC
  5
2DA
100
AcDbEntity
  8
A10
  6
CONTINUOUS
 62
7
100
AcDbCircle
 10
115.1750000000121
 20
185.4999999999999
 30
0.0000000000000000
 40
15.62500000000077
100
AcDbArc
 50
339.3903070624688
 51
380.6096929375312
  0
LINE
  5
2DB
100
AcDbEntity
  8
A10
  6
CONTINUOUS
 62
7
100
AcDbLine
 10
137.8999999999998
 20
187.8720311162000
 30
0.0000000000000000
 11
136.6999999999998
 21
187.8720311162000
 31
0.0000000000000000
  0
LINE
  5
2DC
100
AcDbEntity
  8
A10
  6
CONTINUOUS
 62
7
100
AcDbLine
 10
137.8999999999998
 20
184.0743097573000
 30
0.0000000000000000
 11
136.6999999999998
 21
184.0743097573000
 31
0.0000000000000000
  0
LINE
  5
2DD
100
AcDbEntity
  8
A10
  6
CONTINUOUS
 62
7
100
AcDbLine
 10
137.8999999999998
 20
175.9256902423000
 30
0.0000000000000000
 11
136.6999999999998
 21
175.9256902423000
 31
0.0000000000000000
  0
LINE
  5
2DE
100
AcDbEntity
  8
A10
  6
CONTINUOUS
 62
7
100
AcDbLine
 10
137.8999999999998
 20
177.3000000000000
 30
0.0000000000000000
 11
139.5000000000000
 21
177.3000000000000
 31
0.0000000000000000
  0
LINE
  5
2DF
100
AcDbEntity
  8
A10
  6
CONTINUOUS
 62
7
100
AcDbLine
 10
144.2999999998631
 20
177.3000000000000
 30
0.0000000000000000
 11
147.6999999999997
 21
177.3000000000000
 31
0.0000000000000000
  0
LINE
  5
2E0
100
AcDbEntity
  8
A10
  6
CONTINUOUS
 62
7
100
AcDbLine
 10
137.8999999999998
 20
182.7000000000000
 30
0.0000000000000000
 11
139.5000000000000
 21
182.7000000000000
 31
0.0000000000000000
  0
LINE
  5
2E1
100
AcDbEntity
  8
A10
  6
CONTINUOUS
 62
7
100
AcDbLine
 10
144.2999999998800
 20
182.7000000000000
 30
0.0000000000000000
 11
147.6999999999997
 21
182.7000000000000
 31
0.0000000000000000
  0
LINE
  5
2E2
100
AcDbEntity
  8
A10
  6
CONTINUOUS
 62
7
100
AcDbLine
 10
144.2999999998428
 20
185.4999999998000
 30
0.0000000000000000
 11
140.3000000000000
 21
185.4999999998000
 31
0.0000000000000000
  0
LINE
  5
2E3
100
AcDbEntity
  8
A10
  6
CONTINUOUS
 62
7
100
AcDbLine
 10
143.8087598137400
 20
179.9999999999999
 30
0.0000000000000000
 11
140.7912401861400
 21
179.9999999999999
 31
0.0000000000000000
  0
LINE
  5
2E4
100
AcDbEntity
  8
A10
  6
CONTINUOUS
 62
7
100
AcDbLine
 10
144.2999999998454
 20
174.4999999998000
 30
0.0000000000000000
 11
140.3000000000000
 21
174.4999999998000
 31
0.0000000000000000
  0
LINE
  5
2E5
100
AcDbEntity
  8
A10
  6
CONTINUOUS
 62
7
100
AcDbLine
 10
144.2999999998454
 20
174.4999999998000
 30
0.0000000000000000
 11
144.2999999998428
 21
185.4999999998034
 31
0.0000000000000000
  0
ARC
  5
2E6
100
AcDbEntity
  8
A10
  6
CONTINUOUS
 62
7
100
AcDbCircle
 10
136.3570251153253
 20
177.2499999999000
 30
0.0000000000000000
 40
7.942974884519520
100
AcDbArc
 50
339.7438420010693
 51
380.2561579989306
  0
ARC
  5
2E7
100
AcDbEntity
  8
A10
  6
CONTINUOUS
 62
7
100
AcDbCircle
 10
136.3570251164234
 20
182.7499999999000
 30
0.0000000000000000
 40
7.942974883420050
100
AcDbArc
 50
339.7438419996798
 51
380.2561580003201
  0
ARC
  5
2E8
100
AcDbEntity
  8
A10
  6
CONTINUOUS
 62
7
100
AcDbCircle
 10
148.2429748845015
 20
177.2499999998953
 30
0.0000000000000000
 40
7.942974884519520
100
AcDbArc
 50
159.7438420010244
 51
200.2561579988858
  0
ARC
  5
2E9
100
AcDbEntity
  8
A10
  6
CONTINUOUS
 62
7
100
AcDbCircle
 10
148.2429748834077
 20
182.7499999998953
 30
0.0000000000000000
 40
7.942974883420050
100
AcDbArc
 50
159.7438419996350
 51
200.2561580002753
  0
LINE
  5
2EA
100
AcDbEntity
  8
A5
  6
CONTINUOUS
 62
7
100
AcDbLine
 10
136.6249999999998
 20
175.9999999999997
 30
0.0000000000000000
 11
136.6999999999998
 21
176.0749999999997
 31
0.0000000000000000
  0
LINE
  5
2EB
100
AcDbEntity
  8
A10
  6
CONTINUOUS
 62
7
100
AcDbLine
 10
120.7999999999998
 20
172.0999999999999
 30
0.0000000000000000
 11
125.6000000000129
 21
172.0999999999999
 31
0.0000000000000000
  0
LINE
  5
2EC
100
AcDbEntity
  8
A10
  6
CONTINUOUS
 62
7
100
AcDbLine
 10
130.8000000000129
 20
172.0999999999999
 30
0.0000000000000000
 11
136.0999999999998
 21
172.1000000000000
 31
0.0000000000000000
  0
LINE
  5
2ED
100
AcDbEntity
  8
A10
  6
CONTINUOUS
 62
7
100
AcDbLine
 10
120.7999999999998
 20
187.8999999999999
 30
0.0000000000000000
 11
125.6000000000129
 21
187.8999999999999
 31
0.0000000000000000
  0
LINE
  5
2EE
100
AcDbEntity
  8
A10
  6
CONTINUOUS
 62
7
100
AcDbLine
 10
130.8000000000129
 20
187.8999999999999
 30
0.0000000000000000
 11
136.0999999999999
 21
187.8999999999999
 31
0.0000000000000000
  0
LINE
  5
2EF
100
AcDbEntity
  8
A10
  6
CONTINUOUS
 62
7
100
AcDbLine
 10
137.5999999999998
 20
43.71904070349988
 30
0.0000000000000000
 11
136.0999999999999
 21
43.71904070349988
 31
0.0000000000000000
  0
LINE
  5
2F0
100
AcDbEntity
  8
A10
  6
CONTINUOUS
 62
7
100
AcDbLine
 10
137.4000000000091
 20
36.28095929650028
 30
0.0000000000000000
 11
137.4000000000061
 21
43.71904070349988
 31
0.0000000000000000
  0
LINE
  5
2F1
100
AcDbEntity
  8
A10
  6
CONTINUOUS
 62
7
100
AcDbLine
 10
137.5999999999998
 20
36.28095929650028
 30
0.0000000000000000
 11
136.0999999999998
 21
36.28095929650030
 31
0.0000000000000000
  0
LINE
  5
2F2
100
AcDbEntity
  8
A5
  6
CONTINUOUS
 62
7
100
AcDbLine
 10
136.6999999999998
 20
36.28095929650029
 30
0.0000000000000000
 11
136.6999999999998
 21
32.12796888379986
 31
0.0000000000000000
  0
LINE
  5
2F3
100
AcDbEntity
  8
A5
  6
CONTINUOUS
 62
7
100
AcDbLine
 10
136.6999999999998
 20
47.80000000000001
 30
0.0000000000000000
 11
136.6999999999998
 21
43.71904070349989
 31
0.0000000000000000
  0
LINE
  5
2F4
100
AcDbEntity
  8
A5
  6
CONTINUOUS
 62
7
100
AcDbLine
 10
136.6249999999998
 20
36.00000000000000
 30
0.0000000000000000
 11
136.6249999999998
 21
36.28095929650029
 31
0.0000000000000000
  0
LINE
  5
2F5
100
AcDbEntity
  8
A5
  6
CONTINUOUS
 62
7
100
AcDbLine
 10
136.6249999999998
 20
43.71904070349989
 30
0.0000000000000000
 11
136.6249999999998
 21
44.00000000000000
 31
0.0000000000000000
  0
LINE
  5
2F6
100
AcDbEntity
  8
A10
  6
CONTINUOUS
 62
7
100
AcDbLine
 10
137.6000000000027
 20
36.28095929650036
 30
0.0000000000000000
 11
137.5999999999998
 21
43.71904070349996
 31
0.0000000000000000
  0
LINE
  5
2F7
100
AcDbEntity
  8
A10
  6
CONTINUOUS
 62
7
100
AcDbLine
 10
118.7999999999998
 20
51.00000000000001
 30
0.0000000000000000
 11
110.9631422929899
 21
49.53058917993836
 31
0.0000000000000000
  0
ARC
  5
2F8
100
AcDbEntity
  8
A10
  6
CONTINUOUS
 62
7
100
AcDbCircle
 10
110.9999999999998
 20
49.33401474255147
 30
0.0000000000000000
 40
0.2000000000000000
100
AcDbArc
 50
100.6196552761360
 51
180.0000000000000
  0
LINE
  5
2F9
100
AcDbEntity
  8
A10
  6
CONTINUOUS
 62
7
100
AcDbLine
 10
118.7999999999998
 20
29.00000000000001
 30
0.0000000000000000
 11
110.9631422929899
 21
30.46941082006163
 31
0.0000000000000000
  0
ARC
  5
2FA
100
AcDbEntity
  8
A10
  6
CONTINUOUS
 62
7
100
AcDbCircle
 10
110.9999999999999
 20
30.66598525744851
 30
0.0000000000000000
 40
0.2000000000000000
100
AcDbArc
 50
180.0000000000000
 51
259.3803447238640
  0
LINE
  5
2FB
100
AcDbEntity
  8
A10
  6
CONTINUOUS
 62
7
100
AcDbLine
 10
118.7999999999998
 20
121.0000000000000
 30
0.0000000000000000
 11
110.9631422929899
 21
119.5305891799384
 31
0.0000000000000000
  0
LINE
  5
2FC
100
AcDbEntity
  8
A5
  6
CONTINUOUS
 62
7
100
AcDbLine
 10
110.7999999999998
 20
100.6652031122300
 30
0.0000000000000000
 11
110.7999999999998
 21
119.3347968877700
 31
0.0000000000000000
  0
ARC
  5
2FD
100
AcDbEntity
  8
A10
  6
CONTINUOUS
 62
7
100
AcDbCircle
 10
110.9999999999998
 20
119.3340147425515
 30
0.0000000000000000
 40
0.2000000000000000
100
AcDbArc
 50
100.6196552761360
 51
180.0000000000000
  0
LINE
  5
2FE
100
AcDbEntity
  8
A10
  6
CONTINUOUS
 62
7
100
AcDbLine
 10
118.7999999999998
 20
99.00000000000000
 30
0.0000000000000000
 11
110.9631422929899
 21
100.4694108200616
 31
0.0000000000000000
  0
ARC
  5
2FF
100
AcDbEntity
  8
A10
  6
CONTINUOUS
 62
7
100
AcDbCircle
 10
110.9999999999999
 20
100.6659852574485
 30
0.0000000000000000
 40
0.2000000000000000
100
AcDbArc
 50
180.0000000000000
 51
259.3803447238640
  0
LINE
  5
300
100
AcDbEntity
  8
A10
  6
CONTINUOUS
 62
7
100
AcDbLine
 10
118.7999999999998
 20
190.9999999999999
 30
0.0000000000000000
 11
110.9631422929899
 21
189.5305891799383
 31
0.0000000000000000
  0
LINE
  5
301
100
AcDbEntity
  8
A5
  6
CONTINUOUS
 62
7
100
AcDbLine
 10
110.7999999999998
 20
170.6652031122299
 30
0.0000000000000000
 11
110.7999999999998
 21
189.3347968877699
 31
0.0000000000000000
  0
ARC
  5
302
100
AcDbEntity
  8
A10
  6
CONTINUOUS
 62
7
100
AcDbCircle
 10
110.9999999999998
 20
189.3340147425513
 30
0.0000000000000000
 40
0.2000000000000000
100
AcDbArc
 50
100.6196552761360
 51
180.0000000000000
  0
LINE
  5
303
100
AcDbEntity
  8
A10
  6
CONTINUOUS
 62
7
100
AcDbLine
 10
118.7999999999998
 20
168.9999999999999
 30
0.0000000000000000
 11
110.9631422929899
 21
170.4694108200615
 31
0.0000000000000000
  0
ARC
  5
304
100
AcDbEntity
  8
A10
  6
CONTINUOUS
 62
7
100
AcDbCircle
 10
110.9999999999999
 20
170.6659852574484
 30
0.0000000000000000
 40
0.2000000000000000
100
AcDbArc
 50
180.0000000000000
 51
259.3803447238640
  0
POINT
  5
305
100
AcDbEntity
  8
A10
  6
CONTINUOUS
 62
5
100
AcDbPoint
 10
30.00000000000000
 20
110.0000000000000
 30
0.0000000000000000
  0
CIRCLE
  5
306
100
AcDbEntity
  8
A4
  6
CONTINUOUS
 62
7
100
AcDbCircle
 10
30.00000000000001
 20
110.0000000000001
 30
0.0000000000000000
 40
8.550000000000001
  0
ARC
  5
307
100
AcDbEntity
  8
A4
  6
CONTINUOUS
 62
7
100
AcDbCircle
 10
30.00000000000001
 20
110.0000000000001
 30
0.0000000000000000
 40
7.950000000000000
100
AcDbArc
 50
98.68160169681200
 51
261.3183983031900
  0
LINE
  5
308
100
AcDbEntity
  8
A4
  6
CONTINUOUS
 62
7
100
AcDbLine
 10
28.79999999999999
 20
102.1410878615401
 30
0.0000000000000000
 11
28.79999999999999
 21
101.8377392837500
 31
0.0000000000000000
  0
ARC
  5
309
100
AcDbEntity
  8
A4
  6
CONTINUOUS
 62
7
100
AcDbCircle
 10
30.00000000001999
 20
110.0000000000001
 30
0.0000000000000000
 40
8.250000000000000
100
AcDbArc
 50
98.36360178913701
 51
261.6363982108600
  0
LINE
  5
30A
100
AcDbEntity
  8
A4
  6
CONTINUOUS
 62
7
100
AcDbLine
 10
28.79999999999999
 20
118.1622607162500
 30
0.0000000000000000
 11
28.79999999999999
 21
117.8589121384601
 31
0.0000000000000000
  0
ARC
  5
30B
100
AcDbEntity
  8
A4
  6
CONTINUOUS
 62
7
100
AcDbCircle
 10
28.26999999991001
 20
108.8499999999800
 30
0.0000000000000000
 40
2.683747380063900
100
AcDbArc
 50
281.3899303107100
 51
285.1192766493000
  0
LINE
  5
30C
100
AcDbEntity
  8
A4
  6
CONTINUOUS
 62
7
100
AcDbLine
 10
28.79999999999999
 20
106.2191066156200
 30
0.0000000000000000
 11
28.79999999999999
 21
106.1682841313801
 31
0.0000000000000000
  0
ARC
  5
30D
100
AcDbEntity
  8
A4
  6
CONTINUOUS
 62
7
100
AcDbCircle
 10
28.27000000002000
 20
108.8500000000001
 30
0.0000000000000000
 40
2.733587386567300
100
AcDbArc
 50
78.82043822164000
 51
281.1795617783200
  0
ARC
  5
30E
100
AcDbEntity
  8
A4
  6
CONTINUOUS
 62
7
100
AcDbCircle
 10
28.26999999985899
 20
108.8500000000300
 30
0.0000000000000000
 40
2.683747380063900
100
AcDbArc
 50
74.88072334955200
 51
78.61006968811900
  0
LINE
  5
30F
100
AcDbEntity
  8
A4
  6
CONTINUOUS
 62
7
100
AcDbLine
 10
28.79999999999999
 20
111.5317158686200
 30
0.0000000000000000
 11
28.79999999999999
 21
111.4808933843800
 31
0.0000000000000000
  0
LINE
  5
310
100
AcDbEntity
  8
A4
  6
CONTINUOUS
 62
7
100
AcDbLine
 10
28.79999999999999
 20
106.1682841313801
 30
0.0000000000000000
 11
28.79999999999999
 21
102.1410878615401
 31
0.0000000000000000
  0
LINE
  5
311
100
AcDbEntity
  8
A4
  6
CONTINUOUS
 62
7
100
AcDbLine
 10
28.79999999999999
 20
117.8589121384601
 30
0.0000000000000000
 11
28.79999999999999
 21
111.5317158686200
 31
0.0000000000000000
  0
ARC
  5
312
100
AcDbEntity
  8
A4
  6
CONTINUOUS
 62
7
100
AcDbCircle
 10
30.00000000000001
 20
110.0000000000001
 30
0.0000000000000000
 40
7.950000000000000
100
AcDbArc
 50
278.6816016968600
 51
441.3183983031370
  0
ARC
  5
313
100
AcDbEntity
  8
A4
  6
CONTINUOUS
 62
7
100
AcDbCircle
 10
30.00000000001999
 20
110.0000000000001
 30
0.0000000000000000
 40
8.250000000000000
100
AcDbArc
 50
278.3636017889200
 51
441.6363982110880
  0
LINE
  5
314
100
AcDbEntity
  8
A4
  6
CONTINUOUS
 62
7
100
AcDbLine
 10
31.20000000000000
 20
117.8589121384601
 30
0.0000000000000000
 11
31.20000000000000
 21
118.1622607162500
 31
0.0000000000000000
  0
LINE
  5
315
100
AcDbEntity
  8
A4
  6
CONTINUOUS
 62
7
100
AcDbLine
 10
31.20000000000000
 20
101.8377392837500
 30
0.0000000000000000
 11
31.20000000000000
 21
102.1410878615401
 31
0.0000000000000000
  0
LINE
  5
316
100
AcDbEntity
  8
A4
  6
CONTINUOUS
 62
7
100
AcDbLine
 10
31.20000000000000
 20
102.1410878615401
 30
0.0000000000000000
 11
31.20000000000000
 21
117.8589121384601
 31
0.0000000000000000
  0
ARC
  5
317
100
AcDbEntity
  8
A4
  6
CONTINUOUS
 62
7
100
AcDbCircle
 10
30.00000000000001
 20
110.0000000000001
 30
0.0000000000000000
 40
8.250000000000000
100
AcDbArc
 50
81.63639821096500
 51
98.36360178901900
  0
ARC
  5
318
100
AcDbEntity
  8
A4
  6
CONTINUOUS
 62
7
100
AcDbCircle
 10
30.00000000001800
 20
110.0000000000001
 30
0.0000000000000000
 40
8.250000000000000
100
AcDbArc
 50
277.1720060598000
 51
278.3636017889300
  0
LINE
  5
319
100
AcDbEntity
  8
A4
  6
CONTINUOUS
 62
7
100
AcDbLine
 10
28.97000000000001
 20
111.5500000000000
 30
0.0000000000000000
 11
31.02999999999998
 21
111.5500000000000
 31
0.0000000000000000
  0
LINE
  5
31A
100
AcDbEntity
  8
A4
  6
CONTINUOUS
 62
7
100
AcDbLine
 10
31.02999999999998
 20
111.5500000000000
 30
0.0000000000000000
 11
31.02999999999998
 21
101.8145494931601
 31
0.0000000000000000
  0
ARC
  5
31B
100
AcDbEntity
  8
A4
  6
CONTINUOUS
 62
7
100
AcDbCircle
 10
29.99999999974299
 20
110.0000000000300
 30
0.0000000000000000
 40
8.250000000000000
100
AcDbArc
 50
261.6363982127600
 51
262.8279939418900
  0
LINE
  5
31C
100
AcDbEntity
  8
A4
  6
CONTINUOUS
 62
7
100
AcDbLine
 10
29.07000000000000
 20
105.3500000000001
 30
0.0000000000000000
 11
31.02999999999998
 21
105.3500000000001
 31
0.0000000000000000
  0
ARC
  5
31D
100
AcDbEntity
  8
A4
  6
CONTINUOUS
 62
7
100
AcDbCircle
 10
29.06999999976998
 20
105.6500000000000
 30
0.0000000000000000
 40
0.2999999999999700
100
AcDbArc
 50
250.5287794066100
 51
270.0000000435999
  0
ARC
  5
31E
100
AcDbEntity
  8
A4
  6
CONTINUOUS
 62
7
100
AcDbCircle
 10
29.27000000012999
 20
117.7657646115001
 30
0.0000000000000000
 40
0.5000000000000000
100
AcDbArc
 50
95.37015644222501
 51
122.0013595011200
  0
ARC
  5
31F
100
AcDbEntity
  8
A4
  6
CONTINUOUS
 62
7
100
AcDbCircle
 10
30.00000000000001
 20
110.0000000000001
 30
0.0000000000000000
 40
8.300000000000001
100
AcDbArc
 50
264.6298435735800
 51
455.3701564264250
  0
ARC
  5
320
100
AcDbEntity
  8
A4
  6
CONTINUOUS
 62
7
100
AcDbCircle
 10
29.27000000022000
 20
102.2342353885601
 30
0.0000000000000000
 40
0.4999999999999900
100
AcDbArc
 50
233.1301023330300
 51
264.6298435488000
  0
ARC
  5
321
100
AcDbEntity
  8
A4
  6
CONTINUOUS
 62
7
100
AcDbCircle
 10
29.26999999990000
 20
104.7999999999201
 30
0.0000000000000000
 40
0.5000000000001100
100
AcDbArc
 50
89.99999998811900
 51
126.8698976309900
  0
LINE
  5
322
100
AcDbEntity
  8
A4
  6
CONTINUOUS
 62
7
100
AcDbLine
 10
31.02999999999998
 20
105.3000000000000
 30
0.0000000000000000
 11
29.26999999999999
 21
105.3000000000000
 31
0.0000000000000000
  0
ARC
  5
323
100
AcDbEntity
  8
A4
  6
CONTINUOUS
 62
7
100
AcDbCircle
 10
29.99999999975899
 20
110.0000000000300
 30
0.0000000000000000
 40
8.249999999999901
100
AcDbArc
 50
262.8279939417900
 51
263.0731306914200
  0
CIRCLE
  5
324
100
AcDbEntity
  8
A4
  6
CONTINUOUS
 62
7
100
AcDbCircle
 10
30.00000000000001
 20
110.0000000000001
 30
0.0000000000000000
 40
8.350000000000000
  0
LINE
  5
325
100
AcDbEntity
  8
A4
  6
CONTINUOUS
 62
7
100
AcDbLine
 10
28.97000000000001
 20
111.5500000000000
 30
0.0000000000000000
 11
28.97000000000001
 21
101.8145494931601
 31
0.0000000000000000
  0
POINT
  5
326
100
AcDbEntity
  8
A10
  6
CONTINUOUS
 62
5
100
AcDbPoint
 10
30.00000000000000
 20
110.0000000000000
 30
0.0000000000000000
  0
CIRCLE
  5
327
100
AcDbEntity
  8
A2
  6
CONTINUOUS
 62
7
100
AcDbCircle
 10
30.00000000000001
 20
110.0000000000001
 30
0.0000000000000000
 40
9.499999999993500
  0
ENDSEC
  0
SECTION
  2
OBJECTS
  0
DICTIONARY
  5
354
100
AcDbDictionary
  3
ACAD_GROUP
350
355
  3
ACAD_LAYOUT
350
356
  3
ACAD_MLINESTYLE
350
357
  0
DICTIONARY
  5
355
102
{ACAD_REACTORS
330
354
102
}
330
354
100
AcDbDictionary
  0
DICTIONARY
  5
356
102
{ACAD_REACTORS
330
354
102
}
330
354
100
AcDbDictionary
  3
Model
350
358
  3
ﾚｲｱｳﾄ1
350
359
  3
ﾚｲｱｳﾄ2
350
35A
  0
DICTIONARY
  5
357
102
{ACAD_REACTORS
330
354
102
}
330
354
100
AcDbDictionary
  3
STANDARD
350
35B
  0
LAYOUT
  5
358
102
{ACAD_REACTORS
330
356
102
}
330
356
100
AcDbPlotSettings
 70
11952
  4
A3
 44
297.000000
 45
420.000000
 73
  1
 72
  1
100
AcDbLayout
  1
Model
 71
0
330
34B
  0
LAYOUT
  5
359
102
{ACAD_REACTORS
330
356
102
}
330
356
100
AcDbPlotSettings
100
AcDbLayout
  1
ﾚｲｱｳﾄ1
 71
1
330
34C
  0
LAYOUT
  5
35A
102
{ACAD_REACTORS
330
356
102
}
330
356
100
AcDbPlotSettings
100
AcDbLayout
  1
ﾚｲｱｳﾄ2
 71
2
330
34D
  0
MLINESTYLE
  5
35B
102
{ACAD_REACTORS
330
357
102
}
330
357
100
AcDbMlineStyle
  2
STANDARD
 70
     0
  3

 62
   256
 51
90.00
 52
90.00
 71
     2
 49
0.50
 62
   256
  6
BYLAYER
 49
-0.50
 62
   256
  6
BYLAYER
  0
ENDSEC
  0
EOF
