  0
SECTION
  2
HEADER
  9
$ACADVER
  1
AC1015
  9
$DWGCODEPAGE
  3
ANSI_932
  9
$LTSCALE
 40
20.0
  9
$FILLMODE
 70
     1
  9
$CLAYER
  8
0
  9
$PDMODE
 70
     0
  9
$SPLFRAME
 70
     0
  9
$SPLINETYPE
 70
     6
  9
$SPLINESEGS
 70
     8
  9
$DIMASZ
 40
2.000000
  9
$DIMEXE
 40
1.500000
  9
$DIMEXO
 40
0.800000
  9
$DIMTAD
 70
     1
  9
$DIMTIH
 70
     0
  9
$DIMTOH
 70
     0
  9
$DIMTVP
 40
0.500000
  9
$DIMTXT
 40
3.100000
  9
$EXTMIN
 10
0.000000
 20
0.000000
 30
0.000000
  9
$EXTMAX
 10
297.000000
 20
420.000000
 30
0.000000
  9
$MEASUREMENT
 70
  1
  9
$LIMMIN
 10
0.000000
 20
0.000000
  9
$LIMMAX
 10
297.000000
 20
420.000000
  9
$HANDSEED
  5
284
  9
$LWDISPLAY
290
     0
  9
$DIMBLK
  1
_OPEN
  9
$DIMDEC
 70
     2
  9
$DIMADEC
 70
     2
  9
$DIMAUNIT
 70
     0
  9
$DIMZIN
 70
     8
  9
$DIMAZIN
 70
     2
  9
$DIMTOFL
 70
     1
  0
ENDSEC
  0
SECTION
  2
CLASSES
  0
ENDSEC
  0
SECTION
  2
TABLES
  0
TABLE
  2
VPORT
  5
248
100
AcDbSymbolTable
 70
     1
  0
VPORT
  5
249
100
AcDbSymbolTableRecord
100
AcDbViewportTableRecord
  2
*ACTIVE
 70
     0
 12
162.362146
 22
117.097429
 40
198.194857
 41
1.537499
  0
ENDTAB
  0
TABLE
  2
LTYPE
  5
24A
100
AcDbSymbolTable
 70
     4
  0
LTYPE
  5
24B
100
AcDbSymbolTableRecord
100
AcDbLinetypeTableRecord
  2
BYBLOCK
 70
     0
  3

 72
    65
 73
     0
 40
0.0
  0
LTYPE
  5
24C
100
AcDbSymbolTableRecord
100
AcDbLinetypeTableRecord
  2
BYLAYER
 70
     0
  3

 72
    65
 73
     0
 40
0.0
  0
LTYPE
  5
24D
100
AcDbSymbolTableRecord
100
AcDbLinetypeTableRecord
  2
CONTINUOUS
 70
     0
  3
Solid line (NEC CAE2D for Win R18.0 : 2023.11.10)
 72
    65
 73
     0
 40
0.0
  0
LTYPE
  5
24E
100
AcDbSymbolTableRecord
100
AcDbLinetypeTableRecord
  2
DASHED
 70
     0
  3
__ __ __ __ __ __ __ __ __ __ __ __ __ _
 72
    65
 73
     2
 40
0.75
 49
0.5
 74
     0
 49
-0.25
 74
     0
  0
LTYPE
  5
24F
100
AcDbSymbolTableRecord
100
AcDbLinetypeTableRecord
  2
CENTER
 70
     0
  3
____ _ ____ _ ____ _ ____ _ ____ _ ____
 72
    65
 73
     4
 40
2.0
 49
1.25
 74
     0
 49
-0.25
 74
     0
 49
0.25
 74
     0
 49
-0.25
 74
     0
  0
LTYPE
  5
250
100
AcDbSymbolTableRecord
100
AcDbLinetypeTableRecord
  2
PHANTOM
 70
     0
  3
______  __  __  ______  __  __  ______ 
 72
    65
 73
     6
 40
2.5
 49
1.25
 74
     0
 49
-0.25
 74
     0
 49
0.25
 74
     0
 49
-0.25
 74
     0
 49
0.25
 74
     0
 49
-0.25
 74
     0
  0
ENDTAB
  0
TABLE
  2
LAYER
  5
251
100
AcDbSymbolTable
 70
    20
  0
LAYER
  5
252
100
AcDbSymbolTableRecord
100
AcDbLayerTableRecord
  2
0
 70
     0
 62
     7
  6
CONTINUOUS
370
    -3
390

  0
LAYER
  5
253
100
AcDbSymbolTableRecord
100
AcDbLayerTableRecord
  2
DXF0
 70
     0
 62
     7
  6
CONTINUOUS
370
    -3
390

  0
LAYER
  5
254
100
AcDbSymbolTableRecord
100
AcDbLayerTableRecord
  2
A0
 70
     0
 62
     9
  6
CONTINUOUS
370
    -3
390

  0
LAYER
  5
255
100
AcDbSymbolTableRecord
100
AcDbLayerTableRecord
  2
A1
 70
     0
 62
     1
  6
CONTINUOUS
370
    -3
390

  0
LAYER
  5
256
100
AcDbSymbolTableRecord
100
AcDbLayerTableRecord
  2
A2
 70
     0
 62
    12
  6
CONTINUOUS
370
    -3
390

  0
LAYER
  5
257
100
AcDbSymbolTableRecord
100
AcDbLayerTableRecord
  2
A3
 70
     0
 62
    12
  6
CONTINUOUS
370
    -3
390

  0
LAYER
  5
258
100
AcDbSymbolTableRecord
100
AcDbLayerTableRecord
  2
A4
 70
     0
 62
     9
  6
CONTINUOUS
370
    -3
390

  0
LAYER
  5
259
100
AcDbSymbolTableRecord
100
AcDbLayerTableRecord
  2
A5
 70
     0
 62
     8
  6
CONTINUOUS
370
    -3
390

  0
LAYER
  5
25A
100
AcDbSymbolTableRecord
100
AcDbLayerTableRecord
  2
A6
 70
     0
 62
    12
  6
CONTINUOUS
370
    -3
390

  0
LAYER
  5
25B
100
AcDbSymbolTableRecord
100
AcDbLayerTableRecord
  2
A7
 70
     0
 62
    10
  6
CONTINUOUS
370
    -3
390

  0
LAYER
  5
25C
100
AcDbSymbolTableRecord
100
AcDbLayerTableRecord
  2
A8
 70
     0
 62
    10
  6
CONTINUOUS
370
    -3
390

  0
LAYER
  5
25D
100
AcDbSymbolTableRecord
100
AcDbLayerTableRecord
  2
A9
 70
     0
 62
     9
  6
CONTINUOUS
370
    -3
390

  0
LAYER
  5
25E
100
AcDbSymbolTableRecord
100
AcDbLayerTableRecord
  2
A10
 70
     0
 62
     6
  6
CONTINUOUS
370
    -3
390

  0
LAYER
  5
25F
100
AcDbSymbolTableRecord
100
AcDbLayerTableRecord
  2
A20
 70
     0
 62
     1
  6
CONTINUOUS
370
    -3
390

  0
LAYER
  5
260
100
AcDbSymbolTableRecord
100
AcDbLayerTableRecord
  2
A22
 70
     0
 62
    12
  6
CONTINUOUS
370
    -3
390

  0
LAYER
  5
261
100
AcDbSymbolTableRecord
100
AcDbLayerTableRecord
  2
A30
 70
     0
 62
     1
  6
CONTINUOUS
370
    -3
390

  0
LAYER
  5
262
100
AcDbSymbolTableRecord
100
AcDbLayerTableRecord
  2
A40
 70
     0
 62
     9
  6
CONTINUOUS
370
    -3
390

  0
LAYER
  5
263
100
AcDbSymbolTableRecord
100
AcDbLayerTableRecord
  2
A50
 70
     0
 62
    12
  6
CONTINUOUS
370
    -3
390

  0
LAYER
  5
264
100
AcDbSymbolTableRecord
100
AcDbLayerTableRecord
  2
A1023
 70
     0
 62
     8
  6
CONTINUOUS
370
    -3
390

  0
LAYER
  5
265
100
AcDbSymbolTableRecord
100
AcDbLayerTableRecord
  2
DXF1023
 70
     0
 62
    16
  6
CONTINUOUS
370
    -3
390

  0
ENDTAB
  0
TABLE
  2
STYLE
  5
266
100
AcDbSymbolTable
 70
     4
  0
STYLE
  5
267
100
AcDbSymbolTableRecord
100
AcDbTextStyleTableRecord
  2
STANDARD
 70
    64
 40
0.0
 41
1.0
 50
0.0
 71
     0
 42
2.500000000000000
  3
TXT
  4

  0
STYLE
  5
268
100
AcDbSymbolTableRecord
100
AcDbTextStyleTableRecord
  2
ANKTATE
 70
    68
 40
0.0
 41
1.0
 50
0.0
 71
     0
 42
2.500000000000000
  3
TXT
  4

  0
STYLE
  5
269
100
AcDbSymbolTableRecord
100
AcDbTextStyleTableRecord
  2
KNJYOKO
 70
    64
 40
0.0
 41
1.0
 50
0.0
 71
     0
 42
2.500000000000000
  3
TXT
  4
BIGFONT
  0
STYLE
  5
26A
100
AcDbSymbolTableRecord
100
AcDbTextStyleTableRecord
  2
KNJTATE
 70
    68
 40
0.0
 41
1.0
 50
0.0
 71
     0
 42
2.500000000000000
  3
TXT
  4
BIGFONT
  0
ENDTAB
  0
TABLE
  2
VIEW
  5
26B
100
AcDbSymbolTable
 70
     0
  0
ENDTAB
  0
TABLE
  2
UCS
  5
26C
100
AcDbSymbolTable
 70
     0
  0
ENDTAB
  0
TABLE
  2
APPID
  5
26D
100
AcDbSymbolTable
 70
     1
  0
APPID
  5
26E
100
AcDbSymbolTableRecord
100
AcDbRegAppTableRecord
  2
ACAD
 70
     0
  0
ENDTAB
  0
TABLE
  2
DIMSTYLE
  5
26F
100
AcDbSymbolTable
 70
     2
100
AcDbDimStyleTable
  0
DIMSTYLE
105
270
100
AcDbSymbolTableRecord
100
AcDbDimStyleTableRecord
  2
STANDARD
 70
     0
 41
2.000000
 44
1.500000
 42
0.800000
145
0.661290
140
3.100000
144
1.000000
146
0.645161
340
267
  0
DIMSTYLE
105
271
100
AcDbSymbolTableRecord
100
AcDbDimStyleTableRecord
  2
DXF001
 70
     0
 41
2.000000
 44
1.500000
 42
0.800000
145
0.661290
140
3.100000
144
1.000000
146
0.645161
 77
     1
 73
     0
 74
     0
271
     2
179
     2
275
     0
 78
     8
 79
     2
172
     1
340
267
  0
ENDTAB
  0
TABLE
  2
BLOCK_RECORD
  5
272
100
AcDbSymbolTable
 70
    12
  0
BLOCK_RECORD
  5
273
100
AcDbSymbolTableRecord
100
AcDbBlockTableRecord
  2
*MODEL_SPACE
  0
BLOCK_RECORD
  5
274
100
AcDbSymbolTableRecord
100
AcDbBlockTableRecord
  2
*PAPER_SPACE
  0
BLOCK_RECORD
  5
275
100
AcDbSymbolTableRecord
100
AcDbBlockTableRecord
  2
*PAPER_SPACE0
  0
BLOCK_RECORD
  5
1
100
AcDbSymbolTableRecord
100
AcDbBlockTableRecord
  2
_NONE
  0
BLOCK_RECORD
  5
4
100
AcDbSymbolTableRecord
100
AcDbBlockTableRecord
  2
_CLOSED
  0
BLOCK_RECORD
  5
B
100
AcDbSymbolTableRecord
100
AcDbBlockTableRecord
  2
_DOT
  0
BLOCK_RECORD
  5
13
100
AcDbSymbolTableRecord
100
AcDbBlockTableRecord
  2
_OPEN
  0
BLOCK_RECORD
  5
19
100
AcDbSymbolTableRecord
100
AcDbBlockTableRecord
  2
_ORIGIN
  0
BLOCK_RECORD
  5
1E
100
AcDbSymbolTableRecord
100
AcDbBlockTableRecord
  2
_OPEN30
  0
BLOCK_RECORD
  5
24
100
AcDbSymbolTableRecord
100
AcDbBlockTableRecord
  2
_BOXFILLED
  0
BLOCK_RECORD
  5
29
100
AcDbSymbolTableRecord
100
AcDbBlockTableRecord
  2
_BOXBLANK
  0
BLOCK_RECORD
  5
31
100
AcDbSymbolTableRecord
100
AcDbBlockTableRecord
  2
_OBLIQUE
  0
BLOCK_RECORD
  5
35
100
AcDbSymbolTableRecord
100
AcDbBlockTableRecord
  2
_OPEN90
  0
BLOCK_RECORD
  5
3B
100
AcDbSymbolTableRecord
100
AcDbBlockTableRecord
  2
_CLOSEDBLANK
  0
BLOCK_RECORD
  5
41
100
AcDbSymbolTableRecord
100
AcDbBlockTableRecord
  2
_DOTBLANK
  0
ENDTAB
  0
ENDSEC
  0
SECTION
  2
BLOCKS
  0
BLOCK
  5
276
100
AcDbEntity
  8
0
100
AcDbBlockBegin
  2
*MODEL_SPACE
 70
     0
 10
0.0
 20
0.0
 30
0.0
  3
*MODEL_SPACE
  1

  0
ENDBLK
  5
277
100
AcDbEntity
  8
0
100
AcDbBlockEnd
  0
BLOCK
  5
278
100
AcDbEntity
  8
0
100
AcDbBlockBegin
  2
*PAPER_SPACE
 70
     0
 10
0.0
 20
0.0
 30
0.0
  3
*PAPER_SPACE
  1

  0
ENDBLK
  5
279
100
AcDbEntity
  8
0
100
AcDbBlockEnd
  0
BLOCK
  5
27A
100
AcDbEntity
  8
0
100
AcDbBlockBegin
  2
*PAPER_SPACE0
 70
     0
 10
0.0
 20
0.0
 30
0.0
  3
*PAPER_SPACE0
  1

  0
ENDBLK
  5
27B
100
AcDbEntity
  8
0
100
AcDbBlockEnd
  0
BLOCK
  5
2
330
1
100
AcDbEntity
  8
0
100
AcDbBlockBegin
  2
_NONE
 70
     0
 10
0.0
 20
0.0
 30
0.0
  3
_NONE
  1

  0
ENDBLK
  5
3
330
1
100
AcDbEntity
  8
0
100
AcDbBlockEnd
  0
BLOCK
  5
5
330
4
100
AcDbEntity
  8
0
100
AcDbBlockBegin
  2
_CLOSED
 70
     0
 10
0.0
 20
0.0
 30
0.0
  3
_CLOSED
  1

  0
LINE
  5
6
330
4
100
AcDbEntity
  8
0
  6
BYBLOCK
 62
     0
370
    -2
100
AcDbLine
 10
-1.0
 20
0.166667
 30
0.0
 11
0.0
 21
0.0
 31
0.0
  0
LINE
  5
7
330
4
100
AcDbEntity
  8
0
  6
BYBLOCK
 62
     0
370
    -2
100
AcDbLine
 10
0.0
 20
0.0
 30
0.0
 11
-1.0
 21
-0.166667
 31
0.0
  0
LINE
  5
8
330
4
100
AcDbEntity
  8
0
  6
BYBLOCK
 62
     0
370
    -2
100
AcDbLine
 10
-1.0
 20
0.166667
 30
0.0
 11
-1.0
 21
-0.166667
 31
0.0
  0
LINE
  5
9
330
4
100
AcDbEntity
  8
0
  6
BYBLOCK
 62
     0
370
    -2
100
AcDbLine
 10
0.0
 20
0.0
 30
0.0
 11
-1.0
 21
0.0
 31
0.0
  0
ENDBLK
  5
A
330
4
100
AcDbEntity
  8
0
100
AcDbBlockEnd
  0
BLOCK
  5
C
330
B
100
AcDbEntity
  8
0
100
AcDbBlockBegin
  2
_DOT
 70
     0
 10
0.0
 20
0.0
 30
0.0
  3
_DOT
  1

  0
POLYLINE
  5
D
330
B
100
AcDbEntity
  8
0
  6
BYBLOCK
 62
     0
370
    -2
100
AcDb2dPolyline
 66
     1
 10
0.0
 20
0.0
 30
0.0
 70
     1
 40
0.5
 41
0.5
  0
VERTEX
  5
E
330
B
100
AcDbEntity
  8
0
  6
BYBLOCK
 62
     0
370
    -2
100
AcDbVertex
100
AcDb2dVertex
 10
-0.25
 20
0.0
 30
0.0
 42
1.0
  0
VERTEX
  5
F
330
B
100
AcDbEntity
  8
0
  6
BYBLOCK
 62
     0
370
    -2
100
AcDbVertex
100
AcDb2dVertex
 10
0.25
 20
0.0
 30
0.0
 42
1.0
  0
SEQEND
  5
10
330
B
100
AcDbEntity
  8
0
  6
BYBLOCK
 62
     0
370
    -2
  0
LINE
  5
11
330
B
100
AcDbEntity
  8
0
  6
BYBLOCK
 62
     0
370
    -2
100
AcDbLine
 10
-0.5
 20
0.0
 30
0.0
 11
-1.0
 21
0.0
 31
0.0
  0
ENDBLK
  5
12
330
B
100
AcDbEntity
  8
0
100
AcDbBlockEnd
  0
BLOCK
  5
14
330
13
100
AcDbEntity
  8
0
100
AcDbBlockBegin
  2
_OPEN
 70
     0
 10
0.0
 20
0.0
 30
0.0
  3
_OPEN
  1

  0
LINE
  5
15
330
13
100
AcDbEntity
  8
0
  6
BYBLOCK
 62
     0
370
    -2
100
AcDbLine
 10
-1.0
 20
0.166667
 30
0.0
 11
0.0
 21
0.0
 31
0.0
  0
LINE
  5
16
330
13
100
AcDbEntity
  8
0
  6
BYBLOCK
 62
     0
370
    -2
100
AcDbLine
 10
0.0
 20
0.0
 30
0.0
 11
-1.0
 21
-0.166667
 31
0.0
  0
LINE
  5
17
330
13
100
AcDbEntity
  8
0
  6
BYBLOCK
 62
     0
370
    -2
100
AcDbLine
 10
0.0
 20
0.0
 30
0.0
 11
-1.0
 21
0.0
 31
0.0
  0
ENDBLK
  5
18
330
13
100
AcDbEntity
  8
0
100
AcDbBlockEnd
  0
BLOCK
  5
1A
330
19
100
AcDbEntity
  8
0
100
AcDbBlockBegin
  2
_ORIGIN
 70
     0
 10
0.0
 20
0.0
 30
0.0
  3
_ORIGIN
  1

  0
CIRCLE
  5
1B
330
19
100
AcDbEntity
  8
0
  6
BYBLOCK
 62
     0
370
    -2
100
AcDbCircle
 10
0.0
 20
0.0
 30
0.0
 40
0.5
  0
LINE
  5
1C
330
19
100
AcDbEntity
  8
0
  6
BYBLOCK
 62
     0
370
    -2
100
AcDbLine
 10
0.0
 20
0.0
 30
0.0
 11
-1.0
 21
0.0
 31
0.0
  0
ENDBLK
  5
1D
330
19
100
AcDbEntity
  8
0
100
AcDbBlockEnd
  0
BLOCK
  5
1F
330
1E
100
AcDbEntity
  8
0
100
AcDbBlockBegin
  2
_OPEN30
 70
     0
 10
0.0
 20
0.0
 30
0.0
  3
_OPEN30
  1

  0
LINE
  5
20
330
1E
100
AcDbEntity
  8
0
  6
BYBLOCK
 62
     0
370
    -2
100
AcDbLine
 10
-1.0
 20
0.267949
 30
0.0
 11
0.0
 21
0.0
 31
0.0
  0
LINE
  5
21
330
1E
100
AcDbEntity
  8
0
  6
BYBLOCK
 62
     0
370
    -2
100
AcDbLine
 10
0.0
 20
0.0
 30
0.0
 11
-1.0
 21
-0.267949
 31
0.0
  0
LINE
  5
22
330
1E
100
AcDbEntity
  8
0
  6
BYBLOCK
 62
     0
370
    -2
100
AcDbLine
 10
0.0
 20
0.0
 30
0.0
 11
-1.0
 21
0.0
 31
0.0
  0
ENDBLK
  5
23
330
1E
100
AcDbEntity
  8
0
100
AcDbBlockEnd
  0
BLOCK
  5
25
330
24
100
AcDbEntity
  8
0
100
AcDbBlockBegin
  2
_BOXFILLED
 70
     0
 10
0.0
 20
0.0
 30
0.0
  3
_BOXFILLED
  1

  0
SOLID
  5
26
330
24
100
AcDbEntity
  8
0
  6
BYBLOCK
 62
     0
370
    -2
100
AcDbTrace
 10
-0.5
 20
0.5
 30
0.0
 11
0.5
 21
0.5
 31
0.0
 12
-0.5
 22
-0.5
 32
0.0
 13
0.5
 23
-0.5
 33
0.0
  0
LINE
  5
27
330
24
100
AcDbEntity
  8
0
  6
BYBLOCK
 62
     0
370
    -2
100
AcDbLine
 10
-0.5
 20
0.0
 30
0.0
 11
-1.0
 21
0.0
 31
0.0
  0
ENDBLK
  5
28
330
24
100
AcDbEntity
  8
0
100
AcDbBlockEnd
  0
BLOCK
  5
2A
330
29
100
AcDbEntity
  8
0
100
AcDbBlockBegin
  2
_BOXBLANK
 70
     0
 10
0.0
 20
0.0
 30
0.0
  3
_BOXBLANK
  1

  0
LINE
  5
2B
330
29
100
AcDbEntity
  8
0
  6
BYBLOCK
 62
     0
370
    -2
100
AcDbLine
 10
-0.5
 20
-0.5
 30
0.0
 11
0.5
 21
-0.5
 31
0.0
  0
LINE
  5
2C
330
29
100
AcDbEntity
  8
0
  6
BYBLOCK
 62
     0
370
    -2
100
AcDbLine
 10
0.5
 20
-0.5
 30
0.0
 11
0.5
 21
0.5
 31
0.0
  0
LINE
  5
2D
330
29
100
AcDbEntity
  8
0
  6
BYBLOCK
 62
     0
370
    -2
100
AcDbLine
 10
0.5
 20
0.5
 30
0.0
 11
-0.5
 21
0.5
 31
0.0
  0
LINE
  5
2E
330
29
100
AcDbEntity
  8
0
  6
BYBLOCK
 62
     0
370
    -2
100
AcDbLine
 10
-0.5
 20
0.5
 30
0.0
 11
-0.5
 21
-0.5
 31
0.0
  0
LINE
  5
2F
330
29
100
AcDbEntity
  8
0
  6
BYBLOCK
 62
     0
370
    -2
100
AcDbLine
 10
-0.5
 20
0.0
 30
0.0
 11
-1.0
 21
0.0
 31
0.0
  0
ENDBLK
  5
30
330
29
100
AcDbEntity
  8
0
100
AcDbBlockEnd
  0
BLOCK
  5
32
330
31
100
AcDbEntity
  8
0
100
AcDbBlockBegin
  2
_OBLIQUE
 70
     0
 10
0.0
 20
0.0
 30
0.0
  3
_OBLIQUE
  1

  0
LINE
  5
33
330
31
100
AcDbEntity
  8
0
  6
BYBLOCK
 62
     0
370
    -2
100
AcDbLine
 10
-0.5
 20
-0.5
 30
0.0
 11
0.5
 21
0.5
 31
0.0
  0
ENDBLK
  5
34
330
31
100
AcDbEntity
  8
0
100
AcDbBlockEnd
  0
BLOCK
  5
36
330
35
100
AcDbEntity
  8
0
100
AcDbBlockBegin
  2
_OPEN90
 70
     0
 10
0.0
 20
0.0
 30
0.0
  3
_OPEN90
  1

  0
LINE
  5
37
330
35
100
AcDbEntity
  8
0
  6
BYBLOCK
 62
     0
370
    -2
100
AcDbLine
 10
-0.5
 20
0.5
 30
0.0
 11
0.0
 21
0.0
 31
0.0
  0
LINE
  5
38
330
35
100
AcDbEntity
  8
0
  6
BYBLOCK
 62
     0
370
    -2
100
AcDbLine
 10
0.0
 20
0.0
 30
0.0
 11
-0.5
 21
-0.5
 31
0.0
  0
LINE
  5
39
330
35
100
AcDbEntity
  8
0
  6
BYBLOCK
 62
     0
370
    -2
100
AcDbLine
 10
0.0
 20
0.0
 30
0.0
 11
-1.0
 21
0.0
 31
0.0
  0
ENDBLK
  5
3A
330
35
100
AcDbEntity
  8
0
100
AcDbBlockEnd
  0
BLOCK
  5
3C
330
3B
100
AcDbEntity
  8
0
100
AcDbBlockBegin
  2
_CLOSEDBLANK
 70
     0
 10
0.0
 20
0.0
 30
0.0
  3
_CLOSEDBLANK
  1

  0
LINE
  5
3D
330
3B
100
AcDbEntity
  8
0
  6
BYBLOCK
 62
     0
370
    -2
100
AcDbLine
 10
-1.0
 20
0.1666666666666666
 30
0.0
 11
0.0
 21
0.0
 31
0.0
  0
LINE
  5
3E
330
3B
100
AcDbEntity
  8
0
  6
BYBLOCK
 62
     0
370
    -2
100
AcDbLine
 10
0.0
 20
0.0
 30
0.0
 11
-1.0
 21
-0.1666666666666666
 31
0.0
  0
LINE
  5
3F
330
3B
100
AcDbEntity
  8
0
  6
BYBLOCK
 62
     0
370
    -2
100
AcDbLine
 10
-1.0
 20
0.1666666666666666
 30
0.0
 11
-1.0
 21
-0.1666666666666666
 31
0.0
  0
ENDBLK
  5
40
330
3B
100
AcDbEntity
  8
0
100
AcDbBlockEnd
  0
BLOCK
  5
42
330
41
100
AcDbEntity
  8
0
100
AcDbBlockBegin
  2
_DOTBLANK
 70
     0
 10
0.0
 20
0.0
 30
0.0
  3
_DOTBLANK
  1

  0
CIRCLE
  5
43
330
41
100
AcDbEntity
  8
0
  6
BYBLOCK
 62
     0
370
    -2
100
AcDbCircle
 10
0.0
 20
0.0
 30
0.0
 40
0.5
  0
LINE
  5
44
330
41
100
AcDbEntity
  8
0
  6
BYBLOCK
 62
     0
370
    -2
100
AcDbLine
 10
-0.5
 20
0.0
 30
0.0
 11
-1.0
 21
0.0
 31
0.0
  0
ENDBLK
  5
45
330
41
100
AcDbEntity
  8
0
100
AcDbBlockEnd
  0
ENDSEC
  0
SECTION
  2
ENTITIES
  0
MTEXT
  5
46
100
AcDbEntity
  8
A7
  6
CONTINUOUS
 62
3
100
AcDbMText
 10
9.999997526638502
 20
18.00000076076889
 30
0.000000000000000
 40
3.000000000000000
 41
0.000000000000000
 44
0.6739999771118164
 71
     7
 72
     1
  1
{\H0.94x;{TYPE No.TL-442-1-24V}}
 11
1.000000000000000
 21
0.000000000000000
 31
0.000000000000000
  7
STANDARD
  0
POINT
  5
47
100
AcDbEntity
  8
A6
  6
CONTINUOUS
 62
3
100
AcDbPoint
 10
9.999997526638502
 20
18.00000076076889
 30
0.000000000000000
  0
POINT
  5
48
100
AcDbEntity
  8
A6
  6
CONTINUOUS
 62
3
100
AcDbPoint
 10
50.00000000000000
 20
50.00000000000000
 30
0.000000000000000
  0
LINE
  5
49
100
AcDbEntity
  8
A4
  6
CENTER
 62
1
100
AcDbLine
 10
242.7242936231267
 20
101.4366679714346
 30
0.000000000000000
 11
242.7242936231267
 21
96.93666797143462
 31
0.000000000000000
  0
LINE
  5
4A
100
AcDbEntity
  8
A4
  6
CENTER
 62
1
100
AcDbLine
 10
240.4742936231267
 20
99.18666797143462
 30
0.000000000000000
 11
244.9742936231267
 21
99.18666797143462
 31
0.000000000000000
  0
LINE
  5
4B
100
AcDbEntity
  8
A1
  6
CONTINUOUS
 62
7
100
AcDbLine
 10
228.3743036231265
 20
109.3366619714347
 30
0.000000000000000
 11
240.0743096231266
 21
109.3366619714347
 31
0.000000000000000
  0
LINE
  5
4C
100
AcDbEntity
  8
A1
  6
CONTINUOUS
 62
7
100
AcDbLine
 10
228.3743036231265
 20
106.0366739714347
 30
0.000000000000000
 11
240.0743096231266
 21
106.0366739714347
 31
0.000000000000000
  0
LINE
  5
4D
100
AcDbEntity
  8
A4
  6
CENTER
 62
1
100
AcDbLine
 10
222.7242936231267
 20
111.4366679714346
 30
0.000000000000000
 11
222.7242936231267
 21
106.9366679714346
 31
0.000000000000000
  0
LINE
  5
4E
100
AcDbEntity
  8
A4
  6
CENTER
 62
1
100
AcDbLine
 10
220.4742936231267
 20
109.1866679714346
 30
0.000000000000000
 11
224.9742856231267
 21
109.1866679714346
 31
0.000000000000000
  0
ARC
  5
4F
100
AcDbEntity
  8
A1
  6
CONTINUOUS
 62
7
100
AcDbCircle
 10
234.2242936231267
 20
120.1866679714346
 30
0.000000000000000
 40
9.000000000000000
100
AcDbArc
 50
14.47751218593019
 51
165.5224878140698
  0
CIRCLE
  5
50
100
AcDbEntity
  8
A2
  6
CONTINUOUS
 62
4
100
AcDbCircle
 10
242.7242936231267
 20
99.18666797143462
 30
0.000000000000000
 40
1.500000000000000
  0
CIRCLE
  5
51
100
AcDbEntity
  8
A1
  6
CONTINUOUS
 62
7
100
AcDbCircle
 10
242.7242936231267
 20
99.18666797143462
 30
0.000000000000000
 40
1.229500000000000
  0
ARC
  5
52
100
AcDbEntity
  8
A1
  6
CONTINUOUS
 62
7
100
AcDbCircle
 10
228.3743036231265
 20
107.6866679714346
 30
0.000000000000000
 40
1.650000000000000
100
AcDbArc
 50
90.00000300000002
 51
270.0000010000000
  0
CIRCLE
  5
53
100
AcDbEntity
  8
A2
  6
CONTINUOUS
 62
4
100
AcDbCircle
 10
222.7242936231267
 20
109.1866679714346
 30
0.000000000000000
 40
1.500000000000000
  0
CIRCLE
  5
54
100
AcDbEntity
  8
A1
  6
CONTINUOUS
 62
7
100
AcDbCircle
 10
222.7242936231267
 20
109.1866679714346
 30
0.000000000000000
 40
1.229500000000000
  0
LINE
  5
55
100
AcDbEntity
  8
A1
  6
CONTINUOUS
 62
7
100
AcDbLine
 10
216.2242936231267
 20
95.18666797143462
 30
0.000000000000000
 11
276.7242936231272
 21
95.18666797143462
 31
0.000000000000000
  0
LINE
  5
56
100
AcDbEntity
  8
A1
  6
CONTINUOUS
 62
7
100
AcDbLine
 10
216.2242936231267
 20
120.1866679714346
 30
0.000000000000000
 11
222.6053435845045
 21
120.1866679714346
 31
0.000000000000000
  0
LINE
  5
57
100
AcDbEntity
  8
A1
  6
CONTINUOUS
 62
7
100
AcDbLine
 10
245.8432436617489
 20
120.1866679714346
 30
0.000000000000000
 11
276.7242936231272
 21
120.1866679714346
 31
0.000000000000000
  0
LINE
  5
58
100
AcDbEntity
  8
A1
  6
CONTINUOUS
 62
7
100
AcDbLine
 10
216.2242936231267
 20
120.1866679714346
 30
0.000000000000000
 11
216.2242936231267
 21
95.18666797143462
 31
0.000000000000000
  0
ARC
  5
59
100
AcDbEntity
  8
A1
  6
CONTINUOUS
 62
7
100
AcDbCircle
 10
240.0743096231266
 20
107.6866679714346
 30
0.000000000000000
 40
1.649993999999992
100
AcDbArc
 50
270.0000000000000
 51
450.0000000000000
  0
ARC
  5
5A
100
AcDbEntity
  8
A1
  6
CONTINUOUS
 62
7
100
AcDbCircle
 10
276.7242936231272
 20
117.1866679714346
 30
0.000000000000000
 40
3.000000000000000
100
AcDbArc
 50
0.000000000000000
 51
90.00000000000000
  0
ARC
  5
5B
100
AcDbEntity
  8
A1
  6
CONTINUOUS
 62
7
100
AcDbCircle
 10
222.6053435845045
 20
123.1866679714346
 30
0.000000000000000
 40
3.000000000000000
100
AcDbArc
 50
270.0000000000000
 51
345.5224878140705
  0
ARC
  5
5C
100
AcDbEntity
  8
A1
  6
CONTINUOUS
 62
7
100
AcDbCircle
 10
245.8432436617489
 20
123.1866679714346
 30
0.000000000000000
 40
3.000000000000000
100
AcDbArc
 50
194.4775121859294
 51
270.0000000000000
  0
ARC
  5
5D
100
AcDbEntity
  8
A1
  6
CONTINUOUS
 62
7
100
AcDbCircle
 10
276.7242936231283
 20
98.18666797143467
 30
0.000000000000000
 40
3.000000000000000
100
AcDbArc
 50
270.0000000000000
 51
360.0000000000000
  0
LINE
  5
5E
100
AcDbEntity
  8
A3
  6
DASHED
 62
2
100
AcDbLine
 10
218.8242936231266
 20
120.1866679714346
 30
0.000000000000000
 11
218.8242936231266
 21
95.18666797143462
 31
0.000000000000000
  0
LINE
  5
5F
100
AcDbEntity
  8
A1
  6
CONTINUOUS
 62
7
100
AcDbLine
 10
279.7242936231270
 20
106.1866679714353
 30
0.000000000000000
 11
280.7242936231270
 21
105.6866679714353
 31
0.000000000000000
  0
LINE
  5
60
100
AcDbEntity
  8
A1
  6
CONTINUOUS
 62
7
100
AcDbLine
 10
280.7242936231274
 20
108.1866679714352
 30
0.000000000000000
 11
279.7242936231273
 21
107.6866679714352
 31
0.000000000000000
  0
LINE
  5
61
100
AcDbEntity
  8
A1
  6
CONTINUOUS
 62
7
100
AcDbLine
 10
280.7242936231273
 20
109.6866679714351
 30
0.000000000000000
 11
279.7242936231273
 21
109.1866679714351
 31
0.000000000000000
  0
LINE
  5
62
100
AcDbEntity
  8
A1
  6
CONTINUOUS
 62
7
100
AcDbLine
 10
280.7242936231272
 20
109.6866679714351
 30
0.000000000000000
 11
280.7242936231272
 21
108.1866679714353
 31
0.000000000000000
  0
LINE
  5
63
100
AcDbEntity
  8
A1
  6
CONTINUOUS
 62
7
100
AcDbLine
 10
279.7242936231270
 20
107.6866679714352
 30
0.000000000000000
 11
280.7242936231270
 21
107.1866679714352
 31
0.000000000000000
  0
LINE
  5
64
100
AcDbEntity
  8
A1
  6
CONTINUOUS
 62
7
100
AcDbLine
 10
280.7242936231272
 20
107.1866679714351
 30
0.000000000000000
 11
280.7242936231272
 21
105.6866679714353
 31
0.000000000000000
  0
CIRCLE
  5
65
100
AcDbEntity
  8
A1
  6
CONTINUOUS
 62
7
100
AcDbCircle
 10
234.2242936231738
 20
120.1866679714344
 30
0.000000000000000
 40
7.500000000000000
  0
ARC
  5
66
100
AcDbEntity
  8
A1
  6
CONTINUOUS
 62
7
100
AcDbCircle
 10
234.2242936231738
 20
120.1866679714344
 30
0.000000000000000
 40
3.600000000000000
100
AcDbArc
 50
190.8069250000000
 51
529.1930750000000
  0
ARC
  5
67
100
AcDbEntity
  8
A1
  6
CONTINUOUS
 62
7
100
AcDbCircle
 10
234.2242936231738
 20
120.1866679714344
 30
0.000000000000000
 40
2.650000000000000
100
AcDbArc
 50
194.7568240000000
 51
525.2431759999999
  0
LINE
  5
68
100
AcDbEntity
  8
A1
  6
CONTINUOUS
 62
7
100
AcDbLine
 10
231.6617026231737
 20
119.5116649714344
 30
0.000000000000000
 11
233.2242936231738
 21
119.5116649714344
 31
0.000000000000000
  0
LINE
  5
69
100
AcDbEntity
  8
A1
  6
CONTINUOUS
 62
7
100
AcDbLine
 10
233.2242936231738
 20
120.8616709714344
 30
0.000000000000000
 11
233.2242936231738
 21
119.5116649714344
 31
0.000000000000000
  0
LINE
  5
6A
100
AcDbEntity
  8
A1
  6
CONTINUOUS
 62
7
100
AcDbLine
 10
231.6617026231737
 20
120.8616709714344
 30
0.000000000000000
 11
233.2242936231738
 21
120.8616709714344
 31
0.000000000000000
  0
LINE
  5
6B
100
AcDbEntity
  8
A1
  6
CONTINUOUS
 62
7
100
AcDbLine
 10
229.7242936231738
 20
120.8616709714344
 30
0.000000000000000
 11
229.7242936231738
 21
119.5116649714344
 31
0.000000000000000
  0
LINE
  5
6C
100
AcDbEntity
  8
A1
  6
CONTINUOUS
 62
7
100
AcDbLine
 10
229.7242936231738
 20
119.5116649714344
 30
0.000000000000000
 11
230.6881306231738
 21
119.5116649714344
 31
0.000000000000000
  0
LINE
  5
6D
100
AcDbEntity
  8
A1
  6
CONTINUOUS
 62
7
100
AcDbLine
 10
229.7242936231738
 20
120.8616709714344
 30
0.000000000000000
 11
230.6881306231738
 21
120.8616709714344
 31
0.000000000000000
  0
LINE
  5
6E
100
AcDbEntity
  8
A4
  6
CENTER
 62
1
100
AcDbLine
 10
234.2242936231738
 20
129.1866679714344
 30
0.000000000000000
 11
234.2242936231738
 21
111.1866679714344
 31
0.000000000000000
  0
LINE
  5
6F
100
AcDbEntity
  8
A1
  6
CONTINUOUS
 62
7
100
AcDbLine
 10
205.2242936231256
 20
103.6866679714621
 30
0.000000000000000
 11
216.2242936231256
 21
103.6866679714621
 31
0.000000000000000
  0
LINE
  5
70
100
AcDbEntity
  8
A1
  6
CONTINUOUS
 62
7
100
AcDbLine
 10
205.2242936231256
 20
111.6866679714621
 30
0.000000000000000
 11
205.2242936231256
 21
103.6866679714621
 31
0.000000000000000
  0
LINE
  5
71
100
AcDbEntity
  8
A1
  6
CONTINUOUS
 62
7
100
AcDbLine
 10
204.2242936231256
 20
110.6866679714621
 30
0.000000000000000
 11
204.2242936231256
 21
104.6866679714621
 31
0.000000000000000
  0
LINE
  5
72
100
AcDbEntity
  8
A1
  6
CONTINUOUS
 62
7
100
AcDbLine
 10
204.2242936231252
 20
104.6866679714621
 30
0.000000000000000
 11
205.2242936231253
 21
103.6866679714619
 31
0.000000000000000
  0
LINE
  5
73
100
AcDbEntity
  8
A1
  6
CONTINUOUS
 62
7
100
AcDbLine
 10
204.2242936231252
 20
110.6866679714618
 30
0.000000000000000
 11
205.2242936231253
 21
111.6866679714620
 31
0.000000000000000
  0
LINE
  5
74
100
AcDbEntity
  8
A1
  6
CONTINUOUS
 62
7
100
AcDbLine
 10
205.2242936231256
 20
111.6866679714621
 30
0.000000000000000
 11
216.2242936231256
 21
111.6866679714621
 31
0.000000000000000
  0
LINE
  5
75
100
AcDbEntity
  8
A5
  6
PHANTOM
 62
6
100
AcDbLine
 10
211.2242936231249
 20
110.6866679714618
 30
0.000000000000000
 11
212.2242936231252
 21
111.6866679714620
 31
0.000000000000000
  0
LINE
  5
76
100
AcDbEntity
  8
A5
  6
PHANTOM
 62
6
100
AcDbLine
 10
211.2242936231256
 20
110.6866679714621
 30
0.000000000000000
 11
211.2242936231256
 21
104.6866679714621
 31
0.000000000000000
  0
LINE
  5
77
100
AcDbEntity
  8
A5
  6
PHANTOM
 62
6
100
AcDbLine
 10
211.2242936231251
 20
104.6866679714621
 30
0.000000000000000
 11
212.2242936231252
 21
103.6866679714619
 31
0.000000000000000
  0
LINE
  5
78
100
AcDbEntity
  8
A4
  6
CENTER
 62
1
100
AcDbLine
 10
230.7242936231267
 20
110.7366679714347
 30
0.000000000000000
 11
230.7242936231267
 21
104.6366679714347
 31
0.000000000000000
  0
ARC
  5
79
100
AcDbEntity
  8
A1
  6
CONTINUOUS
 62
7
100
AcDbCircle
 10
222.2242936231740
 20
123.6866679714343
 30
0.000000000000000
 40
1.500000000000000
100
AcDbArc
 50
90.00000000000000
 51
163.7397952916876
  0
LINE
  5
7A
100
AcDbEntity
  8
A1
  6
CONTINUOUS
 62
7
100
AcDbLine
 10
226.7409788495787
 20
125.1866679714343
 30
0.000000000000000
 11
222.2242936231740
 21
125.1866679714343
 31
0.000000000000000
  0
ARC
  5
7B
100
AcDbEntity
  8
A1
  6
CONTINUOUS
 62
7
100
AcDbCircle
 10
234.2242936231740
 20
120.1866679714344
 30
0.000000000000000
 40
14.00000000000000
100
AcDbArc
 50
163.7397952916882
 51
180.0000000000000
  0
LINE
  5
7C
100
AcDbEntity
  8
A1
  6
CONTINUOUS
 62
7
100
AcDbLine
 10
279.7242936231272
 20
117.9366679714356
 30
0.000000000000000
 11
279.6290311327824
 21
117.9366679714356
 31
0.000000000000000
  0
LINE
  5
7D
100
AcDbEntity
  8
A1
  6
CONTINUOUS
 62
7
100
AcDbLine
 10
279.7242936231272
 20
97.43666797143541
 30
0.000000000000000
 11
279.6290311327842
 21
97.43666797143541
 31
0.000000000000000
  0
LINE
  5
7E
100
AcDbEntity
  8
A1
  6
CONTINUOUS
 62
7
100
AcDbLine
 10
279.7242936231272
 20
97.43666797143541
 30
0.000000000000000
 11
279.7242936231272
 21
117.9366679714356
 31
0.000000000000000
  0
LINE
  5
7F
100
AcDbEntity
  8
A1
  6
CONTINUOUS
 62
7
100
AcDbLine
 10
226.7242936230353
 20
196.7448579457333
 30
0.000000000000000
 11
226.7242936230353
 21
194.1781036430522
 31
0.000000000000000
  0
LINE
  5
80
100
AcDbEntity
  8
A1
  6
CONTINUOUS
 62
7
100
AcDbLine
 10
226.7242936230353
 20
203.2948579457332
 30
0.000000000000000
 11
226.7242936230353
 21
199.8448579457332
 31
0.000000000000000
  0
LINE
  5
81
100
AcDbEntity
  8
A1
  6
CONTINUOUS
 62
7
100
AcDbLine
 10
234.7242936230353
 20
196.9346220021910
 30
0.000000000000000
 11
234.7242936230353
 21
196.7448579457333
 31
0.000000000000000
  0
LINE
  5
82
100
AcDbEntity
  8
A1
  6
CONTINUOUS
 62
7
100
AcDbLine
 10
256.8242936230354
 20
188.7948579457332
 30
0.000000000000000
 11
276.9242936230356
 21
188.7948579457332
 31
0.000000000000000
  0
LINE
  5
83
100
AcDbEntity
  8
A1
  6
CONTINUOUS
 62
7
100
AcDbLine
 10
256.8242936230354
 20
187.2948579457332
 30
0.000000000000000
 11
277.7242936230353
 21
187.2948579457332
 31
0.000000000000000
  0
ARC
  5
84
100
AcDbEntity
  8
A1
  6
CONTINUOUS
 62
7
100
AcDbCircle
 10
277.7242936230353
 20
187.2948579457332
 30
0.000000000000000
 40
2.000000000000000
100
AcDbArc
 50
270.0000000000000
 51
360.0000000000000
  0
LINE
  5
85
100
AcDbEntity
  8
A1
  6
CONTINUOUS
 62
7
100
AcDbLine
 10
276.9242936230356
 20
187.7948579457332
 30
0.000000000000000
 11
277.7242936230353
 21
187.7948579457332
 31
0.000000000000000
  0
LINE
  5
86
100
AcDbEntity
  8
A1
  6
CONTINUOUS
 62
7
100
AcDbLine
 10
256.8242936230354
 20
207.7948579457332
 30
0.000000000000000
 11
276.9242936230356
 21
207.7948579457332
 31
0.000000000000000
  0
LINE
  5
87
100
AcDbEntity
  8
A1
  6
CONTINUOUS
 62
7
100
AcDbLine
 10
256.8242936230354
 20
209.2948579457332
 30
0.000000000000000
 11
277.7242936230353
 21
209.2948579457332
 31
0.000000000000000
  0
LINE
  5
88
100
AcDbEntity
  8
A1
  6
CONTINUOUS
 62
7
100
AcDbLine
 10
242.7242936230353
 20
211.2948579457332
 30
0.000000000000000
 11
277.7242936230353
 21
211.2948579457332
 31
0.000000000000000
  0
LINE
  5
89
100
AcDbEntity
  8
A1
  6
CONTINUOUS
 62
7
100
AcDbLine
 10
245.7242936230354
 20
211.2948579457332
 30
0.000000000000000
 11
245.7242936230355
 21
185.2948579457114
 31
0.000000000000000
  0
LINE
  5
8A
100
AcDbEntity
  8
A1
  6
CONTINUOUS
 62
7
100
AcDbLine
 10
243.7242936230352
 20
211.2948579457332
 30
0.000000000000000
 11
243.7242936230352
 21
185.2948579457332
 31
0.000000000000000
  0
LINE
  5
8B
100
AcDbEntity
  8
A1
  6
CONTINUOUS
 62
7
100
AcDbLine
 10
242.7242936230353
 20
211.2948579457332
 30
0.000000000000000
 11
242.7242936230353
 21
209.2948579457332
 31
0.000000000000000
  0
LINE
  5
8C
100
AcDbEntity
  8
A1
  6
CONTINUOUS
 62
7
100
AcDbLine
 10
242.7242936230353
 20
209.2948579457332
 30
0.000000000000000
 11
243.7242936230353
 21
209.2948579457332
 31
0.000000000000000
  0
LINE
  5
8D
100
AcDbEntity
  8
A1
  6
CONTINUOUS
 62
7
100
AcDbLine
 10
256.8242936230354
 20
211.2948579457332
 30
0.000000000000000
 11
256.8242936230354
 21
185.2948579457332
 31
0.000000000000000
  0
LINE
  5
8E
100
AcDbEntity
  8
A1
  6
CONTINUOUS
 62
7
100
AcDbLine
 10
276.9242936230354
 20
208.7948579457332
 30
0.000000000000000
 11
276.9242936230349
 21
187.7948579457332
 31
0.000000000000000
  0
ARC
  5
8F
100
AcDbEntity
  8
A1
  6
CONTINUOUS
 62
7
100
AcDbCircle
 10
277.7242936230353
 20
209.2948579457332
 30
0.000000000000000
 40
2.000000000000000
100
AcDbArc
 50
0.000000000000000
 51
90.00000000000000
  0
LINE
  5
90
100
AcDbEntity
  8
A1
  6
CONTINUOUS
 62
7
100
AcDbLine
 10
276.9242936230356
 20
208.7948579457332
 30
0.000000000000000
 11
277.7242936230353
 21
208.7948579457332
 31
0.000000000000000
  0
LINE
  5
91
100
AcDbEntity
  8
A1
  6
CONTINUOUS
 62
7
100
AcDbLine
 10
253.8242936230354
 20
190.9292755474003
 30
0.000000000000000
 11
253.8242936230354
 21
193.9292755474003
 31
0.000000000000000
  0
LINE
  5
92
100
AcDbEntity
  8
A1
  6
CONTINUOUS
 62
7
100
AcDbLine
 10
253.8242936230353
 20
201.9292755474004
 30
0.000000000000000
 11
253.8242936230355
 21
204.9292755474004
 31
0.000000000000000
  0
LINE
  5
93
100
AcDbEntity
  8
A1
  6
CONTINUOUS
 62
7
100
AcDbLine
 10
255.3242936230354
 20
203.4292755474003
 30
0.000000000000000
 11
252.3242936230354
 21
203.4292755474003
 31
0.000000000000000
  0
LINE
  5
94
100
AcDbEntity
  8
A1
  6
CONTINUOUS
 62
7
100
AcDbLine
 10
280.7242936230355
 20
196.2944130279615
 30
0.000000000000000
 11
280.7242936230355
 21
196.7948579457333
 31
0.000000000000000
  0
LINE
  5
95
100
AcDbEntity
  8
A1
  6
CONTINUOUS
 62
7
100
AcDbLine
 10
279.7242936230357
 20
199.7944130279616
 30
0.000000000000000
 11
280.7242936230357
 21
200.2944130279616
 31
0.000000000000000
  0
LINE
  5
96
100
AcDbEntity
  8
A1
  6
CONTINUOUS
 62
7
100
AcDbLine
 10
280.7242936230353
 20
196.2944130279612
 30
0.000000000000000
 11
279.7242936230354
 21
196.7944130279612
 31
0.000000000000000
  0
LINE
  5
97
100
AcDbEntity
  8
A1
  6
CONTINUOUS
 62
7
100
AcDbLine
 10
280.7242936230355
 20
199.7948579457332
 30
0.000000000000000
 11
280.7242936230355
 21
200.2944130279615
 31
0.000000000000000
  0
LINE
  5
98
100
AcDbEntity
  8
A1
  6
CONTINUOUS
 62
7
100
AcDbLine
 10
216.2242936230353
 20
214.6948579457765
 30
0.000000000000000
 11
216.2242936230353
 21
185.2948579456598
 31
0.000000000000000
  0
LINE
  5
99
100
AcDbEntity
  8
A1
  6
CONTINUOUS
 62
7
100
AcDbLine
 10
279.7242936230353
 20
185.2948579457764
 30
0.000000000000000
 11
279.7242936230353
 21
182.6948579457765
 31
0.000000000000000
  0
LINE
  5
9A
100
AcDbEntity
  8
A1
  6
CONTINUOUS
 62
7
100
AcDbLine
 10
218.8242936230354
 20
214.6948579457764
 30
0.000000000000000
 11
216.2242936229123
 21
214.6948579457714
 31
0.000000000000000
  0
ARC
  5
9B
100
AcDbEntity
  8
A1
  6
CONTINUOUS
 62
7
100
AcDbCircle
 10
218.8242936230352
 20
185.2948579456598
 30
0.000000000000000
 40
2.600000000000000
100
AcDbArc
 50
180.0000000000000
 51
270.0000000000000
  0
LINE
  5
9C
100
AcDbEntity
  8
A1
  6
CONTINUOUS
 62
7
100
AcDbLine
 10
280.7242936230355
 20
200.2948579457332
 30
0.000000000000000
 11
280.7242936230355
 21
199.7948579457333
 31
0.000000000000000
  0
LINE
  5
9D
100
AcDbEntity
  8
A1
  6
CONTINUOUS
 62
7
100
AcDbLine
 10
205.2242936230339
 20
194.2948579457470
 30
0.000000000000000
 11
216.2242936230355
 21
194.2948579457470
 31
0.000000000000000
  0
LINE
  5
9E
100
AcDbEntity
  8
A1
  6
CONTINUOUS
 62
7
100
AcDbLine
 10
205.2242936230339
 20
202.2948579457470
 30
0.000000000000000
 11
205.2242936230339
 21
194.2948579457470
 31
0.000000000000000
  0
LINE
  5
9F
100
AcDbEntity
  8
A1
  6
CONTINUOUS
 62
7
100
AcDbLine
 10
204.2242936230339
 20
201.2948579457467
 30
0.000000000000000
 11
204.2242936230339
 21
195.2948579457470
 31
0.000000000000000
  0
LINE
  5
A0
100
AcDbEntity
  8
A1
  6
CONTINUOUS
 62
7
100
AcDbLine
 10
205.2242936230339
 20
202.2948579457470
 30
0.000000000000000
 11
216.2242936230353
 21
202.2948579457470
 31
0.000000000000000
  0
LINE
  5
A1
100
AcDbEntity
  8
A1
  6
CONTINUOUS
 62
7
100
AcDbLine
 10
204.2242936230340
 20
201.2948579457467
 30
0.000000000000000
 11
205.2242936230342
 21
202.2948579457469
 31
0.000000000000000
  0
LINE
  5
A2
100
AcDbEntity
  8
A1
  6
CONTINUOUS
 62
7
100
AcDbLine
 10
204.2242936230340
 20
195.2948579457470
 30
0.000000000000000
 11
205.2242936230342
 21
194.2948579457468
 31
0.000000000000000
  0
LINE
  5
A3
100
AcDbEntity
  8
A1
  6
CONTINUOUS
 62
7
100
AcDbLine
 10
219.7242936230339
 20
202.2948579457470
 30
0.000000000000000
 11
225.7242936229644
 21
202.2948579457470
 31
0.000000000000000
  0
LINE
  5
A4
100
AcDbEntity
  8
A1
  6
CONTINUOUS
 62
7
100
AcDbLine
 10
219.7242936230339
 20
194.2948579457470
 30
0.000000000000000
 11
225.7242936229648
 21
194.2948579457470
 31
0.000000000000000
  0
LINE
  5
A5
100
AcDbEntity
  8
A1
  6
CONTINUOUS
 62
7
100
AcDbLine
 10
219.7242936230339
 20
202.2948579457470
 30
0.000000000000000
 11
219.7242936230339
 21
194.2948579457470
 31
0.000000000000000
  0
LINE
  5
A6
100
AcDbEntity
  8
A1
  6
CONTINUOUS
 62
7
100
AcDbLine
 10
219.6242936230354
 20
201.2948579457058
 30
0.000000000000000
 11
219.7242936230339
 21
201.2948579457058
 31
0.000000000000000
  0
LINE
  5
A7
100
AcDbEntity
  8
A1
  6
CONTINUOUS
 62
7
100
AcDbLine
 10
219.6242936230354
 20
195.2948579457059
 30
0.000000000000000
 11
219.7242936230339
 21
195.2948579457059
 31
0.000000000000000
  0
LINE
  5
A8
100
AcDbEntity
  8
A1
  6
CONTINUOUS
 62
7
100
AcDbLine
 10
233.7242936230353
 20
199.7948579457058
 30
0.000000000000000
 11
233.7242936230353
 21
196.7948579457332
 31
0.000000000000000
  0
LINE
  5
A9
100
AcDbEntity
  8
A1
  6
CONTINUOUS
 62
7
100
AcDbLine
 10
225.7242936230355
 20
196.7948579457332
 30
0.000000000000000
 11
225.7242936230355
 21
194.2948579457470
 31
0.000000000000000
  0
LINE
  5
AA
100
AcDbEntity
  8
A1
  6
CONTINUOUS
 62
7
100
AcDbLine
 10
225.7242936230353
 20
199.7948579457059
 30
0.000000000000000
 11
225.7242936230353
 21
202.2948579457470
 31
0.000000000000000
  0
LINE
  5
AB
100
AcDbEntity
  8
A1
  6
CONTINUOUS
 62
7
100
AcDbLine
 10
218.8242936230352
 20
185.2948579456598
 30
0.000000000000000
 11
218.8242936230352
 21
214.6948579457765
 31
0.000000000000000
  0
LINE
  5
AC
100
AcDbEntity
  8
A1
  6
CONTINUOUS
 62
7
100
AcDbLine
 10
218.8242936230352
 20
204.2948579456547
 30
0.000000000000000
 11
219.6242936230354
 21
204.2948579456547
 31
0.000000000000000
  0
LINE
  5
AD
100
AcDbEntity
  8
A1
  6
CONTINUOUS
 62
7
100
AcDbLine
 10
219.6242936230354
 20
204.2948579456547
 30
0.000000000000000
 11
219.6242936230354
 21
192.2948579456547
 31
0.000000000000000
  0
LINE
  5
AE
100
AcDbEntity
  8
A1
  6
CONTINUOUS
 62
7
100
AcDbLine
 10
218.8242936230352
 20
192.2948579456547
 30
0.000000000000000
 11
219.6242936230354
 21
192.2948579456547
 31
0.000000000000000
  0
LINE
  5
AF
100
AcDbEntity
  8
A5
  6
PHANTOM
 62
6
100
AcDbLine
 10
212.2242936231254
 20
103.6866679714618
 30
0.000000000000000
 11
212.2242936231370
 21
111.6866679714634
 31
0.000000000000000
  0
LINE
  5
B0
100
AcDbEntity
  8
A5
  6
PHANTOM
 62
6
100
AcDbLine
 10
211.2242936232399
 20
201.2948579457610
 30
0.000000000000000
 11
211.2242936232399
 21
195.2948579457610
 31
0.000000000000000
  0
LINE
  5
B1
100
AcDbEntity
  8
A5
  6
PHANTOM
 62
6
100
AcDbLine
 10
212.2242936232396
 20
194.2948579457607
 30
0.000000000000000
 11
212.2242936232512
 21
202.2948579457622
 31
0.000000000000000
  0
LINE
  5
B2
100
AcDbEntity
  8
A5
  6
PHANTOM
 62
6
100
AcDbLine
 10
211.2242936232393
 20
201.2948579457608
 30
0.000000000000000
 11
212.2242936232396
 21
202.2948579457610
 31
0.000000000000000
  0
LINE
  5
B3
100
AcDbEntity
  8
A5
  6
PHANTOM
 62
6
100
AcDbLine
 10
211.2242936232394
 20
195.2948579457610
 30
0.000000000000000
 11
212.2242936232396
 21
194.2948579457609
 31
0.000000000000000
  0
ARC
  5
B4
100
AcDbEntity
  8
A1
  6
CONTINUOUS
 62
7
100
AcDbCircle
 10
230.7242936230353
 20
208.0645539528149
 30
0.000000000000000
 40
4.999999999996987
100
AcDbArc
 50
252.5423968762722
 51
287.4576031237278
  0
LINE
  5
B5
100
AcDbEntity
  8
A1
  6
CONTINUOUS
 62
7
100
AcDbLine
 10
226.7242936230353
 20
203.2948579457332
 30
0.000000000000000
 11
229.2242936230360
 21
203.2948579457332
 31
0.000000000000000
  0
LINE
  5
B6
100
AcDbEntity
  8
A1
  6
CONTINUOUS
 62
7
100
AcDbLine
 10
229.2242936230353
 20
209.2948579456827
 30
0.000000000000000
 11
229.2242936230353
 21
203.2948579457332
 31
0.000000000000000
  0
LINE
  5
B7
100
AcDbEntity
  8
A1
  6
CONTINUOUS
 62
7
100
AcDbLine
 10
229.2242936230353
 20
199.8448579457332
 30
0.000000000000000
 11
229.2242936230353
 21
199.7948579457059
 31
0.000000000000000
  0
LINE
  5
B8
100
AcDbEntity
  8
A1
  6
CONTINUOUS
 62
7
100
AcDbLine
 10
232.2242936230353
 20
199.7948579457059
 30
0.000000000000000
 11
232.2242936230353
 21
199.8448579457332
 31
0.000000000000000
  0
LINE
  5
B9
100
AcDbEntity
  8
A1
  6
CONTINUOUS
 62
7
100
AcDbLine
 10
232.2242936230353
 20
196.7448579457333
 30
0.000000000000000
 11
232.2242936230353
 21
196.7948579457332
 31
0.000000000000000
  0
LINE
  5
BA
100
AcDbEntity
  8
A1
  6
CONTINUOUS
 62
7
100
AcDbLine
 10
229.2242936230353
 20
192.6948579457041
 30
0.000000000000000
 11
229.2242936230353
 21
192.2948639457042
 31
0.000000000000000
  0
LINE
  5
BB
100
AcDbEntity
  8
A1
  6
CONTINUOUS
 62
7
100
AcDbLine
 10
229.2242936230353
 20
196.7948579457332
 30
0.000000000000000
 11
229.2242936230353
 21
196.7448579457333
 31
0.000000000000000
  0
LINE
  5
BC
100
AcDbEntity
  8
A1
  6
CONTINUOUS
 62
7
100
AcDbLine
 10
151.0325871289468
 20
214.6948579457794
 30
0.000000000000000
 11
132.0325871289468
 21
214.6948579457794
 31
0.000000000000000
  0
LINE
  5
BD
100
AcDbEntity
  8
A1
  6
CONTINUOUS
 62
7
100
AcDbLine
 10
129.0325871289467
 20
211.6948579457786
 30
0.000000000000000
 11
129.0325871289536
 21
182.6948579456906
 31
0.000000000000000
  0
LINE
  5
BE
100
AcDbEntity
  8
A1
  6
CONTINUOUS
 62
7
100
AcDbLine
 10
163.0325871289530
 20
185.2948579456577
 30
0.000000000000000
 11
163.0325871289536
 21
182.6948579456987
 31
0.000000000000000
  0
LINE
  5
BF
100
AcDbEntity
  8
A1
  6
CONTINUOUS
 62
7
100
AcDbLine
 10
163.0325871289530
 20
185.2948579456577
 30
0.000000000000000
 11
154.0325871289530
 21
185.2948579456577
 31
0.000000000000000
  0
ARC
  5
C0
100
AcDbEntity
  8
A1
  6
CONTINUOUS
 62
7
100
AcDbCircle
 10
132.0325871289468
 20
211.6948579457794
 30
0.000000000000000
 40
3.000000000000000
100
AcDbArc
 50
90.00000000000000
 51
180.0000000000000
  0
ARC
  5
C1
100
AcDbEntity
  8
A1
  6
CONTINUOUS
 62
7
100
AcDbCircle
 10
151.0325871289468
 20
211.6948579457794
 30
0.000000000000000
 40
3.000000000000000
100
AcDbArc
 50
0.000000000000000
 51
90.00000000000000
  0
CIRCLE
  5
C2
100
AcDbEntity
  8
A1
  6
CONTINUOUS
 62
7
100
AcDbCircle
 10
141.5325871289500
 20
198.2948579456577
 30
0.000000000000000
 40
4.150000000000000
  0
CIRCLE
  5
C3
100
AcDbEntity
  8
A1
  6
CONTINUOUS
 62
7
100
AcDbCircle
 10
141.5325871289511
 20
189.3948579456578
 30
0.000000000000000
 40
1.229500000000000
  0
CIRCLE
  5
C4
100
AcDbEntity
  8
A2
  6
CONTINUOUS
 62
4
100
AcDbCircle
 10
141.5325871289511
 20
189.3948579456578
 30
0.000000000000000
 40
1.500000000000000
  0
LINE
  5
C5
100
AcDbEntity
  8
A4
  6
CENTER
 62
1
100
AcDbLine
 10
143.7825871289511
 20
189.3948579456578
 30
0.000000000000000
 11
139.2825871289511
 21
189.3948579456578
 31
0.000000000000000
  0
LINE
  5
C6
100
AcDbEntity
  8
A4
  6
CENTER
 62
1
100
AcDbLine
 10
134.0325871289511
 20
211.6448579456578
 30
0.000000000000000
 11
134.0325871289511
 21
207.1448579456578
 31
0.000000000000000
  0
CIRCLE
  5
C7
100
AcDbEntity
  8
A1
  6
CONTINUOUS
 62
7
100
AcDbCircle
 10
134.0325871289511
 20
209.3948579456578
 30
0.000000000000000
 40
1.229500000000000
  0
LINE
  5
C8
100
AcDbEntity
  8
A4
  6
CENTER
 62
1
100
AcDbLine
 10
136.2825871289511
 20
209.3948579456578
 30
0.000000000000000
 11
131.7825871289511
 21
209.3948579456578
 31
0.000000000000000
  0
CIRCLE
  5
C9
100
AcDbEntity
  8
A2
  6
CONTINUOUS
 62
4
100
AcDbCircle
 10
134.0325871289511
 20
209.3948579456578
 30
0.000000000000000
 40
1.500000000000000
  0
LINE
  5
CA
100
AcDbEntity
  8
A4
  6
CENTER
 62
1
100
AcDbLine
 10
149.0325871289511
 20
211.6448579456578
 30
0.000000000000000
 11
149.0325871289511
 21
207.1448579456578
 31
0.000000000000000
  0
LINE
  5
CB
100
AcDbEntity
  8
A4
  6
CENTER
 62
1
100
AcDbLine
 10
151.2825871289511
 20
209.3948579456578
 30
0.000000000000000
 11
146.7825871289511
 21
209.3948579456578
 31
0.000000000000000
  0
CIRCLE
  5
CC
100
AcDbEntity
  8
A1
  6
CONTINUOUS
 62
7
100
AcDbCircle
 10
149.0325871289511
 20
209.3948579456578
 30
0.000000000000000
 40
1.229500000000000
  0
CIRCLE
  5
CD
100
AcDbEntity
  8
A2
  6
CONTINUOUS
 62
4
100
AcDbCircle
 10
149.0325871289511
 20
209.3948579456578
 30
0.000000000000000
 40
1.500000000000000
  0
LINE
  5
CE
100
AcDbEntity
  8
A4
  6
CENTER
 62
1
100
AcDbLine
 10
147.1825871289501
 20
198.2948579456577
 30
0.000000000000000
 11
135.8825871289499
 21
198.2948579456577
 31
0.000000000000000
  0
LINE
  5
CF
100
AcDbEntity
  8
A4
  6
CENTER
 62
1
100
AcDbLine
 10
141.5325871289521
 20
181.1948579456577
 30
0.000000000000000
 11
141.5325871289478
 21
216.1948579457795
 31
0.000000000000000
  0
CIRCLE
  5
D0
100
AcDbEntity
  8
A1
  6
CONTINUOUS
 62
7
100
AcDbCircle
 10
141.5325871289500
 20
198.2948579456577
 30
0.000000000000000
 40
3.000000000027114
  0
CIRCLE
  5
D1
100
AcDbEntity
  8
A1
  6
CONTINUOUS
 62
7
100
AcDbCircle
 10
141.5325871289500
 20
198.2948579456577
 30
0.000000000000000
 40
4.000000000027342
  0
LINE
  5
D2
100
AcDbEntity
  8
A1
  6
CONTINUOUS
 62
7
100
AcDbLine
 10
158.9111391290202
 20
193.8948549456578
 30
0.000000000000000
 11
159.5325831290203
 21
193.8948549456578
 31
0.000000000000000
  0
LINE
  5
D3
100
AcDbEntity
  8
A1
  6
CONTINUOUS
 62
7
100
AcDbLine
 10
160.0325831290203
 20
188.2948579456578
 30
0.000000000000000
 11
160.0325831290203
 21
191.1948579456579
 31
0.000000000000000
  0
LINE
  5
D4
100
AcDbEntity
  8
A2
  6
CONTINUOUS
 62
4
100
AcDbLine
 10
159.6265771290203
 20
188.2948579456578
 30
0.000000000000000
 11
159.6265771290203
 21
191.6008639456577
 31
0.000000000000000
  0
LINE
  5
D5
100
AcDbEntity
  8
A1
  6
CONTINUOUS
 62
7
100
AcDbLine
 10
160.0325831290202
 20
191.1948579456575
 30
0.000000000000000
 11
159.5325831290201
 21
191.6948579456576
 31
0.000000000000000
  0
LINE
  5
D6
100
AcDbEntity
  8
A1
  6
CONTINUOUS
 62
7
100
AcDbLine
 10
159.5325831290203
 20
191.6948579456579
 30
0.000000000000000
 11
159.5325831290203
 21
193.8948549456578
 31
0.000000000000000
  0
LINE
  5
D7
100
AcDbEntity
  8
A1
  6
CONTINUOUS
 62
7
100
AcDbLine
 10
159.1560571290203
 20
192.2948639456579
 30
0.000000000000000
 11
159.1560571290203
 21
193.8948549456578
 31
0.000000000000000
  0
LINE
  5
D8
100
AcDbEntity
  8
A1
  6
CONTINUOUS
 62
7
100
AcDbLine
 10
162.6928311290202
 20
187.6249819456577
 30
0.000000000000000
 11
162.6928311290202
 21
185.2948579456578
 31
0.000000000000000
  0
LINE
  5
D9
100
AcDbEntity
  8
A1
  6
CONTINUOUS
 62
7
100
AcDbLine
 10
158.3627071290201
 20
187.6249819456577
 30
0.000000000000000
 11
158.3627071290201
 21
185.2948579456578
 31
0.000000000000000
  0
LINE
  5
DA
100
AcDbEntity
  8
A1
  6
CONTINUOUS
 62
7
100
AcDbLine
 10
161.5325831290203
 20
188.2948579456577
 30
0.000000000000000
 11
162.6928461290202
 21
187.6249819456578
 31
0.000000000000000
  0
LINE
  5
DB
100
AcDbEntity
  8
A1
  6
CONTINUOUS
 62
7
100
AcDbLine
 10
161.5325831290203
 20
182.6948579456578
 30
0.000000000000000
 11
161.5325831290203
 21
178.9948579456578
 31
0.000000000000000
  0
LINE
  5
DC
100
AcDbEntity
  8
A1
  6
CONTINUOUS
 62
7
100
AcDbLine
 10
146.8325911290202
 20
178.6948579456578
 30
0.000000000000000
 11
161.2325831290203
 21
178.6948579456578
 31
0.000000000000000
  0
LINE
  5
DD
100
AcDbEntity
  8
A1
  6
CONTINUOUS
 62
7
100
AcDbLine
 10
146.5325911290203
 20
182.6948579456578
 30
0.000000000000000
 11
146.5325911290203
 21
178.9948579456578
 31
0.000000000000000
  0
LINE
  5
DE
100
AcDbEntity
  8
A1
  6
CONTINUOUS
 62
7
100
AcDbLine
 10
158.9111391290202
 20
194.2948639456579
 30
0.000000000000000
 11
158.9111391290202
 21
189.7948639456579
 31
0.000000000000000
  0
ARC
  5
DF
100
AcDbEntity
  8
A1
  6
CONTINUOUS
 62
7
100
AcDbCircle
 10
160.5277771290204
 20
184.4611169456577
 30
0.000000000000000
 40
3.833738000000000
100
AcDbArc
 50
64.38425199999999
 51
124.3842470000000
  0
ARC
  5
E0
100
AcDbEntity
  8
A1
  6
CONTINUOUS
 62
7
100
AcDbCircle
 10
154.0325831290203
 20
173.9647639456577
 30
0.000000000000000
 40
14.33009100000000
100
AcDbArc
 50
72.41201300000000
 51
90.00000000000000
  0
LINE
  5
E1
100
AcDbEntity
  8
A1
  6
CONTINUOUS
 62
7
100
AcDbLine
 10
154.0325871289507
 20
194.7948639456579
 30
0.000000000000000
 11
157.7825831290203
 21
194.7948639456579
 31
0.000000000000000
  0
LINE
  5
E2
100
AcDbEntity
  8
A1
  6
CONTINUOUS
 62
7
100
AcDbLine
 10
156.2825831290203
 20
194.7948639456580
 30
0.000000000000000
 11
156.2141678864293
 21
195.5768537499349
 31
0.000000000000000
  0
LINE
  5
E3
100
AcDbEntity
  8
A1
  6
CONTINUOUS
 62
7
100
AcDbLine
 10
157.7825831290203
 20
194.7948639456579
 30
0.000000000000000
 11
157.7825831290203
 21
194.2948639456579
 31
0.000000000000000
  0
LINE
  5
E4
100
AcDbEntity
  8
A1
  6
CONTINUOUS
 62
7
100
AcDbLine
 10
159.5325831290201
 20
191.6948579456579
 30
0.000000000000000
 11
158.9111391290202
 21
191.6948579456579
 31
0.000000000000000
  0
ARC
  5
E5
100
AcDbEntity
  8
A1
  6
CONTINUOUS
 62
7
100
AcDbCircle
 10
154.0325831290205
 20
190.4948639456578
 30
0.000000000000000
 40
6.000000000000000
100
AcDbArc
 50
74.55728417242005
 51
90.00000000000000
  0
ARC
  5
E6
100
AcDbEntity
  8
A1
  6
CONTINUOUS
 62
7
100
AcDbCircle
 10
155.4172121276769
 20
195.5071291557123
 30
0.000000000000000
 40
0.8000000000000000
100
AcDbArc
 50
4.999999999999995
 51
74.55728417242005
  0
ARC
  5
E7
100
AcDbEntity
  8
A1
  6
CONTINUOUS
 62
7
100
AcDbCircle
 10
146.8325911290202
 20
178.9948579456578
 30
0.000000000000000
 40
0.3000000000000000
100
AcDbArc
 50
180.0000000000000
 51
270.0000000000000
  0
ARC
  5
E8
100
AcDbEntity
  8
A1
  6
CONTINUOUS
 62
7
100
AcDbCircle
 10
161.2325831290203
 20
178.9948579456578
 30
0.000000000000000
 40
0.3000000000000000
100
AcDbArc
 50
270.0000000000000
 51
360.0000000000000
  0
LINE
  5
E9
100
AcDbEntity
  8
A1
  6
CONTINUOUS
 62
7
100
AcDbLine
 10
156.3825871289511
 20
178.5948579456582
 30
0.000000000000000
 11
151.7742691708155
 21
178.5948579456608
 31
0.000000000000000
  0
LINE
  5
EA
100
AcDbEntity
  8
A1
  6
CONTINUOUS
 62
7
100
AcDbLine
 10
156.3825871289508
 20
178.5948579456581
 30
0.000000000000000
 11
156.4825871289505
 21
178.6948579456578
 31
0.000000000000000
  0
LINE
  5
EB
100
AcDbEntity
  8
A1
  6
CONTINUOUS
 62
7
100
AcDbLine
 10
151.7742691708152
 20
178.5948579456579
 30
0.000000000000000
 11
151.6706929849510
 21
178.6948579456575
 31
0.000000000000000
  0
LINE
  5
EC
100
AcDbEntity
  8
A1
  6
CONTINUOUS
 62
7
100
AcDbLine
 10
154.0325871289507
 20
194.2948639456579
 30
0.000000000000000
 11
158.9111391290202
 21
194.2948639456579
 31
0.000000000000000
  0
LINE
  5
ED
100
AcDbEntity
  8
A1
  6
CONTINUOUS
 62
7
100
AcDbLine
 10
158.9111391290202
 20
192.2948639456579
 30
0.000000000000000
 11
159.5325831290203
 21
192.2948639456579
 31
0.000000000000000
  0
LINE
  5
EE
100
AcDbEntity
  8
A1
  6
CONTINUOUS
 62
7
100
AcDbLine
 10
154.0325831290203
 20
188.2948579456578
 30
0.000000000000000
 11
161.5325831290203
 21
188.2948579456578
 31
0.000000000000000
  0
LINE
  5
EF
100
AcDbEntity
  8
A1
  6
CONTINUOUS
 62
7
100
AcDbLine
 10
154.0325871289530
 20
185.2948579456496
 30
0.000000000000000
 11
162.6928311290052
 21
185.2948579456414
 31
0.000000000000000
  0
LINE
  5
F0
100
AcDbEntity
  8
A1
  6
CONTINUOUS
 62
7
100
AcDbLine
 10
129.0325871289459
 20
182.6948579456578
 30
0.000000000000000
 11
163.0325871289537
 21
182.6948579456578
 31
0.000000000000000
  0
LINE
  5
F1
100
AcDbEntity
  8
A1
  6
CONTINUOUS
 62
7
100
AcDbLine
 10
154.0325871289489
 20
182.6948579456578
 30
0.000000000000000
 11
154.0325871289467
 21
211.6948579457802
 31
0.000000000000000
  0
LINE
  5
F2
100
AcDbEntity
  8
A1
  6
CONTINUOUS
 62
7
100
AcDbLine
 10
239.1028456232660
 20
193.8948549457041
 30
0.000000000000000
 11
239.7242896232659
 21
193.8948549457041
 31
0.000000000000000
  0
LINE
  5
F3
100
AcDbEntity
  8
A1
  6
CONTINUOUS
 62
7
100
AcDbLine
 10
240.2242896232659
 20
188.2948579457040
 30
0.000000000000000
 11
240.2242896232659
 21
191.1948579457041
 31
0.000000000000000
  0
LINE
  5
F4
100
AcDbEntity
  8
A2
  6
CONTINUOUS
 62
4
100
AcDbLine
 10
239.8182836232659
 20
188.2948579457040
 30
0.000000000000000
 11
239.8182836232659
 21
191.6008639457039
 31
0.000000000000000
  0
LINE
  5
F5
100
AcDbEntity
  8
A2
  6
CONTINUOUS
 62
4
100
AcDbLine
 10
228.6302806232659
 20
188.2948579457041
 30
0.000000000000000
 11
228.6302806232659
 21
191.6008489457041
 31
0.000000000000000
  0
LINE
  5
F6
100
AcDbEntity
  8
A1
  6
CONTINUOUS
 62
7
100
AcDbLine
 10
228.2242896232659
 20
188.2948579457041
 30
0.000000000000000
 11
228.2242896232659
 21
191.1948579457041
 31
0.000000000000000
  0
LINE
  5
F7
100
AcDbEntity
  8
A1
  6
CONTINUOUS
 62
7
100
AcDbLine
 10
231.3195506232658
 20
188.2948579457041
 30
0.000000000000000
 11
231.3195506232658
 21
191.1948579457041
 31
0.000000000000000
  0
LINE
  5
F8
100
AcDbEntity
  8
A1
  6
CONTINUOUS
 62
7
100
AcDbLine
 10
237.1290136232658
 20
188.2948579457040
 30
0.000000000000000
 11
237.1290136232658
 21
191.1948579457041
 31
0.000000000000000
  0
LINE
  5
F9
100
AcDbEntity
  8
A1
  6
CONTINUOUS
 62
7
100
AcDbLine
 10
228.2242896232659
 20
191.1948579457041
 30
0.000000000000000
 11
231.3195506232658
 21
191.1948579457041
 31
0.000000000000000
  0
LINE
  5
FA
100
AcDbEntity
  8
A1
  6
CONTINUOUS
 62
7
100
AcDbLine
 10
240.2242896232655
 20
191.1948579457038
 30
0.000000000000000
 11
239.7242896232655
 21
191.6948579457038
 31
0.000000000000000
  0
LINE
  5
FB
100
AcDbEntity
  8
A1
  6
CONTINUOUS
 62
7
100
AcDbLine
 10
228.2242896232658
 20
191.1948579457039
 30
0.000000000000000
 11
228.7242896232657
 21
191.6948579457039
 31
0.000000000000000
  0
LINE
  5
FC
100
AcDbEntity
  8
A1
  6
CONTINUOUS
 62
7
100
AcDbLine
 10
228.7242896232659
 20
191.6948579457041
 30
0.000000000000000
 11
228.7242896232659
 21
192.2948639457042
 31
0.000000000000000
  0
LINE
  5
FD
100
AcDbEntity
  8
A1
  6
CONTINUOUS
 62
7
100
AcDbLine
 10
239.7242896232659
 20
191.6948579457041
 30
0.000000000000000
 11
239.7242896232659
 21
193.8948549457041
 31
0.000000000000000
  0
LINE
  5
FE
100
AcDbEntity
  8
A1
  6
CONTINUOUS
 62
7
100
AcDbLine
 10
228.7242896232659
 20
192.2948639457042
 30
0.000000000000000
 11
239.7242896232659
 21
192.2948639457041
 31
0.000000000000000
  0
LINE
  5
FF
100
AcDbEntity
  8
A1
  6
CONTINUOUS
 62
7
100
AcDbLine
 10
237.1290136232658
 20
191.1948579457041
 30
0.000000000000000
 11
240.2242896232659
 21
191.1948579457041
 31
0.000000000000000
  0
LINE
  5
100
100
AcDbEntity
  8
A1
  6
CONTINUOUS
 62
7
100
AcDbLine
 10
231.3195506232657
 20
191.1948579457040
 30
0.000000000000000
 11
232.4195566232658
 21
192.2948639457042
 31
0.000000000000000
  0
LINE
  5
101
100
AcDbEntity
  8
A1
  6
CONTINUOUS
 62
7
100
AcDbLine
 10
237.1290136232659
 20
191.1948579457040
 30
0.000000000000000
 11
236.0290236232659
 21
192.2948639457040
 31
0.000000000000000
  0
LINE
  5
102
100
AcDbEntity
  8
A1
  6
CONTINUOUS
 62
7
100
AcDbLine
 10
239.3477636232658
 20
192.2948639457041
 30
0.000000000000000
 11
239.3477636232658
 21
193.8948549457041
 31
0.000000000000000
  0
LINE
  5
103
100
AcDbEntity
  8
A2
  6
CONTINUOUS
 62
4
100
AcDbLine
 10
231.3195506232660
 20
191.1948579457039
 30
0.000000000000000
 11
233.3016039565993
 21
188.2948579457040
 31
0.000000000000000
  0
LINE
  5
104
100
AcDbEntity
  8
A2
  6
CONTINUOUS
 62
4
100
AcDbLine
 10
235.1469757565991
 20
188.2948579457039
 30
0.000000000000000
 11
237.1290136232659
 21
191.1948579457040
 31
0.000000000000000
  0
LINE
  5
105
100
AcDbEntity
  8
A1
  6
CONTINUOUS
 62
7
100
AcDbLine
 10
238.9242866232660
 20
192.2948639457041
 30
0.000000000000000
 11
238.9242866232660
 21
192.6948579457041
 31
0.000000000000000
  0
LINE
  5
106
100
AcDbEntity
  8
A1
  6
CONTINUOUS
 62
7
100
AcDbLine
 10
229.5242926232659
 20
192.2948639457042
 30
0.000000000000000
 11
229.5242926232659
 21
192.6948579457041
 31
0.000000000000000
  0
LINE
  5
107
100
AcDbEntity
  8
A1
  6
CONTINUOUS
 62
7
100
AcDbLine
 10
242.8845376232660
 20
187.6249819457040
 30
0.000000000000000
 11
242.8845376232660
 21
185.2948579457040
 31
0.000000000000000
  0
LINE
  5
108
100
AcDbEntity
  8
A1
  6
CONTINUOUS
 62
7
100
AcDbLine
 10
225.5640266232659
 20
187.6249819457040
 30
0.000000000000000
 11
225.5640266232659
 21
185.2948579457041
 31
0.000000000000000
  0
LINE
  5
109
100
AcDbEntity
  8
A1
  6
CONTINUOUS
 62
7
100
AcDbLine
 10
229.8941656232660
 20
187.6249819457040
 30
0.000000000000000
 11
229.8941656232660
 21
185.2948579457041
 31
0.000000000000000
  0
LINE
  5
10A
100
AcDbEntity
  8
A1
  6
CONTINUOUS
 62
7
100
AcDbLine
 10
238.5544136232659
 20
187.6249819457040
 30
0.000000000000000
 11
238.5544136232659
 21
185.2948579457040
 31
0.000000000000000
  0
LINE
  5
10B
100
AcDbEntity
  8
A1
  6
CONTINUOUS
 62
7
100
AcDbLine
 10
226.7242896232659
 20
188.2948579457041
 30
0.000000000000000
 11
241.7242896232659
 21
188.2948579457040
 31
0.000000000000000
  0
LINE
  5
10C
100
AcDbEntity
  8
A1
  6
CONTINUOUS
 62
7
100
AcDbLine
 10
226.7242896232659
 20
188.2948419457038
 30
0.000000000000000
 11
225.5640266232660
 21
187.6249659457039
 31
0.000000000000000
  0
LINE
  5
10D
100
AcDbEntity
  8
A1
  6
CONTINUOUS
 62
7
100
AcDbLine
 10
241.7242896232658
 20
188.2948579457037
 30
0.000000000000000
 11
242.8845526232657
 21
187.6249819457038
 31
0.000000000000000
  0
LINE
  5
10E
100
AcDbEntity
  8
A1
  6
CONTINUOUS
 62
7
100
AcDbLine
 10
241.7242896232659
 20
182.6948579457040
 30
0.000000000000000
 11
241.7242896232659
 21
178.9948579457041
 31
0.000000000000000
  0
LINE
  5
10F
100
AcDbEntity
  8
A1
  6
CONTINUOUS
 62
7
100
AcDbLine
 10
227.0242976232660
 20
178.6948579457040
 30
0.000000000000000
 11
241.4242896232659
 21
178.6948579457040
 31
0.000000000000000
  0
LINE
  5
110
100
AcDbEntity
  8
A1
  6
CONTINUOUS
 62
7
100
AcDbLine
 10
226.7242976232658
 20
182.6948579457040
 30
0.000000000000000
 11
226.7242976232658
 21
178.9948579457041
 31
0.000000000000000
  0
LINE
  5
111
100
AcDbEntity
  8
A1
  6
CONTINUOUS
 62
7
100
AcDbLine
 10
227.3242936232107
 20
194.2948639457042
 30
0.000000000000000
 11
239.1028456232660
 21
194.2948639457041
 31
0.000000000000000
  0
LINE
  5
112
100
AcDbEntity
  8
A1
  6
CONTINUOUS
 62
7
100
AcDbLine
 10
239.1028456232660
 20
194.2948639457041
 30
0.000000000000000
 11
239.1028456232660
 21
192.6948579457041
 31
0.000000000000000
  0
ARC
  5
113
100
AcDbEntity
  8
A1
  6
CONTINUOUS
 62
7
100
AcDbCircle
 10
240.7194836232659
 20
184.4611169457040
 30
0.000000000000000
 40
3.833738000000000
100
AcDbArc
 50
64.38425199999999
 51
124.3842470000000
  0
ARC
  5
114
100
AcDbEntity
  8
A1
  6
CONTINUOUS
 62
7
100
AcDbCircle
 10
227.7290966232661
 20
184.4611169457040
 30
0.000000000000000
 40
3.833738000000000
100
AcDbArc
 50
55.61574799999998
 51
115.6157460000000
  0
ARC
  5
115
100
AcDbEntity
  8
A1
  6
CONTINUOUS
 62
7
100
AcDbCircle
 10
234.2242896232659
 20
173.9647639457040
 30
0.000000000000000
 40
14.33009100000000
100
AcDbArc
 50
72.41201300000000
 51
107.5879860000000
  0
LINE
  5
116
100
AcDbEntity
  8
A1
  6
CONTINUOUS
 62
7
100
AcDbLine
 10
230.4742896232659
 20
194.7948639457042
 30
0.000000000000000
 11
230.4742896232659
 21
194.2948639457042
 31
0.000000000000000
  0
LINE
  5
117
100
AcDbEntity
  8
A1
  6
CONTINUOUS
 62
7
100
AcDbLine
 10
230.4742896232659
 20
194.7948639457042
 30
0.000000000000000
 11
237.9742896232659
 21
194.7948639457041
 31
0.000000000000000
  0
LINE
  5
118
100
AcDbEntity
  8
A1
  6
CONTINUOUS
 62
7
100
AcDbLine
 10
231.9742896232658
 20
194.7948639457040
 30
0.000000000000000
 11
232.0427048659964
 21
195.5768537499605
 31
0.000000000000000
  0
LINE
  5
119
100
AcDbEntity
  8
A1
  6
CONTINUOUS
 62
7
100
AcDbLine
 10
236.4742896232661
 20
194.7948639457042
 30
0.000000000000000
 11
236.4058743806751
 21
195.5768537499814
 31
0.000000000000000
  0
LINE
  5
11A
100
AcDbEntity
  8
A1
  6
CONTINUOUS
 62
7
100
AcDbLine
 10
237.9742896232659
 20
194.7948639457041
 30
0.000000000000000
 11
237.9742896232659
 21
194.2948639457041
 31
0.000000000000000
  0
LINE
  5
11B
100
AcDbEntity
  8
A1
  6
CONTINUOUS
 62
7
100
AcDbLine
 10
227.3242936232110
 20
192.6948579457041
 30
0.000000000000000
 11
239.1028456232660
 21
192.6948579457041
 31
0.000000000000000
  0
LINE
  5
11C
100
AcDbEntity
  8
A1
  6
CONTINUOUS
 62
7
100
AcDbLine
 10
228.7242896232659
 20
191.6948579457041
 30
0.000000000000000
 11
231.8195506232726
 21
191.6948579457041
 31
0.000000000000000
  0
LINE
  5
11D
100
AcDbEntity
  8
A1
  6
CONTINUOUS
 62
7
100
AcDbLine
 10
239.7242896232657
 20
191.6948579457041
 30
0.000000000000000
 11
236.6290208959539
 21
191.6948579457042
 31
0.000000000000000
  0
ARC
  5
11E
100
AcDbEntity
  8
A1
  6
CONTINUOUS
 62
7
100
AcDbCircle
 10
232.8396606246118
 20
195.5071291557500
 30
0.000000000000000
 40
0.8000000000000000
100
AcDbArc
 50
105.4427158275799
 51
175.0000000000000
  0
ARC
  5
11F
100
AcDbEntity
  8
A1
  6
CONTINUOUS
 62
7
100
AcDbCircle
 10
234.2242896232661
 20
190.4948639457040
 30
0.000000000000000
 40
6.000000000000000
100
AcDbArc
 50
74.55728417242005
 51
105.4427158275799
  0
ARC
  5
120
100
AcDbEntity
  8
A1
  6
CONTINUOUS
 62
7
100
AcDbCircle
 10
235.6089186219224
 20
195.5071291557586
 30
0.000000000000000
 40
0.8000000000000000
100
AcDbArc
 50
4.999999999999995
 51
74.55728417242005
  0
ARC
  5
121
100
AcDbEntity
  8
A1
  6
CONTINUOUS
 62
7
100
AcDbCircle
 10
227.0242976232660
 20
178.9948579457040
 30
0.000000000000000
 40
0.3000000000000000
100
AcDbArc
 50
180.0000000000000
 51
270.0000000000000
  0
ARC
  5
122
100
AcDbEntity
  8
A1
  6
CONTINUOUS
 62
7
100
AcDbCircle
 10
241.4242896232659
 20
178.9948579457040
 30
0.000000000000000
 40
0.3000000000000000
100
AcDbArc
 50
270.0000000000000
 51
360.0000000000000
  0
LINE
  5
123
100
AcDbEntity
  8
A1
  6
CONTINUOUS
 62
7
100
AcDbLine
 10
236.5742936231966
 20
178.5948579457045
 30
0.000000000000000
 11
231.9659756650613
 21
178.5948579457071
 31
0.000000000000000
  0
LINE
  5
124
100
AcDbEntity
  8
A1
  6
CONTINUOUS
 62
7
100
AcDbLine
 10
236.5742936231966
 20
178.5948579457044
 30
0.000000000000000
 11
236.6742936231960
 21
178.6948579457039
 31
0.000000000000000
  0
LINE
  5
125
100
AcDbEntity
  8
A1
  6
CONTINUOUS
 62
7
100
AcDbLine
 10
231.9659756650607
 20
178.5948579457042
 30
0.000000000000000
 11
231.8623994791967
 21
178.6948579457037
 31
0.000000000000000
  0
LINE
  5
126
100
AcDbEntity
  8
A1
  6
CONTINUOUS
 62
7
100
AcDbLine
 10
220.2242860407858
 20
189.7948639457042
 30
0.000000000000000
 11
225.7242936232108
 21
189.7948639457042
 31
0.000000000000000
  0
LINE
  5
127
100
AcDbEntity
  8
A1
  6
CONTINUOUS
 62
7
100
AcDbLine
 10
220.2242860407853
 20
191.3948639457041
 30
0.000000000000000
 11
225.7242936232108
 21
191.3948639457041
 31
0.000000000000000
  0
LINE
  5
128
100
AcDbEntity
  8
A1
  6
CONTINUOUS
 62
7
100
AcDbLine
 10
225.7242936232110
 20
192.6948639457042
 30
0.000000000000000
 11
225.7242936232109
 21
191.3948639457042
 31
0.000000000000000
  0
LINE
  5
129
100
AcDbEntity
  8
A1
  6
CONTINUOUS
 62
7
100
AcDbLine
 10
227.3242936232109
 20
192.6948579457042
 30
0.000000000000000
 11
227.3242936232108
 21
191.3948639457041
 31
0.000000000000000
  0
ARC
  5
12A
100
AcDbEntity
  8
A1
  6
CONTINUOUS
 62
7
100
AcDbCircle
 10
227.3242936232110
 20
192.6948639457041
 30
0.000000000000000
 40
1.600000000000000
100
AcDbArc
 50
90.00000000000000
 51
180.0000000000000
  0
ARC
  5
12B
100
AcDbEntity
  8
A1
  6
CONTINUOUS
 62
7
100
AcDbCircle
 10
225.7242936232108
 20
191.3948639457040
 30
0.000000000000000
 40
1.600000000000000
100
AcDbArc
 50
270.0000000000000
 51
360.0000000000000
  0
LINE
  5
12C
100
AcDbEntity
  8
A1
  6
CONTINUOUS
 62
7
100
AcDbLine
 10
154.0325871289507
 20
189.7948639456579
 30
0.000000000000000
 11
158.9111391290202
 21
189.7948639456579
 31
0.000000000000000
  0
LINE
  5
12D
100
AcDbEntity
  8
A1
  6
CONTINUOUS
 62
7
100
AcDbLine
 10
154.0325871289507
 20
191.3948639456579
 30
0.000000000000000
 11
158.9111391290202
 21
191.3948639456579
 31
0.000000000000000
  0
LINE
  5
12E
100
AcDbEntity
  8
A1
  6
CONTINUOUS
 62
7
100
AcDbLine
 10
220.2242860407858
 20
191.3948639457041
 30
0.000000000000000
 11
220.2242860407858
 21
189.7948639457042
 31
0.000000000000000
  0
LINE
  5
12F
100
AcDbEntity
  8
A1
  6
CONTINUOUS
 62
7
100
AcDbLine
 10
218.8242936230403
 20
182.6948579456597
 30
0.000000000000000
 11
279.7242936230354
 21
182.6948579457763
 31
0.000000000000000
  0
LINE
  5
130
100
AcDbEntity
  8
A1
  6
CONTINUOUS
 62
7
100
AcDbLine
 10
218.8242936230352
 20
185.2948579456598
 30
0.000000000000000
 11
279.7242936230301
 21
185.2948579457765
 31
0.000000000000000
  0
ARC
  5
131
100
AcDbEntity
  8
A1
  6
CONTINUOUS
 62
7
100
AcDbCircle
 10
232.5492936230353
 20
203.9698579457332
 30
0.000000000000000
 40
0.3250000000000000
100
AcDbArc
 50
0.000000000000000
 51
180.0000000000000
  0
LINE
  5
132
100
AcDbEntity
  8
A1
  6
CONTINUOUS
 62
7
100
AcDbLine
 10
243.7242936230351
 20
205.4698579457332
 30
0.000000000000000
 11
243.7242936230351
 21
191.1198579457333
 31
0.000000000000000
  0
ARC
  5
133
100
AcDbEntity
  8
A1
  6
CONTINUOUS
 62
7
100
AcDbCircle
 10
243.3992936230350
 20
191.1198579457333
 30
0.000000000000000
 40
0.3250000000000000
100
AcDbArc
 50
182.5896206397031
 51
365.1765823648483
  0
CIRCLE
  5
134
100
AcDbEntity
  8
A1
  6
CONTINUOUS
 62
7
100
AcDbCircle
 10
243.3992936230350
 20
205.4698579457332
 30
0.000000000000000
 40
0.3250000000000000
  0
ARC
  5
135
100
AcDbEntity
  8
A1
  6
CONTINUOUS
 62
7
100
AcDbCircle
 10
242.7536774030446
 20
205.3944941846449
 30
0.000000000000000
 40
0.3250000000000000
100
AcDbArc
 50
2.588291182532598
 51
182.5896206397031
  0
ARC
  5
136
100
AcDbEntity
  8
A1
  6
CONTINUOUS
 62
7
100
AcDbCircle
 10
239.8645334855410
 20
205.0572400308507
 30
0.000000000000000
 40
0.3250000000000000
100
AcDbArc
 50
353.1370946871424
 51
533.1370946871424
  0
ARC
  5
137
100
AcDbEntity
  8
A1
  6
CONTINUOUS
 62
7
100
AcDbCircle
 10
236.9753895680374
 20
204.7199858770565
 30
0.000000000000000
 40
0.3250000000000000
100
AcDbArc
 50
354.2175762370166
 51
534.2175762370166
  0
ARC
  5
138
100
AcDbEntity
  8
A1
  6
CONTINUOUS
 62
7
100
AcDbCircle
 10
234.0862456505336
 20
204.3827317232623
 30
0.000000000000000
 40
0.3250000000000000
100
AcDbArc
 50
355.4170072754901
 51
535.4170072754878
  0
ARC
  5
139
100
AcDbEntity
  8
A1
  6
CONTINUOUS
 62
7
100
AcDbCircle
 10
240.8292936230351
 20
191.4198579457333
 30
0.000000000000000
 40
0.3250000000000000
100
AcDbArc
 50
160.3285101413148
 51
352.1593699787858
  0
LINE
  5
13A
100
AcDbEntity
  8
A1
  6
CONTINUOUS
 62
7
100
AcDbLine
 10
242.4290093024416
 20
205.3798100281905
 30
0.000000000000000
 11
243.0746255224320
 21
191.1051737892788
 31
0.000000000000000
  0
LINE
  5
13B
100
AcDbEntity
  8
A1
  6
CONTINUOUS
 62
7
100
AcDbLine
 10
243.0783458442832
 20
205.4091708076901
 30
0.000000000000000
 11
243.7242936230355
 21
191.1198579457333
 31
0.000000000000000
  0
LINE
  5
13C
100
AcDbEntity
  8
A1
  6
CONTINUOUS
 62
7
100
AcDbLine
 10
239.5381536562700
 20
205.0652631102199
 30
0.000000000000000
 11
240.5051038443178
 21
191.3969235310826
 31
0.000000000000000
  0
LINE
  5
13D
100
AcDbEntity
  8
A1
  6
CONTINUOUS
 62
7
100
AcDbLine
 10
241.1558710848288
 20
191.4090412287271
 30
0.000000000000000
 11
240.1887232642579
 21
205.0801744455013
 31
0.000000000000000
  0
LINE
  5
13E
100
AcDbEntity
  8
A1
  6
CONTINUOUS
 62
7
100
AcDbLine
 10
232.8742936230352
 20
196.3410174503052
 30
0.000000000000000
 11
232.8742936230352
 21
203.9698579457332
 31
0.000000000000000
  0
LINE
  5
13F
100
AcDbEntity
  8
A1
  6
CONTINUOUS
 62
7
100
AcDbLine
 10
241.1512553123412
 20
191.3755220616292
 30
0.000000000000000
 11
241.4155583525501
 21
193.2948579457331
 31
0.000000000000000
  0
LINE
  5
140
100
AcDbEntity
  8
A1
  6
CONTINUOUS
 62
7
100
AcDbLine
 10
236.6520432777668
 20
204.7527299844386
 30
0.000000000000000
 11
236.5044098580524
 21
203.2948579457332
 31
0.000000000000000
  0
LINE
  5
141
100
AcDbEntity
  8
A1
  6
CONTINUOUS
 62
7
100
AcDbLine
 10
233.7639848858063
 20
204.4248387240768
 30
0.000000000000000
 11
233.6163401621480
 21
203.2948579457332
 31
0.000000000000000
  0
LINE
  5
142
100
AcDbEntity
  8
A1
  6
CONTINUOUS
 62
7
100
AcDbLine
 10
242.4316939509102
 20
205.4386717417454
 30
0.000000000000000
 11
242.1375531938046
 21
203.2948579457332
 31
0.000000000000000
  0
LINE
  5
143
100
AcDbEntity
  8
A1
  6
CONTINUOUS
 62
7
100
AcDbLine
 10
239.3250739885601
 20
203.2948579457333
 30
0.000000000000000
 11
239.5418621386906
 21
205.0960756063143
 31
0.000000000000000
  0
LINE
  5
144
100
AcDbEntity
  8
A1
  6
CONTINUOUS
 62
7
100
AcDbLine
 10
238.3315649002938
 20
194.2948639457042
 30
0.000000000000000
 11
237.2988160910990
 21
204.7519277646015
 31
0.000000000000000
  0
LINE
  5
145
100
AcDbEntity
  8
A1
  6
CONTINUOUS
 62
7
100
AcDbLine
 10
236.6487684258864
 20
204.7203909991551
 30
0.000000000000000
 11
237.6290221971749
 21
194.7948639457042
 31
0.000000000000000
  0
LINE
  5
146
100
AcDbEntity
  8
A1
  6
CONTINUOUS
 62
7
100
AcDbLine
 10
232.2242936230353
 20
196.0183272126426
 30
0.000000000000000
 11
232.2242936230353
 21
209.2948579456826
 31
0.000000000000000
  0
LINE
  5
147
100
AcDbEntity
  8
A1
  6
CONTINUOUS
 62
7
100
AcDbLine
 10
243.1739232670719
 20
203.2948579457332
 30
0.000000000000000
 11
243.7242936230353
 21
203.2948579457332
 31
0.000000000000000
  0
LINE
  5
148
100
AcDbEntity
  8
A1
  6
CONTINUOUS
 62
7
100
AcDbLine
 10
240.3150233254453
 20
203.2948579457332
 30
0.000000000000000
 11
242.5233079493433
 21
203.2948579457332
 31
0.000000000000000
  0
LINE
  5
149
100
AcDbEntity
  8
A1
  6
CONTINUOUS
 62
7
100
AcDbLine
 10
237.4427175864335
 20
203.2948579457332
 30
0.000000000000000
 11
239.6633988330385
 21
203.2948579457332
 31
0.000000000000000
  0
LINE
  5
14A
100
AcDbEntity
  8
A1
  6
CONTINUOUS
 62
7
100
AcDbLine
 10
232.8742936230352
 20
203.2948579457332
 30
0.000000000000000
 11
233.8995854267535
 21
203.2948579457332
 31
0.000000000000000
  0
LINE
  5
14B
100
AcDbEntity
  8
A1
  6
CONTINUOUS
 62
7
100
AcDbLine
 10
234.5550269870565
 20
203.2948579457332
 30
0.000000000000000
 11
236.7895553225611
 21
203.2948579457332
 31
0.000000000000000
  0
LINE
  5
14C
100
AcDbEntity
  8
A1
  6
CONTINUOUS
 62
7
100
AcDbLine
 10
226.7242936230353
 20
199.8448579457332
 30
0.000000000000000
 11
232.2242936230353
 21
199.8448579457332
 31
0.000000000000000
  0
LINE
  5
14D
100
AcDbEntity
  8
A1
  6
CONTINUOUS
 62
7
100
AcDbLine
 10
232.8742936230352
 20
199.8448579457332
 30
0.000000000000000
 11
234.3469341261460
 21
199.8448579457332
 31
0.000000000000000
  0
LINE
  5
14E
100
AcDbEntity
  8
A1
  6
CONTINUOUS
 62
7
100
AcDbLine
 10
225.7242936230353
 20
199.7948579457059
 30
0.000000000000000
 11
232.2242936230353
 21
199.7948579457059
 31
0.000000000000000
  0
LINE
  5
14F
100
AcDbEntity
  8
A1
  6
CONTINUOUS
 62
7
100
AcDbLine
 10
232.8742936230352
 20
199.7948579457059
 30
0.000000000000000
 11
233.7242936230353
 21
199.7948579457059
 31
0.000000000000000
  0
LINE
  5
150
100
AcDbEntity
  8
A1
  6
CONTINUOUS
 62
7
100
AcDbLine
 10
225.7242936230355
 20
196.7948579457332
 30
0.000000000000000
 11
232.2242936230353
 21
196.7948579457332
 31
0.000000000000000
  0
LINE
  5
151
100
AcDbEntity
  8
A1
  6
CONTINUOUS
 62
7
100
AcDbLine
 10
232.8742936230352
 20
196.7948579457332
 30
0.000000000000000
 11
233.7242936230353
 21
196.7948579457332
 31
0.000000000000000
  0
LINE
  5
152
100
AcDbEntity
  8
A1
  6
CONTINUOUS
 62
7
100
AcDbLine
 10
226.7242936230353
 20
196.7448579457333
 30
0.000000000000000
 11
232.2242936230353
 21
196.7448579457333
 31
0.000000000000000
  0
LINE
  5
153
100
AcDbEntity
  8
A1
  6
CONTINUOUS
 62
7
100
AcDbLine
 10
232.8742936230352
 20
196.7448579457333
 30
0.000000000000000
 11
234.7242936230353
 21
196.7448579457333
 31
0.000000000000000
  0
LINE
  5
154
100
AcDbEntity
  8
A1
  6
CONTINUOUS
 62
7
100
AcDbLine
 10
233.7595620153095
 20
204.3747331530130
 30
0.000000000000000
 11
234.7847166353431
 21
196.4686334059472
 31
0.000000000000000
  0
LINE
  5
155
100
AcDbEntity
  8
A1
  6
CONTINUOUS
 62
7
100
AcDbLine
 10
234.4085474586499
 20
204.4245234028775
 30
0.000000000000000
 11
235.4532519465537
 21
196.3676530282388
 31
0.000000000000000
  0
LINE
  5
156
100
AcDbEntity
  8
A1
  6
CONTINUOUS
 62
7
100
AcDbLine
 10
123.5830471563464
 20
113.2746017758953
 30
0.000000000000000
 11
124.9830471563464
 21
113.2746017758953
 31
0.000000000000000
  0
LINE
  5
157
100
AcDbEntity
  8
A1
  6
CONTINUOUS
 62
7
100
AcDbLine
 10
125.8289983689959
 20
101.2746017758953
 30
0.000000000000000
 11
129.6277910475992
 21
101.2746017758953
 31
0.000000000000000
  0
LINE
  5
158
100
AcDbEntity
  8
A1
  6
CONTINUOUS
 62
7
100
AcDbLine
 10
125.8289983689959
 20
121.2746017758953
 30
0.000000000000000
 11
129.6277910475992
 21
121.2746017758953
 31
0.000000000000000
  0
LINE
  5
159
100
AcDbEntity
  8
A1
  6
CONTINUOUS
 62
7
100
AcDbLine
 10
120.9418686809699
 20
114.5216574808650
 30
0.000000000000000
 11
124.9878198936194
 21
120.8153593672088
 31
0.000000000000000
  0
LINE
  5
15A
100
AcDbEntity
  8
A1
  6
CONTINUOUS
 62
7
100
AcDbLine
 10
125.7830471563464
 20
110.0746017758953
 30
0.000000000000000
 11
125.7830471563464
 21
112.4746017758953
 31
0.000000000000000
  0
LINE
  5
15B
100
AcDbEntity
  8
A1
  6
CONTINUOUS
 62
7
100
AcDbLine
 10
122.7830471563464
 20
110.0746017758953
 30
0.000000000000000
 11
122.7830471563464
 21
112.4746017758953
 31
0.000000000000000
  0
LINE
  5
15C
100
AcDbEntity
  8
A1
  6
CONTINUOUS
 62
7
100
AcDbLine
 10
140.7830471563465
 20
117.7746017758953
 30
0.000000000000000
 11
129.9309947048762
 21
121.2275275559086
 31
0.000000000000000
  0
LINE
  5
15D
100
AcDbEntity
  8
A1
  6
CONTINUOUS
 62
7
100
AcDbLine
 10
138.6926581281772
 20
104.1094779942051
 30
0.000000000000000
 11
129.9309947048761
 21
101.3216759958820
 31
0.000000000000000
  0
ARC
  5
15E
100
AcDbEntity
  8
A1
  6
CONTINUOUS
 62
7
100
AcDbCircle
 10
137.7830471563464
 20
106.9682553342449
 30
0.000000000000000
 40
3.000000000000000
100
AcDbArc
 50
287.6501242199300
 51
360.0000000000000
  0
ARC
  5
15F
100
AcDbEntity
  8
A1
  6
CONTINUOUS
 62
7
100
AcDbCircle
 10
129.6277910475992
 20
102.2746017758953
 30
0.000000000000000
 40
1.000000000000000
100
AcDbArc
 50
270.0000000000000
 51
287.6501242199297
  0
ARC
  5
160
100
AcDbEntity
  8
A1
  6
CONTINUOUS
 62
7
100
AcDbCircle
 10
125.8289983689959
 20
102.2746017758953
 30
0.000000000000000
 40
1.000000000000000
100
AcDbArc
 50
212.7352262721073
 51
270.0000000000000
  0
ARC
  5
161
100
AcDbEntity
  8
A1
  6
CONTINUOUS
 62
7
100
AcDbCircle
 10
121.7830471563464
 20
108.5683036622390
 30
0.000000000000000
 40
1.000000000000000
100
AcDbArc
 50
180.0000000000000
 51
212.7352262721074
  0
ARC
  5
162
100
AcDbEntity
  8
A1
  6
CONTINUOUS
 62
7
100
AcDbCircle
 10
121.7830471563464
 20
113.9808998895516
 30
0.000000000000000
 40
1.000000000000000
100
AcDbArc
 50
147.2647737278925
 51
180.0000000000000
  0
ARC
  5
163
100
AcDbEntity
  8
A1
  6
CONTINUOUS
 62
7
100
AcDbCircle
 10
125.8289983689959
 20
120.2746017758953
 30
0.000000000000000
 40
1.000000000000000
100
AcDbArc
 50
90.00000000000000
 51
147.2647737278927
  0
ARC
  5
164
100
AcDbEntity
  8
A1
  6
CONTINUOUS
 62
7
100
AcDbCircle
 10
129.6277910475992
 20
120.2746017758953
 30
0.000000000000000
 40
1.000000000000000
100
AcDbArc
 50
72.34987578007029
 51
90.00000000000000
  0
ARC
  5
165
100
AcDbEntity
  8
A1
  6
CONTINUOUS
 62
7
100
AcDbCircle
 10
123.5830471563464
 20
110.0746017758953
 30
0.000000000000000
 40
0.8000000000000000
100
AcDbArc
 50
180.0000000000000
 51
270.0000000000000
  0
ARC
  5
166
100
AcDbEntity
  8
A1
  6
CONTINUOUS
 62
7
100
AcDbCircle
 10
123.5830471563464
 20
112.4746017758953
 30
0.000000000000000
 40
0.8000000000000000
100
AcDbArc
 50
90.00000000000000
 51
180.0000000000000
  0
ARC
  5
167
100
AcDbEntity
  8
A1
  6
CONTINUOUS
 62
7
100
AcDbCircle
 10
124.9830471563464
 20
112.4746017758953
 30
0.000000000000000
 40
0.8000000000000000
100
AcDbArc
 50
0.000000000000000
 51
90.00000000000000
  0
ARC
  5
168
100
AcDbEntity
  8
A1
  6
CONTINUOUS
 62
7
100
AcDbCircle
 10
124.9830471563464
 20
110.0746017758953
 30
0.000000000000000
 40
0.8000000000000000
100
AcDbArc
 50
270.0000000000000
 51
360.0000000000000
  0
LINE
  5
169
100
AcDbEntity
  8
A1
  6
CONTINUOUS
 62
7
100
AcDbLine
 10
137.8780429827208
 20
108.1746017758953
 30
0.000000000000000
 11
138.2830471563464
 21
108.1746017758953
 31
0.000000000000000
  0
LINE
  5
16A
100
AcDbEntity
  8
A1
  6
CONTINUOUS
 62
7
100
AcDbLine
 10
137.8780429827208
 20
114.3746017758953
 30
0.000000000000000
 11
138.2830471563464
 21
114.3746017758953
 31
0.000000000000000
  0
LINE
  5
16B
100
AcDbEntity
  8
A1
  6
CONTINUOUS
 62
7
100
AcDbLine
 10
134.8830471563464
 20
110.4746017758953
 30
0.000000000000000
 11
134.8830471563464
 21
112.0746017758953
 31
0.000000000000000
  0
ARC
  5
16C
100
AcDbEntity
  8
A1
  6
CONTINUOUS
 62
7
100
AcDbCircle
 10
137.8780429827208
 20
111.2746017758953
 30
0.000000000000000
 40
3.100000000000000
100
AcDbArc
 50
90.00000000000000
 51
165.0447516833567
  0
ARC
  5
16D
100
AcDbEntity
  8
A1
  6
CONTINUOUS
 62
7
100
AcDbCircle
 10
137.8780429827208
 20
111.2746017758953
 30
0.000000000000000
 40
3.100000000000000
100
AcDbArc
 50
194.9552483166433
 51
270.0000000000000
  0
LINE
  5
16E
100
AcDbEntity
  8
A1
  6
CONTINUOUS
 62
7
100
AcDbLine
 10
138.7830471563463
 20
105.1876378104967
 30
0.000000000000000
 11
129.6277910475991
 21
102.2746017758953
 31
0.000000000000000
  0
LINE
  5
16F
100
AcDbEntity
  8
A1
  6
CONTINUOUS
 62
7
100
AcDbLine
 10
125.8289983689959
 20
102.2746017758953
 30
0.000000000000000
 11
129.6277910475992
 21
102.2746017758953
 31
0.000000000000000
  0
LINE
  5
170
100
AcDbEntity
  8
A1
  6
CONTINUOUS
 62
7
100
AcDbLine
 10
121.7830471563464
 20
113.9808998895517
 30
0.000000000000000
 11
125.8289983689960
 21
120.2746017758954
 31
0.000000000000000
  0
LINE
  5
171
100
AcDbEntity
  8
A1
  6
CONTINUOUS
 62
7
100
AcDbLine
 10
125.8289983689959
 20
120.2746017758953
 30
0.000000000000000
 11
129.6277910475992
 21
120.2746017758953
 31
0.000000000000000
  0
LINE
  5
172
100
AcDbEntity
  8
A1
  6
CONTINUOUS
 62
7
100
AcDbLine
 10
138.7830471563464
 20
117.3615657412940
 30
0.000000000000000
 11
129.6277910475992
 21
120.2746017758954
 31
0.000000000000000
  0
ARC
  5
173
100
AcDbEntity
  8
A1
  6
CONTINUOUS
 62
7
100
AcDbCircle
 10
137.8830471563464
 20
111.2746017758953
 30
0.000000000000000
 40
4.300000000000000
100
AcDbArc
 50
90.00000000000000
 51
270.0000000000000
  0
LINE
  5
174
100
AcDbEntity
  8
A1
  6
CONTINUOUS
 62
7
100
AcDbLine
 10
137.8830471563465
 20
115.5746017758953
 30
0.000000000000000
 11
138.7830471563467
 21
115.5746017758946
 31
0.000000000000000
  0
LINE
  5
175
100
AcDbEntity
  8
A1
  6
CONTINUOUS
 62
7
100
AcDbLine
 10
137.8830471563463
 20
106.9746017758953
 30
0.000000000000000
 11
138.7830471563465
 21
106.9746017758943
 31
0.000000000000000
  0
LINE
  5
176
100
AcDbEntity
  8
A1
  6
CONTINUOUS
 62
7
100
AcDbLine
 10
138.7830471563464
 20
105.1876378104967
 30
0.000000000000000
 11
138.7830471563464
 21
106.9746017758943
 31
0.000000000000000
  0
LINE
  5
177
100
AcDbEntity
  8
A1
  6
CONTINUOUS
 62
7
100
AcDbLine
 10
138.7830471563464
 20
115.5746017758946
 30
0.000000000000000
 11
138.7830471563464
 21
117.3615657412940
 31
0.000000000000000
  0
MTEXT
  5
178
100
AcDbEntity
  8
A7
  6
CONTINUOUS
 62
3
100
AcDbMText
 10
130.1739583802783
 20
104.5226264005059
 30
0.000000000000000
 40
2.000000000000000
 41
0.000000000000000
 44
0.6720000028610229
 71
     1
 72
     1
  1
{\H0.93x;{TOCHIGIYA}}
 11
6.123233995736766e-17
 21
1.000000000000000
 31
0.000000000000000
  7
STANDARD
  0
LINE
  5
179
100
AcDbEntity
  8
A1
  6
CONTINUOUS
 62
7
100
AcDbLine
 10
151.8830471563464
 20
114.7183461043931
 30
0.000000000000000
 11
151.8830471563464
 21
114.8246017758953
 31
0.000000000000000
  0
LINE
  5
17A
100
AcDbEntity
  8
A1
  6
CONTINUOUS
 62
7
100
AcDbLine
 10
140.7830471563464
 20
117.7746017758953
 30
0.000000000000000
 11
146.3830471563464
 21
117.7746017758953
 31
0.000000000000000
  0
LINE
  5
17B
100
AcDbEntity
  8
A1
  6
CONTINUOUS
 62
7
100
AcDbLine
 10
150.6830471563463
 20
115.4746017758953
 30
0.000000000000000
 11
152.0830471563463
 21
115.4746017758953
 31
0.000000000000000
  0
LINE
  5
17C
100
AcDbEntity
  8
A1
  6
CONTINUOUS
 62
7
100
AcDbLine
 10
150.6830471563463
 20
114.7183461043931
 30
0.000000000000000
 11
150.6830471563463
 21
115.4746017758953
 31
0.000000000000000
  0
LINE
  5
17D
100
AcDbEntity
  8
A1
  6
CONTINUOUS
 62
7
100
AcDbLine
 10
151.8830471563463
 20
114.8246017758953
 30
0.000000000000000
 11
152.0830471563464
 21
114.9246017758954
 31
0.000000000000000
  0
LINE
  5
17E
100
AcDbEntity
  8
A1
  6
CONTINUOUS
 62
7
100
AcDbLine
 10
152.0830471563464
 20
114.9246017758953
 30
0.000000000000000
 11
152.0830471563464
 21
115.4746017758953
 31
0.000000000000000
  0
LINE
  5
17F
100
AcDbEntity
  8
A1
  6
CONTINUOUS
 62
7
100
AcDbLine
 10
147.5830471563464
 20
114.7183461043931
 30
0.000000000000000
 11
147.5830471563464
 21
116.5746017758954
 31
0.000000000000000
  0
LINE
  5
180
100
AcDbEntity
  8
A1
  6
CONTINUOUS
 62
7
100
AcDbLine
 10
145.4830471563464
 20
114.7183461043931
 30
0.000000000000000
 11
145.4830471563464
 21
114.8746017758953
 31
0.000000000000000
  0
LINE
  5
181
100
AcDbEntity
  8
A1
  6
CONTINUOUS
 62
7
100
AcDbLine
 10
140.9830471563464
 20
114.8746017758953
 30
0.000000000000000
 11
145.4830471563464
 21
114.8746017758953
 31
0.000000000000000
  0
ARC
  5
182
100
AcDbEntity
  8
A1
  6
CONTINUOUS
 62
7
100
AcDbCircle
 10
146.3830471563464
 20
116.5746017758954
 30
0.000000000000000
 40
1.200000000000000
100
AcDbArc
 50
0.000000000000000
 51
90.00000000000000
  0
ARC
  5
183
100
AcDbEntity
  8
A1
  6
CONTINUOUS
 62
7
100
AcDbCircle
 10
140.9830471563464
 20
114.6746017758953
 30
0.000000000000000
 40
0.2000000000000000
100
AcDbArc
 50
90.00000000000000
 51
180.0000000000000
  0
LINE
  5
184
100
AcDbEntity
  8
A1
  6
CONTINUOUS
 62
7
100
AcDbLine
 10
152.5830471563463
 20
107.7746017758159
 30
0.000000000000000
 11
141.9830471563464
 21
107.7746017758159
 31
0.000000000000000
  0
LINE
  5
185
100
AcDbEntity
  8
A1
  6
CONTINUOUS
 62
7
100
AcDbLine
 10
152.7830471563464
 20
114.5746017758158
 30
0.000000000000000
 11
152.7830471563464
 21
107.9746017758158
 31
0.000000000000000
  0
LINE
  5
186
100
AcDbEntity
  8
A1
  6
CONTINUOUS
 62
7
100
AcDbLine
 10
135.2830471563464
 20
112.5115334636062
 30
0.000000000000000
 11
135.2830471563464
 21
110.0376700882356
 31
0.000000000000000
  0
LINE
  5
187
100
AcDbEntity
  8
A1
  6
CONTINUOUS
 62
7
100
AcDbLine
 10
141.7830471563463
 20
113.9746017759164
 30
0.000000000000000
 11
137.6830471563493
 21
113.9746017759209
 31
0.000000000000000
  0
LINE
  5
188
100
AcDbEntity
  8
A1
  6
CONTINUOUS
 62
7
100
AcDbLine
 10
141.7830471563462
 20
108.5746017759163
 30
0.000000000000000
 11
137.6830471563433
 21
108.5746017759209
 31
0.000000000000000
  0
LINE
  5
189
100
AcDbEntity
  8
A1
  6
CONTINUOUS
 62
7
100
AcDbLine
 10
141.7830471563464
 20
114.5746017758158
 30
0.000000000000000
 11
141.7830471563464
 21
107.9746017758159
 31
0.000000000000000
  0
LINE
  5
18A
100
AcDbEntity
  8
A1
  6
CONTINUOUS
 62
7
100
AcDbLine
 10
152.7830471563463
 20
114.5746017758159
 30
0.000000000000000
 11
152.5830471563463
 21
114.7746017758159
 31
0.000000000000000
  0
LINE
  5
18B
100
AcDbEntity
  8
A1
  6
CONTINUOUS
 62
7
100
AcDbLine
 10
152.7830471563463
 20
107.9746017758159
 30
0.000000000000000
 11
152.5830471563463
 21
107.7746017758159
 31
0.000000000000000
  0
LINE
  5
18C
100
AcDbEntity
  8
A1
  6
CONTINUOUS
 62
7
100
AcDbLine
 10
141.9830471563464
 20
107.7746017758159
 30
0.000000000000000
 11
141.7830471563464
 21
107.9746017758159
 31
0.000000000000000
  0
LINE
  5
18D
100
AcDbEntity
  8
A1
  6
CONTINUOUS
 62
7
100
AcDbLine
 10
141.7830471563463
 20
114.5746017758159
 30
0.000000000000000
 11
141.9830471563463
 21
114.7746017758159
 31
0.000000000000000
  0
ARC
  5
18E
100
AcDbEntity
  8
A1
  6
CONTINUOUS
 62
7
100
AcDbCircle
 10
137.6830471563463
 20
111.2746017759209
 30
0.000000000000000
 40
2.700000000000000
100
AcDbArc
 50
207.2660444507325
 51
270.0000000000000
  0
ARC
  5
18F
100
AcDbEntity
  8
A1
  6
CONTINUOUS
 62
7
100
AcDbCircle
 10
137.6830471563463
 20
111.2746017759209
 30
0.000000000000000
 40
2.700000000000000
100
AcDbArc
 50
90.00000000000000
 51
152.7339555492675
  0
LINE
  5
190
100
AcDbEntity
  8
A1
  6
CONTINUOUS
 62
7
100
AcDbLine
 10
151.8830471563464
 20
114.7183461043931
 30
0.000000000000000
 11
145.1830471563463
 21
114.7183461043931
 31
0.000000000000000
  0
LINE
  5
191
100
AcDbEntity
  8
A1
  6
CONTINUOUS
 62
7
100
AcDbLine
 10
152.5830471563463
 20
114.7746017758159
 30
0.000000000000000
 11
151.8830471563464
 21
114.7746017758159
 31
0.000000000000000
  0
LINE
  5
192
100
AcDbEntity
  8
A1
  6
CONTINUOUS
 62
7
100
AcDbLine
 10
145.1830471563463
 20
114.7746017758159
 30
0.000000000000000
 11
141.9830471563464
 21
114.7746017758159
 31
0.000000000000000
  0
LINE
  5
193
100
AcDbEntity
  8
A1
  6
CONTINUOUS
 62
7
100
AcDbLine
 10
141.9830471563464
 20
114.7746017758159
 30
0.000000000000000
 11
141.9830471563464
 21
107.7746017758159
 31
0.000000000000000
  0
LINE
  5
194
100
AcDbEntity
  8
A1
  6
CONTINUOUS
 62
7
100
AcDbLine
 10
152.5830471563463
 20
114.7746017758159
 30
0.000000000000000
 11
152.5830471563463
 21
107.7746017758159
 31
0.000000000000000
  0
LINE
  5
195
100
AcDbEntity
  8
A1
  6
CONTINUOUS
 62
7
100
AcDbLine
 10
151.8830471563464
 20
114.7746017758159
 30
0.000000000000000
 11
151.8830471563464
 21
114.7183461043932
 31
0.000000000000000
  0
LINE
  5
196
100
AcDbEntity
  8
A1
  6
CONTINUOUS
 62
7
100
AcDbLine
 10
145.1830471563463
 20
114.7746017758159
 30
0.000000000000000
 11
145.1830471563463
 21
114.7183461043931
 31
0.000000000000000
  0
LINE
  5
197
100
AcDbEntity
  8
A1
  6
CONTINUOUS
 62
7
100
AcDbLine
 10
138.2830471563464
 20
108.1746017758953
 30
0.000000000000000
 11
138.2830471563464
 21
108.5746017759202
 31
0.000000000000000
  0
LINE
  5
198
100
AcDbEntity
  8
A1
  6
CONTINUOUS
 62
7
100
AcDbLine
 10
138.2830471563464
 20
113.9746017759202
 30
0.000000000000000
 11
138.2830471563464
 21
114.3746017758953
 31
0.000000000000000
  0
LINE
  5
199
100
AcDbEntity
  8
A1
  6
CONTINUOUS
 62
7
100
AcDbLine
 10
140.7830471563464
 20
106.9682553342449
 30
0.000000000000000
 11
140.7830471563464
 21
108.5746017759174
 31
0.000000000000000
  0
LINE
  5
19A
100
AcDbEntity
  8
A1
  6
CONTINUOUS
 62
7
100
AcDbLine
 10
140.7830471563464
 20
113.9746017759174
 30
0.000000000000000
 11
140.7830471563464
 21
114.6746017758953
 31
0.000000000000000
  0
LINE
  5
19B
100
AcDbEntity
  8
A1
  6
CONTINUOUS
 62
7
100
AcDbLine
 10
120.9418686809699
 20
108.0275460709256
 30
0.000000000000000
 11
124.9878198936194
 21
101.7338441845819
 31
0.000000000000000
  0
MTEXT
  5
19C
100
AcDbEntity
  8
A7
  6
CONTINUOUS
 62
3
100
AcDbMText
 10
126.7326864241205
 20
108.0478145213449
 30
0.000000000000000
 40
2.500000000000000
 41
0.000000000000000
 44
0.6743999862670897
 71
     1
 72
     1
  1
{\H0.90x;{225}}
 11
6.123233995736766e-17
 21
1.000000000000000
 31
0.000000000000000
  7
STANDARD
  0
LINE
  5
19D
100
AcDbEntity
  8
A1
  6
CONTINUOUS
 62
7
100
AcDbLine
 10
123.5830471563464
 20
109.2746017758953
 30
0.000000000000000
 11
124.9830471563464
 21
109.2746017758953
 31
0.000000000000000
  0
LINE
  5
19E
100
AcDbEntity
  8
A1
  6
CONTINUOUS
 62
7
100
AcDbLine
 10
121.7830471563464
 20
108.5683036622391
 30
0.000000000000000
 11
125.8289983689959
 21
102.2746017758954
 31
0.000000000000000
  0
LINE
  5
19F
100
AcDbEntity
  8
A1
  6
CONTINUOUS
 62
7
100
AcDbLine
 10
129.7830471563527
 20
105.3746017758963
 30
0.000000000000000
 11
126.2830471563527
 21
105.3746017758895
 31
0.000000000000000
  0
LINE
  5
1A0
100
AcDbEntity
  8
A1
  6
CONTINUOUS
 62
7
100
AcDbLine
 10
126.2830471563526
 20
105.3746017758895
 30
0.000000000000000
 11
126.2830471563299
 21
117.1746017758764
 31
0.000000000000000
  0
LINE
  5
1A1
100
AcDbEntity
  8
A1
  6
CONTINUOUS
 62
7
100
AcDbLine
 10
129.7830471563384
 20
117.1746017758777
 30
0.000000000000000
 11
126.2830471563300
 21
117.1746017758764
 31
0.000000000000000
  0
LINE
  5
1A2
100
AcDbEntity
  8
A1
  6
CONTINUOUS
 62
7
100
AcDbLine
 10
129.7830471563397
 20
118.2746017758869
 30
0.000000000000000
 11
129.7830471563407
 21
117.1746017758777
 31
0.000000000000000
  0
LINE
  5
1A3
100
AcDbEntity
  8
A1
  6
CONTINUOUS
 62
7
100
AcDbLine
 10
129.7830471563398
 20
118.2746017758869
 30
0.000000000000000
 11
132.7830471563414
 21
118.2746017758893
 31
0.000000000000000
  0
LINE
  5
1A4
100
AcDbEntity
  8
A1
  6
CONTINUOUS
 62
7
100
AcDbLine
 10
132.7830471563397
 20
118.2746017758893
 30
0.000000000000000
 11
132.7830471563532
 21
104.2746017758893
 31
0.000000000000000
  0
LINE
  5
1A5
100
AcDbEntity
  8
A1
  6
CONTINUOUS
 62
7
100
AcDbLine
 10
129.7830471563533
 20
104.2746017758869
 30
0.000000000000000
 11
132.7830471563550
 21
104.2746017758893
 31
0.000000000000000
  0
LINE
  5
1A6
100
AcDbEntity
  8
A1
  6
CONTINUOUS
 62
7
100
AcDbLine
 10
129.7830471563522
 20
105.3746017758963
 30
0.000000000000000
 11
129.7830471563532
 21
104.2746017758870
 31
0.000000000000000
  0
LINE
  5
1A7
100
AcDbEntity
  8
A4
  6
CENTER
 62
1
100
AcDbLine
 10
230.7242936231267
 20
181.1948579456825
 30
0.000000000000000
 11
230.7242936231267
 21
211.1948579456827
 31
0.000000000000000
  0
LINE
  5
1A8
100
AcDbEntity
  8
A4
  6
CENTER
 62
1
100
AcDbLine
 10
203.4742936230339
 20
198.2948579457332
 30
0.000000000000000
 11
283.9242936230353
 21
198.2948579457333
 31
0.000000000000000
  0
LINE
  5
1A9
100
AcDbEntity
  8
A4
  6
CENTER
 62
1
100
AcDbLine
 10
234.2242936231949
 20
177.2721995239626
 30
0.000000000000000
 11
234.2242936232189
 21
198.9076842104925
 31
0.000000000000000
  0
LINE
  5
1AA
100
AcDbEntity
  8
A1
  6
CONTINUOUS
 62
7
100
AcDbLine
 10
243.6259728407586
 20
193.2948579457332
 30
0.000000000000000
 11
243.7242936230352
 21
193.2948579457332
 31
0.000000000000000
  0
LINE
  5
1AB
100
AcDbEntity
  8
A1
  6
CONTINUOUS
 62
7
100
AcDbLine
 10
239.7242896232658
 20
193.2948579457332
 30
0.000000000000000
 11
240.3708367646536
 21
193.2948579457332
 31
0.000000000000000
  0
LINE
  5
1AC
100
AcDbEntity
  8
A1
  6
CONTINUOUS
 62
7
100
AcDbLine
 10
241.0224612570605
 20
193.2948579457332
 30
0.000000000000000
 11
242.9755900314812
 21
193.2948579457332
 31
0.000000000000000
  0
CIRCLE
  5
1AD
100
AcDbEntity
  8
A1
  6
CONTINUOUS
 62
7
100
AcDbCircle
 10
230.7242936231267
 20
107.6866679714346
 30
0.000000000000000
 40
1.500000000000000
  0
CIRCLE
  5
1AE
100
AcDbEntity
  8
A1
  6
CONTINUOUS
 62
7
100
AcDbCircle
 10
230.7242936231267
 20
107.6866679714346
 30
0.000000000000000
 40
1.100000000091313
  0
CIRCLE
  5
1AF
100
AcDbEntity
  8
A5
  6
PHANTOM
 62
6
100
AcDbCircle
 10
237.7242936231267
 20
107.6866679714346
 30
0.000000000000000
 40
1.500000000000000
  0
CIRCLE
  5
1B0
100
AcDbEntity
  8
A5
  6
PHANTOM
 62
6
100
AcDbCircle
 10
237.7242936231267
 20
107.6866679714346
 30
0.000000000000000
 40
1.100000000091313
  0
CIRCLE
  5
1B1
100
AcDbEntity
  8
A1
  6
CONTINUOUS
 62
7
100
AcDbCircle
 10
265.7242936231267
 20
114.6866679714345
 30
0.000000000000000
 40
3.250000000000000
  0
LINE
  5
1B2
100
AcDbEntity
  8
A1
  6
CONTINUOUS
 62
7
100
AcDbLine
 10
266.3530786231267
 20
114.0578759714345
 30
0.000000000000000
 11
266.7746176231267
 21
114.2544469714345
 31
0.000000000000000
  0
LINE
  5
1B3
100
AcDbEntity
  8
A1
  6
CONTINUOUS
 62
7
100
AcDbLine
 10
266.7746326231266
 20
114.2544549714345
 30
0.000000000000000
 11
267.4746296231266
 21
114.2666689714345
 31
0.000000000000000
  0
LINE
  5
1B4
100
AcDbEntity
  8
A1
  6
CONTINUOUS
 62
7
100
AcDbLine
 10
266.7746326231270
 20
115.1188799714345
 30
0.000000000000000
 11
267.4746146231271
 21
115.1066659714345
 31
0.000000000000000
  0
LINE
  5
1B5
100
AcDbEntity
  8
A1
  6
CONTINUOUS
 62
7
100
AcDbLine
 10
266.3530786231266
 20
115.3154589714346
 30
0.000000000000000
 11
266.7746326231269
 21
115.1188879714346
 31
0.000000000000000
  0
LINE
  5
1B6
100
AcDbEntity
  8
A1
  6
CONTINUOUS
 62
7
100
AcDbLine
 10
266.1565296231267
 20
115.7369989714345
 30
0.000000000000000
 11
266.1443076231267
 21
116.4369879714346
 31
0.000000000000000
  0
LINE
  5
1B7
100
AcDbEntity
  8
A1
  6
CONTINUOUS
 62
7
100
AcDbLine
 10
266.3530936231267
 20
115.3154589714344
 30
0.000000000000000
 11
266.1565146231267
 21
115.7369989714344
 31
0.000000000000000
  0
LINE
  5
1B8
100
AcDbEntity
  8
A1
  6
CONTINUOUS
 62
7
100
AcDbLine
 10
265.2920736231267
 20
115.7369989714346
 30
0.000000000000000
 11
265.3042956231267
 21
116.4369799714345
 31
0.000000000000000
  0
LINE
  5
1B9
100
AcDbEntity
  8
A1
  6
CONTINUOUS
 62
7
100
AcDbLine
 10
265.0955246231267
 20
115.3154519714345
 30
0.000000000000000
 11
265.2920886231267
 21
115.7369909714346
 31
0.000000000000000
  0
LINE
  5
1BA
100
AcDbEntity
  8
A1
  6
CONTINUOUS
 62
7
100
AcDbLine
 10
264.6739856231267
 20
115.1188959714345
 30
0.000000000000000
 11
263.9739886231267
 21
115.1066729714345
 31
0.000000000000000
  0
LINE
  5
1BB
100
AcDbEntity
  8
A1
  6
CONTINUOUS
 62
7
100
AcDbLine
 10
265.0955096231268
 20
115.3154519714346
 30
0.000000000000000
 11
264.6739706231266
 21
115.1188799714345
 31
0.000000000000000
  0
LINE
  5
1BC
100
AcDbEntity
  8
A1
  6
CONTINUOUS
 62
7
100
AcDbLine
 10
264.6739706231265
 20
114.2544399714346
 30
0.000000000000000
 11
263.9739886231266
 21
114.2666619714346
 31
0.000000000000000
  0
LINE
  5
1BD
100
AcDbEntity
  8
A1
  6
CONTINUOUS
 62
7
100
AcDbLine
 10
265.0955096231269
 20
114.0578759714347
 30
0.000000000000000
 11
264.6739706231268
 21
114.2544399714347
 31
0.000000000000000
  0
LINE
  5
1BE
100
AcDbEntity
  8
A1
  6
CONTINUOUS
 62
7
100
AcDbLine
 10
265.2920886231267
 20
113.6363439714345
 30
0.000000000000000
 11
265.3043106231267
 21
112.9363619714345
 31
0.000000000000000
  0
LINE
  5
1BF
100
AcDbEntity
  8
A1
  6
CONTINUOUS
 62
7
100
AcDbLine
 10
265.0955096231269
 20
114.0578829714346
 30
0.000000000000000
 11
265.2920886231269
 21
113.6363439714346
 31
0.000000000000000
  0
LINE
  5
1C0
100
AcDbEntity
  8
A1
  6
CONTINUOUS
 62
7
100
AcDbLine
 10
266.1565146231268
 20
113.6363439714345
 30
0.000000000000000
 11
266.1442926231268
 21
112.9363549714345
 31
0.000000000000000
  0
LINE
  5
1C1
100
AcDbEntity
  8
A1
  6
CONTINUOUS
 62
7
100
AcDbLine
 10
266.3530936231268
 20
114.0578759714346
 30
0.000000000000000
 11
266.1565146231268
 21
113.6363369714347
 31
0.000000000000000
  0
ARC
  5
1C2
100
AcDbEntity
  8
A1
  6
CONTINUOUS
 62
7
100
AcDbCircle
 10
265.7242936231267
 20
114.6866679714345
 30
0.000000000000000
 40
1.800000000000000
100
AcDbArc
 50
346.5066010000000
 51
373.4933990000001
  0
ARC
  5
1C3
100
AcDbEntity
  8
A1
  6
CONTINUOUS
 62
7
100
AcDbCircle
 10
265.7242936231267
 20
114.6866679714345
 30
0.000000000000000
 40
1.800000000000000
100
AcDbArc
 50
76.50660200000000
 51
103.4933960000000
  0
ARC
  5
1C4
100
AcDbEntity
  8
A1
  6
CONTINUOUS
 62
7
100
AcDbCircle
 10
265.7242936231267
 20
114.6866679714345
 30
0.000000000000000
 40
1.800000000000000
100
AcDbArc
 50
166.5065970000000
 51
193.4933990000000
  0
ARC
  5
1C5
100
AcDbEntity
  8
A1
  6
CONTINUOUS
 62
7
100
AcDbCircle
 10
265.7242936231267
 20
114.6866679714345
 30
0.000000000000000
 40
1.800000000000000
100
AcDbArc
 50
256.5066040000000
 51
283.4933980000000
  0
CIRCLE
  5
1C6
100
AcDbEntity
  8
A1
  6
CONTINUOUS
 62
7
100
AcDbCircle
 10
265.7242936231267
 20
114.6866749714345
 30
0.000000000000000
 40
3.000000000000000
  0
CIRCLE
  5
1C7
100
AcDbEntity
  8
A1
  6
CONTINUOUS
 62
7
100
AcDbCircle
 10
273.7242936231267
 20
100.6866679714345
 30
0.000000000000000
 40
3.250000000000000
  0
LINE
  5
1C8
100
AcDbEntity
  8
A1
  6
CONTINUOUS
 62
7
100
AcDbLine
 10
274.3530786231266
 20
100.0578759714345
 30
0.000000000000000
 11
274.7746176231266
 21
100.2544469714345
 31
0.000000000000000
  0
LINE
  5
1C9
100
AcDbEntity
  8
A1
  6
CONTINUOUS
 62
7
100
AcDbLine
 10
274.7746326231265
 20
100.2544549714345
 30
0.000000000000000
 11
275.4746296231266
 21
100.2666689714345
 31
0.000000000000000
  0
LINE
  5
1CA
100
AcDbEntity
  8
A1
  6
CONTINUOUS
 62
7
100
AcDbLine
 10
274.7746326231270
 20
101.1188799714345
 30
0.000000000000000
 11
275.4746146231271
 21
101.1066659714345
 31
0.000000000000000
  0
LINE
  5
1CB
100
AcDbEntity
  8
A1
  6
CONTINUOUS
 62
7
100
AcDbLine
 10
274.3530786231267
 20
101.3154589714344
 30
0.000000000000000
 11
274.7746326231266
 21
101.1188879714345
 31
0.000000000000000
  0
LINE
  5
1CC
100
AcDbEntity
  8
A1
  6
CONTINUOUS
 62
7
100
AcDbLine
 10
274.1565296231271
 20
101.7369989714346
 30
0.000000000000000
 11
274.1443076231271
 21
102.4369879714346
 31
0.000000000000000
  0
LINE
  5
1CD
100
AcDbEntity
  8
A1
  6
CONTINUOUS
 62
7
100
AcDbLine
 10
274.3530936231267
 20
101.3154589714344
 30
0.000000000000000
 11
274.1565146231266
 21
101.7369989714344
 31
0.000000000000000
  0
LINE
  5
1CE
100
AcDbEntity
  8
A1
  6
CONTINUOUS
 62
7
100
AcDbLine
 10
273.2920736231267
 20
101.7369989714345
 30
0.000000000000000
 11
273.3042956231267
 21
102.4369799714344
 31
0.000000000000000
  0
LINE
  5
1CF
100
AcDbEntity
  8
A1
  6
CONTINUOUS
 62
7
100
AcDbLine
 10
273.0955246231267
 20
101.3154519714344
 30
0.000000000000000
 11
273.2920886231267
 21
101.7369909714345
 31
0.000000000000000
  0
LINE
  5
1D0
100
AcDbEntity
  8
A1
  6
CONTINUOUS
 62
7
100
AcDbLine
 10
272.6739856231267
 20
101.1188959714345
 30
0.000000000000000
 11
271.9739886231268
 21
101.1066729714345
 31
0.000000000000000
  0
LINE
  5
1D1
100
AcDbEntity
  8
A1
  6
CONTINUOUS
 62
7
100
AcDbLine
 10
273.0955096231268
 20
101.3154519714346
 30
0.000000000000000
 11
272.6739706231268
 21
101.1188799714345
 31
0.000000000000000
  0
LINE
  5
1D2
100
AcDbEntity
  8
A1
  6
CONTINUOUS
 62
7
100
AcDbLine
 10
272.6739706231268
 20
100.2544399714345
 30
0.000000000000000
 11
271.9739886231268
 21
100.2666619714345
 31
0.000000000000000
  0
LINE
  5
1D3
100
AcDbEntity
  8
A1
  6
CONTINUOUS
 62
7
100
AcDbLine
 10
273.0955096231268
 20
100.0578759714347
 30
0.000000000000000
 11
272.6739706231268
 21
100.2544399714347
 31
0.000000000000000
  0
LINE
  5
1D4
100
AcDbEntity
  8
A1
  6
CONTINUOUS
 62
7
100
AcDbLine
 10
273.2920886231267
 20
99.63634397143446
 30
0.000000000000000
 11
273.3043106231268
 21
98.93636197143445
 31
0.000000000000000
  0
LINE
  5
1D5
100
AcDbEntity
  8
A1
  6
CONTINUOUS
 62
7
100
AcDbLine
 10
273.0955096231268
 20
100.0578829714346
 30
0.000000000000000
 11
273.2920886231267
 21
99.63634397143453
 31
0.000000000000000
  0
LINE
  5
1D6
100
AcDbEntity
  8
A1
  6
CONTINUOUS
 62
7
100
AcDbLine
 10
274.1565146231270
 20
99.63634397143453
 30
0.000000000000000
 11
274.1442926231269
 21
98.93635497143448
 31
0.000000000000000
  0
LINE
  5
1D7
100
AcDbEntity
  8
A1
  6
CONTINUOUS
 62
7
100
AcDbLine
 10
274.3530936231269
 20
100.0578759714345
 30
0.000000000000000
 11
274.1565146231270
 21
99.63633697143459
 31
0.000000000000000
  0
ARC
  5
1D8
100
AcDbEntity
  8
A1
  6
CONTINUOUS
 62
7
100
AcDbCircle
 10
273.7242936231267
 20
100.6866679714345
 30
0.000000000000000
 40
1.800000000000000
100
AcDbArc
 50
346.5066010000000
 51
373.4933990000001
  0
ARC
  5
1D9
100
AcDbEntity
  8
A1
  6
CONTINUOUS
 62
7
100
AcDbCircle
 10
273.7242936231267
 20
100.6866679714345
 30
0.000000000000000
 40
1.800000000000000
100
AcDbArc
 50
76.50660200000000
 51
103.4933960000000
  0
ARC
  5
1DA
100
AcDbEntity
  8
A1
  6
CONTINUOUS
 62
7
100
AcDbCircle
 10
273.7242936231267
 20
100.6866679714345
 30
0.000000000000000
 40
1.800000000000000
100
AcDbArc
 50
166.5065970000000
 51
193.4933990000000
  0
ARC
  5
1DB
100
AcDbEntity
  8
A1
  6
CONTINUOUS
 62
7
100
AcDbCircle
 10
273.7242936231267
 20
100.6866679714345
 30
0.000000000000000
 40
1.800000000000000
100
AcDbArc
 50
256.5066040000000
 51
283.4933980000000
  0
CIRCLE
  5
1DC
100
AcDbEntity
  8
A1
  6
CONTINUOUS
 62
7
100
AcDbCircle
 10
273.7242936231267
 20
100.6866749714345
 30
0.000000000000000
 40
3.000000000000000
  0
LINE
  5
1DD
100
AcDbEntity
  8
A4
  6
CENTER
 62
1
100
AcDbLine
 10
270.4742936231267
 20
114.6866679714345
 30
0.000000000000000
 11
260.9742936231267
 21
114.6866679714345
 31
0.000000000000000
  0
LINE
  5
1DE
100
AcDbEntity
  8
A4
  6
CENTER
 62
1
100
AcDbLine
 10
265.7242936231267
 20
119.4366679714345
 30
0.000000000000000
 11
265.7242936231267
 21
109.9366679714345
 31
0.000000000000000
  0
LINE
  5
1DF
100
AcDbEntity
  8
A1
  6
CONTINUOUS
 62
7
100
AcDbLine
 10
276.9242936230352
 20
198.2948579457333
 30
0.000000000000000
 11
284.7258450211372
 21
198.2948579457333
 31
0.000000000000000
  0
LINE
  5
1E0
100
AcDbEntity
  8
A1
  6
CONTINUOUS
 62
7
100
AcDbLine
 10
276.9242936230351
 20
196.7948579457333
 30
0.000000000000000
 11
284.1912454053323
 21
196.7948579457333
 31
0.000000000000000
  0
LINE
  5
1E1
100
AcDbEntity
  8
A1
  6
CONTINUOUS
 62
7
100
AcDbLine
 10
279.7242936230355
 20
187.2948579457332
 30
0.000000000000000
 11
279.7242936230355
 21
196.7948579457333
 31
0.000000000000000
  0
LINE
  5
1E2
100
AcDbEntity
  8
A1
  6
CONTINUOUS
 62
7
100
AcDbLine
 10
279.7242936230355
 20
199.7944130279615
 30
0.000000000000000
 11
279.7242936230355
 21
209.2948579457332
 31
0.000000000000000
  0
LINE
  5
1E3
100
AcDbEntity
  8
A1
  6
CONTINUOUS
 62
7
100
AcDbLine
 10
277.7242936230353
 20
187.2948579457332
 30
0.000000000000000
 11
277.7242936230353
 21
196.7948579457333
 31
0.000000000000000
  0
LINE
  5
1E4
100
AcDbEntity
  8
A1
  6
CONTINUOUS
 62
7
100
AcDbLine
 10
277.7242936230353
 20
199.7948579457333
 30
0.000000000000000
 11
277.7242936230353
 21
209.2948579457333
 31
0.000000000000000
  0
ARC
  5
1E5
100
AcDbEntity
  8
A7
  6
CONTINUOUS
 62
3
100
AcDbCircle
 10
246.3910004357066
 20
107.6866679714352
 30
0.000000000000000
 40
1.431765911236078
100
AcDbArc
 50
125.5376777920008
 51
166.5374393917331
  0
ARC
  5
1E6
100
AcDbEntity
  8
A7
  6
CONTINUOUS
 62
3
100
AcDbCircle
 10
249.7242936231270
 20
103.0200575090512
 30
0.000000000000000
 40
7.166580352953972
100
AcDbArc
 50
54.46232220799912
 51
125.5376777920008
  0
ARC
  5
1E7
100
AcDbEntity
  8
A7
  6
CONTINUOUS
 62
3
100
AcDbCircle
 10
253.0575868105475
 20
107.6866679714352
 30
0.000000000000000
 40
1.431765911236079
100
AcDbArc
 50
332.2496545546281
 51
414.4623222079991
  0
ARC
  5
1E8
100
AcDbEntity
  8
A7
  6
CONTINUOUS
 62
3
100
AcDbCircle
 10
246.3910004357066
 20
107.6866679714352
 30
0.000000000000000
 40
1.431765911236078
100
AcDbArc
 50
180.0000000000000
 51
234.4623222080521
  0
ARC
  5
1E9
100
AcDbEntity
  8
A7
  6
CONTINUOUS
 62
3
100
AcDbCircle
 10
249.7242936231270
 20
112.3532784338284
 30
0.000000000000000
 40
7.166580352953972
100
AcDbArc
 50
234.4623222080520
 51
305.5376777919479
  0
ARC
  5
1EA
100
AcDbEntity
  8
A7
  6
CONTINUOUS
 62
3
100
AcDbCircle
 10
253.0575868105475
 20
107.6866679714352
 30
0.000000000000000
 40
1.431765911236079
100
AcDbArc
 50
305.5376777919479
 51
315.6988392796171
  0
LINE
  5
1EB
100
AcDbEntity
  8
A7
  6
CONTINUOUS
 62
3
100
AcDbLine
 10
246.1132260034215
 20
109.2103777431958
 30
0.000000000000000
 11
246.1132260034215
 21
106.8155958872827
 31
0.000000000000000
  0
LINE
  5
1EC
100
AcDbEntity
  8
A7
  6
CONTINUOUS
 62
3
100
AcDbLine
 10
246.6687748679916
 20
106.6616809941374
 30
0.000000000000000
 11
246.6687748679916
 21
108.7116549487422
 31
0.000000000000000
  0
ARC
  5
1ED
100
AcDbEntity
  8
A7
  6
CONTINUOUS
 62
3
100
AcDbCircle
 10
246.9465493002766
 20
108.7116549487422
 30
0.000000000000000
 40
0.2777744322850376
100
AcDbArc
 50
116.0143659996366
 51
180.0000000000000
  0
ARC
  5
1EE
100
AcDbEntity
  8
A7
  6
CONTINUOUS
 62
3
100
AcDbCircle
 10
249.7242936231270
 20
103.0200575090512
 30
0.000000000000000
 40
6.611031488383896
100
AcDbArc
 50
112.9439535565378
 51
116.0143659996366
  0
ARC
  5
1EF
100
AcDbEntity
  8
A7
  6
CONTINUOUS
 62
3
100
AcDbCircle
 10
247.1687688461047
 20
109.0569082271356
 30
0.000000000000000
 40
0.05555488645700751
100
AcDbArc
 50
0.000000000000000
 51
112.9439535565375
  0
LINE
  5
1F0
100
AcDbEntity
  8
A7
  6
CONTINUOUS
 62
3
100
AcDbLine
 10
247.2243237325616
 20
109.0569082271356
 30
0.000000000000000
 11
247.2243237325616
 21
106.3164277157439
 31
0.000000000000000
  0
ARC
  5
1F1
100
AcDbEntity
  8
A7
  6
CONTINUOUS
 62
3
100
AcDbCircle
 10
247.1687688461047
 20
106.3164277157439
 30
0.000000000000000
 40
0.05555488645700751
100
AcDbArc
 50
247.0560464434623
 51
360.0000000000000
  0
ARC
  5
1F2
100
AcDbEntity
  8
A7
  6
CONTINUOUS
 62
3
100
AcDbCircle
 10
249.7242936231270
 20
112.3532784338284
 30
0.000000000000000
 40
6.611031488383896
100
AcDbArc
 50
243.9856340003634
 51
247.0560464434622
  0
ARC
  5
1F3
100
AcDbEntity
  8
A7
  6
CONTINUOUS
 62
3
100
AcDbCircle
 10
246.9465493002766
 20
106.6616809941374
 30
0.000000000000000
 40
0.2777744322850376
100
AcDbArc
 50
180.0000000000000
 51
243.9856340003634
  0
LINE
  5
1F4
100
AcDbEntity
  8
A7
  6
CONTINUOUS
 62
3
100
AcDbLine
 10
248.3354214617018
 20
108.3533266089192
 30
0.000000000000000
 11
248.3354214617018
 21
109.4144225269210
 31
0.000000000000000
  0
ARC
  5
1F5
100
AcDbEntity
  8
A7
  6
CONTINUOUS
 62
3
100
AcDbCircle
 10
248.2798665752449
 20
109.4144225269210
 30
0.000000000000000
 40
0.05555488645700751
100
AcDbArc
 50
0.000000000000000
 51
102.7289438731227
  0
ARC
  5
1F6
100
AcDbEntity
  8
A7
  6
CONTINUOUS
 62
3
100
AcDbCircle
 10
249.7242936231270
 20
103.0200575090512
 30
0.000000000000000
 40
6.611031488383896
100
AcDbArc
 50
102.7289438731226
 51
103.2681189705562
  0
ARC
  5
1F7
100
AcDbEntity
  8
A7
  6
CONTINUOUS
 62
3
100
AcDbCircle
 10
249.7242936231270
 20
103.0200575090512
 30
0.000000000000000
 40
6.611031488383896
100
AcDbArc
 50
103.2681189705562
 51
105.2575232904564
  0
ARC
  5
1F8
100
AcDbEntity
  8
A7
  6
CONTINUOUS
 62
3
100
AcDbCircle
 10
248.0576470294168
 20
109.1300848469851
 30
0.000000000000000
 40
0.2777744322850376
100
AcDbArc
 50
105.2575232904564
 51
180.0000000000000
  0
LINE
  5
1F9
100
AcDbEntity
  8
A7
  6
CONTINUOUS
 62
3
100
AcDbLine
 10
247.7798725971317
 20
109.1300848469851
 30
0.000000000000000
 11
247.7798725971317
 21
106.2432510958945
 31
0.000000000000000
  0
ARC
  5
1FA
100
AcDbEntity
  8
A7
  6
CONTINUOUS
 62
3
100
AcDbCircle
 10
248.0576470294168
 20
106.2432510958945
 30
0.000000000000000
 40
0.2777744322850376
100
AcDbArc
 50
180.0000000000000
 51
254.7424767095436
  0
ARC
  5
1FB
100
AcDbEntity
  8
A7
  6
CONTINUOUS
 62
3
100
AcDbCircle
 10
249.7242936231270
 20
112.3532784338284
 30
0.000000000000000
 40
6.611031488383896
100
AcDbArc
 50
254.7424767095436
 51
254.7937121239420
  0
ARC
  5
1FC
100
AcDbEntity
  8
A7
  6
CONTINUOUS
 62
3
100
AcDbCircle
 10
249.7242936231270
 20
112.3532784338284
 30
0.000000000000000
 40
6.611031488383896
100
AcDbArc
 50
254.7937121239420
 51
257.2710561268773
  0
ARC
  5
1FD
100
AcDbEntity
  8
A7
  6
CONTINUOUS
 62
3
100
AcDbCircle
 10
248.2798665752449
 20
105.9589134159586
 30
0.000000000000000
 40
0.05555488645700751
100
AcDbArc
 50
257.2710561268775
 51
360.0000000000000
  0
LINE
  5
1FE
100
AcDbEntity
  8
A7
  6
CONTINUOUS
 62
3
100
AcDbLine
 10
248.3354214617018
 20
105.9589134159586
 30
0.000000000000000
 11
248.3354214617018
 21
107.0200093339512
 31
0.000000000000000
  0
LINE
  5
1FF
100
AcDbEntity
  8
A7
  6
CONTINUOUS
 62
3
100
AcDbLine
 10
248.8909703262719
 20
109.5783583273517
 30
0.000000000000000
 11
248.8909703262719
 21
105.7949776155279
 31
0.000000000000000
  0
LINE
  5
200
100
AcDbEntity
  8
A7
  6
CONTINUOUS
 62
3
100
AcDbLine
 10
249.4465191908420
 20
109.6252508222837
 30
0.000000000000000
 11
249.4465191908420
 21
105.7480851205959
 31
0.000000000000000
  0
LINE
  5
201
100
AcDbEntity
  8
A7
  6
CONTINUOUS
 62
3
100
AcDbLine
 10
249.4465191908420
 20
107.6866679714352
 30
0.000000000000000
 11
248.8909703262719
 21
107.6866679714352
 31
0.000000000000000
  0
LINE
  5
202
100
AcDbEntity
  8
A7
  6
CONTINUOUS
 62
3
100
AcDbLine
 10
250.0020680554121
 20
109.6252508222837
 30
0.000000000000000
 11
250.0020680554121
 21
105.7480851205959
 31
0.000000000000000
  0
LINE
  5
203
100
AcDbEntity
  8
A7
  6
CONTINUOUS
 62
3
100
AcDbLine
 10
251.1131657845522
 20
108.3533266089192
 30
0.000000000000000
 11
251.1131657845522
 21
109.2550881244472
 31
0.000000000000000
  0
ARC
  5
204
100
AcDbEntity
  8
A7
  6
CONTINUOUS
 62
3
100
AcDbCircle
 10
250.8353913522672
 20
109.2550881244472
 30
0.000000000000000
 40
0.2777744322850376
100
AcDbArc
 50
0.000000000000000
 51
79.89581728387491
  0
ARC
  5
205
100
AcDbEntity
  8
A7
  6
CONTINUOUS
 62
3
100
AcDbCircle
 10
249.7242936231270
 20
103.0200575090512
 30
0.000000000000000
 40
6.611031488383896
100
AcDbArc
 50
79.89581728387498
 51
82.20707566457760
  0
ARC
  5
206
100
AcDbEntity
  8
A7
  6
CONTINUOUS
 62
3
100
AcDbCircle
 10
250.6131718064391
 20
109.5149916160027
 30
0.000000000000000
 40
0.05555488645700751
100
AcDbArc
 50
82.20707566457730
 51
180.0000000000000
  0
LINE
  5
207
100
AcDbEntity
  8
A7
  6
CONTINUOUS
 62
3
100
AcDbLine
 10
250.5576169199821
 20
109.5149916160027
 30
0.000000000000000
 11
250.5576169199821
 21
105.8583443268769
 31
0.000000000000000
  0
ARC
  5
208
100
AcDbEntity
  8
A7
  6
CONTINUOUS
 62
3
100
AcDbCircle
 10
250.6131718064391
 20
105.8583443268769
 30
0.000000000000000
 40
0.05555488645700751
100
AcDbArc
 50
180.0000000000000
 51
277.7929243354228
  0
ARC
  5
209
100
AcDbEntity
  8
A7
  6
CONTINUOUS
 62
3
100
AcDbCircle
 10
249.7242936231270
 20
112.3532784338284
 30
0.000000000000000
 40
6.611031488383896
100
AcDbArc
 50
277.7929243354224
 51
280.1041827161250
  0
ARC
  5
20A
100
AcDbEntity
  8
A7
  6
CONTINUOUS
 62
3
100
AcDbCircle
 10
250.8353913522672
 20
106.1182478184324
 30
0.000000000000000
 40
0.2777744322850376
100
AcDbArc
 50
280.1041827161250
 51
360.0000000000000
  0
LINE
  5
20B
100
AcDbEntity
  8
A7
  6
CONTINUOUS
 62
3
100
AcDbLine
 10
251.1131657845522
 20
106.1182478184324
 30
0.000000000000000
 11
251.1131657845522
 21
107.6866679714352
 31
0.000000000000000
  0
LINE
  5
20C
100
AcDbEntity
  8
A7
  6
CONTINUOUS
 62
3
100
AcDbLine
 10
251.1131657845522
 20
107.6866679714352
 30
0.000000000000000
 11
250.8353913522672
 21
107.6866679714352
 31
0.000000000000000
  0
LINE
  5
20D
100
AcDbEntity
  8
A7
  6
CONTINUOUS
 62
3
100
AcDbLine
 10
251.6687146491224
 20
109.5128528966296
 30
0.000000000000000
 11
251.6687146491224
 21
106.0346579978415
 31
0.000000000000000
  0
LINE
  5
20E
100
AcDbEntity
  8
A7
  6
CONTINUOUS
 62
3
100
AcDbLine
 10
252.2242635136924
 20
109.2511268593616
 30
0.000000000000000
 11
252.2242635136924
 21
107.9644424037203
 31
0.000000000000000
  0
ARC
  5
20F
100
AcDbEntity
  8
A7
  6
CONTINUOUS
 62
3
100
AcDbCircle
 10
252.5020379459774
 20
107.9644424037203
 30
0.000000000000000
 40
0.2777744322850389
100
AcDbArc
 50
180.0000000000000
 51
360.0000000000000
  0
LINE
  5
210
100
AcDbEntity
  8
A7
  6
CONTINUOUS
 62
3
100
AcDbLine
 10
252.7798123782625
 20
107.9644424037203
 30
0.000000000000000
 11
252.7798123782625
 21
109.1512635147793
 31
0.000000000000000
  0
LINE
  5
211
100
AcDbEntity
  8
A7
  6
CONTINUOUS
 62
3
100
AcDbLine
 10
252.5020379459774
 20
107.6866679714352
 30
0.000000000000000
 11
252.5020379459774
 21
106.3541223417372
 31
0.000000000000000
  0
LINE
  5
212
100
AcDbEntity
  8
A7
  6
CONTINUOUS
 62
3
100
AcDbLine
 10
253.0626785448729
 20
106.6470604696545
 30
0.000000000000000
 11
253.6902601533355
 21
108.9892269183252
 31
0.000000000000000
  0
LINE
  5
213
100
AcDbEntity
  8
A7
  6
CONTINUOUS
 62
3
100
AcDbLine
 10
254.4893527217836
 20
107.6866679714352
 30
0.000000000000000
 11
253.3412405354215
 21
107.6866679714352
 31
0.000000000000000
  0
MTEXT
  5
214
100
AcDbEntity
  8
A7
  6
CONTINUOUS
 62
3
100
AcDbMText
 10
255.7393527217836
 20
108.9366679714352
 30
0.000000000000000
 40
2.500000000000000
 41
0.000000000000000
 44
0.6743999862670897
 71
     1
 72
     1
  1
{\H0.93x;{TOCHIGIYA}}
 11
1.000000000000000
 21
0.000000000000000
 31
0.000000000000000
  7
STANDARD
  0
MTEXT
  5
215
100
AcDbEntity
  8
A7
  6
CONTINUOUS
 62
3
100
AcDbMText
 10
249.7242936231270
 20
103.4366679714352
 30
0.000000000000000
 40
2.500000000000000
 41
0.000000000000000
 44
0.6743999862670897
 71
     1
 72
     1
  1
{\H0.92x;{TL-442}}
 11
1.000000000000000
 21
0.000000000000000
 31
0.000000000000000
  7
STANDARD
  0
LINE
  5
216
100
AcDbEntity
  8
A4
  6
CENTER
 62
1
100
AcDbLine
 10
278.4742936231267
 20
100.6866679714345
 30
0.000000000000000
 11
268.9742936231267
 21
100.6866679714345
 31
0.000000000000000
  0
LINE
  5
217
100
AcDbEntity
  8
A4
  6
CENTER
 62
1
100
AcDbLine
 10
273.7242936231267
 20
105.4366679714345
 30
0.000000000000000
 11
273.7242936231267
 21
95.93666797143450
 31
0.000000000000000
  0
LINE
  5
218
100
AcDbEntity
  8
A1
  6
CONTINUOUS
 62
7
100
AcDbLine
 10
290.3148414346823
 20
191.7948579457333
 30
0.000000000000000
 11
301.7559984109193
 21
191.7948579457333
 31
0.000000000000000
  0
LINE
  5
219
100
AcDbEntity
  8
A1
  6
CONTINUOUS
 62
7
100
AcDbLine
 10
284.1912454053324
 20
196.7948579457335
 30
0.000000000000000
 11
290.3148414346825
 21
191.7948579457335
 31
0.000000000000000
  0
LINE
  5
21A
100
AcDbEntity
  8
A1
  6
CONTINUOUS
 62
7
100
AcDbLine
 10
284.7258450211373
 20
198.2948579457334
 30
0.000000000000000
 11
290.8494410504875
 21
193.2948579457334
 31
0.000000000000000
  0
LINE
  5
21B
100
AcDbEntity
  8
A1
  6
CONTINUOUS
 62
7
100
AcDbLine
 10
290.8494410504875
 20
193.2948579457333
 30
0.000000000000000
 11
302.2875184904428
 21
193.2948579457333
 31
0.000000000000000
  0
SPLINE
  5
21C
100
AcDbEntity
  8
A2
  6
CONTINUOUS
 62
4
100
AcDbSpline
210
0.000000000000000
220
0.000000000000000
230
1.000000000000000
 70
     8
 71
     3
 72
    10
 73
     6
 74
     0
 42
1.000000000000000e-07
 43
1.000000000000000e-07
 12
0.04567258938192253
 22
-0.09883556175202557
 32
0.000000000000000
 13
0.2286268031962209
 23
-0.9083461471182090
 33
0.000000000000000
 40
0.000000000000000
 40
0.000000000000000
 40
0.000000000000000
 40
0.000000000000000
 40
2.517863650086778
 40
3.681322772795285
 40
3.960908851592166
 40
3.960908851592166
 40
3.960908851592166
 40
3.960908851592166
 10
302.2873876652923
 20
193.2951412076123
 30
0.000000000000000
 10
302.3257201161623
 20
193.2121897181885
 30
0.000000000000000
 10
302.4336674753558
 20
192.7909423624279
 30
0.000000000000000
 10
301.7122044602971
 20
192.3119530312396
 30
0.000000000000000
 10
301.7346914537814
 20
191.8795115915543
 30
0.000000000000000
 10
301.7559984109193
 20
191.7948579457333
 30
0.000000000000000
  0
SPLINE
  5
21D
100
AcDbEntity
  8
A2
  6
CONTINUOUS
 62
4
100
AcDbSpline
210
0.000000000000000
220
0.000000000000000
230
1.000000000000000
 70
     8
 71
     3
 72
    10
 73
     6
 74
     0
 42
1.000000000000000e-07
 43
1.000000000000000e-07
 12
0.04567258938192253
 22
-0.09883556175202557
 32
0.000000000000000
 13
0.2286268031980399
 23
-0.9083461471182090
 33
0.000000000000000
 40
0.000000000000000
 40
0.000000000000000
 40
0.000000000000000
 40
0.000000000000000
 40
2.517863650086778
 40
3.681322772795285
 40
3.960908851592166
 40
3.960908851592166
 40
3.960908851592166
 40
3.960908851592166
 10
303.6902602578947
 20
193.2951412076123
 30
0.000000000000000
 10
303.7285927087647
 20
193.2121897181885
 30
0.000000000000000
 10
303.8365400679582
 20
192.7909423624279
 30
0.000000000000000
 10
303.1150770528995
 20
192.3119530312396
 30
0.000000000000000
 10
303.1375640463838
 20
191.8795115915543
 30
0.000000000000000
 10
303.1588710035218
 20
191.7948579457333
 30
0.000000000000000
  0
LINE
  5
21E
100
AcDbEntity
  8
A1
  6
CONTINUOUS
 62
7
100
AcDbLine
 10
303.1588710035218
 20
191.7948579457333
 30
0.000000000000000
 11
309.7242936230354
 21
191.7948579457333
 31
0.000000000000000
  0
LINE
  5
21F
100
AcDbEntity
  8
A1
  6
CONTINUOUS
 62
7
100
AcDbLine
 10
303.6903275961641
 20
193.2948579457333
 30
0.000000000000000
 11
309.7242936230354
 21
193.2948579457333
 31
0.000000000000000
  0
LINE
  5
220
100
AcDbEntity
  8
A1
  6
CONTINUOUS
 62
7
100
AcDbLine
 10
309.7242936230354
 20
192.8448579457333
 30
0.000000000000000
 11
314.7242936230354
 21
192.8448579457333
 31
0.000000000000000
  0
LINE
  5
221
100
AcDbEntity
  8
A1
  6
CONTINUOUS
 62
7
100
AcDbLine
 10
309.7242936230354
 20
193.2948579457333
 30
0.000000000000000
 11
309.7242936230354
 21
191.7948579457333
 31
0.000000000000000
  0
LINE
  5
222
100
AcDbEntity
  8
A1
  6
CONTINUOUS
 62
7
100
AcDbLine
 10
309.7242936230354
 20
192.2448579457333
 30
0.000000000000000
 11
314.7242936230354
 21
192.2448579457333
 31
0.000000000000000
  0
LINE
  5
223
100
AcDbEntity
  8
A1
  6
CONTINUOUS
 62
7
100
AcDbLine
 10
284.1912454053324
 20
199.7948579457342
 30
0.000000000000000
 11
290.3148414346825
 21
204.7948579457343
 31
0.000000000000000
  0
LINE
  5
224
100
AcDbEntity
  8
A1
  6
CONTINUOUS
 62
7
100
AcDbLine
 10
276.9242936230351
 20
199.7948579457343
 30
0.000000000000000
 11
284.1912454053323
 21
199.7948579457343
 31
0.000000000000000
  0
LINE
  5
225
100
AcDbEntity
  8
A1
  6
CONTINUOUS
 62
7
100
AcDbLine
 10
284.7258450211372
 20
198.2948579457343
 30
0.000000000000000
 11
290.8494410504875
 21
203.2948579457343
 31
0.000000000000000
  0
LINE
  5
226
100
AcDbEntity
  8
A1
  6
CONTINUOUS
 62
7
100
AcDbLine
 10
290.8494410504875
 20
203.2948579457343
 30
0.000000000000000
 11
302.2875184904428
 21
203.2948579457343
 31
0.000000000000000
  0
LINE
  5
227
100
AcDbEntity
  8
A1
  6
CONTINUOUS
 62
7
100
AcDbLine
 10
290.3148414346823
 20
204.7948579457343
 30
0.000000000000000
 11
301.7559984109193
 21
204.7948579457343
 31
0.000000000000000
  0
SPLINE
  5
228
100
AcDbEntity
  8
A2
  6
CONTINUOUS
 62
4
100
AcDbSpline
210
0.000000000000000
220
0.000000000000000
230
1.000000000000000
 70
     8
 71
     3
 72
    10
 73
     6
 74
     0
 42
1.000000000000000e-07
 43
1.000000000000000e-07
 12
0.04567258938192253
 22
0.09883556175208241
 32
0.000000000000000
 13
0.2286268031962209
 23
0.9083461471182090
 33
0.000000000000000
 40
0.000000000000000
 40
0.000000000000000
 40
0.000000000000000
 40
0.000000000000000
 40
2.517863650086778
 40
3.681322772795285
 40
3.960908851592166
 40
3.960908851592166
 40
3.960908851592166
 40
3.960908851592166
 10
302.2873876652923
 20
203.2945746838553
 30
0.000000000000000
 10
302.3257201161623
 20
203.3775261732791
 30
0.000000000000000
 10
302.4336674753558
 20
203.7987735290397
 30
0.000000000000000
 10
301.7122044602971
 20
204.2777628602280
 30
0.000000000000000
 10
301.7346914537814
 20
204.7102042999133
 30
0.000000000000000
 10
301.7559984109193
 20
204.7948579457343
 30
0.000000000000000
  0
LINE
  5
229
100
AcDbEntity
  8
A1
  6
CONTINUOUS
 62
7
100
AcDbLine
 10
303.6903275961641
 20
203.2948579457343
 30
0.000000000000000
 11
309.7242936230354
 21
203.2948579457343
 31
0.000000000000000
  0
SPLINE
  5
22A
100
AcDbEntity
  8
A2
  6
CONTINUOUS
 62
4
100
AcDbSpline
210
0.000000000000000
220
0.000000000000000
230
1.000000000000000
 70
     8
 71
     3
 72
    10
 73
     6
 74
     0
 42
1.000000000000000e-07
 43
1.000000000000000e-07
 12
0.04567258938192253
 22
0.09883556175208241
 32
0.000000000000000
 13
0.2286268031980399
 23
0.9083461471182090
 33
0.000000000000000
 40
0.000000000000000
 40
0.000000000000000
 40
0.000000000000000
 40
0.000000000000000
 40
2.517863650086778
 40
3.681322772795285
 40
3.960908851592166
 40
3.960908851592166
 40
3.960908851592166
 40
3.960908851592166
 10
303.6902602578947
 20
203.2945746838553
 30
0.000000000000000
 10
303.7285927087647
 20
203.3775261732791
 30
0.000000000000000
 10
303.8365400679582
 20
203.7987735290397
 30
0.000000000000000
 10
303.1150770528995
 20
204.2777628602280
 30
0.000000000000000
 10
303.1375640463838
 20
204.7102042999133
 30
0.000000000000000
 10
303.1588710035218
 20
204.7948579457343
 30
0.000000000000000
  0
LINE
  5
22B
100
AcDbEntity
  8
A1
  6
CONTINUOUS
 62
7
100
AcDbLine
 10
303.1588710035218
 20
204.7948579457343
 30
0.000000000000000
 11
309.7242936230354
 21
204.7948579457343
 31
0.000000000000000
  0
LINE
  5
22C
100
AcDbEntity
  8
A1
  6
CONTINUOUS
 62
7
100
AcDbLine
 10
309.7242936230354
 20
203.7448579457343
 30
0.000000000000000
 11
314.7242936230354
 21
203.7448579457343
 31
0.000000000000000
  0
LINE
  5
22D
100
AcDbEntity
  8
A1
  6
CONTINUOUS
 62
7
100
AcDbLine
 10
309.7242936230354
 20
204.3448579457343
 30
0.000000000000000
 11
314.7242936230354
 21
204.3448579457343
 31
0.000000000000000
  0
LINE
  5
22E
100
AcDbEntity
  8
A1
  6
CONTINUOUS
 62
7
100
AcDbLine
 10
309.7242936230354
 20
203.2948579457343
 30
0.000000000000000
 11
309.7242936230354
 21
204.7948579457343
 31
0.000000000000000
  0
LINE
  5
22F
100
AcDbEntity
  8
A4
  6
CENTER
 62
1
100
AcDbLine
 10
276.4882998653383
 20
107.6866679714346
 30
0.000000000000000
 11
281.2242936231276
 21
107.6866679714346
 31
0.000000000000000
  0
LINE
  5
230
100
AcDbEntity
  8
A4
  6
CENTER
 62
1
100
AcDbLine
 10
202.7242936231256
 20
107.6866679714346
 30
0.000000000000000
 11
243.4592345244706
 21
107.6866679714346
 31
0.000000000000000
  0
LINE
  5
231
100
AcDbEntity
  8
A1
  6
CONTINUOUS
 62
7
100
AcDbLine
 10
314.7242936230354
 20
192.8448579457333
 30
0.000000000000000
 11
314.7242936230354
 21
192.2448579457333
 31
0.000000000000000
  0
LINE
  5
232
100
AcDbEntity
  8
A1
  6
CONTINUOUS
 62
7
100
AcDbLine
 10
314.7242936230354
 20
204.3448579457343
 30
0.000000000000000
 11
314.7242936230354
 21
203.7448579457343
 31
0.000000000000000
  0
LINE
  5
233
100
AcDbEntity
  8
A1
  6
CONTINUOUS
 62
7
100
AcDbLine
 10
279.7242936231272
 20
117.9366679714349
 30
0.000000000000000
 11
301.7559984109193
 21
117.9366679714349
 31
0.000000000000000
  0
LINE
  5
234
100
AcDbEntity
  8
A1
  6
CONTINUOUS
 62
7
100
AcDbLine
 10
278.7086071064252
 20
119.4366679714349
 30
0.000000000000000
 11
302.2875184904428
 21
119.4366679714349
 31
0.000000000000000
  0
SPLINE
  5
235
100
AcDbEntity
  8
A2
  6
CONTINUOUS
 62
4
100
AcDbSpline
210
0.000000000000000
220
0.000000000000000
230
1.000000000000000
 70
     8
 71
     3
 72
    10
 73
     6
 74
     0
 42
1.000000000000000e-07
 43
1.000000000000000e-07
 12
0.04567258938192253
 22
-0.09883556175194030
 32
0.000000000000000
 13
0.2286268031962209
 23
-0.9083461471177543
 33
0.000000000000000
 40
0.000000000000000
 40
0.000000000000000
 40
0.000000000000000
 40
0.000000000000000
 40
2.517863650086778
 40
3.681322772795285
 40
3.960908851592166
 40
3.960908851592166
 40
3.960908851592166
 40
3.960908851592166
 10
302.2873876652923
 20
119.4369512333139
 30
0.000000000000000
 10
302.3257201161623
 20
119.3539997438902
 30
0.000000000000000
 10
302.4336674753558
 20
118.9327523881296
 30
0.000000000000000
 10
301.7122044602971
 20
118.4537630569413
 30
0.000000000000000
 10
301.7346914537814
 20
118.0213216172559
 30
0.000000000000000
 10
301.7559984109193
 20
117.9366679714349
 30
0.000000000000000
  0
SPLINE
  5
236
100
AcDbEntity
  8
A2
  6
CONTINUOUS
 62
4
100
AcDbSpline
210
0.000000000000000
220
0.000000000000000
230
1.000000000000000
 70
     8
 71
     3
 72
    10
 73
     6
 74
     0
 42
1.000000000000000e-07
 43
1.000000000000000e-07
 12
0.04567258938192253
 22
-0.09883556175194030
 32
0.000000000000000
 13
0.2286268031980399
 23
-0.9083461471177543
 33
0.000000000000000
 40
0.000000000000000
 40
0.000000000000000
 40
0.000000000000000
 40
0.000000000000000
 40
2.517863650086778
 40
3.681322772795285
 40
3.960908851592166
 40
3.960908851592166
 40
3.960908851592166
 40
3.960908851592166
 10
303.6902602578947
 20
119.4369512333139
 30
0.000000000000000
 10
303.7285927087647
 20
119.3539997438902
 30
0.000000000000000
 10
303.8365400679582
 20
118.9327523881296
 30
0.000000000000000
 10
303.1150770528995
 20
118.4537630569413
 30
0.000000000000000
 10
303.1375640463838
 20
118.0213216172559
 30
0.000000000000000
 10
303.1588710035218
 20
117.9366679714349
 30
0.000000000000000
  0
LINE
  5
237
100
AcDbEntity
  8
A1
  6
CONTINUOUS
 62
7
100
AcDbLine
 10
303.1588710035218
 20
117.9366679714349
 30
0.000000000000000
 11
309.7242936230354
 21
117.9366679714349
 31
0.000000000000000
  0
LINE
  5
238
100
AcDbEntity
  8
A1
  6
CONTINUOUS
 62
7
100
AcDbLine
 10
303.6903275961641
 20
119.4366679714349
 30
0.000000000000000
 11
309.7242936230354
 21
119.4366679714349
 31
0.000000000000000
  0
LINE
  5
239
100
AcDbEntity
  8
A1
  6
CONTINUOUS
 62
7
100
AcDbLine
 10
309.7242936230354
 20
118.9866679714349
 30
0.000000000000000
 11
314.7242936230354
 21
118.9866679714349
 31
0.000000000000000
  0
LINE
  5
23A
100
AcDbEntity
  8
A1
  6
CONTINUOUS
 62
7
100
AcDbLine
 10
309.7242936230354
 20
119.4366679714349
 30
0.000000000000000
 11
309.7242936230354
 21
117.9366679714349
 31
0.000000000000000
  0
LINE
  5
23B
100
AcDbEntity
  8
A1
  6
CONTINUOUS
 62
7
100
AcDbLine
 10
309.7242936230354
 20
118.3866679714349
 30
0.000000000000000
 11
314.7242936230354
 21
118.3866679714349
 31
0.000000000000000
  0
LINE
  5
23C
100
AcDbEntity
  8
A1
  6
CONTINUOUS
 62
7
100
AcDbLine
 10
314.7242936230354
 20
118.9866679714349
 30
0.000000000000000
 11
314.7242936230354
 21
118.3866679714349
 31
0.000000000000000
  0
LINE
  5
23D
100
AcDbEntity
  8
A4
  6
CENTER
 62
1
100
AcDbLine
 10
220.7242936231738
 20
120.1866679714344
 30
0.000000000000000
 11
243.7242936231738
 21
120.1866679714344
 31
0.000000000000000
  0
LINE
  5
23E
100
AcDbEntity
  8
A4
  6
CENTER
 62
1
100
AcDbLine
 10
214.7242936230353
 20
189.3948579456578
 30
0.000000000000000
 11
220.3242936230352
 21
189.3948579456578
 31
0.000000000000000
  0
LINE
  5
23F
100
AcDbEntity
  8
A4
  6
CENTER
 62
1
100
AcDbLine
 10
214.7242936230353
 20
209.3948579456578
 30
0.000000000000000
 11
220.3242936230352
 21
209.3948579456578
 31
0.000000000000000
  0
LINE
  5
240
100
AcDbEntity
  8
A4
  6
CENTER
 62
1
100
AcDbLine
 10
214.7242936230353
 20
100.1866679714346
 30
0.000000000000000
 11
220.3242936230352
 21
100.1866679714346
 31
0.000000000000000
  0
LINE
  5
241
100
AcDbEntity
  8
A4
  6
CENTER
 62
1
100
AcDbLine
 10
214.7242936230353
 20
115.1866679714346
 30
0.000000000000000
 11
220.3242936230352
 21
115.1866679714346
 31
0.000000000000000
  0
LINE
  5
242
100
AcDbEntity
  8
A1
  6
CONTINUOUS
 62
7
100
AcDbLine
 10
229.2242936231266
 20
209.2948579456826
 30
0.000000000000000
 11
232.2242936231268
 21
209.2948579456826
 31
0.000000000000000
  0
LINE
  5
243
100
AcDbEntity
  8
A1
  6
CONTINUOUS
 62
7
100
AcDbLine
 10
229.6242936231267
 20
209.6948579456826
 30
0.000000000000000
 11
231.8242936231267
 21
209.6948579456826
 31
0.000000000000000
  0
LINE
  5
244
100
AcDbEntity
  8
A1
  6
CONTINUOUS
 62
7
100
AcDbLine
 10
229.6242936231268
 20
209.6948579456827
 30
0.000000000000000
 11
229.2242936231268
 21
209.2948579456827
 31
0.000000000000000
  0
LINE
  5
245
100
AcDbEntity
  8
A1
  6
CONTINUOUS
 62
7
100
AcDbLine
 10
232.2242936231268
 20
209.2948579456827
 30
0.000000000000000
 11
231.8242936231266
 21
209.6948579456827
 31
0.000000000000000
  0
LINE
  5
246
100
AcDbEntity
  8
A1
  6
CONTINUOUS
 62
7
100
AcDbLine
 10
121.7830471563464
 20
108.5683036622390
 30
0.000000000000000
 11
121.7830471563464
 21
113.9808998895516
 31
0.000000000000000
  0
LINE
  5
247
100
AcDbEntity
  8
A1
  6
CONTINUOUS
 62
7
100
AcDbLine
 10
120.7830471563464
 20
108.5683036622390
 30
0.000000000000000
 11
120.7830471563464
 21
113.9808998895516
 31
0.000000000000000
  0
ENDSEC
  0
SECTION
  2
OBJECTS
  0
DICTIONARY
  5
27C
100
AcDbDictionary
  3
ACAD_GROUP
350
27D
  3
ACAD_LAYOUT
350
27E
  3
ACAD_MLINESTYLE
350
27F
  0
DICTIONARY
  5
27D
102
{ACAD_REACTORS
330
27C
102
}
330
27C
100
AcDbDictionary
  0
DICTIONARY
  5
27E
102
{ACAD_REACTORS
330
27C
102
}
330
27C
100
AcDbDictionary
  3
Model
350
280
  3
ﾚｲｱｳﾄ1
350
281
  3
ﾚｲｱｳﾄ2
350
282
  0
DICTIONARY
  5
27F
102
{ACAD_REACTORS
330
27C
102
}
330
27C
100
AcDbDictionary
  3
STANDARD
350
283
  0
LAYOUT
  5
280
102
{ACAD_REACTORS
330
27E
102
}
330
27E
100
AcDbPlotSettings
 70
11952
  4
A3
 44
297.000000
 45
420.000000
 73
  1
 72
  1
100
AcDbLayout
  1
Model
 71
0
330
273
  0
LAYOUT
  5
281
102
{ACAD_REACTORS
330
27E
102
}
330
27E
100
AcDbPlotSettings
100
AcDbLayout
  1
ﾚｲｱｳﾄ1
 71
1
330
274
  0
LAYOUT
  5
282
102
{ACAD_REACTORS
330
27E
102
}
330
27E
100
AcDbPlotSettings
100
AcDbLayout
  1
ﾚｲｱｳﾄ2
 71
2
330
275
  0
MLINESTYLE
  5
283
102
{ACAD_REACTORS
330
27F
102
}
330
27F
100
AcDbMlineStyle
  2
STANDARD
 70
     0
  3

 62
   256
 51
90.00
 52
90.00
 71
     2
 49
0.50
 62
   256
  6
BYLAYER
 49
-0.50
 62
   256
  6
BYLAYER
  0
ENDSEC
  0
EOF
