  0
SECTION
  2
HEADER
  9
$ACADVER
  1
AC1027
  9
$DWGCODEPAGE
  3
ANSI_932
  9
$LTSCALE
 40
20.0
  9
$FILLMODE
 70
     1
  9
$CLAYER
  8
0
  9
$PDMODE
 70
     0
  9
$SPLFRAME
 70
     0
  9
$SPLINETYPE
 70
     6
  9
$SPLINESEGS
 70
     8
  9
$DIMASZ
 40
2.000000
  9
$DIMEXE
 40
1.500000
  9
$DIMEXO
 40
0.800000
  9
$DIMTAD
 70
     1
  9
$DIMTIH
 70
     0
  9
$DIMTOH
 70
     0
  9
$DIMTVP
 40
0.500000
  9
$DIMTXT
 40
3.100000
  9
$EXTMIN
 10
0.000000
 20
0.000000
 30
0.000000
  9
$EXTMAX
 10
420.000000
 20
594.000000
 30
0.000000
  9
$MEASUREMENT
 70
  1
  9
$LIMMIN
 10
0.000000
 20
0.000000
  9
$LIMMAX
 10
420.000000
 20
594.000000
  9
$HANDSEED
  5
2A8
  9
$LWDISPLAY
290
     0
  9
$DIMBLK
  1
_OPEN
  9
$DIMDEC
 70
     2
  9
$DIMADEC
 70
     2
  9
$DIMAUNIT
 70
     0
  9
$DIMZIN
 70
     8
  9
$DIMAZIN
 70
     2
  9
$DIMTOFL
 70
     1
  0
ENDSEC
  0
SECTION
  2
CLASSES
  0
ENDSEC
  0
SECTION
  2
TABLES
  0
TABLE
  2
VPORT
  5
26D
100
AcDbSymbolTable
 70
     1
  0
VPORT
  5
26E
100
AcDbSymbolTableRecord
100
AcDbViewportTableRecord
  2
*ACTIVE
 70
     0
 12
272.980754
 22
169.722360
 40
303.444719
 41
1.733303
  0
ENDTAB
  0
TABLE
  2
LTYPE
  5
26F
100
AcDbSymbolTable
 70
     3
  0
LTYPE
  5
270
100
AcDbSymbolTableRecord
100
AcDbLinetypeTableRecord
  2
BYBLOCK
 70
     0
  3

 72
    65
 73
     0
 40
0.0
  0
LTYPE
  5
271
100
AcDbSymbolTableRecord
100
AcDbLinetypeTableRecord
  2
BYLAYER
 70
     0
  3

 72
    65
 73
     0
 40
0.0
  0
LTYPE
  5
272
100
AcDbSymbolTableRecord
100
AcDbLinetypeTableRecord
  2
CONTINUOUS
 70
     0
  3
Solid line (NEC CAE2D for Win R18.0 : 2024.01.23)
 72
    65
 73
     0
 40
0.0
  0
LTYPE
  5
273
100
AcDbSymbolTableRecord
100
AcDbLinetypeTableRecord
  2
CENTER
 70
     0
  3
____ _ ____ _ ____ _ ____ _ ____ _ ____
 72
    65
 73
     4
 40
2.0
 49
1.25
 74
     0
 49
-0.25
 74
     0
 49
0.25
 74
     0
 49
-0.25
 74
     0
  0
LTYPE
  5
274
100
AcDbSymbolTableRecord
100
AcDbLinetypeTableRecord
  2
PHANTOM
 70
     0
  3
______  __  __  ______  __  __  ______ 
 72
    65
 73
     6
 40
2.5
 49
1.25
 74
     0
 49
-0.25
 74
     0
 49
0.25
 74
     0
 49
-0.25
 74
     0
 49
0.25
 74
     0
 49
-0.25
 74
     0
  0
ENDTAB
  0
TABLE
  2
LAYER
  5
275
100
AcDbSymbolTable
 70
    20
  0
LAYER
  5
276
100
AcDbSymbolTableRecord
100
AcDbLayerTableRecord
  2
0
 70
     0
 62
     7
  6
CONTINUOUS
370
    -3
390

  0
LAYER
  5
277
100
AcDbSymbolTableRecord
100
AcDbLayerTableRecord
  2
A0
 70
     0
 62
     9
  6
CONTINUOUS
370
    -3
390

  0
LAYER
  5
278
100
AcDbSymbolTableRecord
100
AcDbLayerTableRecord
  2
A1
 70
     0
 62
    12
  6
CONTINUOUS
370
    -3
390

  0
LAYER
  5
279
100
AcDbSymbolTableRecord
100
AcDbLayerTableRecord
  2
A2
 70
     0
 62
     9
  6
CONTINUOUS
370
    -3
390

  0
LAYER
  5
27A
100
AcDbSymbolTableRecord
100
AcDbLayerTableRecord
  2
A4
 70
     0
 62
     9
  6
CONTINUOUS
370
    -3
390

  0
LAYER
  5
27B
100
AcDbSymbolTableRecord
100
AcDbLayerTableRecord
  2
A5
 70
     0
 62
     8
  6
CONTINUOUS
370
    -3
390

  0
LAYER
  5
27C
100
AcDbSymbolTableRecord
100
AcDbLayerTableRecord
  2
A6
 70
     0
 62
    12
  6
CONTINUOUS
370
    -3
390

  0
LAYER
  5
27D
100
AcDbSymbolTableRecord
100
AcDbLayerTableRecord
  2
A7
 70
     0
 62
    12
  6
CONTINUOUS
370
    -3
390

  0
LAYER
  5
27E
100
AcDbSymbolTableRecord
100
AcDbLayerTableRecord
  2
A8
 70
     0
 62
    10
  6
CONTINUOUS
370
    -3
390

  0
LAYER
  5
27F
100
AcDbSymbolTableRecord
100
AcDbLayerTableRecord
  2
A9
 70
     0
 62
     9
  6
CONTINUOUS
370
    -3
390

  0
LAYER
  5
280
100
AcDbSymbolTableRecord
100
AcDbLayerTableRecord
  2
A10
 70
     0
 62
     6
  6
CONTINUOUS
370
    -3
390

  0
LAYER
  5
281
100
AcDbSymbolTableRecord
100
AcDbLayerTableRecord
  2
A11
 70
     0
 62
    10
  6
CONTINUOUS
370
    -3
390

  0
LAYER
  5
282
100
AcDbSymbolTableRecord
100
AcDbLayerTableRecord
  2
A19
 70
     0
 62
     5
  6
CONTINUOUS
370
    -3
390

  0
LAYER
  5
283
100
AcDbSymbolTableRecord
100
AcDbLayerTableRecord
  2
A20
 70
     0
 62
     1
  6
CONTINUOUS
370
    -3
390

  0
LAYER
  5
284
100
AcDbSymbolTableRecord
100
AcDbLayerTableRecord
  2
A22
 70
     0
 62
    81
  6
CONTINUOUS
370
    -3
390

  0
LAYER
  5
285
100
AcDbSymbolTableRecord
100
AcDbLayerTableRecord
  2
A23
 70
     0
 62
   121
  6
CONTINUOUS
370
    -3
390

  0
LAYER
  5
286
100
AcDbSymbolTableRecord
100
AcDbLayerTableRecord
  2
A30
 70
     0
 62
     1
  6
CONTINUOUS
370
    -3
390

  0
LAYER
  5
287
100
AcDbSymbolTableRecord
100
AcDbLayerTableRecord
  2
A40
 70
     0
 62
     9
  6
CONTINUOUS
370
    -3
390

  0
LAYER
  5
288
100
AcDbSymbolTableRecord
100
AcDbLayerTableRecord
  2
A50
 70
     0
 62
    12
  6
CONTINUOUS
370
    -3
390

  0
LAYER
  5
289
100
AcDbSymbolTableRecord
100
AcDbLayerTableRecord
  2
A1023
 70
     0
 62
    16
  6
CONTINUOUS
370
    -3
390

  0
ENDTAB
  0
TABLE
  2
STYLE
  5
28A
100
AcDbSymbolTable
 70
     4
  0
STYLE
  5
28B
100
AcDbSymbolTableRecord
100
AcDbTextStyleTableRecord
  2
STANDARD
 70
    64
 40
0.0
 41
1.0
 50
0.0
 71
     0
 42
3.000000000000000
  3
TXT
  4

  0
STYLE
  5
28C
100
AcDbSymbolTableRecord
100
AcDbTextStyleTableRecord
  2
ANKTATE
 70
    68
 40
0.0
 41
1.0
 50
0.0
 71
     0
 42
3.000000000000000
  3
TXT
  4

  0
STYLE
  5
28D
100
AcDbSymbolTableRecord
100
AcDbTextStyleTableRecord
  2
KNJYOKO
 70
    64
 40
0.0
 41
1.0
 50
0.0
 71
     0
 42
3.000000000000000
  3
TXT
  4
BIGFONT
  0
STYLE
  5
28E
100
AcDbSymbolTableRecord
100
AcDbTextStyleTableRecord
  2
KNJTATE
 70
    68
 40
0.0
 41
1.0
 50
0.0
 71
     0
 42
3.000000000000000
  3
TXT
  4
BIGFONT
  0
ENDTAB
  0
TABLE
  2
VIEW
  5
28F
100
AcDbSymbolTable
 70
     0
  0
ENDTAB
  0
TABLE
  2
UCS
  5
290
100
AcDbSymbolTable
 70
     0
  0
ENDTAB
  0
TABLE
  2
APPID
  5
291
100
AcDbSymbolTable
 70
     1
  0
APPID
  5
292
100
AcDbSymbolTableRecord
100
AcDbRegAppTableRecord
  2
ACAD
 70
     0
  0
ENDTAB
  0
TABLE
  2
DIMSTYLE
  5
293
100
AcDbSymbolTable
 70
     2
100
AcDbDimStyleTable
  0
DIMSTYLE
105
294
100
AcDbSymbolTableRecord
100
AcDbDimStyleTableRecord
  2
STANDARD
 70
     0
 41
2.000000
 44
1.500000
 42
0.800000
145
0.661290
140
3.100000
144
1.000000
146
0.645161
340
28B
  0
DIMSTYLE
105
295
100
AcDbSymbolTableRecord
100
AcDbDimStyleTableRecord
  2
A001
 70
     0
 41
2.000000
 44
1.500000
 42
0.800000
145
0.661290
140
3.100000
144
1.000000
146
0.645161
 77
     1
 73
     0
 74
     0
271
     2
179
     2
275
     0
 78
     8
 79
     2
172
     1
340
28B
  0
ENDTAB
  0
TABLE
  2
BLOCK_RECORD
  5
296
100
AcDbSymbolTable
 70
    12
  0
BLOCK_RECORD
  5
297
100
AcDbSymbolTableRecord
100
AcDbBlockTableRecord
  2
*MODEL_SPACE
  0
BLOCK_RECORD
  5
298
100
AcDbSymbolTableRecord
100
AcDbBlockTableRecord
  2
*PAPER_SPACE
  0
BLOCK_RECORD
  5
299
100
AcDbSymbolTableRecord
100
AcDbBlockTableRecord
  2
*PAPER_SPACE0
  0
BLOCK_RECORD
  5
1
100
AcDbSymbolTableRecord
100
AcDbBlockTableRecord
  2
_NONE
  0
BLOCK_RECORD
  5
4
100
AcDbSymbolTableRecord
100
AcDbBlockTableRecord
  2
_CLOSED
  0
BLOCK_RECORD
  5
B
100
AcDbSymbolTableRecord
100
AcDbBlockTableRecord
  2
_DOT
  0
BLOCK_RECORD
  5
13
100
AcDbSymbolTableRecord
100
AcDbBlockTableRecord
  2
_OPEN
  0
BLOCK_RECORD
  5
19
100
AcDbSymbolTableRecord
100
AcDbBlockTableRecord
  2
_ORIGIN
  0
BLOCK_RECORD
  5
1E
100
AcDbSymbolTableRecord
100
AcDbBlockTableRecord
  2
_OPEN30
  0
BLOCK_RECORD
  5
24
100
AcDbSymbolTableRecord
100
AcDbBlockTableRecord
  2
_BOXFILLED
  0
BLOCK_RECORD
  5
29
100
AcDbSymbolTableRecord
100
AcDbBlockTableRecord
  2
_BOXBLANK
  0
BLOCK_RECORD
  5
31
100
AcDbSymbolTableRecord
100
AcDbBlockTableRecord
  2
_OBLIQUE
  0
BLOCK_RECORD
  5
35
100
AcDbSymbolTableRecord
100
AcDbBlockTableRecord
  2
_OPEN90
  0
BLOCK_RECORD
  5
3B
100
AcDbSymbolTableRecord
100
AcDbBlockTableRecord
  2
_CLOSEDBLANK
  0
BLOCK_RECORD
  5
41
100
AcDbSymbolTableRecord
100
AcDbBlockTableRecord
  2
_DOTBLANK
  0
ENDTAB
  0
ENDSEC
  0
SECTION
  2
BLOCKS
  0
BLOCK
  5
29A
100
AcDbEntity
  8
0
100
AcDbBlockBegin
  2
*MODEL_SPACE
 70
     0
 10
0.0
 20
0.0
 30
0.0
  3
*MODEL_SPACE
  1

  0
ENDBLK
  5
29B
100
AcDbEntity
  8
0
100
AcDbBlockEnd
  0
BLOCK
  5
29C
100
AcDbEntity
  8
0
100
AcDbBlockBegin
  2
*PAPER_SPACE
 70
     0
 10
0.0
 20
0.0
 30
0.0
  3
*PAPER_SPACE
  1

  0
ENDBLK
  5
29D
100
AcDbEntity
  8
0
100
AcDbBlockEnd
  0
BLOCK
  5
29E
100
AcDbEntity
  8
0
100
AcDbBlockBegin
  2
*PAPER_SPACE0
 70
     0
 10
0.0
 20
0.0
 30
0.0
  3
*PAPER_SPACE0
  1

  0
ENDBLK
  5
29F
100
AcDbEntity
  8
0
100
AcDbBlockEnd
  0
BLOCK
  5
2
330
1
100
AcDbEntity
  8
0
100
AcDbBlockBegin
  2
_NONE
 70
     0
 10
0.0
 20
0.0
 30
0.0
  3
_NONE
  1

  0
ENDBLK
  5
3
330
1
100
AcDbEntity
  8
0
100
AcDbBlockEnd
  0
BLOCK
  5
5
330
4
100
AcDbEntity
  8
0
100
AcDbBlockBegin
  2
_CLOSED
 70
     0
 10
0.0
 20
0.0
 30
0.0
  3
_CLOSED
  1

  0
LINE
  5
6
330
4
100
AcDbEntity
  8
0
  6
BYBLOCK
 62
     0
370
    -2
100
AcDbLine
 10
-1.0
 20
0.166667
 30
0.0
 11
0.0
 21
0.0
 31
0.0
  0
LINE
  5
7
330
4
100
AcDbEntity
  8
0
  6
BYBLOCK
 62
     0
370
    -2
100
AcDbLine
 10
0.0
 20
0.0
 30
0.0
 11
-1.0
 21
-0.166667
 31
0.0
  0
LINE
  5
8
330
4
100
AcDbEntity
  8
0
  6
BYBLOCK
 62
     0
370
    -2
100
AcDbLine
 10
-1.0
 20
0.166667
 30
0.0
 11
-1.0
 21
-0.166667
 31
0.0
  0
LINE
  5
9
330
4
100
AcDbEntity
  8
0
  6
BYBLOCK
 62
     0
370
    -2
100
AcDbLine
 10
0.0
 20
0.0
 30
0.0
 11
-1.0
 21
0.0
 31
0.0
  0
ENDBLK
  5
A
330
4
100
AcDbEntity
  8
0
100
AcDbBlockEnd
  0
BLOCK
  5
C
330
B
100
AcDbEntity
  8
0
100
AcDbBlockBegin
  2
_DOT
 70
     0
 10
0.0
 20
0.0
 30
0.0
  3
_DOT
  1

  0
POLYLINE
  5
D
330
B
100
AcDbEntity
  8
0
  6
BYBLOCK
 62
     0
370
    -2
100
AcDb2dPolyline
 66
     1
 10
0.0
 20
0.0
 30
0.0
 70
     1
 40
0.5
 41
0.5
  0
VERTEX
  5
E
330
B
100
AcDbEntity
  8
0
  6
BYBLOCK
 62
     0
370
    -2
100
AcDbVertex
100
AcDb2dVertex
 10
-0.25
 20
0.0
 30
0.0
 42
1.0
  0
VERTEX
  5
F
330
B
100
AcDbEntity
  8
0
  6
BYBLOCK
 62
     0
370
    -2
100
AcDbVertex
100
AcDb2dVertex
 10
0.25
 20
0.0
 30
0.0
 42
1.0
  0
SEQEND
  5
10
330
B
100
AcDbEntity
  8
0
  6
BYBLOCK
 62
     0
370
    -2
  0
LINE
  5
11
330
B
100
AcDbEntity
  8
0
  6
BYBLOCK
 62
     0
370
    -2
100
AcDbLine
 10
-0.5
 20
0.0
 30
0.0
 11
-1.0
 21
0.0
 31
0.0
  0
ENDBLK
  5
12
330
B
100
AcDbEntity
  8
0
100
AcDbBlockEnd
  0
BLOCK
  5
14
330
13
100
AcDbEntity
  8
0
100
AcDbBlockBegin
  2
_OPEN
 70
     0
 10
0.0
 20
0.0
 30
0.0
  3
_OPEN
  1

  0
LINE
  5
15
330
13
100
AcDbEntity
  8
0
  6
BYBLOCK
 62
     0
370
    -2
100
AcDbLine
 10
-1.0
 20
0.166667
 30
0.0
 11
0.0
 21
0.0
 31
0.0
  0
LINE
  5
16
330
13
100
AcDbEntity
  8
0
  6
BYBLOCK
 62
     0
370
    -2
100
AcDbLine
 10
0.0
 20
0.0
 30
0.0
 11
-1.0
 21
-0.166667
 31
0.0
  0
LINE
  5
17
330
13
100
AcDbEntity
  8
0
  6
BYBLOCK
 62
     0
370
    -2
100
AcDbLine
 10
0.0
 20
0.0
 30
0.0
 11
-1.0
 21
0.0
 31
0.0
  0
ENDBLK
  5
18
330
13
100
AcDbEntity
  8
0
100
AcDbBlockEnd
  0
BLOCK
  5
1A
330
19
100
AcDbEntity
  8
0
100
AcDbBlockBegin
  2
_ORIGIN
 70
     0
 10
0.0
 20
0.0
 30
0.0
  3
_ORIGIN
  1

  0
CIRCLE
  5
1B
330
19
100
AcDbEntity
  8
0
  6
BYBLOCK
 62
     0
370
    -2
100
AcDbCircle
 10
0.0
 20
0.0
 30
0.0
 40
0.5
  0
LINE
  5
1C
330
19
100
AcDbEntity
  8
0
  6
BYBLOCK
 62
     0
370
    -2
100
AcDbLine
 10
0.0
 20
0.0
 30
0.0
 11
-1.0
 21
0.0
 31
0.0
  0
ENDBLK
  5
1D
330
19
100
AcDbEntity
  8
0
100
AcDbBlockEnd
  0
BLOCK
  5
1F
330
1E
100
AcDbEntity
  8
0
100
AcDbBlockBegin
  2
_OPEN30
 70
     0
 10
0.0
 20
0.0
 30
0.0
  3
_OPEN30
  1

  0
LINE
  5
20
330
1E
100
AcDbEntity
  8
0
  6
BYBLOCK
 62
     0
370
    -2
100
AcDbLine
 10
-1.0
 20
0.267949
 30
0.0
 11
0.0
 21
0.0
 31
0.0
  0
LINE
  5
21
330
1E
100
AcDbEntity
  8
0
  6
BYBLOCK
 62
     0
370
    -2
100
AcDbLine
 10
0.0
 20
0.0
 30
0.0
 11
-1.0
 21
-0.267949
 31
0.0
  0
LINE
  5
22
330
1E
100
AcDbEntity
  8
0
  6
BYBLOCK
 62
     0
370
    -2
100
AcDbLine
 10
0.0
 20
0.0
 30
0.0
 11
-1.0
 21
0.0
 31
0.0
  0
ENDBLK
  5
23
330
1E
100
AcDbEntity
  8
0
100
AcDbBlockEnd
  0
BLOCK
  5
25
330
24
100
AcDbEntity
  8
0
100
AcDbBlockBegin
  2
_BOXFILLED
 70
     0
 10
0.0
 20
0.0
 30
0.0
  3
_BOXFILLED
  1

  0
SOLID
  5
26
330
24
100
AcDbEntity
  8
0
  6
BYBLOCK
 62
     0
370
    -2
100
AcDbTrace
 10
-0.5
 20
0.5
 30
0.0
 11
0.5
 21
0.5
 31
0.0
 12
-0.5
 22
-0.5
 32
0.0
 13
0.5
 23
-0.5
 33
0.0
  0
LINE
  5
27
330
24
100
AcDbEntity
  8
0
  6
BYBLOCK
 62
     0
370
    -2
100
AcDbLine
 10
-0.5
 20
0.0
 30
0.0
 11
-1.0
 21
0.0
 31
0.0
  0
ENDBLK
  5
28
330
24
100
AcDbEntity
  8
0
100
AcDbBlockEnd
  0
BLOCK
  5
2A
330
29
100
AcDbEntity
  8
0
100
AcDbBlockBegin
  2
_BOXBLANK
 70
     0
 10
0.0
 20
0.0
 30
0.0
  3
_BOXBLANK
  1

  0
LINE
  5
2B
330
29
100
AcDbEntity
  8
0
  6
BYBLOCK
 62
     0
370
    -2
100
AcDbLine
 10
-0.5
 20
-0.5
 30
0.0
 11
0.5
 21
-0.5
 31
0.0
  0
LINE
  5
2C
330
29
100
AcDbEntity
  8
0
  6
BYBLOCK
 62
     0
370
    -2
100
AcDbLine
 10
0.5
 20
-0.5
 30
0.0
 11
0.5
 21
0.5
 31
0.0
  0
LINE
  5
2D
330
29
100
AcDbEntity
  8
0
  6
BYBLOCK
 62
     0
370
    -2
100
AcDbLine
 10
0.5
 20
0.5
 30
0.0
 11
-0.5
 21
0.5
 31
0.0
  0
LINE
  5
2E
330
29
100
AcDbEntity
  8
0
  6
BYBLOCK
 62
     0
370
    -2
100
AcDbLine
 10
-0.5
 20
0.5
 30
0.0
 11
-0.5
 21
-0.5
 31
0.0
  0
LINE
  5
2F
330
29
100
AcDbEntity
  8
0
  6
BYBLOCK
 62
     0
370
    -2
100
AcDbLine
 10
-0.5
 20
0.0
 30
0.0
 11
-1.0
 21
0.0
 31
0.0
  0
ENDBLK
  5
30
330
29
100
AcDbEntity
  8
0
100
AcDbBlockEnd
  0
BLOCK
  5
32
330
31
100
AcDbEntity
  8
0
100
AcDbBlockBegin
  2
_OBLIQUE
 70
     0
 10
0.0
 20
0.0
 30
0.0
  3
_OBLIQUE
  1

  0
LINE
  5
33
330
31
100
AcDbEntity
  8
0
  6
BYBLOCK
 62
     0
370
    -2
100
AcDbLine
 10
-0.5
 20
-0.5
 30
0.0
 11
0.5
 21
0.5
 31
0.0
  0
ENDBLK
  5
34
330
31
100
AcDbEntity
  8
0
100
AcDbBlockEnd
  0
BLOCK
  5
36
330
35
100
AcDbEntity
  8
0
100
AcDbBlockBegin
  2
_OPEN90
 70
     0
 10
0.0
 20
0.0
 30
0.0
  3
_OPEN90
  1

  0
LINE
  5
37
330
35
100
AcDbEntity
  8
0
  6
BYBLOCK
 62
     0
370
    -2
100
AcDbLine
 10
-0.5
 20
0.5
 30
0.0
 11
0.0
 21
0.0
 31
0.0
  0
LINE
  5
38
330
35
100
AcDbEntity
  8
0
  6
BYBLOCK
 62
     0
370
    -2
100
AcDbLine
 10
0.0
 20
0.0
 30
0.0
 11
-0.5
 21
-0.5
 31
0.0
  0
LINE
  5
39
330
35
100
AcDbEntity
  8
0
  6
BYBLOCK
 62
     0
370
    -2
100
AcDbLine
 10
0.0
 20
0.0
 30
0.0
 11
-1.0
 21
0.0
 31
0.0
  0
ENDBLK
  5
3A
330
35
100
AcDbEntity
  8
0
100
AcDbBlockEnd
  0
BLOCK
  5
3C
330
3B
100
AcDbEntity
  8
0
100
AcDbBlockBegin
  2
_CLOSEDBLANK
 70
     0
 10
0.0
 20
0.0
 30
0.0
  3
_CLOSEDBLANK
  1

  0
LINE
  5
3D
330
3B
100
AcDbEntity
  8
0
  6
BYBLOCK
 62
     0
370
    -2
100
AcDbLine
 10
-1.0
 20
0.1666666666666666
 30
0.0
 11
0.0
 21
0.0
 31
0.0
  0
LINE
  5
3E
330
3B
100
AcDbEntity
  8
0
  6
BYBLOCK
 62
     0
370
    -2
100
AcDbLine
 10
0.0
 20
0.0
 30
0.0
 11
-1.0
 21
-0.1666666666666666
 31
0.0
  0
LINE
  5
3F
330
3B
100
AcDbEntity
  8
0
  6
BYBLOCK
 62
     0
370
    -2
100
AcDbLine
 10
-1.0
 20
0.1666666666666666
 30
0.0
 11
-1.0
 21
-0.1666666666666666
 31
0.0
  0
ENDBLK
  5
40
330
3B
100
AcDbEntity
  8
0
100
AcDbBlockEnd
  0
BLOCK
  5
42
330
41
100
AcDbEntity
  8
0
100
AcDbBlockBegin
  2
_DOTBLANK
 70
     0
 10
0.0
 20
0.0
 30
0.0
  3
_DOTBLANK
  1

  0
CIRCLE
  5
43
330
41
100
AcDbEntity
  8
0
  6
BYBLOCK
 62
     0
370
    -2
100
AcDbCircle
 10
0.0
 20
0.0
 30
0.0
 40
0.5
  0
LINE
  5
44
330
41
100
AcDbEntity
  8
0
  6
BYBLOCK
 62
     0
370
    -2
100
AcDbLine
 10
-0.5
 20
0.0
 30
0.0
 11
-1.0
 21
0.0
 31
0.0
  0
ENDBLK
  5
45
330
41
100
AcDbEntity
  8
0
100
AcDbBlockEnd
  0
ENDSEC
  0
SECTION
  2
ENTITIES
  0
MTEXT
  5
46
100
AcDbEntity
  8
A8
  6
CONTINUOUS
 62
3
100
AcDbMText
 10
9.999997526638502
 20
18.00000076076889
 30
0.000000000000000
 40
3.000000000000000
 41
0.000000000000000
 44
0.6739999771118164
 71
     7
 72
     1
  1
{\H0.94x;{TYPE No.TL-443-L-003}}
 11
1.000000000000000
 21
0.000000000000000
 31
0.000000000000000
  7
STANDARD
  0
POINT
  5
47
100
AcDbEntity
  8
A0
  6
CONTINUOUS
 62
3
100
AcDbPoint
 10
9.999997526638502
 20
18.00000076076889
 30
0.000000000000000
  0
POINT
  5
48
100
AcDbEntity
  8
A10
  6
CONTINUOUS
 62
3
100
AcDbPoint
 10
50.00000000000000
 20
50.00000000000000
 30
0.000000000000000
  0
ARC
  5
49
100
AcDbEntity
  8
A1
  6
CONTINUOUS
 62
7
100
AcDbCircle
 10
270.2935566611282
 20
246.7683523553746
 30
0.000000000000000
 40
6.800000000000000
100
AcDbArc
 50
0.000000000000000
 51
241.6823788829921
  0
LINE
  5
4A
100
AcDbEntity
  8
A1
  6
CONTINUOUS
 62
7
100
AcDbLine
 10
268.7907124289728
 20
240.0135992016119
 30
0.000000000000000
 11
269.3110669480254
 21
229.7902844555291
 31
0.000000000000000
  0
ARC
  5
4B
100
AcDbEntity
  8
A1
  6
CONTINUOUS
 62
7
100
AcDbCircle
 10
270.2935566611282
 20
246.7683523553746
 30
0.000000000000000
 40
5.600000000000000
100
AcDbArc
 50
0.000000000000000
 51
241.6823788829924
  0
ARC
  5
4C
100
AcDbEntity
  8
A1
  6
CONTINUOUS
 62
7
100
AcDbCircle
 10
266.5935566611282
 20
239.9017665953335
 30
0.000000000000000
 40
1.000000000000000
100
AcDbArc
 50
2.913772305230073
 51
61.68237888299493
  0
ARC
  5
4D
100
AcDbEntity
  8
A1
  6
CONTINUOUS
 62
7
100
AcDbCircle
 10
266.5935566611282
 20
239.9017665953335
 30
0.000000000000000
 40
2.200000000000000
100
AcDbArc
 50
2.913772305230277
 51
61.68237888299274
  0
LINE
  5
4E
100
AcDbEntity
  8
A1
  6
CONTINUOUS
 62
7
100
AcDbLine
 10
269.4565394080897
 20
211.8496111839772
 30
0.000000000000000
 11
263.4935566611250
 21
200.1900109843019
 31
0.000000000000000
  0
LINE
  5
4F
100
AcDbEntity
  8
A1
  6
CONTINUOUS
 62
7
100
AcDbLine
 10
270.5249261430881
 20
211.3032140898422
 30
0.000000000000000
 11
264.5619433961234
 21
199.6436138901668
 31
0.000000000000000
  0
LINE
  5
50
100
AcDbEntity
  8
A1
  6
CONTINUOUS
 62
7
100
AcDbLine
 10
263.4935566611249
 20
200.1900109843019
 30
0.000000000000000
 11
264.5619433961234
 21
199.6436138901667
 31
0.000000000000000
  0
SPLINE
  5
51
100
AcDbEntity
  8
A1
  6
CONTINUOUS
 62
7
100
AcDbSpline
210
0.000000000000000
220
0.000000000000000
230
1.000000000000000
 70
     8
 71
     3
 72
    21
 73
    17
 74
     0
 42
1.000000000000000e-07
 43
1.000000000000000e-07
 12
0.09858054263622762
 22
0.9951290753524518
 32
0.000000000000000
 13
-0.9790205427516412
 23
-0.2037615686808749
 33
0.000000000000000
 40
0.000000000000000
 40
0.000000000000000
 40
0.000000000000000
 40
0.000000000000000
 40
0.08134187504662750
 40
0.1731059712403568
 40
0.2890240849853128
 40
0.4372001395532708
 40
0.6198757394012260
 40
0.8359188269757094
 40
1.077519865985217
 40
1.348582275348747
 40
1.644401870518067
 40
1.955550037612963
 40
2.285343618023557
 40
2.628102654282066
 40
2.930167214960705
 40
3.237512163279434
 40
3.237512163279434
 40
3.237512163279434
 40
3.237512163279434
 10
144.4652076123536
 20
243.2026345473268
 30
0.000000000000000
 10
144.4678805210806
 20
243.2296164356277
 30
0.000000000000000
 10
144.4633742422762
 20
243.2897911656831
 30
0.000000000000000
 10
144.4045433904325
 20
243.3704403325929
 30
0.000000000000000
 10
144.3081378488637
 20
243.4408341855551
 30
0.000000000000000
 10
144.1720289714127
 20
243.5031560518804
 30
0.000000000000000
 10
143.9976297613073
 20
243.5572016283140
 30
0.000000000000000
 10
143.7883788695796
 20
243.6006890422387
 30
0.000000000000000
 10
143.5473196139681
 20
243.6319237934525
 30
0.000000000000000
 10
143.2783169557607
 20
243.6503844889595
 30
0.000000000000000
 10
142.9855450287425
 20
243.6548970796525
 30
0.000000000000000
 10
142.6733612910269
 20
243.6442533814116
 30
0.000000000000000
 10
142.3463490349517
 20
243.6188972069832
 30
0.000000000000000
 10
142.0236601437582
 20
243.5804835401943
 30
0.000000000000000
 10
141.7100809656284
 20
243.5311007512863
 30
0.000000000000000
 10
141.5104968767945
 20
243.4930470363083
 30
0.000000000000000
 10
141.4101978707562
 20
243.4721720067098
 30
0.000000000000000
  0
SPLINE
  5
52
100
AcDbEntity
  8
A1
  6
CONTINUOUS
 62
7
100
AcDbSpline
210
0.000000000000000
220
0.000000000000000
230
1.000000000000000
 70
     8
 71
     3
 72
    13
 73
     9
 74
     0
 42
1.000000000000000e-07
 43
1.000000000000000e-07
 12
-0.3991144153101231
 22
0.9169011307058099
 32
0.000000000000000
 13
-0.7730306898522485
 23
0.6343686251291274
 33
0.000000000000000
 40
0.000000000000000
 40
0.000000000000000
 40
0.000000000000000
 40
0.000000000000000
 40
0.3154904748712180
 40
0.6328745677494811
 40
0.9490760097717084
 40
1.265273742438776
 40
1.589627480919971
 40
1.913976787342362
 40
1.913976787342362
 40
1.913976787342362
 40
1.913976787342362
 10
138.7411083244939
 20
210.1828166161532
 30
0.000000000000000
 10
138.6991360590225
 20
210.2792411405320
 30
0.000000000000000
 10
138.6074654046347
 20
210.4695130981117
 30
0.000000000000000
 10
138.4483980106810
 20
210.7433271048497
 30
0.000000000000000
 10
138.2683156424038
 20
211.0041088749043
 30
0.000000000000000
 10
138.0670125032291
 20
211.2518890477171
 30
0.000000000000000
 10
137.8446871084791
 20
211.4847788977699
 30
0.000000000000000
 10
137.6829811641248
 20
211.6287543205787
 30
0.000000000000000
 10
137.5994038414258
 20
211.6973399951043
 30
0.000000000000000
  0
SPLINE
  5
53
100
AcDbEntity
  8
A1
  6
CONTINUOUS
 62
7
100
AcDbSpline
210
0.000000000000000
220
0.000000000000000
230
1.000000000000000
 70
     8
 71
     3
 72
    12
 73
     8
 74
     0
 42
1.000000000000000e-07
 43
1.000000000000000e-07
 12
0.3978379254899664
 22
-0.9174557128501419
 32
0.000000000000000
 13
0.05740678035544988
 23
-0.9983508709719899
 33
0.000000000000000
 40
0.000000000000000
 40
0.000000000000000
 40
0.000000000000000
 40
0.000000000000000
 40
0.3326575956942814
 40
0.6681388689883675
 40
0.9811490224800929
 40
1.280138307047628
 40
1.373250948403831
 40
1.373250948403831
 40
1.373250948403831
 40
1.373250948403831
 10
138.7411083244939
 20
210.1828166161532
 30
0.000000000000000
 10
138.7852229270838
 20
210.0810837456224
 30
0.000000000000000
 10
138.8647264418654
 20
209.8726500486693
 30
0.000000000000000
 10
138.9525742232971
 20
209.5571688729653
 30
0.000000000000000
 10
139.0115786159775
 20
209.2465780457195
 30
0.000000000000000
 10
139.0380603016328
 20
209.0128212260015
 30
0.000000000000000
 10
139.0469873112410
 20
208.8824200476929
 30
0.000000000000000
 10
139.0487690768912
 20
208.8514336854941
 30
0.000000000000000
  0
SPLINE
  5
54
100
AcDbEntity
  8
A1
  6
CONTINUOUS
 62
7
100
AcDbSpline
210
0.000000000000000
220
0.000000000000000
230
1.000000000000000
 70
     8
 71
     3
 72
     9
 73
     5
 74
     0
 42
1.000000000000000e-07
 43
1.000000000000000e-07
 12
0.05659686271656028
 22
-0.9983971129419160
 32
0.000000000000000
 13
-0.1521070507055811
 23
-0.9883640246009691
 33
0.000000000000000
 40
0.000000000000000
 40
0.000000000000000
 40
0.000000000000000
 40
0.000000000000000
 40
0.6480640599851742
 40
1.297573210167191
 40
1.297573210167191
 40
1.297573210167191
 40
1.297573210167191
 10
139.0487690768912
 20
208.8514336854941
 30
0.000000000000000
 10
139.0609952077694
 20
208.6357585899973
 30
0.000000000000000
 10
139.0630814811243
 20
208.2023475757963
 30
0.000000000000000
 10
139.0194789656494
 20
207.7711250890050
 30
0.000000000000000
 10
138.9865473252359
 20
207.5571412631087
 30
0.000000000000000
  0
SPLINE
  5
55
100
AcDbEntity
  8
A1
  6
CONTINUOUS
 62
7
100
AcDbSpline
210
0.000000000000000
220
0.000000000000000
230
1.000000000000000
 70
     8
 71
     3
 72
    15
 73
    11
 74
     0
 42
1.000000000000000e-07
 43
1.000000000000000e-07
 12
0.1498370130357216
 22
0.9887107107363136
 32
0.000000000000000
 13
-0.9352006169267497
 23
0.3541183504125911
 33
0.000000000000000
 40
0.000000000000000
 40
0.000000000000000
 40
0.000000000000000
 40
0.000000000000000
 40
0.3515403625610908
 40
0.7030678188235133
 40
1.054793190029666
 40
1.406483099690128
 40
1.754179280374890
 40
2.101833669280690
 40
2.437296768145645
 40
2.772733031747653
 40
2.772733031747653
 40
2.772733031747653
 40
2.772733031747653
 10
136.6029270189023
 20
205.2140199818773
 30
0.000000000000000
 10
136.6204849381982
 20
205.3298772224507
 30
0.000000000000000
 10
136.6366337759244
 20
205.5649258580342
 30
0.000000000000000
 10
136.6020415921732
 20
205.9164612997692
 30
0.000000000000000
 10
136.5077904902489
 20
206.2569989405916
 30
0.000000000000000
 10
136.3586669392925
 20
206.5759641680815
 30
0.000000000000000
 10
136.1570020271360
 20
206.8629163266371
 30
0.000000000000000
 10
135.9136531375028
 20
207.1079645815286
 30
0.000000000000000
 10
135.6348442911081
 20
207.3045064460689
 30
0.000000000000000
 10
135.4318412321298
 20
207.4012162287870
 30
0.000000000000000
 10
135.3272744985764
 20
207.4408109408987
 30
0.000000000000000
  0
SPLINE
  5
56
100
AcDbEntity
  8
A1
  6
CONTINUOUS
 62
7
100
AcDbSpline
210
0.000000000000000
220
0.000000000000000
230
1.000000000000000
 70
     8
 71
     3
 72
    23
 73
    19
 74
     0
 42
1.000000000000000e-07
 43
1.000000000000000e-07
 12
0.9357307583709371
 22
-0.3527151086045706
 32
0.000000000000000
 13
-0.1515709026775767
 23
-0.9884463877531289
 33
0.000000000000000
 40
0.000000000000000
 40
0.000000000000000
 40
0.000000000000000
 40
0.000000000000000
 40
0.3295619766893667
 40
0.6591270962650235
 40
0.9983964339692053
 40
1.337669791992448
 40
1.667179426967875
 40
1.996693228387137
 40
2.335503333470164
 40
2.674318197464538
 40
3.008851002781707
 40
3.343387942344111
 40
3.687208374752585
 40
4.031032533059968
 40
4.403721720152232
 40
4.776414273788101
 40
5.161651519285352
 40
5.546889710050777
 40
5.546889710050777
 40
5.546889710050777
 40
5.546889710050777
 10
136.0320618886100
 20
209.3624199537425
 30
0.000000000000000
 10
136.1348556480692
 20
209.3236727909425
 30
0.000000000000000
 10
136.3373177544979
 20
209.2375669785610
 30
0.000000000000000
 10
136.6319163269665
 20
209.0819559057149
 30
0.000000000000000
 10
136.9149617453658
 20
208.9000572575754
 30
0.000000000000000
 10
137.1814669518867
 20
208.6947322460965
 30
0.000000000000000
 10
137.4272735490568
 20
208.4698691561399
 30
0.000000000000000
 10
137.6537451245083
 20
208.2257608628449
 30
0.000000000000000
 10
137.8610036278862
 20
207.9611606480200
 30
0.000000000000000
 10
138.0464554754372
 20
207.6788463290090
 30
0.000000000000000
 10
138.2071522783095
 20
207.3833818080999
 30
0.000000000000000
 10
138.3440098757309
 20
207.0743268047067
 30
0.000000000000000
 10
138.4558739783045
 20
206.7520656435441
 30
0.000000000000000
 10
138.5439201614408
 20
206.4093516121627
 30
0.000000000000000
 10
138.6035807762914
 20
206.0507208498961
 30
0.000000000000000
 10
138.6322442241422
 20
205.6744381288079
 30
0.000000000000000
 10
138.6265462436701
 20
205.2929057215332
 30
0.000000000000000
 10
138.5991784817000
 20
205.0371195449599
 30
0.000000000000000
 10
138.5797148482599
 20
204.9101904455977
 30
0.000000000000000
  0
SPLINE
  5
57
100
AcDbEntity
  8
A1
  6
CONTINUOUS
 62
7
100
AcDbSpline
210
0.000000000000000
220
0.000000000000000
230
1.000000000000000
 70
     8
 71
     3
 72
    21
 73
    17
 74
     0
 42
1.000000000000000e-07
 43
1.000000000000000e-07
 12
0.9719401010024740
 22
0.2352284848041108
 32
0.000000000000000
 13
-0.1416876395633153
 23
-0.9899114166382788
 33
0.000000000000000
 40
0.000000000000000
 40
0.000000000000000
 40
0.000000000000000
 40
0.000000000000000
 40
0.3770237937154394
 40
0.7454408160355578
 40
1.098809026518425
 40
1.434679110688691
 40
1.748832481557478
 40
2.034969796597232
 40
2.277499683432588
 40
2.491070274330206
 40
2.672852985100978
 40
2.821528474084961
 40
2.941065388672842
 40
3.035208392003075
 40
3.094990136456450
 40
3.152908310218826
 40
3.152908310218826
 40
3.152908310218826
 40
3.152908310218826
 10
141.1742352225577
 20
241.3131685366698
 30
0.000000000000000
 10
141.2963834039390
 20
241.3427307819134
 30
0.000000000000000
 10
141.5391877803862
 20
241.3959531630340
 30
0.000000000000000
 10
141.9000249965215
 20
241.4593959306648
 30
0.000000000000000
 10
142.2497228376583
 20
241.5051717402023
 30
0.000000000000000
 10
142.5832212644696
 20
241.5323306612728
 30
0.000000000000000
 10
142.8952599588260
 20
241.5420461244908
 30
0.000000000000000
 10
143.1762931673868
 20
241.5353767397121
 30
0.000000000000000
 10
143.4229325133473
 20
241.5136834838724
 30
0.000000000000000
 10
143.6331055544751
 20
241.4801194744572
 30
0.000000000000000
 10
143.8093135607118
 20
241.4360348683818
 30
0.000000000000000
 10
143.9499104341924
 20
241.3823152334254
 30
0.000000000000000
 10
144.0546796975608
 20
241.3208872001386
 30
0.000000000000000
 10
144.1202895322276
 20
241.2549075017144
 30
0.000000000000000
 10
144.1487682792674
 20
241.1886135485839
 30
0.000000000000000
 10
144.1492665779167
 20
241.1483594280096
 30
0.000000000000000
 10
144.1465311481407
 20
241.1292481408635
 30
0.000000000000000
  0
SPLINE
  5
58
100
AcDbEntity
  8
A1
  6
CONTINUOUS
 62
7
100
AcDbSpline
210
0.000000000000000
220
0.000000000000000
230
1.000000000000000
 70
     8
 71
     3
 72
    24
 73
    20
 74
     0
 42
1.000000000000000e-07
 43
1.000000000000000e-07
 12
0.3802160583205136
 22
0.9248976965025122
 32
0.000000000000000
 13
0.9720593267869617
 23
0.2347353088200634
 33
0.000000000000000
 40
0.000000000000000
 40
0.000000000000000
 40
0.000000000000000
 40
0.000000000000000
 40
0.9965371271563505
 40
1.994844928735737
 40
2.994111029633749
 40
3.993536093732885
 40
5.200321329633569
 40
6.413965577893726
 40
7.632768369619987
 40
8.855016710094214
 40
10.07906749880277
 40
11.30342972141473
 40
12.49481252938067
 40
13.69525622024258
 40
14.90250178262609
 40
16.11428710250248
 40
17.32843640441007
 40
18.54294956294972
 40
19.15015686915572
 40
19.15015686915572
 40
19.15015686915572
 40
19.15015686915572
 10
127.1613338053160
 20
229.3108850151048
 30
0.000000000000000
 10
127.2876336114685
 20
229.6181166462336
 30
0.000000000000000
 10
127.5556134808164
 20
230.2270226169991
 30
0.000000000000000
 10
128.0024074003065
 20
231.1198946898597
 30
0.000000000000000
 10
128.4930295095765
 20
231.9905884546322
 30
0.000000000000000
 10
129.0629286824995
 20
232.8949093856105
 30
0.000000000000000
 10
129.7236671972965
 20
233.8247238317344
 30
0.000000000000000
 10
130.4849719173522
 20
234.7700849929970
 30
0.000000000000000
 10
131.3045434853408
 20
235.6723798203621
 30
0.000000000000000
 10
132.1787168205803
 20
236.5268621535025
 30
0.000000000000000
 10
133.1037880513576
 20
237.3288102727967
 30
0.000000000000000
 10
134.0675536210320
 20
238.0670775125601
 30
0.000000000000000
 10
135.0681199152938
 20
238.7405612944261
 30
0.000000000000000
 10
136.1018308306508
 20
239.3507705403722
 30
0.000000000000000
 10
137.1754935632161
 20
239.9026083001727
 30
0.000000000000000
 10
138.2837522748155
 20
240.3926229329707
 30
0.000000000000000
 10
139.4211773331940
 20
240.8174778168024
 30
0.000000000000000
 10
140.3893450509892
 20
241.1142189280075
 30
0.000000000000000
 10
140.9774880474608
 20
241.2656575384898
 30
0.000000000000000
 10
141.1742352225577
 20
241.3131685366698
 30
0.000000000000000
  0
SPLINE
  5
59
100
AcDbEntity
  8
A1
  6
CONTINUOUS
 62
7
100
AcDbSpline
210
0.000000000000000
220
0.000000000000000
230
1.000000000000000
 70
     8
 71
     3
 72
    27
 73
    23
 74
     0
 42
1.000000000000000e-07
 43
1.000000000000000e-07
 12
0.3487822718973916
 22
0.9372037808344658
 32
0.000000000000000
 13
0.9790933486573294
 23
0.2034114417009505
 33
0.000000000000000
 40
0.000000000000000
 40
0.000000000000000
 40
0.000000000000000
 40
0.000000000000000
 40
1.225740415426370
 40
2.453913748147056
 40
3.683165537240447
 40
4.912159639040525
 40
6.213838639415771
 40
7.518952992430415
 40
8.825795942814052
 40
9.838049534315049
 40
10.85333436887769
 40
11.87075408381882
 40
12.88943695386231
 40
14.17275575141809
 40
15.46104856582986
 40
16.75227833344180
 40
17.75471056546776
 40
18.76064185632762
 40
19.76893979114741
 40
20.77849760832952
 40
21.67163384623868
 40
22.56641992798258
 40
22.56641992798258
 40
22.56641992798258
 40
22.56641992798258
 10
125.0007793276783
 20
229.3928485310497
 30
0.000000000000000
 10
125.1432848366279
 20
229.7757713816028
 30
0.000000000000000
 10
125.4496483730427
 20
230.5347294968594
 30
0.000000000000000
 10
125.9715229697893
 20
231.6466615410733
 30
0.000000000000000
 10
126.5540060662281
 20
232.7293500656335
 30
0.000000000000000
 10
127.2079910153050
 20
233.7992432922250
 30
0.000000000000000
 10
127.9365010303713
 20
234.8508969482633
 30
0.000000000000000
 10
128.7409841311283
 20
235.8787775993337
 30
0.000000000000000
 10
129.5402740915772
 20
236.7855957761030
 30
0.000000000000000
 10
130.3180321204639
 20
237.5801059861099
 30
0.000000000000000
 10
131.0604623962402
 20
238.2727144118400
 30
0.000000000000000
 10
131.8351459371032
 20
238.9323609528579
 30
0.000000000000000
 10
132.7096463070353
 20
239.6108519492522
 30
0.000000000000000
 10
133.6925119566320
 20
240.2948608929169
 30
0.000000000000000
 10
134.7903761049667
 20
240.9689657277916
 30
0.000000000000000
 10
135.8426806462946
 20
241.5345783752331
 30
0.000000000000000
 10
136.8373524449669
 20
242.0047933414635
 30
0.000000000000000
 10
137.7650810487815
 20
242.3935636063924
 30
0.000000000000000
 10
138.7114822355252
 20
242.7412953080056
 30
0.000000000000000
 10
139.6367275833880
 20
243.0347648683177
 30
0.000000000000000
 10
140.5370050900063
 20
243.2786337816157
 30
0.000000000000000
 10
141.1181715037207
 20
243.4115020977426
 30
0.000000000000000
 10
141.4101978707562
 20
243.4721720067098
 30
0.000000000000000
  0
SPLINE
  5
5A
100
AcDbEntity
  8
A1
  6
CONTINUOUS
 62
7
100
AcDbSpline
210
0.000000000000000
220
0.000000000000000
230
1.000000000000000
 70
     8
 71
     3
 72
    11
 73
     7
 74
     0
 42
1.000000000000000e-07
 43
1.000000000000000e-07
 12
0.1890582292368208
 22
0.9819658782045053
 32
0.000000000000000
 13
0.3799608879357379
 23
0.9250025533144708
 33
0.000000000000000
 40
0.000000000000000
 40
0.000000000000000
 40
0.000000000000000
 40
0.000000000000000
 40
0.8136418419050404
 40
1.623216093954848
 40
2.433916775170910
 40
3.237491704625319
 40
3.237491704625319
 40
3.237491704625319
 40
3.237491704625319
 10
126.2379959314309
 20
226.2131097717424
 30
0.000000000000000
 10
126.2892711600521
 20
226.4794326136858
 30
0.000000000000000
 10
126.4048188012618
 20
227.0082928070500
 30
0.000000000000000
 10
126.6172273399026
 20
227.7916322576569
 30
0.000000000000000
 10
126.8674391050958
 20
228.5602081857180
 30
0.000000000000000
 10
127.0595581240765
 20
229.0631153945966
 30
0.000000000000000
 10
127.1613338053160
 20
229.3108850151048
 30
0.000000000000000
  0
SPLINE
  5
5B
100
AcDbEntity
  8
A1
  6
CONTINUOUS
 62
7
100
AcDbSpline
210
0.000000000000000
220
0.000000000000000
230
1.000000000000000
 70
     8
 71
     3
 72
    11
 73
     7
 74
     0
 42
1.000000000000000e-07
 43
1.000000000000000e-07
 12
-0.1856279225988260
 22
-0.9826201068326554
 32
0.000000000000000
 13
0.03124752060614355
 23
-0.9995116769981678
 33
0.000000000000000
 40
0.000000000000000
 40
0.000000000000000
 40
0.000000000000000
 40
0.000000000000000
 40
0.7914465647295599
 40
1.590206842745151
 40
2.402401426320837
 40
3.219441277696507
 40
3.219441277696507
 40
3.219441277696507
 40
3.219441277696507
 10
124.2036904295653
 20
226.5257795580339
 30
0.000000000000000
 10
124.1547189023458
 20
226.2665491220382
 30
0.000000000000000
 10
124.0703147585207
 20
225.7429360910413
 30
0.000000000000000
 10
123.9859677249772
 20
224.9462062288469
 30
0.000000000000000
 10
123.9447693006354
 20
224.1375333962215
 30
0.000000000000000
 10
123.9468433643882
 20
223.5941382589749
 30
0.000000000000000
 10
123.9553535209189
 20
223.3219246349672
 30
0.000000000000000
  0
SPLINE
  5
5C
100
AcDbEntity
  8
A1
  6
CONTINUOUS
 62
7
100
AcDbSpline
210
0.000000000000000
220
0.000000000000000
230
1.000000000000000
 70
     8
 71
     3
 72
    11
 73
     7
 74
     0
 42
1.000000000000000e-07
 43
1.000000000000000e-07
 12
-0.08045896891178472
 22
0.9967579216247486
 32
0.000000000000000
 13
0.1888809256630566
 23
0.9819999979230261
 33
0.000000000000000
 40
0.000000000000000
 40
0.000000000000000
 40
0.000000000000000
 40
0.000000000000000
 40
0.8909745823171505
 40
1.785877403215460
 40
2.694870356963930
 40
3.604741470919019
 40
3.604741470919019
 40
3.604741470919019
 40
3.604741470919019
 10
126.0435907232443
 20
222.6239438548737
 30
0.000000000000000
 10
126.0196950911710
 20
222.9199725125040
 30
0.000000000000000
 10
125.9914115583321
 20
223.5151034057970
 30
0.000000000000000
 10
126.0083194334196
 20
224.4138769849942
 30
0.000000000000000
 10
126.0865850762326
 20
225.3157675110412
 30
0.000000000000000
 10
126.1807101653516
 20
225.9152786277376
 30
0.000000000000000
 10
126.2379959314309
 20
226.2131097717424
 30
0.000000000000000
  0
ARC
  5
5D
100
AcDbEntity
  8
A1
  6
CONTINUOUS
 62
7
100
AcDbCircle
 10
141.4935566611727
 20
223.8683523556694
 30
0.000000000000000
 40
8.500000000000000
100
AcDbArc
 50
291.2621000000000
 51
416.8187645723027
  0
ARC
  5
5E
100
AcDbEntity
  8
A1
  6
CONTINUOUS
 62
7
100
AcDbCircle
 10
149.4292493482455
 20
236.0040345192867
 30
0.000000000000000
 40
6.000000000000000
100
AcDbArc
 50
171.2621000000000
 51
236.8187645723027
  0
ARC
  5
5F
100
AcDbEntity
  8
A1
  6
CONTINUOUS
 62
7
100
AcDbCircle
 10
139.6516886698667
 20
211.8847163846653
 30
0.000000000000000
 40
2.000000000000000
100
AcDbArc
 50
111.2621000000000
 51
171.2620999999999
  0
ARC
  5
60
100
AcDbEntity
  8
A1
  6
CONTINUOUS
 62
7
100
AcDbCircle
 10
135.0293025353499
 20
208.2053416890161
 30
0.000000000000000
 40
3.944512108463647
100
AcDbArc
 50
50.63060571262112
 51
67.55856007320540
  0
ARC
  5
61
100
AcDbEntity
  8
A1
  6
CONTINUOUS
 62
7
100
AcDbCircle
 10
141.4935566611727
 20
223.8683523556694
 30
0.000000000000000
 40
17.54671344277210
100
AcDbArc
 50
181.7845544031344
 51
249.4257504849519
  0
ARC
  5
62
100
AcDbEntity
  8
A1
  6
CONTINUOUS
 62
7
100
AcDbCircle
 10
146.2378460111590
 20
223.1391620076746
 30
0.000000000000000
 40
17.80000000000013
100
AcDbArc
 50
96.90630969855175
 51
171.2620999997771
  0
ARC
  5
63
100
AcDbEntity
  8
A1
  6
CONTINUOUS
 62
7
100
AcDbCircle
 10
141.5054072735510
 20
223.2599743405808
 30
0.000000000000000
 40
17.60723968905409
100
AcDbArc
 50
159.6156829267181
 51
169.3108335908818
  0
ARC
  5
64
100
AcDbEntity
  8
A1
  6
CONTINUOUS
 62
7
100
AcDbCircle
 10
141.4935566611727
 20
223.8683523556694
 30
0.000000000000000
 40
15.50000000000000
100
AcDbArc
 50
184.6049143537385
 51
249.3686052628564
  0
ARC
  5
65
100
AcDbEntity
  8
A1
  6
CONTINUOUS
 62
7
100
AcDbCircle
 10
141.4935566611727
 20
223.8683523556694
 30
0.000000000000000
 40
13.00000000000000
100
AcDbArc
 50
171.2620999996948
 51
247.5782354364281
  0
LINE
  5
66
100
AcDbEntity
  8
A1
  6
CONTINUOUS
 62
7
100
AcDbLine
 10
144.0974642648555
 20
240.8100070916002
 30
0.000000000000000
 11
143.4988876607629
 21
236.9155224542802
 31
0.000000000000000
  0
LINE
  5
67
100
AcDbEntity
  8
A1
  6
CONTINUOUS
 62
7
100
AcDbLine
 10
137.5313761912027
 20
211.2547355951068
 30
0.000000000000000
 11
137.6749014407058
 21
212.1885456963298
 31
0.000000000000000
  0
LINE
  5
68
100
AcDbEntity
  8
A1
  6
CONTINUOUS
 62
7
100
AcDbLine
 10
138.9264189576020
 20
213.7485789988274
 30
0.000000000000000
 11
144.5759529382974
 21
215.9469362454800
 31
0.000000000000000
  0
LINE
  5
69
100
AcDbEntity
  8
A1
  6
CONTINUOUS
 62
7
100
AcDbLine
 10
144.4652076123536
 20
243.2026345473267
 30
0.000000000000000
 11
144.1465311481407
 21
241.1292481408635
 31
0.000000000000000
  0
LINE
  5
6A
100
AcDbEntity
  8
A1
  6
CONTINUOUS
 62
7
100
AcDbLine
 10
133.9718838740574
 20
188.0958148304128
 30
0.000000000000000
 11
135.9486711032181
 21
187.7919855187483
 31
0.000000000000000
  0
LINE
  5
6B
100
AcDbEntity
  8
A1
  6
CONTINUOUS
 62
7
100
AcDbLine
 10
144.0974642648555
 20
240.8100070916002
 30
0.000000000000000
 11
144.1465311481406
 21
241.1292481408634
 31
0.000000000000000
  0
CIRCLE
  5
6C
100
AcDbEntity
  8
A1
  6
CONTINUOUS
 62
7
100
AcDbCircle
 10
144.4935566611727
 20
246.8683523556694
 30
0.000000000000000
 40
2.249999999977773
  0
CIRCLE
  5
6D
100
AcDbEntity
  8
A1
  6
CONTINUOUS
 62
7
100
AcDbCircle
 10
144.4935566611727
 20
200.8683523556695
 30
0.000000000000000
 40
2.249999999977773
  0
ARC
  5
6E
100
AcDbEntity
  8
A1
  6
CONTINUOUS
 62
7
100
AcDbCircle
 10
147.4935566611727
 20
250.8683471640080
 30
0.000000000000000
 40
4.999999999999998
100
AcDbArc
 50
359.9999950000000
 51
469.5797714976859
  0
ARC
  5
6F
100
AcDbEntity
  8
A1
  6
CONTINUOUS
 62
7
100
AcDbCircle
 10
145.4453386611728
 20
201.8423621640081
 30
0.000000000000000
 40
9.000000000000000
100
AcDbArc
 50
207.5768052346360
 51
250.4202292263142
  0
ARC
  5
70
100
AcDbEntity
  8
A1
  6
CONTINUOUS
 62
7
100
AcDbCircle
 10
145.4453386611728
 20
245.8943181640080
 30
0.000000000000000
 40
9.000000000000000
100
AcDbArc
 50
109.5797870000000
 51
169.8285124879113
  0
ARC
  5
71
100
AcDbEntity
  8
A1
  6
CONTINUOUS
 62
7
100
AcDbCircle
 10
141.4935566611727
 20
223.8683523556694
 30
0.000000000000000
 40
9.000000000000000
100
AcDbArc
 50
272.0739635462787
 51
428.8677881660585
  0
LINE
  5
72
100
AcDbEntity
  8
A1
  6
CONTINUOUS
 62
7
100
AcDbLine
 10
145.8179626611727
 20
255.5792241640084
 30
0.000000000000000
 11
142.4292658013241
 21
254.3738997871831
 31
0.000000000000000
  0
LINE
  5
73
100
AcDbEntity
  8
A1
  6
CONTINUOUS
 62
7
100
AcDbLine
 10
142.4292676611725
 20
193.3627781640081
 30
0.000000000000000
 11
145.8179436611725
 21
192.1574711640082
 31
0.000000000000000
  0
LINE
  5
74
100
AcDbEntity
  8
A1
  6
CONTINUOUS
 62
7
100
AcDbLine
 10
152.4935566611727
 20
196.8683479494061
 30
0.000000000000000
 11
152.4935566611727
 21
250.8683467276756
 31
0.000000000000000
  0
LINE
  5
75
100
AcDbEntity
  8
A1
  6
CONTINUOUS
 62
7
100
AcDbLine
 10
135.2950107343188
 20
207.4529577202837
 30
0.000000000000000
 11
136.1847973528342
 21
202.4935669107477
 31
0.000000000000000
  0
LINE
  5
76
100
AcDbEntity
  8
A1
  6
CONTINUOUS
 62
7
100
AcDbLine
 10
136.5867861713218
 20
247.4836726822193
 30
0.000000000000000
 11
135.4821245485720
 21
241.3266429846114
 31
0.000000000000000
  0
CIRCLE
  5
77
100
AcDbEntity
  8
A1
  6
CONTINUOUS
 62
7
100
AcDbCircle
 10
141.4935566611034
 20
223.8683523556001
 30
0.000000000000000
 40
6.500000000000000
  0
CIRCLE
  5
78
100
AcDbEntity
  8
A1
  6
CONTINUOUS
 62
7
100
AcDbCircle
 10
141.4935566611034
 20
223.8683523556001
 30
0.000000000000000
 40
5.500000000000005
  0
SPLINE
  5
79
100
AcDbEntity
  8
A1
  6
CONTINUOUS
 62
7
100
AcDbSpline
210
0.000000000000000
220
0.000000000000000
230
1.000000000000000
 70
     8
 71
     3
 72
    11
 73
     7
 74
     0
 42
1.000000000000000e-07
 43
1.000000000000000e-07
 12
-0.3229258745209336
 22
-0.9464242598140800
 32
0.000000000000000
 13
-0.1582809547591069
 23
-0.9873941155187822
 33
0.000000000000000
 40
0.000000000000000
 40
0.000000000000000
 40
0.000000000000000
 40
0.000000000000000
 40
0.7215911984881063
 40
1.453742358325901
 40
2.200618254832357
 40
2.956848752741553
 40
2.956848752741553
 40
2.956848752741553
 40
2.956848752741553
 10
203.4504643384379
 20
229.3928485309507
 30
0.000000000000000
 10
203.3727908488318
 20
229.1652047256448
 30
0.000000000000000
 10
203.2260436350243
 20
228.7031933517077
 30
0.000000000000000
 10
203.0345349268563
 20
227.9948655956276
 30
0.000000000000000
 10
202.8707785139336
 20
227.2677832541978
 30
0.000000000000000
 10
202.7810180717285
 20
226.7746787391386
 30
0.000000000000000
 10
202.7411191099861
 20
226.5257795579348
 30
0.000000000000000
  0
SPLINE
  5
7A
100
AcDbEntity
  8
A1
  6
CONTINUOUS
 62
7
100
AcDbSpline
210
0.000000000000000
220
0.000000000000000
230
1.000000000000000
 70
     8
 71
     3
 72
    11
 73
     7
 74
     0
 42
1.000000000000000e-07
 43
1.000000000000000e-07
 12
-0.1580885116582067
 22
-0.9874249452398089
 32
0.000000000000000
 13
0.0006548237895458442
 23
-0.9999997856028813
 33
0.000000000000000
 40
0.000000000000000
 40
0.000000000000000
 40
0.000000000000000
 40
0.000000000000000
 40
0.7888953822516677
 40
1.586961101536925
 40
2.399422826284648
 40
3.216599005548971
 40
3.216599005548971
 40
3.216599005548971
 40
3.216599005548971
 10
202.7411191099861
 20
226.5257795579348
 30
0.000000000000000
 10
202.6995473443747
 20
226.2661212313949
 30
0.000000000000000
 10
202.6265405397784
 20
225.7420165807542
 30
0.000000000000000
 10
202.5493815837158
 20
224.9457201303725
 30
0.000000000000000
 10
202.5035591087163
 20
224.1375888713156
 30
0.000000000000000
 10
202.4933782923719
 20
223.5943166362229
 30
0.000000000000000
 10
202.4935566611726
 20
223.3219246348682
 30
0.000000000000000
  0
SPLINE
  5
7B
100
AcDbEntity
  8
A1
  6
CONTINUOUS
 62
7
100
AcDbSpline
210
0.000000000000000
220
0.000000000000000
230
1.000000000000000
 70
     8
 71
     3
 72
    11
 73
     7
 74
     0
 42
1.000000000000000e-07
 43
1.000000000000000e-07
 12
-0.001012254922670763
 22
0.9999994876698111
 32
0.000000000000000
 13
0.1731733502065254
 23
0.9848913598863192
 33
0.000000000000000
 40
0.000000000000000
 40
0.000000000000000
 40
0.000000000000000
 40
0.000000000000000
 40
0.8901329665421088
 40
1.786457446282776
 40
2.696886234157471
 40
3.606036510300527
 40
3.606036510300527
 40
3.606036510300527
 40
3.606036510300527
 10
202.4935566611726
 20
222.6239438547746
 30
0.000000000000000
 10
202.4932563140136
 20
222.9206546916080
 30
0.000000000000000
 10
202.5047360696531
 20
223.5162124159750
 30
0.000000000000000
 10
202.5575620060141
 20
224.4138637058479
 30
0.000000000000000
 10
202.6503340442885
 20
225.3147189891687
 30
0.000000000000000
 10
202.7414480526820
 20
225.9146383543728
 30
0.000000000000000
 10
202.7939282524023
 20
226.2131097716433
 30
0.000000000000000
  0
SPLINE
  5
7C
100
AcDbEntity
  8
A1
  6
CONTINUOUS
 62
7
100
AcDbSpline
210
0.000000000000000
220
0.000000000000000
230
1.000000000000000
 70
     8
 71
     3
 72
    12
 73
     8
 74
     0
 42
1.000000000000000e-07
 43
1.000000000000000e-07
 12
0.003126870679807325
 22
-0.9999951113275074
 32
0.000000000000000
 13
-0.6186521937352154
 23
-0.7856649815221317
 33
0.000000000000000
 40
0.000000000000000
 40
0.000000000000000
 40
0.000000000000000
 40
0.000000000000000
 40
0.3115193813733841
 40
0.6415086633567453
 40
0.9698982948325503
 40
1.312845533330937
 40
1.428502780373880
 40
1.428502780373880
 40
1.428502780373880
 40
1.428502780373880
 10
215.9935566611723
 20
210.1828166160542
 30
0.000000000000000
 10
215.9938813547789
 20
210.0789773299018
 30
0.000000000000000
 10
215.9800129481172
 20
209.8648587641808
 30
0.000000000000000
 10
215.9147250360270
 20
209.5470314140885
 30
0.000000000000000
 10
215.7973555484435
 20
209.2331236733453
 30
0.000000000000000
 10
215.6657369796727
 20
209.0045347935306
 30
0.000000000000000
 10
215.5746031676038
 20
208.8817229683487
 30
0.000000000000000
 10
215.5507526310689
 20
208.8514336853951
 30
0.000000000000000
  0
SPLINE
  5
7D
100
AcDbEntity
  8
A1
  6
CONTINUOUS
 62
7
100
AcDbSpline
210
0.000000000000000
220
0.000000000000000
230
1.000000000000000
 70
     8
 71
     3
 72
     9
 73
     5
 74
     0
 42
1.000000000000000e-07
 43
1.000000000000000e-07
 12
-0.6192527721844954
 22
-0.7851916989766323
 32
0.000000000000000
 13
-0.6321138309605203
 23
-0.7748755414310153
 33
0.000000000000000
 40
0.000000000000000
 40
0.000000000000000
 40
0.000000000000000
 40
0.000000000000000
 40
0.8280431011018707
 40
1.659235454180962
 40
1.659235454180962
 40
1.659235454180962
 40
1.659235454180962
 10
215.5507526310689
 20
208.8514336853951
 30
0.000000000000000
 10
215.3798299691204
 20
208.6347094956018
 30
0.000000000000000
 10
215.0355464698949
 20
208.2018441139454
 30
0.000000000000000
 10
214.6877063162624
 20
207.7718314712181
 30
0.000000000000000
 10
214.5125702554058
 20
207.5571412630096
 30
0.000000000000000
  0
SPLINE
  5
7E
100
AcDbEntity
  8
A1
  6
CONTINUOUS
 62
7
100
AcDbSpline
210
0.000000000000000
220
0.000000000000000
230
1.000000000000000
 70
     8
 71
     3
 72
    27
 73
    23
 74
     0
 42
1.000000000000000e-07
 43
1.000000000000000e-07
 12
0.3232791834583963
 22
0.9463036349621916
 32
0.000000000000000
 13
0.5351340140969114
 23
0.8447671791423090
 33
0.000000000000000
 40
0.000000000000000
 40
0.000000000000000
 40
0.000000000000000
 40
0.000000000000000
 40
1.202231395360376
 40
2.380501779548157
 40
3.529947874193927
 40
4.645707684660881
 40
5.787048852674490
 40
6.886045724662505
 40
7.937227727409149
 40
8.715049440287824
 40
9.461664652712951
 40
10.17470099355976
 40
10.85178882897023
 40
11.64994697574152
 40
12.38751412217109
 40
13.06028303778446
 40
13.53497806268683
 40
13.96867682981469
 40
14.35982238914898
 40
14.70688824051693
 40
14.97615746155481
 40
15.21018479762060
 40
15.21018479762060
 40
15.21018479762060
 40
15.21018479762060
 10
203.4504643384379
 20
229.3928485309507
 30
0.000000000000000
 10
203.5800164663779
 20
229.7720738441157
 30
0.000000000000000
 10
203.8386137524785
 20
230.5222591224994
 30
0.000000000000000
 10
204.2280233487950
 20
231.6326089129554
 30
0.000000000000000
 10
204.6139543405232
 20
232.7136154286955
 30
0.000000000000000
 10
205.0019844136485
 20
233.7807816888719
 30
0.000000000000000
 10
205.3909493924217
 20
234.8296921828254
 30
0.000000000000000
 10
205.7794279900938
 20
235.8557978929339
 30
0.000000000000000
 10
206.1316082649087
 20
236.7660531314226
 30
0.000000000000000
 10
206.4470267294726
 20
237.5645585042742
 30
0.000000000000000
 10
206.7254921368008
 20
238.2564538914698
 30
0.000000000000000
 10
206.9959435433840
 20
238.9153619282650
 30
0.000000000000000
 10
207.2779185074498
 20
239.5880909999844
 30
0.000000000000000
 10
207.5692549766723
 20
240.2657376998143
 30
0.000000000000000
 10
207.8676968273201
 20
240.9387134399702
 30
0.000000000000000
 10
208.1298925678811
 20
241.5097629799652
 30
0.000000000000000
 10
208.3564846421540
 20
241.9856385172340
 30
0.000000000000000
 10
208.5481510673950
 20
242.3741256355804
 30
0.000000000000000
 10
208.7267016363402
 20
242.7215945157659
 30
0.000000000000000
 10
208.8862899699401
 20
243.0171073664436
 30
0.000000000000000
 10
209.0267459245952
 20
243.2633593638189
 30
0.000000000000000
 10
209.1146739289491
 20
243.4062724691006
 30
0.000000000000000
 10
209.1564192582015
 20
243.4721720066107
 30
0.000000000000000
  0
SPLINE
  5
7F
100
AcDbEntity
  8
A1
  6
CONTINUOUS
 62
7
100
AcDbSpline
210
0.000000000000000
220
0.000000000000000
230
1.000000000000000
 70
     8
 71
     3
 72
    15
 73
    11
 74
     0
 42
1.000000000000000e-07
 43
1.000000000000000e-07
 12
0.9760238174580991
 22
-0.2176637492907503
 32
0.000000000000000
 13
0.0009715113455968094
 23
-0.9999995280829808
 33
0.000000000000000
 40
0.000000000000000
 40
0.000000000000000
 40
0.000000000000000
 40
0.000000000000000
 40
0.3280494564915986
 40
0.6653174135746998
 40
0.9922951593715634
 40
1.327791611485106
 40
1.659739871445820
 40
2.000183209662505
 40
2.367450981549695
 40
2.746190459042348
 40
2.746190459042348
 40
2.746190459042348
 40
2.746190459042348
 10
214.4184159498349
 20
242.8082656376508
 30
0.000000000000000
 10
214.5251439774482
 20
242.7844641460999
 30
0.000000000000000
 10
214.7381222411176
 20
242.7184981580922
 30
0.000000000000000
 10
215.0343679174305
 20
242.5678765091552
 30
0.000000000000000
 10
215.3034405525048
 20
242.3687650861525
 30
0.000000000000000
 10
215.5348827569137
 20
242.1293104381420
 30
0.000000000000000
 10
215.7264345053982
 20
241.8515041056433
 30
0.000000000000000
 10
215.8745225493283
 20
241.5364304036698
 30
0.000000000000000
 10
215.9711481688506
 20
241.1855161069418
 30
0.000000000000000
 10
215.9934340112725
 20
240.9362535244207
 30
0.000000000000000
 10
215.9935566611723
 20
240.8100070915010
 30
0.000000000000000
  0
SPLINE
  5
80
100
AcDbEntity
  8
A1
  6
CONTINUOUS
 62
7
100
AcDbSpline
210
0.000000000000000
220
0.000000000000000
230
1.000000000000000
 70
     8
 71
     3
 72
    11
 73
     7
 74
     0
 42
1.000000000000000e-07
 43
1.000000000000000e-07
 12
0.1735896851921552
 22
0.9848180650224094
 32
0.000000000000000
 13
0.3566264501963587
 23
0.9342470631582955
 33
0.000000000000000
 40
0.000000000000000
 40
0.000000000000000
 40
0.000000000000000
 40
0.000000000000000
 40
0.8106438319174861
 40
1.615705063555533
 40
2.420381213758985
 40
3.216693432695427
 40
3.216693432695427
 40
3.216693432695427
 40
3.216693432695427
 10
202.7939282524023
 20
226.2131097716433
 30
0.000000000000000
 10
202.8408347215975
 20
226.4792220016338
 30
0.000000000000000
 10
202.9465942138253
 20
227.0075286717360
 30
0.000000000000000
 10
203.1407265908211
 20
227.7909002725320
 30
0.000000000000000
 10
203.3705541064597
 20
228.5596084007276
 30
0.000000000000000
 10
203.5487819188224
 20
229.0629008977063
 30
0.000000000000000
 10
203.6434439187849
 20
229.3108850150058
 30
0.000000000000000
  0
SPLINE
  5
81
100
AcDbEntity
  8
A1
  6
CONTINUOUS
 62
7
100
AcDbSpline
210
0.000000000000000
220
0.000000000000000
230
1.000000000000000
 70
     8
 71
     3
 72
    24
 73
    20
 74
     0
 42
1.000000000000000e-07
 43
1.000000000000000e-07
 12
0.3571675783178989
 22
0.9340403208636872
 32
0.000000000000000
 13
0.5581880580748475
 23
0.8297144640314400
 33
0.000000000000000
 40
0.000000000000000
 40
0.000000000000000
 40
0.000000000000000
 40
0.000000000000000
 40
0.9775929498789270
 40
1.936626525648265
 40
2.873974938187940
 40
3.786513408101536
 40
4.851534372004757
 40
5.878514007853231
 40
6.862247722428538
 40
7.797533531837259
 40
8.679175592175266
 40
9.501989157236075
 40
10.24210763934635
 40
10.92560215144662
 40
11.54855473235532
 40
12.10707361140051
 40
12.59731604320831
 40
13.01553325898233
 40
13.19693690249482
 40
13.19693690249482
 40
13.19693690249482
 40
13.19693690249482
 10
203.6434439187849
 20
229.3108850150058
 30
0.000000000000000
 10
203.7598320876145
 20
229.6152554258655
 30
0.000000000000000
 10
203.9921540620707
 20
230.2175481903994
 30
0.000000000000000
 10
204.3419597102657
 20
231.1093965854342
 30
0.000000000000000
 10
204.6889897563294
 20
231.9790237114226
 30
0.000000000000000
 10
205.0546022437295
 20
232.8792547115345
 30
0.000000000000000
 10
205.4381386568938
 20
233.8044307336044
 30
0.000000000000000
 10
205.8385480633932
 20
234.7482652503819
 30
0.000000000000000
 10
206.2297995113872
 20
235.6489709423318
 30
0.000000000000000
 10
206.6095586246481
 20
236.5018086411125
 30
0.000000000000000
 10
206.9754762705750
 20
237.3020463952035
 30
0.000000000000000
 10
207.3225479820117
 20
238.0393162486724
 30
0.000000000000000
 10
207.6499876438404
 20
238.7127617672539
 30
0.000000000000000
 10
207.9565777067420
 20
239.3222011786523
 30
0.000000000000000
 10
208.2444720214337
 20
239.8732047398014
 30
0.000000000000000
 10
208.5113680109570
 20
240.3624153877676
 30
0.000000000000000
 10
208.7551510751085
 20
240.7863483141550
 30
0.000000000000000
 10
208.9449568964154
 20
241.0962192966405
 30
0.000000000000000
 10
209.0551421741332
 20
241.2629974609540
 30
0.000000000000000
 10
209.0888946232998
 20
241.3131685365708
 30
0.000000000000000
  0
SPLINE
  5
82
100
AcDbEntity
  8
A1
  6
CONTINUOUS
 62
7
100
AcDbSpline
210
0.000000000000000
220
0.000000000000000
230
1.000000000000000
 70
     8
 71
     3
 72
    21
 73
    17
 74
     0
 42
1.000000000000000e-07
 43
1.000000000000000e-07
 12
0.5997263282415588
 22
0.8002051806952295
 32
0.000000000000000
 13
0.9760474109416464
 23
-0.2175579269824084
 33
0.000000000000000
 40
0.000000000000000
 40
0.000000000000000
 40
0.000000000000000
 40
0.000000000000000
 40
0.1129769871660668
 40
0.2453342662553338
 40
0.4047845498716911
 40
0.5976604542706097
 40
0.8250522515562635
 40
1.084665693853566
 40
1.359763988336631
 40
1.660580435337736
 40
1.981651408316509
 40
2.317516171163013
 40
2.667353101981917
 40
3.024975590428632
 40
3.295601389982380
 40
3.567172320419728
 40
3.567172320419728
 40
3.567172320419728
 40
3.567172320419728
 10
209.0888946232998
 20
241.3131685365708
 30
0.000000000000000
 10
209.1114797145294
 20
241.3433034600474
 30
0.000000000000000
 10
209.1688940569802
 20
241.4035502654113
 30
0.000000000000000
 10
209.2908923976943
 20
241.4653887837473
 30
0.000000000000000
 10
209.4468295658086
 20
241.5095331340374
 30
0.000000000000000
 10
209.6390388765110
 20
241.5342409236872
 30
0.000000000000000
 10
209.8657035145353
 20
241.5421156826105
 30
0.000000000000000
 10
210.1197594753904
 20
241.5336264502083
 30
0.000000000000000
 10
210.3973848673444
 20
241.5106131495809
 30
0.000000000000000
 10
210.6943766944028
 20
241.4756641277134
 30
0.000000000000000
 10
211.0103589567409
 20
241.4298941483875
 30
0.000000000000000
 10
211.3414214684631
 20
241.3748341066062
 30
0.000000000000000
 10
211.6835058085560
 20
241.3121079496682
 30
0.000000000000000
 10
212.0033445899294
 20
241.2488314647547
 30
0.000000000000000
 10
212.2969446055864
 20
241.1874725124127
 30
0.000000000000000
 10
212.4735249018247
 20
241.1489422769827
 30
0.000000000000000
 10
212.5618802696715
 20
241.1292481407645
 30
0.000000000000000
  0
SPLINE
  5
83
100
AcDbEntity
  8
A1
  6
CONTINUOUS
 62
7
100
AcDbSpline
210
0.000000000000000
220
0.000000000000000
230
1.000000000000000
 70
     8
 71
     3
 72
    21
 73
    17
 74
     0
 42
1.000000000000000e-07
 43
1.000000000000000e-07
 12
-0.9763387540183430
 22
0.2162467049515726
 32
0.000000000000000
 13
-0.5738484065432203
 23
-0.8189615414103173
 33
0.000000000000000
 40
0.000000000000000
 40
0.000000000000000
 40
0.000000000000000
 40
0.000000000000000
 40
0.3825930934008659
 40
0.7631383767127891
 40
1.134623560718088
 40
1.493877852190581
 40
1.836810973864425
 40
2.156504588847983
 40
2.441133832961978
 40
2.698384861256505
 40
2.923947096695578
 40
3.112550130848683
 40
3.270620469306714
 40
3.399098234956923
 40
3.489386570653137
 40
3.567341828104764
 40
3.567341828104764
 40
3.567341828104764
 40
3.567341828104764
 10
212.6369498404453
 20
243.2026345472277
 30
0.000000000000000
 10
212.5124363524096
 20
243.2302127124895
 30
0.000000000000000
 10
212.2638020714636
 20
243.2839919187673
 30
0.000000000000000
 10
211.8934015395270
 20
243.3604710937647
 30
0.000000000000000
 10
211.5298362469838
 20
243.4314881255781
 30
0.000000000000000
 10
211.1777311994555
 20
243.4956485557745
 30
0.000000000000000
 10
210.8416577823680
 20
243.5512721774945
 30
0.000000000000000
 10
210.5291052535312
 20
243.5963263012247
 30
0.000000000000000
 10
210.2437475235927
 20
243.6291778305188
 30
0.000000000000000
 10
209.9886314534682
 20
243.6489904988887
 30
0.000000000000000
 10
209.7647636169148
 20
243.6551438361385
 30
0.000000000000000
 10
209.5740153573011
 20
243.6462132044215
 30
0.000000000000000
 10
209.4169439246911
 20
243.6228289685703
 30
0.000000000000000
 10
209.2963547550910
 20
243.5854994855970
 30
0.000000000000000
 10
209.2092412019097
 20
243.5360309816252
 30
0.000000000000000
 10
209.1713307582916
 20
243.4934527925453
 30
0.000000000000000
 10
209.1564192582015
 20
243.4721720066107
 30
0.000000000000000
  0
ELLIPSE
  5
84
100
AcDbEntity
  8
A1
  6
CONTINUOUS
 62
7
100
AcDbEllipse
 10
215.9935566611723
 20
199.9565382053290
 30
0.000000000000000
 11
2.000000000000000
 21
0.000000000000000
 31
0.000000000000000
210
0.000000000000000
220
0.000000000000000
230
1.000000000000000
 40
0.9883936145804318
 41
3.141592653589793
 42
4.712388980384690
  0
ELLIPSE
  5
85
100
AcDbEntity
  8
A1
  6
CONTINUOUS
 62
7
100
AcDbEllipse
 10
215.9935566611721
 20
193.7223471108778
 30
0.000000000000000
 11
6.000000000000000
 21
0.000000000000000
 31
0.000000000000000
210
0.000000000000000
220
0.000000000000000
230
1.000000000000000
 40
0.9883936145804318
 41
4.712388980384690
 42
5.965226650644124
  0
ELLIPSE
  5
86
100
AcDbEntity
  8
A1
  6
CONTINUOUS
 62
7
100
AcDbEllipse
 10
206.4935566611726
 20
191.7455598816670
 30
0.000000000000000
 11
4.000000000000000
 21
0.000000000000000
 31
0.000000000000000
210
0.000000000000000
220
0.000000000000000
230
1.000000000000000
 40
0.9883936145804318
 41
3.141592653589793
 42
4.712388980384690
  0
ELLIPSE
  5
87
100
AcDbEntity
  8
A1
  6
CONTINUOUS
 62
7
100
AcDbEllipse
 10
215.9935566611723
 20
199.6527087983603
 30
0.000000000000000
 11
-2.000000000000000
 21
0.000000000000000
 31
0.000000000000000
210
0.000000000000000
220
0.000000000000000
230
1.000000000000000
 40
0.9883936145804318
 41
0.000000000000000
 42
1.570796326794897
  0
ELLIPSE
  5
88
100
AcDbEntity
  8
A1
  6
CONTINUOUS
 62
7
100
AcDbEllipse
 10
215.9935566611723
 20
206.2232023096666
 30
0.000000000000000
 11
-2.000000000000000
 21
0.000000000000000
 31
0.000000000000000
210
0.000000000000000
220
0.000000000000000
230
1.000000000000000
 40
0.9883936145804318
 41
5.604817485564045
 42
0.000000000000000
  0
LINE
  5
89
100
AcDbEntity
  8
A1
  6
CONTINUOUS
 62
7
100
AcDbLine
 10
215.9935566611830
 20
197.9797509761682
 30
0.000000000000000
 11
217.4935566611723
 21
197.9797509761761
 31
0.000000000000000
  0
LINE
  5
8A
100
AcDbEntity
  8
A1
  6
CONTINUOUS
 62
7
100
AcDbLine
 10
215.9935566611723
 20
211.6973399950053
 30
0.000000000000000
 11
215.9935566611723
 21
212.1885456962307
 31
0.000000000000000
  0
LINE
  5
8B
100
AcDbEntity
  8
A1
  6
CONTINUOUS
 62
7
100
AcDbLine
 10
214.5125702554057
 20
207.5571412630097
 30
0.000000000000000
 11
214.4363606912757
 21
207.4636818602070
 31
0.000000000000000
  0
LINE
  5
8C
100
AcDbEntity
  8
A1
  6
CONTINUOUS
 62
7
100
AcDbLine
 10
215.9935566611830
 20
197.6759216645037
 30
0.000000000000000
 11
217.4935566611723
 21
197.6759216645116
 31
0.000000000000000
  0
LINE
  5
8D
100
AcDbEntity
  8
A1
  6
CONTINUOUS
 62
7
100
AcDbLine
 10
215.9935566612041
 20
187.7919855186993
 30
0.000000000000000
 11
206.4935566611940
 21
187.7919855186493
 31
0.000000000000000
  0
LINE
  5
8E
100
AcDbEntity
  8
A1
  6
CONTINUOUS
 62
7
100
AcDbLine
 10
213.9935566611723
 20
199.6527088936645
 30
0.000000000000000
 11
213.9935566611723
 21
206.2232024049707
 31
0.000000000000000
  0
LINE
  5
8F
100
AcDbEntity
  8
A1
  6
CONTINUOUS
 62
7
100
AcDbLine
 10
215.9935566611724
 20
211.6973399950054
 30
0.000000000000000
 11
213.9935566611724
 21
211.2547355950079
 31
0.000000000000000
  0
LINE
  5
90
100
AcDbEntity
  8
A1
  6
CONTINUOUS
 62
7
100
AcDbLine
 10
214.4184159498349
 20
242.8082656376509
 30
0.000000000000000
 11
212.6369498404452
 21
243.2026345472279
 31
0.000000000000000
  0
LINE
  5
91
100
AcDbEntity
  8
A1
  6
CONTINUOUS
 62
7
100
AcDbLine
 10
213.9935566611724
 20
240.8100070915013
 30
0.000000000000000
 11
212.5618802696715
 21
241.1292481407646
 31
0.000000000000000
  0
ARC
  5
92
100
AcDbEntity
  8
A1
  6
CONTINUOUS
 62
7
100
AcDbCircle
 10
216.9935566611723
 20
215.8683523555704
 30
0.000000000000000
 40
1.000000000000000
100
AcDbArc
 50
180.0000000000000
 51
270.0000000000000
  0
ARC
  5
93
100
AcDbEntity
  8
A1
  6
CONTINUOUS
 62
7
100
AcDbCircle
 10
216.9935566611723
 20
231.8683523555704
 30
0.000000000000000
 40
1.000000000000000
100
AcDbArc
 50
90.00000000000000
 51
179.9999999999999
  0
ARC
  5
94
100
AcDbEntity
  8
A1
  6
CONTINUOUS
 62
7
100
AcDbCircle
 10
219.4935566611723
 20
193.8683488643512
 30
0.000000000000000
 40
2.000000000000000
100
AcDbArc
 50
180.0000000000000
 51
270.0000000000000
  0
ARC
  5
95
100
AcDbEntity
  8
A1
  6
CONTINUOUS
 62
7
100
AcDbCircle
 10
219.4935566611723
 20
253.8683471639090
 30
0.000000000000000
 40
2.000000000000000
100
AcDbArc
 50
90.00000000000000
 51
180.0000000000002
  0
LINE
  5
96
100
AcDbEntity
  8
A1
  6
CONTINUOUS
 62
7
100
AcDbLine
 10
216.9935566611723
 20
232.8683523555704
 30
0.000000000000000
 11
217.4935566611723
 21
232.8683523555704
 31
0.000000000000000
  0
LINE
  5
97
100
AcDbEntity
  8
A1
  6
CONTINUOUS
 62
7
100
AcDbLine
 10
217.4935566611723
 20
214.8683523555704
 30
0.000000000000000
 11
216.9935566611723
 21
214.8683523555704
 31
0.000000000000000
  0
LINE
  5
98
100
AcDbEntity
  8
A1
  6
CONTINUOUS
 62
7
100
AcDbLine
 10
222.4935566611723
 20
191.8683488643512
 30
0.000000000000000
 11
219.4935566611723
 21
191.8683488643512
 31
0.000000000000000
  0
LINE
  5
99
100
AcDbEntity
  8
A1
  6
CONTINUOUS
 62
7
100
AcDbLine
 10
219.4935566611723
 20
255.8683471639090
 30
0.000000000000000
 11
222.4935566611723
 21
255.8683471639090
 31
0.000000000000000
  0
LINE
  5
9A
100
AcDbEntity
  8
A1
  6
CONTINUOUS
 62
7
100
AcDbLine
 10
212.4935566611723
 20
230.3683523555012
 30
0.000000000000000
 11
213.9935566611723
 21
230.3683523555012
 31
0.000000000000000
  0
LINE
  5
9B
100
AcDbEntity
  8
A1
  6
CONTINUOUS
 62
7
100
AcDbLine
 10
213.9935566611723
 20
217.3683523555011
 30
0.000000000000000
 11
212.4935566611723
 21
217.3683523555011
 31
0.000000000000000
  0
LINE
  5
9C
100
AcDbEntity
  8
A1
  6
CONTINUOUS
 62
7
100
AcDbLine
 10
211.4935566611723
 20
229.3045172356935
 30
0.000000000000000
 11
211.4935566611723
 21
218.3683523555011
 31
0.000000000000000
  0
LINE
  5
9D
100
AcDbEntity
  8
A1
  6
CONTINUOUS
 62
7
100
AcDbLine
 10
211.4935566611724
 20
229.3683523555011
 30
0.000000000000000
 11
212.4935566611724
 21
230.3683523555011
 31
0.000000000000000
  0
LINE
  5
9E
100
AcDbEntity
  8
A1
  6
CONTINUOUS
 62
7
100
AcDbLine
 10
212.4935566611724
 20
217.3683523555010
 30
0.000000000000000
 11
211.4935566611723
 21
218.3683523555011
 31
0.000000000000000
  0
LINE
  5
9F
100
AcDbEntity
  8
A1
  6
CONTINUOUS
 62
7
100
AcDbLine
 10
212.4935566611723
 20
217.3683523555011
 30
0.000000000000000
 11
212.4935566611723
 21
230.3683523555012
 31
0.000000000000000
  0
LINE
  5
A0
100
AcDbEntity
  8
A1
  6
CONTINUOUS
 62
7
100
AcDbLine
 10
211.4935566611723
 20
229.3683523555011
 30
0.000000000000000
 11
211.4935566611723
 21
229.3045172356935
 31
0.000000000000000
  0
SPLINE
  5
A1
100
AcDbEntity
  8
A1
  6
CONTINUOUS
 62
7
100
AcDbSpline
210
0.000000000000000
220
0.000000000000000
230
1.000000000000000
 70
     8
 71
     3
 72
    11
 73
     7
 74
     0
 42
1.000000000000000e-07
 43
1.000000000000000e-07
 12
0.1856279225987691
 22
-0.9826201068326554
 32
0.000000000000000
 13
-0.03124752060648461
 23
-0.9995116769982815
 33
0.000000000000000
 40
0.000000000000000
 40
0.000000000000000
 40
0.000000000000000
 40
0.000000000000000
 40
0.7914465647295689
 40
1.590206842745171
 40
2.402401426320829
 40
3.219441277696514
 40
3.219441277696514
 40
3.219441277696514
 40
3.219441277696514
 10
290.7834228927356
 20
226.5257795577390
 30
0.000000000000000
 10
290.8323944199552
 20
226.2665491217434
 30
0.000000000000000
 10
290.9167985637803
 20
225.7429360907465
 30
0.000000000000000
 10
291.0011455973237
 20
224.9462062285521
 30
0.000000000000000
 10
291.0423440216656
 20
224.1375333959267
 30
0.000000000000000
 10
291.0402699579127
 20
223.5941382586801
 30
0.000000000000000
 10
291.0317598013820
 20
223.3219246346724
 30
0.000000000000000
  0
SPLINE
  5
A2
100
AcDbEntity
  8
A1
  6
CONTINUOUS
 62
7
100
AcDbSpline
210
0.000000000000000
220
0.000000000000000
230
1.000000000000000
 70
     8
 71
     3
 72
    21
 73
    17
 74
     0
 42
1.000000000000000e-07
 43
1.000000000000000e-07
 12
-0.3487822718972211
 22
0.9372037808343521
 32
0.000000000000000
 13
-0.8836123241494533
 23
0.4682192441708821
 33
0.000000000000000
 40
0.000000000000000
 40
0.000000000000000
 40
0.000000000000000
 40
0.000000000000000
 40
1.225740484462071
 40
2.453913836498614
 40
3.683165634677519
 40
4.912159740516440
 40
6.213838741932179
 40
7.518953095583121
 40
8.825796046006646
 40
9.838049640171274
 40
10.85333447795862
 40
11.87075419624180
 40
12.88943707123613
 40
14.17275587856311
 40
15.46104869821436
 40
16.23992769998386
 40
16.23992769998386
 40
16.23992769998386
 40
16.23992769998386
 10
289.9863339946226
 20
229.3928485307549
 30
0.000000000000000
 10
289.8438284776469
 20
229.7757714028747
 30
0.000000000000000
 10
289.5374648918449
 20
230.5347295300826
 30
0.000000000000000
 10
289.0155902902577
 20
231.6466616068753
 30
0.000000000000000
 10
288.4331071837602
 20
232.7293501388514
 30
0.000000000000000
 10
287.7791222322665
 20
233.7992433689773
 30
0.000000000000000
 10
287.0506122135455
 20
234.8508970262630
 30
0.000000000000000
 10
286.2461291156811
 20
235.8787776746716
 30
0.000000000000000
 10
285.4468391390992
 20
236.7855958595748
 30
0.000000000000000
 10
284.6690811506536
 20
237.5801060464048
 30
0.000000000000000
 10
283.9266507221340
 20
238.2727145579198
 30
0.000000000000000
 10
283.1519677405616
 20
238.9323607847703
 30
0.000000000000000
 10
282.2774650796926
 20
239.6108530687173
 30
0.000000000000000
 10
281.2946101701347
 20
240.2948559797886
 30
0.000000000000000
 10
280.3423255501499
 20
240.8795709265308
 30
0.000000000000000
 10
279.7390242392644
 20
241.2127721434140
 30
0.000000000000000
 10
279.5096152109362
 20
241.3343341892505
 30
0.000000000000000
  0
ARC
  5
A3
100
AcDbEntity
  8
A1
  6
CONTINUOUS
 62
7
100
AcDbCircle
 10
273.4935566611282
 20
223.8683523553746
 30
0.000000000000000
 40
17.54671344277210
100
AcDbArc
 50
290.6868202624190
 51
358.2154455968657
  0
ARC
  5
A4
100
AcDbEntity
  8
A1
  6
CONTINUOUS
 62
7
100
AcDbCircle
 10
273.4817060487509
 20
223.2599743402862
 30
0.000000000000000
 40
17.60723968905306
100
AcDbArc
 50
10.68916640911791
 51
20.38431707328212
  0
ARC
  5
A5
100
AcDbEntity
  8
A1
  6
CONTINUOUS
 62
7
100
AcDbCircle
 10
273.4935566611282
 20
223.8683523553746
 30
0.000000000000000
 40
4.600000000000000
100
AcDbArc
 50
143.7378999989625
 51
149.7515227277656
  0
ARC
  5
A6
100
AcDbEntity
  8
A1
  6
CONTINUOUS
 62
7
100
AcDbCircle
 10
273.4935566611282
 20
223.8683523553746
 30
0.000000000000000
 40
4.600000000000000
100
AcDbArc
 50
226.2331497647110
 51
233.7379000012075
  0
ARC
  5
A7
100
AcDbEntity
  8
A1
  6
CONTINUOUS
 62
7
100
AcDbCircle
 10
273.4935566611282
 20
223.8683523553746
 30
0.000000000000000
 40
4.600000000000000
100
AcDbArc
 50
323.7379000010321
 51
330.9541260530754
  0
ARC
  5
A8
100
AcDbEntity
  8
A1
  6
CONTINUOUS
 62
7
100
AcDbCircle
 10
273.4935566611282
 20
223.8683523553746
 30
0.000000000000000
 40
4.600000000000000
100
AcDbArc
 50
46.23314976440610
 51
53.73789999879781
  0
LINE
  5
A9
100
AcDbEntity
  8
A1
  6
CONTINUOUS
 62
7
100
AcDbLine
 10
279.4960828899096
 20
197.9797509759987
 30
0.000000000000000
 11
277.5192956607488
 21
197.6759216643343
 31
0.000000000000000
  0
LINE
  5
AA
100
AcDbEntity
  8
A1
  6
CONTINUOUS
 62
7
100
AcDbLine
 10
279.0384422190752
 20
187.7919855185037
 30
0.000000000000000
 11
281.0152294482361
 21
188.0958148301681
 31
0.000000000000000
  0
SPLINE
  5
AB
100
AcDbEntity
  8
A1
  6
CONTINUOUS
 62
7
100
AcDbSpline
210
0.000000000000000
220
0.000000000000000
230
1.000000000000000
 70
     8
 71
     3
 72
    18
 73
    14
 74
     0
 42
1.000000000000000e-07
 43
1.000000000000000e-07
 12
-0.1765955706578097
 22
-0.9842834979936015
 32
0.000000000000000
 13
-0.7554749290143263
 23
-0.6551775573313989
 33
0.000000000000000
 40
0.000000000000000
 40
0.000000000000000
 40
0.000000000000000
 40
0.000000000000000
 40
0.01580806844326280
 40
0.5524923547053451
 40
1.091646456126818
 40
1.634209778725684
 40
2.192625687895582
 40
2.761047912253172
 40
3.339236864689125
 40
3.927258697809820
 40
4.423022091917585
 40
4.927933720166633
 40
5.436292747908708
 40
5.436292747908708
 40
5.436292747908708
 40
5.436292747908708
 10
281.3678258128422
 20
222.4555942988183
 30
0.000000000000000
 10
281.3668952678863
 20
222.4504077585170
 30
0.000000000000000
 10
281.3341828665098
 20
222.2691729559334
 30
0.000000000000000
 10
281.2572121710115
 20
221.9131962222044
 30
0.000000000000000
 10
281.1078470015079
 20
221.3944125518809
 30
0.000000000000000
 10
280.9213090310896
 20
220.8800580473058
 30
0.000000000000000
 10
280.6957786752439
 20
220.3708469106692
 30
0.000000000000000
 10
280.4294299307983
 20
219.8682381463917
 30
0.000000000000000
 10
280.1226324940240
 20
219.3775525918481
 30
0.000000000000000
 10
279.7953234582221
 20
218.9299395128758
 30
0.000000000000000
 10
279.4537901409129
 20
218.5247878460124
 30
0.000000000000000
 10
279.1063244201859
 20
218.1606428586146
 30
0.000000000000000
 10
278.8580316775121
 20
217.9312742408986
 30
0.000000000000000
 10
278.7300141773797
 20
217.8202524322175
 30
0.000000000000000
  0
SPLINE
  5
AC
100
AcDbEntity
  8
A1
  6
CONTINUOUS
 62
7
100
AcDbSpline
210
0.000000000000000
220
0.000000000000000
230
1.000000000000000
 70
     8
 71
     3
 72
    18
 73
    14
 74
     0
 42
1.000000000000000e-07
 43
1.000000000000000e-07
 12
0.7554750550852987
 22
-0.6551774119604943
 32
0.000000000000000
 13
0.1765957600800903
 23
-0.9842834640003275
 33
0.000000000000000
 40
0.000000000000000
 40
0.000000000000000
 40
0.000000000000000
 40
0.000000000000000
 40
0.5083590277420978
 40
1.013270655991174
 40
1.509034050098903
 40
2.097055883219642
 40
2.675244835655607
 40
3.243667060013181
 40
3.802082969183122
 40
4.344646291756678
 40
4.883800393153363
 40
5.420484679469261
 40
5.436292747909158
 40
5.436292747909158
 40
5.436292747909158
 40
5.436292747909158
 10
278.7300130135888
 20
229.9164532861441
 30
0.000000000000000
 10
278.8580305350843
 20
229.8054315020964
 30
0.000000000000000
 10
279.1063233218937
 20
229.5760629321574
 30
0.000000000000000
 10
279.4537891126906
 20
229.2119180116200
 30
0.000000000000000
 10
279.7953225079599
 20
228.8067664104752
 30
0.000000000000000
 10
280.1226316298929
 20
228.3591533944847
 30
0.000000000000000
 10
280.4294291610859
 20
227.8684678989757
 30
0.000000000000000
 10
280.6957780022451
 20
227.3658591859498
 30
0.000000000000000
 10
280.9213084560700
 20
226.8566480927178
 30
0.000000000000000
 10
281.1078465254614
 20
226.3422936240545
 30
0.000000000000000
 10
281.2572117947950
 20
225.8235099824722
 30
0.000000000000000
 10
281.3341825587869
 20
225.4675332635437
 30
0.000000000000000
 10
281.3668949950419
 20
225.2862984672389
 30
0.000000000000000
 10
281.3678255409957
 20
225.2811119271178
 30
0.000000000000000
  0
CIRCLE
  5
AD
100
AcDbEntity
  8
A1
  6
CONTINUOUS
 62
7
100
AcDbCircle
 10
270.4935566611282
 20
246.8683523553746
 30
0.000000000000000
 40
4.714213562370503
  0
CIRCLE
  5
AE
100
AcDbEntity
  8
A1
  6
CONTINUOUS
 62
7
100
AcDbCircle
 10
270.4935566611282
 20
200.8683523553746
 30
0.000000000000000
 40
4.714213562370503
  0
CIRCLE
  5
AF
100
AcDbEntity
  8
A1
  6
CONTINUOUS
 62
7
100
AcDbCircle
 10
270.4935566611282
 20
200.8683523553746
 30
0.000000000000000
 40
2.249999999977773
  0
CIRCLE
  5
B0
100
AcDbEntity
  8
A1
  6
CONTINUOUS
 62
7
100
AcDbCircle
 10
270.4935566611282
 20
200.8683523553746
 30
0.000000000000000
 40
3.249999999977549
  0
CIRCLE
  5
B1
100
AcDbEntity
  8
A1
  6
CONTINUOUS
 62
7
100
AcDbCircle
 10
270.4935566611282
 20
246.8683523553746
 30
0.000000000000000
 40
2.249999999977773
  0
CIRCLE
  5
B2
100
AcDbEntity
  8
A1
  6
CONTINUOUS
 62
7
100
AcDbCircle
 10
270.4935566611282
 20
246.8683523553746
 30
0.000000000000000
 40
3.249999999977549
  0
ARC
  5
B3
100
AcDbEntity
  8
A1
  6
CONTINUOUS
 62
7
100
AcDbCircle
 10
273.4935566611282
 20
223.8683523553746
 30
0.000000000000000
 40
4.650000000000000
100
AcDbArc
 50
323.7379000010215
 51
329.9336834937642
  0
ARC
  5
B4
100
AcDbEntity
  8
A1
  6
CONTINUOUS
 62
7
100
AcDbCircle
 10
273.4935566611282
 20
223.8683523553746
 30
0.000000000000000
 40
4.650000000000000
100
AcDbArc
 50
45.76197432154667
 51
53.73789999881023
  0
ARC
  5
B5
100
AcDbEntity
  8
A1
  6
CONTINUOUS
 62
7
100
AcDbCircle
 10
273.4935566611282
 20
223.8683523553746
 30
0.000000000000000
 40
4.650000000000000
100
AcDbArc
 50
143.7378999989732
 51
148.8941159441432
  0
ARC
  5
B6
100
AcDbEntity
  8
A1
  6
CONTINUOUS
 62
7
100
AcDbCircle
 10
273.4935566611282
 20
223.8683523553746
 30
0.000000000000000
 40
4.650000000000000
100
AcDbArc
 50
225.7619743218468
 51
233.7379000011952
  0
ARC
  5
B7
100
AcDbEntity
  8
A1
  6
CONTINUOUS
 62
7
100
AcDbCircle
 10
273.4935566611282
 20
223.8683523553746
 30
0.000000000000000
 40
8.000000000000000
100
AcDbArc
 50
349.8285235129125
 51
370.1714875120881
  0
ARC
  5
B8
100
AcDbEntity
  8
A1
  6
CONTINUOUS
 62
7
100
AcDbCircle
 10
267.4935566611282
 20
250.8683471637132
 30
0.000000000000000
 40
4.999999999999998
100
AcDbArc
 50
70.42022850231409
 51
180.0000049999999
  0
ARC
  5
B9
100
AcDbEntity
  8
A1
  6
CONTINUOUS
 62
7
100
AcDbCircle
 10
269.5417746611281
 20
245.8943181637132
 30
0.000000000000000
 40
9.000000000000000
100
AcDbArc
 50
10.17148751208872
 51
70.42021299999999
  0
ARC
  5
BA
100
AcDbEntity
  8
A1
  6
CONTINUOUS
 62
7
100
AcDbCircle
 10
273.4935566611282
 20
223.8683523553746
 30
0.000000000000000
 40
9.000000000000000
100
AcDbArc
 50
349.8285235129125
 51
370.1714875120881
  0
ARC
  5
BB
100
AcDbEntity
  8
A1
  6
CONTINUOUS
 62
7
100
AcDbCircle
 10
269.5417746611281
 20
201.8423621637132
 30
0.000000000000000
 40
9.000000000000000
100
AcDbArc
 50
289.5797707736858
 51
349.8285235129126
  0
ARC
  5
BC
100
AcDbEntity
  8
A1
  6
CONTINUOUS
 62
7
100
AcDbCircle
 10
267.4935687834808
 20
196.8683609865248
 30
0.000000000000000
 40
5.000012122369524
100
AcDbArc
 50
180.0001493973909
 51
289.5797965105111
  0
ARC
  5
BD
100
AcDbEntity
  8
A1
  6
CONTINUOUS
 62
7
100
AcDbCircle
 10
267.4935687834808
 20
196.8683609865248
 30
0.000000000000000
 40
4.000012122369524
100
AcDbArc
 50
180.0001493973909
 51
289.5797965105111
  0
ARC
  5
BE
100
AcDbEntity
  8
A1
  6
CONTINUOUS
 62
7
100
AcDbCircle
 10
269.5417746611281
 20
201.8423621637132
 30
0.000000000000000
 40
8.000000000000000
100
AcDbArc
 50
289.5797675565832
 51
349.8285235129126
  0
ARC
  5
BF
100
AcDbEntity
  8
A1
  6
CONTINUOUS
 62
7
100
AcDbCircle
 10
269.5417746611281
 20
245.8943181637132
 30
0.000000000000000
 40
8.000000000000000
100
AcDbArc
 50
10.17148751208872
 51
70.42021299999999
  0
ARC
  5
C0
100
AcDbEntity
  8
A1
  6
CONTINUOUS
 62
7
100
AcDbCircle
 10
267.4935566611282
 20
250.8683471637132
 30
0.000000000000000
 40
3.999999999999998
100
AcDbArc
 50
70.42026943380436
 51
180.0000049999999
  0
LINE
  5
C1
100
AcDbEntity
  8
A1
  6
CONTINUOUS
 62
7
100
AcDbLine
 10
281.3678255409956
 20
225.2811119271179
 30
0.000000000000000
 11
277.4160435409957
 21
247.3070777354566
 31
0.000000000000000
  0
LINE
  5
C2
100
AcDbEntity
  8
A1
  6
CONTINUOUS
 62
7
100
AcDbLine
 10
262.4935566611282
 20
250.8683467273808
 30
0.000000000000000
 11
262.4935566611282
 21
196.8683479491113
 31
0.000000000000000
  0
LINE
  5
C3
100
AcDbEntity
  8
A1
  6
CONTINUOUS
 62
7
100
AcDbLine
 10
272.5578475209769
 20
254.3738997868881
 30
0.000000000000000
 11
269.1691506611284
 21
255.5792241637135
 31
0.000000000000000
  0
LINE
  5
C4
100
AcDbEntity
  8
A1
  6
CONTINUOUS
 62
7
100
AcDbLine
 10
282.3521091509791
 20
225.4577068735858
 30
0.000000000000000
 11
278.4003271509792
 21
247.4836726819246
 31
0.000000000000000
  0
LINE
  5
C5
100
AcDbEntity
  8
A1
  6
CONTINUOUS
 62
7
100
AcDbLine
 10
278.4003274568065
 20
200.2530093500876
 30
0.000000000000000
 11
282.3521094568066
 21
222.2789995417488
 31
0.000000000000000
  0
LINE
  5
C6
100
AcDbEntity
  8
A1
  6
CONTINUOUS
 62
7
100
AcDbLine
 10
269.1691696611281
 20
192.1574711637132
 30
0.000000000000000
 11
272.5578456611283
 21
193.3627781637131
 31
0.000000000000000
  0
LINE
  5
C7
100
AcDbEntity
  8
A1
  6
CONTINUOUS
 62
7
100
AcDbLine
 10
263.4935566611282
 20
250.8683468146474
 30
0.000000000000000
 11
263.4935566611248
 21
196.8683505565877
 31
0.000000000000000
  0
LINE
  5
C8
100
AcDbEntity
  8
A1
  6
CONTINUOUS
 62
7
100
AcDbLine
 10
268.8340502980869
 20
193.0996468439953
 30
0.000000000000000
 11
272.2227262980869
 21
194.3049538439952
 31
0.000000000000000
  0
LINE
  5
C9
100
AcDbEntity
  8
A1
  6
CONTINUOUS
 62
7
100
AcDbLine
 10
277.4160438128424
 20
200.4296041071569
 30
0.000000000000000
 11
281.3678258128424
 21
222.4555942988183
 31
0.000000000000000
  0
LINE
  5
CA
100
AcDbEntity
  8
A1
  6
CONTINUOUS
 62
7
100
AcDbLine
 10
272.2227283143270
 20
253.4317240509797
 30
0.000000000000000
 11
268.8340290170812
 21
254.6370492947579
 31
0.000000000000000
  0
CIRCLE
  5
CB
100
AcDbEntity
  8
A1
  6
CONTINUOUS
 62
7
100
AcDbCircle
 10
273.4935566611975
 20
223.8683523553053
 30
0.000000000000000
 40
0.9999999999307648
  0
ARC
  5
CC
100
AcDbEntity
  8
A1
  6
CONTINUOUS
 62
7
100
AcDbCircle
 10
267.8512794088846
 20
221.1800057617734
 30
0.000000000000000
 40
0.9999999999999996
100
AcDbArc
 50
205.4761567613763
 51
278.7379000000000
  0
ARC
  5
CD
100
AcDbEntity
  8
A1
  6
CONTINUOUS
 62
7
100
AcDbCircle
 10
273.4935566612554
 20
223.8683523553843
 30
0.000000000000000
 40
7.250000000000000
100
AcDbArc
 50
171.9996432386235
 51
205.4761567613763
  0
ARC
  5
CE
100
AcDbEntity
  8
A1
  6
CONTINUOUS
 62
7
100
AcDbCircle
 10
267.3043866478885
 20
224.7382227742630
 30
0.000000000000000
 40
1.000000000000000
100
AcDbArc
 50
98.73790000000001
 51
171.9996432386235
  0
ARC
  5
CF
100
AcDbEntity
  8
A1
  6
CONTINUOUS
 62
7
100
AcDbCircle
 10
279.1358339136262
 20
226.5566989489951
 30
0.000000000000000
 40
1.000000000000000
100
AcDbArc
 50
25.47615676137636
 51
98.73790000000001
  0
ARC
  5
D0
100
AcDbEntity
  8
A1
  6
CONTINUOUS
 62
7
100
AcDbCircle
 10
273.4935566612554
 20
223.8683523553843
 30
0.000000000000000
 40
7.250000000000001
100
AcDbArc
 50
351.9996432386237
 51
385.4761567613763
  0
ARC
  5
D1
100
AcDbEntity
  8
A1
  6
CONTINUOUS
 62
7
100
AcDbCircle
 10
279.6827266746223
 20
222.9984819365055
 30
0.000000000000000
 40
0.9999999999999998
100
AcDbArc
 50
278.7379000000000
 51
351.9996432386237
  0
ARC
  5
D2
100
AcDbEntity
  8
A1
  6
CONTINUOUS
 62
7
100
AcDbCircle
 10
276.3363614281910
 20
229.4344067080733
 30
0.000000000000000
 40
1.000000000000000
100
AcDbArc
 50
323.7379000000031
 51
422.9447962213111
  0
ARC
  5
D3
100
AcDbEntity
  8
A1
  6
CONTINUOUS
 62
7
100
AcDbCircle
 10
269.1104621966634
 20
228.3237965436177
 30
0.000000000000000
 40
1.000000000000000
100
AcDbArc
 50
134.5310037786888
 51
233.7378999999969
  0
ARC
  5
D4
100
AcDbEntity
  8
A1
  6
CONTINUOUS
 62
7
100
AcDbCircle
 10
273.4935566612554
 20
223.8683523553843
 30
0.000000000000000
 40
7.250000000000000
100
AcDbArc
 50
62.94479622131122
 51
134.5310037786888
  0
ARC
  5
D5
100
AcDbEntity
  8
A1
  6
CONTINUOUS
 62
7
100
AcDbCircle
 10
270.6507518943231
 20
218.3022980026936
 30
0.000000000000000
 40
1.000000000000000
100
AcDbArc
 50
143.7379000000021
 51
242.9447962213457
  0
ARC
  5
D6
100
AcDbEntity
  8
A1
  6
CONTINUOUS
 62
7
100
AcDbCircle
 10
277.8766511258447
 20
219.4129081671483
 30
0.000000000000000
 40
1.000000000000000
100
AcDbArc
 50
314.5310037786545
 51
413.7378999999979
  0
ARC
  5
D7
100
AcDbEntity
  8
A1
  6
CONTINUOUS
 62
7
100
AcDbCircle
 10
273.4935566612554
 20
223.8683523553843
 30
0.000000000000000
 40
7.250000000000000
100
AcDbArc
 50
242.9447962213457
 51
314.5310037786545
  0
ARC
  5
D8
100
AcDbEntity
  8
A1
  6
CONTINUOUS
 62
7
100
AcDbCircle
 10
273.4935566612554
 20
223.8683523553843
 30
0.000000000000000
 40
4.000000000000000
100
AcDbArc
 50
53.73789999994479
 51
143.7379000000553
  0
ARC
  5
D9
100
AcDbEntity
  8
A1
  6
CONTINUOUS
 62
7
100
AcDbCircle
 10
273.4935566612554
 20
223.8683523553843
 30
0.000000000000000
 40
4.000000000000000
100
AcDbArc
 50
233.7378999999983
 51
323.7379000000017
  0
LINE
  5
DA
100
AcDbEntity
  8
A1
  6
CONTINUOUS
 62
7
100
AcDbLine
 10
275.8356977457505
 20
227.0612155125399
 30
0.000000000000000
 11
275.8594764374583
 21
227.0936311979920
 31
0.000000000000000
  0
LINE
  5
DB
100
AcDbEntity
  8
A1
  6
CONTINUOUS
 62
7
100
AcDbLine
 10
276.6864198184111
 20
221.5262112708895
 30
0.000000000000000
 11
276.7188355038631
 21
221.5024325791817
 31
0.000000000000000
  0
LINE
  5
DC
100
AcDbEntity
  8
A1
  6
CONTINUOUS
 62
7
100
AcDbLine
 10
271.1514155767603
 20
220.6754891982287
 30
0.000000000000000
 11
271.1276368850525
 21
220.6430735127768
 31
0.000000000000000
  0
LINE
  5
DD
100
AcDbEntity
  8
A1
  6
CONTINUOUS
 62
7
100
AcDbLine
 10
270.3006935040997
 20
226.2104934398792
 30
0.000000000000000
 11
270.2682778186477
 21
226.2342721315870
 31
0.000000000000000
  0
LINE
  5
DE
100
AcDbEntity
  8
A1
  6
CONTINUOUS
 62
7
100
AcDbLine
 10
276.4509563815120
 20
227.8999509086414
 30
0.000000000000000
 11
277.1426811388430
 21
228.8429267640225
 31
0.000000000000000
  0
LINE
  5
DF
100
AcDbEntity
  8
A1
  6
CONTINUOUS
 62
7
100
AcDbLine
 10
268.5189822526126
 20
227.5174768329658
 30
0.000000000000000
 11
269.4619581079936
 21
226.8257520756347
 31
0.000000000000000
  0
LINE
  5
E0
100
AcDbEntity
  8
A1
  6
CONTINUOUS
 62
7
100
AcDbLine
 10
278.4681310698954
 20
220.2192278778002
 30
0.000000000000000
 11
277.5251552145149
 21
220.9109526351309
 31
0.000000000000000
  0
LINE
  5
E1
100
AcDbEntity
  8
A1
  6
CONTINUOUS
 62
7
100
AcDbLine
 10
270.5361569410019
 20
219.8367538021247
 30
0.000000000000000
 11
269.8444321836712
 21
218.8937779467442
 31
0.000000000000000
  0
LINE
  5
E2
100
AcDbEntity
  8
A1
  6
CONTINUOUS
 62
7
100
AcDbLine
 10
275.8594764374581
 20
227.0936311979921
 30
0.000000000000000
 11
276.4509563815088
 21
227.8999509086441
 31
0.000000000000000
  0
LINE
  5
E3
100
AcDbEntity
  8
A1
  6
CONTINUOUS
 62
7
100
AcDbLine
 10
269.4619581079959
 20
226.8257520756381
 30
0.000000000000000
 11
270.2682778186478
 21
226.2342721315874
 31
0.000000000000000
  0
LINE
  5
E4
100
AcDbEntity
  8
A1
  6
CONTINUOUS
 62
7
100
AcDbLine
 10
271.1276368850528
 20
220.6430735127767
 30
0.000000000000000
 11
270.5361569410021
 21
219.8367538021246
 31
0.000000000000000
  0
LINE
  5
E5
100
AcDbEntity
  8
A1
  6
CONTINUOUS
 62
7
100
AcDbLine
 10
277.5251552145149
 20
220.9109526351307
 30
0.000000000000000
 11
276.7188355038630
 21
221.5024325791814
 31
0.000000000000000
  0
ARC
  5
E6
100
AcDbEntity
  8
A1
  6
CONTINUOUS
 62
7
100
AcDbCircle
 10
-1457.148163764947
 20
7769.458721192882
 30
0.000000000000000
 40
7742.244324247553
100
AcDbArc
 50
282.3856670633124
 51
282.4576561502783
  0
ARC
  5
E7
100
AcDbEntity
  8
A1
  6
CONTINUOUS
 62
7
100
AcDbCircle
 10
144.4935566611727
 20
246.8683523556694
 30
0.000000000000000
 40
4.300000000000000
100
AcDbArc
 50
268.3267853904777
 51
590.7203106825734
  0
CIRCLE
  5
E8
100
AcDbEntity
  8
A1
  6
CONTINUOUS
 62
7
100
AcDbCircle
 10
144.4935566611727
 20
200.8683523556695
 30
0.000000000000000
 40
4.300000000000000
  0
LINE
  5
E9
100
AcDbEntity
  8
A4
  6
CENTER
 62
1
100
AcDbLine
 10
138.6935566611727
 20
200.8683523556695
 30
0.000000000000000
 11
150.2935566611727
 21
200.8683523556695
 31
0.000000000000000
  0
LINE
  5
EA
100
AcDbEntity
  8
A4
  6
CENTER
 62
1
100
AcDbLine
 10
144.4935566611727
 20
206.6683523556694
 30
0.000000000000000
 11
144.4935566611727
 21
195.0683523556694
 31
0.000000000000000
  0
LINE
  5
EB
100
AcDbEntity
  8
A4
  6
CENTER
 62
1
100
AcDbLine
 10
138.6935566611727
 20
246.8683523556694
 30
0.000000000000000
 11
150.2935566611727
 21
246.8683523556694
 31
0.000000000000000
  0
LINE
  5
EC
100
AcDbEntity
  8
A4
  6
CENTER
 62
1
100
AcDbLine
 10
144.4935566611727
 20
252.6683523556694
 30
0.000000000000000
 11
144.4935566611727
 21
241.0683523556694
 31
0.000000000000000
  0
LINE
  5
ED
100
AcDbEntity
  8
A4
  6
CENTER
 62
1
100
AcDbLine
 10
151.9935566611726
 20
223.8683523556694
 30
0.000000000000000
 11
133.4935566611034
 21
223.8683523556001
 31
0.000000000000000
  0
LINE
  5
EE
100
AcDbEntity
  8
A4
  6
CENTER
 62
1
100
AcDbLine
 10
141.4935566611034
 20
215.8683523556001
 30
0.000000000000000
 11
141.4935566611034
 21
231.8683523556001
 31
0.000000000000000
  0
LINE
  5
EF
100
AcDbEntity
  8
A4
  6
CENTER
 62
1
100
AcDbLine
 10
223.9935566611723
 20
223.8683523555012
 30
0.000000000000000
 11
209.9935566611723
 21
223.8683523555012
 31
0.000000000000000
  0
LINE
  5
F0
100
AcDbEntity
  8
A1
  6
CONTINUOUS
 62
7
100
AcDbLine
 10
138.9865473252358
 20
207.5571412631087
 30
0.000000000000000
 11
135.9486717232897
 21
187.7919854234443
 31
0.000000000000000
  0
LINE
  5
F1
100
AcDbEntity
  8
A1
  6
CONTINUOUS
 62
7
100
AcDbLine
 10
136.6029270189024
 20
205.2140199818774
 30
0.000000000000000
 11
133.9718838740573
 21
188.0958148304130
 31
0.000000000000000
  0
LINE
  5
F2
100
AcDbEntity
  8
A1
  6
CONTINUOUS
 62
7
100
AcDbLine
 10
222.4935566611723
 20
191.8683488643512
 30
0.000000000000000
 11
222.4935566611723
 21
255.8683471639090
 31
0.000000000000000
  0
LINE
  5
F3
100
AcDbEntity
  8
A1
  6
CONTINUOUS
 62
7
100
AcDbLine
 10
217.4935566611723
 20
193.8683488643512
 30
0.000000000000000
 11
217.4935566611723
 21
253.8683471639090
 31
0.000000000000000
  0
LINE
  5
F4
100
AcDbEntity
  8
A1
  6
CONTINUOUS
 62
7
100
AcDbLine
 10
215.9935566611723
 20
210.1828166160542
 30
0.000000000000000
 11
215.9935566611723
 21
240.8100070915010
 31
0.000000000000000
  0
LINE
  5
F5
100
AcDbEntity
  8
A1
  6
CONTINUOUS
 62
7
100
AcDbLine
 10
213.9935566611723
 20
211.2547355950078
 30
0.000000000000000
 11
213.9935566611723
 21
240.8100070915011
 31
0.000000000000000
  0
LINE
  5
F6
100
AcDbEntity
  8
A1
  6
CONTINUOUS
 62
7
100
AcDbLine
 10
202.4935566611726
 20
191.7455598816670
 30
0.000000000000000
 11
202.4935566611726
 21
223.3219246348682
 31
0.000000000000000
  0
LINE
  5
F7
100
AcDbEntity
  8
A1
  6
CONTINUOUS
 62
7
100
AcDbLine
 10
279.0384415990036
 20
187.7919854231994
 30
0.000000000000000
 11
277.5192950406771
 21
197.6759215690300
 31
0.000000000000000
  0
LINE
  5
F8
100
AcDbEntity
  8
A1
  6
CONTINUOUS
 62
7
100
AcDbLine
 10
281.0152294482360
 20
188.0958148301679
 30
0.000000000000000
 11
278.8023159694667
 21
202.4935669104529
 31
0.000000000000000
  0
LINE
  5
F9
100
AcDbEntity
  8
A4
  6
CENTER
 62
1
100
AcDbLine
 10
215.9935566611723
 20
246.8683523555704
 30
0.000000000000000
 11
223.9935566611723
 21
246.8683523555704
 31
0.000000000000000
  0
LINE
  5
FA
100
AcDbEntity
  8
A4
  6
CENTER
 62
1
100
AcDbLine
 10
215.9935566611723
 20
200.8683523555704
 30
0.000000000000000
 11
223.9935566611723
 21
200.8683523555704
 31
0.000000000000000
  0
LINE
  5
FB
100
AcDbEntity
  8
A4
  6
CENTER
 62
1
100
AcDbLine
 10
264.2793430987577
 20
246.8683523553746
 30
0.000000000000000
 11
276.7077702234987
 21
246.8683523553746
 31
0.000000000000000
  0
LINE
  5
FC
100
AcDbEntity
  8
A4
  6
CENTER
 62
1
100
AcDbLine
 10
270.4935566611282
 20
253.0825659177451
 30
0.000000000000000
 11
270.4935566611282
 21
240.6541387930041
 31
0.000000000000000
  0
LINE
  5
FD
100
AcDbEntity
  8
A4
  6
CENTER
 62
1
100
AcDbLine
 10
273.4935566611282
 20
233.3683523553746
 30
0.000000000000000
 11
273.4935566611282
 21
214.3683523553746
 31
0.000000000000000
  0
LINE
  5
FE
100
AcDbEntity
  8
A4
  6
CENTER
 62
1
100
AcDbLine
 10
264.2793430987577
 20
200.8683523553746
 30
0.000000000000000
 11
276.7077702234987
 21
200.8683523553746
 31
0.000000000000000
  0
LINE
  5
FF
100
AcDbEntity
  8
A4
  6
CENTER
 62
1
100
AcDbLine
 10
270.4935566611282
 20
207.0825659177451
 30
0.000000000000000
 11
270.4935566611282
 21
194.6541387930041
 31
0.000000000000000
  0
LINE
  5
100
100
AcDbEntity
  8
A4
  6
CENTER
 62
1
100
AcDbLine
 10
282.9935566611283
 20
223.8683523553746
 30
0.000000000000000
 11
263.9935566611282
 21
223.8683523553746
 31
0.000000000000000
  0
LINE
  5
101
100
AcDbEntity
  8
A1
  6
CONTINUOUS
 62
7
100
AcDbLine
 10
269.5621525006177
 20
212.3950128202467
 30
0.000000000000000
 11
268.2668356619617
 21
226.7176672062467
 31
0.000000000000000
  0
ARC
  5
102
100
AcDbEntity
  8
A1
  6
CONTINUOUS
 62
7
100
AcDbCircle
 10
268.5662171289244
 20
212.3049420957568
 30
0.000000000000000
 40
2.200000000000000
100
AcDbArc
 50
332.9137723052018
 51
365.1676758305395
  0
ARC
  5
103
100
AcDbEntity
  8
A1
  6
CONTINUOUS
 62
7
100
AcDbCircle
 10
268.5662171289244
 20
212.3049420957566
 30
0.000000000000000
 40
1.000000000000000
100
AcDbArc
 50
332.9137723052012
 51
365.1676758305392
  0
ARC
  5
104
100
AcDbEntity
  8
A1
  6
CONTINUOUS
 62
7
100
AcDbCircle
 10
257.5253239586117
 20
220.9931094084405
 30
0.000000000000000
 40
20.00000000000000
100
AcDbArc
 50
359.7646375107810
 51
363.6885984705577
  0
ARC
  5
105
100
AcDbEntity
  8
A1
  6
CONTINUOUS
 62
7
100
AcDbCircle
 10
257.5253239586117
 20
220.9931094084405
 30
0.000000000000000
 40
21.20000000000000
100
AcDbArc
 50
357.2579630651949
 51
363.6885984705577
  0
LINE
  5
106
100
AcDbEntity
  8
A1
  6
CONTINUOUS
 62
7
100
AcDbLine
 10
277.0794700536104
 20
247.2058217025649
 30
0.000000000000000
 11
278.6814068881150
 21
222.3569844320336
 31
0.000000000000000
  0
LINE
  5
107
100
AcDbEntity
  8
A1
  6
CONTINUOUS
 62
7
100
AcDbLine
 10
278.6171064824788
 20
218.7408026212464
 30
0.000000000000000
 11
277.2117733176847
 21
199.5683523553745
 31
0.000000000000000
  0
LINE
  5
108
100
AcDbEntity
  8
A1
  6
CONTINUOUS
 62
7
100
AcDbLine
 10
277.3392354580176
 20
217.7223573511451
 30
0.000000000000000
 11
276.0149840851419
 21
199.6560765417170
 31
0.000000000000000
  0
LINE
  5
109
100
AcDbEntity
  8
A1
  6
CONTINUOUS
 62
7
100
AcDbLine
 10
276.0149840851418
 20
199.6560765417169
 30
0.000000000000000
 11
277.2117733176847
 21
199.5683523553747
 31
0.000000000000000
  0
LINE
  5
10A
100
AcDbEntity
  8
A1
  6
CONTINUOUS
 62
7
100
AcDbLine
 10
268.2058510172728
 20
227.8975587999563
 30
0.000000000000000
 11
268.2647094644423
 21
226.7411771239110
 31
0.000000000000000
  0
LINE
  5
10B
100
AcDbEntity
  8
A1
  6
CONTINUOUS
 62
7
100
AcDbLine
 10
267.5922638283304
 20
239.9525995981874
 30
0.000000000000000
 11
268.1672481719096
 21
228.6559821897670
 31
0.000000000000000
  0
LINE
  5
10C
100
AcDbEntity
  8
A1
  6
CONTINUOUS
 62
7
100
AcDbLine
 10
269.5283370062922
 20
226.0917833735519
 30
0.000000000000000
 11
270.3006935040996
 21
226.2104934398791
 31
0.000000000000000
  0
LINE
  5
10D
100
AcDbEntity
  8
A1
  6
CONTINUOUS
 62
7
100
AcDbLine
 10
267.1524719920562
 20
225.7266163888434
 30
0.000000000000000
 11
268.3399582931318
 21
225.9091312999803
 31
0.000000000000000
  0
LINE
  5
10E
100
AcDbEntity
  8
A1
  6
CONTINUOUS
 62
7
100
AcDbLine
 10
270.0337138862366
 20
220.5037000798714
 30
0.000000000000000
 11
271.1514155767603
 21
220.6754891982289
 31
0.000000000000000
  0
LINE
  5
10F
100
AcDbEntity
  8
A1
  6
CONTINUOUS
 62
7
100
AcDbLine
 10
268.0031940647169
 20
220.1916121471931
 30
0.000000000000000
 11
268.8453351730762
 21
220.3210480062996
 31
0.000000000000000
  0
LINE
  5
110
100
AcDbEntity
  8
A1
  6
CONTINUOUS
 62
7
100
AcDbLine
 10
270.7572749466495
 20
212.5030976896348
 30
0.000000000000000
 11
270.3188952921804
 21
217.3503752772025
 31
0.000000000000000
  0
LINE
  5
111
100
AcDbEntity
  8
A1
  6
CONTINUOUS
 62
7
100
AcDbLine
 10
270.1425573743614
 20
219.3001893896232
 30
0.000000000000000
 11
269.4619581079936
 21
226.8257520756348
 31
0.000000000000000
  0
ARC
  5
112
100
AcDbEntity
  8
A1
  6
CONTINUOUS
 62
7
100
AcDbCircle
 10
273.4935566611282
 20
223.8683523553746
 30
0.000000000000000
 40
8.000000000000000
100
AcDbArc
 50
132.2971723895611
 51
236.9533724308485
  0
ARC
  5
113
100
AcDbEntity
  8
A1
  6
CONTINUOUS
 62
7
100
AcDbCircle
 10
273.4935566611282
 20
223.8683523553746
 30
0.000000000000000
 40
8.000000000000000
100
AcDbArc
 50
64.67717963816229
 51
121.8939240539911
  0
ARC
  5
114
100
AcDbEntity
  8
A1
  6
CONTINUOUS
 62
7
100
AcDbCircle
 10
273.4935566611282
 20
223.8683523553746
 30
0.000000000000000
 40
8.000000000000000
100
AcDbArc
 50
49.11392878106852
 51
54.26980668945513
  0
LINE
  5
115
100
AcDbEntity
  8
A1
  6
CONTINUOUS
 62
7
100
AcDbLine
 10
277.0674007204718
 20
228.7403026839172
 30
0.000000000000000
 11
277.4838927600300
 21
222.2797839590000
 31
0.000000000000000
  0
LINE
  5
116
100
AcDbEntity
  8
A1
  6
CONTINUOUS
 62
7
100
AcDbLine
 10
275.8819559255253
 20
247.1286212295313
 30
0.000000000000000
 11
276.9729355622064
 21
230.2056222239329
 31
0.000000000000000
  0
LINE
  5
117
100
AcDbEntity
  8
A1
  6
CONTINUOUS
 62
7
100
AcDbLine
 10
278.9839192577939
 20
227.5450925635756
 30
0.000000000000000
 11
278.3531932576882
 21
227.4481508980114
 31
0.000000000000000
  0
LINE
  5
118
100
AcDbEntity
  8
A1
  6
CONTINUOUS
 62
7
100
AcDbLine
 10
277.1625002383349
 20
227.2651431189560
 30
0.000000000000000
 11
275.8356977457506
 21
227.0612155125399
 31
0.000000000000000
  0
LINE
  5
119
100
AcDbEntity
  8
A1
  6
CONTINUOUS
 62
7
100
AcDbLine
 10
279.8346413304545
 20
222.0100883219252
 30
0.000000000000000
 11
278.7085210675423
 21
221.8370052812799
 31
0.000000000000000
  0
LINE
  5
11A
100
AcDbEntity
  8
A1
  6
CONTINUOUS
 62
7
100
AcDbLine
 10
277.5144189662711
 20
221.6534735313098
 30
0.000000000000000
 11
276.6864198184112
 21
221.5262112708895
 31
0.000000000000000
  0
ARC
  5
11B
100
AcDbEntity
  8
A1
  6
CONTINUOUS
 62
7
100
AcDbCircle
 10
273.4935566611282
 20
223.8683523553746
 30
0.000000000000000
 40
8.000000000000000
100
AcDbArc
 50
309.0893982070186
 51
310.8860822439315
  0
ARC
  5
11C
100
AcDbEntity
  8
A1
  6
CONTINUOUS
 62
7
100
AcDbCircle
 10
273.4935566611282
 20
223.8683523553746
 30
0.000000000000000
 40
8.000000000000000
100
AcDbArc
 50
247.2239223536748
 51
298.1913562839765
  0
LINE
  5
11D
100
AcDbEntity
  8
A1
  6
CONTINUOUS
 62
7
100
AcDbLine
 10
271.0911015290437
 20
222.5301784734290
 30
0.000000000000000
 11
272.9386120694977
 21
221.1749276766021
 31
0.000000000000000
  0
LINE
  5
11E
100
AcDbEntity
  8
A1
  6
CONTINUOUS
 62
7
100
AcDbLine
 10
274.0485012338071
 20
226.5617770380518
 30
0.000000000000000
 11
275.8960118026285
 21
225.2065262204157
 31
0.000000000000000
  0
LINE
  5
11F
100
AcDbEntity
  8
A1
  6
CONTINUOUS
 62
7
100
AcDbLine
 10
276.1869813438053
 20
223.3134077826960
 30
0.000000000000000
 11
274.8317305261691
 21
221.4658972138744
 31
0.000000000000000
  0
LINE
  5
120
100
AcDbEntity
  8
A1
  6
CONTINUOUS
 62
7
100
AcDbLine
 10
272.1553827791829
 20
226.2708074874593
 30
0.000000000000000
 11
270.8001319823558
 21
224.4232969470052
 31
0.000000000000000
  0
ARC
  5
121
100
AcDbEntity
  8
A1
  6
CONTINUOUS
 62
7
100
AcDbCircle
 10
273.4935566611282
 20
223.8683523553746
 30
0.000000000000000
 40
2.750000000000000
100
AcDbArc
 50
348.3578775488044
 51
389.1179224883341
  0
ARC
  5
122
100
AcDbEntity
  8
A1
  6
CONTINUOUS
 62
7
100
AcDbCircle
 10
273.4935566611282
 20
223.8683523553746
 30
0.000000000000000
 40
2.750000000000000
100
AcDbArc
 50
258.3578771456458
 51
299.1179224883312
  0
ARC
  5
123
100
AcDbEntity
  8
A1
  6
CONTINUOUS
 62
7
100
AcDbCircle
 10
273.4935566611282
 20
223.8683523553746
 30
0.000000000000000
 40
2.750000000000000
100
AcDbArc
 50
168.3578771456488
 51
209.1179228914887
  0
ARC
  5
124
100
AcDbEntity
  8
A1
  6
CONTINUOUS
 62
7
100
AcDbCircle
 10
273.4935566611282
 20
223.8683523553746
 30
0.000000000000000
 40
2.750000000000000
100
AcDbArc
 50
78.35787754880053
 51
119.1179228914860
  0
LINE
  5
125
100
AcDbEntity
  8
A1
  6
CONTINUOUS
 62
7
100
AcDbLine
 10
273.3040212476117
 20
226.6118130033562
 30
0.000000000000000
 11
273.0423931513930
 21
226.8037316302597
 31
0.000000000000000
  0
LINE
  5
126
100
AcDbEntity
  8
A1
  6
CONTINUOUS
 62
7
100
AcDbLine
 10
273.0423931513930
 20
226.8037316302597
 30
0.000000000000000
 11
272.8504745245089
 21
226.5421035340675
 31
0.000000000000000
  0
LINE
  5
127
100
AcDbEntity
  8
A1
  6
CONTINUOUS
 62
7
100
AcDbLine
 10
270.7500960131659
 20
223.6788169415802
 30
0.000000000000000
 11
270.5581773863799
 21
223.4171888455216
 31
0.000000000000000
  0
LINE
  5
128
100
AcDbEntity
  8
A1
  6
CONTINUOUS
 62
7
100
AcDbLine
 10
270.5581773863798
 20
223.4171888455217
 30
0.000000000000000
 11
270.8198054824405
 21
223.2252702187341
 31
0.000000000000000
  0
LINE
  5
129
100
AcDbEntity
  8
A1
  6
CONTINUOUS
 62
7
100
AcDbLine
 10
273.6830920749013
 20
221.1248917074108
 30
0.000000000000000
 11
273.9447201711180
 21
220.9329730805088
 31
0.000000000000000
  0
LINE
  5
12A
100
AcDbEntity
  8
A1
  6
CONTINUOUS
 62
7
100
AcDbLine
 10
273.9447201711179
 20
220.9329730805088
 30
0.000000000000000
 11
274.1366387980393
 21
221.1946011767519
 31
0.000000000000000
  0
LINE
  5
12B
100
AcDbEntity
  8
A1
  6
CONTINUOUS
 62
7
100
AcDbLine
 10
276.2370173091112
 20
224.0578877688698
 30
0.000000000000000
 11
276.4289359361309
 21
224.3195158652469
 31
0.000000000000000
  0
LINE
  5
12C
100
AcDbEntity
  8
A1
  6
CONTINUOUS
 62
7
100
AcDbLine
 10
276.4289359361309
 20
224.3195158652468
 30
0.000000000000000
 11
276.1673078397558
 21
224.5114344922650
 31
0.000000000000000
  0
LINE
  5
12D
100
AcDbEntity
  8
A5
  6
PHANTOM
 62
6
100
AcDbLine
 10
139.1498580991771
 20
243.0101770246225
 30
0.000000000000000
 11
135.2735431545705
 21
259.8900324176014
 31
0.000000000000000
  0
LINE
  5
12E
100
AcDbEntity
  8
A5
  6
PHANTOM
 62
6
100
AcDbLine
 10
135.2735431545704
 20
259.8900324176013
 30
0.000000000000000
 11
133.3242802338566
 21
259.4424007990465
 31
0.000000000000000
  0
LINE
  5
12F
100
AcDbEntity
  8
A5
  6
PHANTOM
 62
6
100
AcDbLine
 10
137.7999806837076
 20
239.9524500802191
 30
0.000000000000000
 11
133.3242796224186
 21
259.4424006586349
 31
0.000000000000000
  0
SPLINE
  5
130
100
AcDbEntity
  8
A5
  6
PHANTOM
 62
6
100
AcDbSpline
210
0.000000000000000
220
0.000000000000000
230
1.000000000000000
 70
     8
 71
     3
 72
    23
 73
    19
 74
     0
 42
1.000000000000000e-07
 43
1.000000000000000e-07
 12
-0.9998422622613816
 22
-0.01776092890486325
 32
0.000000000000000
 13
-0.2241547535011250
 23
0.9745535626552737
 33
0.000000000000000
 40
0.000000000000000
 40
0.000000000000000
 40
0.000000000000000
 40
0.000000000000000
 40
0.3295619766893667
 40
0.6591270962650235
 40
0.9983964339692053
 40
1.337669791992448
 40
1.667179426967875
 40
1.996693228387137
 40
2.335503333470164
 40
2.674318197464538
 40
3.008851002781707
 40
3.343387942344111
 40
3.687208374752585
 40
4.031032533059968
 40
4.403721720152232
 40
4.776414273788101
 40
5.161651519285352
 40
5.546889710050777
 40
5.546889710050777
 40
5.546889710050777
 40
5.546889710050777
 10
141.2122903484174
 20
239.3658001861424
 30
0.000000000000000
 10
141.1024536843079
 20
239.3638490771965
 30
0.000000000000000
 10
140.8825048195460
 20
239.3691038231809
 30
0.000000000000000
 10
140.5512649947108
 20
239.4049270465979
 30
0.000000000000000
 10
140.2210542835573
 20
239.4694461392084
 30
0.000000000000000
 10
139.8975638369774
 20
239.5618437388154
 30
0.000000000000000
 10
139.5860939927644
 20
239.6800419984604
 30
0.000000000000000
 10
139.2854856961698
 20
239.8232651996585
 30
0.000000000000000
 10
138.9951652303724
 20
239.9926269073934
 30
0.000000000000000
 10
138.7185686504088
 20
240.1865034001180
 30
0.000000000000000
 10
138.4601213018158
 20
240.4017421363498
 30
0.000000000000000
 10
138.2188094918157
 20
240.6384140769107
 30
0.000000000000000
 10
137.9958478460423
 20
240.8965883164321
 30
0.000000000000000
 10
137.7874678222448
 20
241.1825652444398
 30
0.000000000000000
 10
137.5995893221358
 20
241.4938160786636
 30
0.000000000000000
 10
137.4339985699054
 20
241.8329178070698
 30
0.000000000000000
 10
137.2984019340505
 20
242.1895871176743
 30
0.000000000000000
 10
137.2293788616405
 20
242.4374003094061
 30
0.000000000000000
 10
137.2005945377438
 20
242.5625453931665
 30
0.000000000000000
  0
SPLINE
  5
131
100
AcDbEntity
  8
A5
  6
PHANTOM
 62
6
100
AcDbSpline
210
0.000000000000000
220
0.000000000000000
230
1.000000000000000
 70
     8
 71
     3
 72
     9
 73
     5
 74
     0
 42
1.000000000000000e-07
 43
1.000000000000000e-07
 12
-0.4212835250040143
 22
0.9069289892599954
 32
0.000000000000000
 13
-0.2236260861858455
 23
0.9746750092094771
 33
0.000000000000000
 40
0.000000000000000
 40
0.000000000000000
 40
0.000000000000000
 40
0.000000000000000
 40
0.6480640599851742
 40
1.297573210167191
 40
1.297573210167191
 40
1.297573210167191
 40
1.297573210167191
 10
138.2201117593048
 20
238.7266628636349
 30
0.000000000000000
 10
138.1291055220985
 20
238.9225788912675
 30
0.000000000000000
 10
137.9671171583786
 20
239.3245853959246
 30
0.000000000000000
 10
137.8483964134400
 20
239.7414299679072
 30
0.000000000000000
 10
137.7999806837077
 20
239.9524500802190
 30
0.000000000000000
  0
LINE
  5
132
100
AcDbEntity
  8
A5
  6
PHANTOM
 62
6
100
AcDbLine
 10
140.5177419398306
 20
237.0535708781713
 30
0.000000000000000
 11
140.7291976396991
 21
236.1327629235010
 31
0.000000000000000
  0
SPLINE
  5
133
100
AcDbEntity
  8
A5
  6
PHANTOM
 62
6
100
AcDbSpline
210
0.000000000000000
220
0.000000000000000
230
1.000000000000000
 70
     8
 71
     3
 72
    13
 73
     9
 74
     0
 42
1.000000000000000e-07
 43
1.000000000000000e-07
 12
0.7094967127291056
 22
-0.7047087445348552
 32
0.000000000000000
 13
0.9526507669638704
 23
-0.3040666311921996
 33
0.000000000000000
 40
0.000000000000000
 40
0.000000000000000
 40
0.000000000000000
 40
0.000000000000000
 40
0.3154904748712180
 40
0.6328745677494811
 40
0.9490760097717084
 40
1.265273742438776
 40
1.589627480919971
 40
1.913976787342362
 40
1.913976787342362
 40
1.913976787342362
 40
1.913976787342362
 10
138.9976782723833
 20
237.6029965589184
 30
0.000000000000000
 10
139.0722914239895
 20
237.5288869267654
 30
0.000000000000000
 10
139.2277460920593
 20
237.3859156957698
 30
0.000000000000000
 10
139.4766841221387
 20
237.1901954789158
 30
0.000000000000000
 10
139.7403392286706
 20
237.0143467491597
 30
0.000000000000000
 10
140.0189139767408
 20
236.8584170290347
 30
0.000000000000000
 10
140.3115264158476
 20
236.7240882387909
 30
0.000000000000000
 10
140.5149698479235
 20
236.6500037953650
 30
0.000000000000000
 10
140.6179670530993
 20
236.6171291950539
 30
0.000000000000000
  0
ARC
  5
134
100
AcDbEntity
  8
A5
  6
PHANTOM
 62
6
100
AcDbCircle
 10
141.7168886656189
 20
240.8113924417700
 30
0.000000000000000
 40
3.944512108463647
100
AcDbArc
 50
252.3017589781265
 51
269.2297133387108
  0
SPLINE
  5
135
100
AcDbEntity
  8
A5
  6
PHANTOM
 62
6
100
AcDbSpline
210
0.000000000000000
220
0.000000000000000
230
1.000000000000000
 70
     8
 71
     3
 72
    12
 73
     8
 74
     0
 42
1.000000000000000e-07
 43
1.000000000000000e-07
 12
-0.7085152424785974
 22
0.7056955088241921
 32
0.000000000000000
 13
-0.4220191203548893
 23
0.9065869302257852
 33
0.000000000000000
 40
0.000000000000000
 40
0.000000000000000
 40
0.000000000000000
 40
0.000000000000000
 40
0.3326575956942814
 40
0.6681388689883675
 40
0.9811490224800929
 40
1.280138307047628
 40
1.373250948403831
 40
1.373250948403831
 40
1.373250948403831
 40
1.373250948403831
 10
138.9976782723833
 20
237.6029965589184
 30
0.000000000000000
 10
138.9191139466914
 20
237.6812482160043
 30
0.000000000000000
 10
138.7682596803985
 20
237.8455905575642
 30
0.000000000000000
 10
138.5701205545194
 20
238.1063327515450
 30
0.000000000000000
 10
138.4005920291877
 20
238.3731815091281
 30
0.000000000000000
 10
138.2896606400411
 20
238.5806369437204
 30
0.000000000000000
 10
138.2332101976379
 20
238.6985246290708
 30
0.000000000000000
 10
138.2201117593048
 20
238.7266628636349
 30
0.000000000000000
  0
ARC
  5
136
100
AcDbEntity
  8
A5
  6
PHANTOM
 62
6
100
AcDbCircle
 10
141.4935566610535
 20
223.8683523555680
 30
0.000000000000000
 40
13.00000000000000
100
AcDbArc
 50
12.93325326520022
 51
89.24938870193347
  0
ARC
  5
137
100
AcDbEntity
  8
A5
  6
PHANTOM
 62
6
100
AcDbCircle
 10
141.4935566610535
 20
223.8683523555680
 30
0.000000000000000
 40
15.50000000000000
100
AcDbArc
 50
26.27606761924381
 51
91.03975852836183
  0
SPLINE
  5
138
100
AcDbEntity
  8
A5
  6
PHANTOM
 62
6
100
AcDbSpline
210
0.000000000000000
220
0.000000000000000
230
1.000000000000000
 70
     8
 71
     3
 72
    15
 73
    11
 74
     0
 42
1.000000000000000e-07
 43
1.000000000000000e-07
 12
0.2258636983194720
 22
-0.9741589140285214
 32
0.000000000000000
 13
0.9998677795690583
 23
0.01626110011920900
 33
0.000000000000000
 40
0.000000000000000
 40
0.000000000000000
 40
0.000000000000000
 40
0.000000000000000
 40
0.3515403625610908
 40
0.7030678188235133
 40
1.054793190029666
 40
1.406483099690128
 40
1.754179280374890
 40
2.101833669280690
 40
2.437296768145645
 40
2.772733031747653
 40
2.772733031747653
 40
2.772733031747653
 40
2.772733031747653
 10
139.1498580991772
 20
243.0101770246224
 30
0.000000000000000
 10
139.1763248346428
 20
242.8960249653458
 30
0.000000000000000
 10
139.2481159254089
 20
242.6716264686125
 30
0.000000000000000
 10
139.4100777136649
 20
242.3577122046528
 30
0.000000000000000
 10
139.6234203888136
 20
242.0760491826011
 30
0.000000000000000
 10
139.8797908145548
 20
241.8346970444236
 30
0.000000000000000
 10
140.1731671535635
 20
241.6424976640793
 30
0.000000000000000
 10
140.4898069603225
 20
241.5046333754234
 30
0.000000000000000
 10
140.8214879773999
 20
241.4249415925635
 30
0.000000000000000
 10
141.0458553821429
 20
241.4100321419748
 30
0.000000000000000
 10
141.1576526861678
 20
241.4118503295302
 30
0.000000000000000
  0
ARC
  5
139
100
AcDbEntity
  8
A5
  6
PHANTOM
 62
6
100
AcDbCircle
 10
141.4935566610535
 20
223.8683523555680
 30
0.000000000000000
 40
17.54671344277210
100
AcDbArc
 50
23.45570766863978
 51
91.09690375045724
  0
SPLINE
  5
13A
100
AcDbEntity
  8
A5
  6
PHANTOM
 62
6
100
AcDbSpline
210
0.000000000000000
220
0.000000000000000
230
1.000000000000000
 70
     8
 71
     3
 72
    11
 73
     7
 74
     0
 42
1.000000000000000e-07
 43
1.000000000000000e-07
 12
-0.1903534083523937
 22
0.9817156308876065
 32
0.000000000000000
 13
-0.3981374946315555
 23
0.9173257520467359
 33
0.000000000000000
 40
0.000000000000000
 40
0.000000000000000
 40
0.000000000000000
 40
0.000000000000000
 40
0.7914465647295599
 40
1.590206842745151
 40
2.402401426320837
 40
3.219441277696507
 40
3.219441277696507
 40
3.219441277696507
 40
3.219441277696507
 10
158.5426829667373
 20
227.7835389227170
 30
0.000000000000000
 10
158.4924647830290
 20
228.0425307439195
 30
0.000000000000000
 10
158.3775438703036
 20
228.5603027492876
 30
0.000000000000000
 10
158.1617135955829
 20
229.3318662190644
 30
0.000000000000000
 10
157.9013742281028
 20
230.0985946417374
 30
0.000000000000000
 10
157.6987823928625
 20
230.6028159475325
 30
0.000000000000000
 10
157.5903509930488
 20
230.8526465129043
 30
0.000000000000000
  0
SPLINE
  5
13B
100
AcDbEntity
  8
A5
  6
PHANTOM
 62
6
100
AcDbSpline
210
0.000000000000000
220
0.000000000000000
230
1.000000000000000
 70
     8
 71
     3
 72
    11
 73
     7
 74
     0
 42
1.000000000000000e-07
 43
1.000000000000000e-07
 12
0.4428537055749757
 22
-0.8965938854680644
 32
0.000000000000000
 13
0.1871013389170457
 23
-0.9823406175943319
 33
0.000000000000000
 40
0.000000000000000
 40
0.000000000000000
 40
0.000000000000000
 40
0.000000000000000
 40
0.8909745823171505
 40
1.785877403215460
 40
2.694870356963930
 40
3.604741470919019
 40
3.604741470919019
 40
3.604741470919019
 40
3.604741470919019
 10
155.3919637097318
 20
230.7301510635782
 30
0.000000000000000
 10
155.5234875081825
 20
230.4638702760405
 30
0.000000000000000
 10
155.7695412149093
 20
229.9212485737583
 30
0.000000000000000
 10
156.0857265482157
 20
229.0797578382747
 30
0.000000000000000
 10
156.3460419888505
 20
228.2127123359016
 30
0.000000000000000
 10
156.4799566092906
 20
227.6208170868273
 30
0.000000000000000
 10
156.5367026438448
 20
227.3228826361560
 30
0.000000000000000
  0
ARC
  5
13C
100
AcDbEntity
  8
A5
  6
PHANTOM
 62
6
100
AcDbCircle
 10
141.2578824903088
 20
224.4293531857818
 30
0.000000000000000
 40
17.60723968905409
100
AcDbArc
 50
1.286836192223493
 51
10.98198685638719
  0
SPLINE
  5
13D
100
AcDbEntity
  8
A5
  6
PHANTOM
 62
6
100
AcDbSpline
210
0.000000000000000
220
0.000000000000000
230
1.000000000000000
 70
     8
 71
     3
 72
    11
 73
     7
 74
     0
 42
1.000000000000000e-07
 43
1.000000000000000e-07
 12
0.1869239677129144
 22
-0.9823743839772305
 32
0.000000000000000
 13
-0.01152078085294761
 23
-0.9999336336016995
 33
0.000000000000000
 40
0.000000000000000
 40
0.000000000000000
 40
0.000000000000000
 40
0.000000000000000
 40
0.8136418419050404
 40
1.623216093954848
 40
2.433916775170910
 40
3.237491704625319
 40
3.237491704625319
 40
3.237491704625319
 40
3.237491704625319
 10
156.5367026438448
 20
227.3228826361560
 30
0.000000000000000
 10
156.5873990309736
 20
227.0564490017495
 30
0.000000000000000
 10
156.6753153784380
 20
226.5223000736753
 30
0.000000000000000
 10
156.7671909164784
 20
225.7158901483430
 30
0.000000000000000
 10
156.8184833548973
 20
224.9092403046083
 30
0.000000000000000
 10
156.8256566059078
 20
224.3709337723555
 30
0.000000000000000
 10
156.8225706690207
 20
224.1030932393286
 30
0.000000000000000
  0
ARC
  5
13E
100
AcDbEntity
  8
A5
  6
PHANTOM
 62
6
100
AcDbCircle
 10
136.8153256513400
 20
222.7940364710363
 30
0.000000000000000
 40
17.80000000000013
100
AcDbArc
 50
298.5774629640571
 51
372.9332532652825
  0
SPLINE
  5
13F
100
AcDbEntity
  8
A5
  6
PHANTOM
 62
6
100
AcDbSpline
210
0.000000000000000
220
0.000000000000000
230
1.000000000000000
 70
     8
 71
     3
 72
    24
 73
    20
 74
     0
 42
1.000000000000000e-07
 43
1.000000000000000e-07
 12
-0.01179663685041987
 22
-0.9999304172589518
 32
0.000000000000000
 13
-0.8166700215155061
 23
-0.5771049089712506
 33
0.000000000000000
 40
0.000000000000000
 40
0.000000000000000
 40
0.000000000000000
 40
0.000000000000000
 40
0.9965371271563505
 40
1.994844928735737
 40
2.994111029633749
 40
3.993536093732885
 40
5.200321329633569
 40
6.413965577893726
 40
7.632768369619987
 40
8.855016710094214
 40
10.07906749880277
 40
11.30342972141473
 40
12.49481252938067
 40
13.69525622024258
 40
14.90250178262609
 40
16.11428710250248
 40
17.32843640441007
 40
18.54294956294972
 40
19.15015686915572
 40
19.15015686915572
 40
19.15015686915572
 40
19.15015686915572
 10
156.8225706690207
 20
224.1030932393286
 30
0.000000000000000
 10
156.8186520734884
 20
223.7709373108715
 30
0.000000000000000
 10
156.7944695327236
 20
223.1061103436599
 30
0.000000000000000
 10
156.7089744627533
 20
222.1113561338178
 30
0.000000000000000
 10
156.5745590587132
 20
221.1210278118585
 30
0.000000000000000
 10
156.3788878076520
 20
220.0701737901161
 30
0.000000000000000
 10
156.1082120833651
 20
218.9620831162818
 30
0.000000000000000
 10
155.7498193871286
 20
217.8024076111136
 30
0.000000000000000
 10
155.3213747354891
 20
216.6612377328629
 30
0.000000000000000
 10
154.8245314991749
 20
215.5443376136841
 30
0.000000000000000
 10
154.2609881235789
 20
214.4574629972387
 30
0.000000000000000
 10
153.6379693723384
 20
213.4154792036025
 30
0.000000000000000
 10
152.9568278575247
 20
212.4201101512171
 30
0.000000000000000
 10
152.2215184772317
 20
211.4713036927550
 30
0.000000000000000
 10
151.4275257703510
 20
210.5619895787871
 30
0.000000000000000
 10
150.5785523987649
 20
209.6973532815327
 30
0.000000000000000
 10
149.6784120766216
 20
208.8825006346111
 30
0.000000000000000
 10
148.8882560354801
 20
208.2492096686978
 30
0.000000000000000
 10
148.3976068897761
 20
207.8912861393465
 30
0.000000000000000
 10
148.2323108885015
 20
207.7744787002883
 30
0.000000000000000
  0
SPLINE
  5
140
100
AcDbEntity
  8
A5
  6
PHANTOM
 62
6
100
AcDbSpline
210
0.000000000000000
220
0.000000000000000
230
1.000000000000000
 70
     8
 71
     3
 72
    27
 73
    23
 74
     0
 42
1.000000000000000e-07
 43
1.000000000000000e-07
 12
0.02195974339275608
 22
-0.9997588557600920
 32
0.000000000000000
 13
-0.8347741127520862
 23
-0.5505925723057317
 33
0.000000000000000
 40
0.000000000000000
 40
0.000000000000000
 40
0.000000000000000
 40
0.000000000000000
 40
1.225740415426370
 40
2.453913748147056
 40
3.683165537240447
 40
4.912159639040525
 40
6.213838639415771
 40
7.518952992430415
 40
8.825795942814052
 40
9.838049534315049
 40
10.85333436887769
 40
11.87075408381882
 40
12.88943695386231
 40
14.17275575141809
 40
15.46104856582986
 40
16.75227833344180
 40
17.75471056546776
 40
18.76064185632762
 40
19.76893979114741
 40
20.77849760832952
 40
21.67163384623868
 40
22.56641992798258
 40
22.56641992798258
 40
22.56641992798258
 40
22.56641992798258
 10
158.8606815523783
 20
224.8247702418203
 30
0.000000000000000
 10
158.8696538673746
 20
224.4162886300918
 30
0.000000000000000
 10
158.8652117642720
 20
223.5978411333772
 30
0.000000000000000
 10
158.7908370531973
 20
222.3717847039941
 30
0.000000000000000
 10
158.6493387200705
 20
221.1505233803726
 30
0.000000000000000
 10
158.4366673508028
 20
219.9147488383872
 30
0.000000000000000
 10
158.1480029618657
 20
218.6684041329104
 30
0.000000000000000
 10
157.7799565009206
 20
217.4160968643719
 30
0.000000000000000
 10
157.3720303021965
 20
216.2782129234587
 30
0.000000000000000
 10
156.9426411635619
 20
215.2526501545724
 30
0.000000000000000
 10
156.5084525825521
 20
214.3348324047428
 30
0.000000000000000
 10
156.0321183128783
 20
213.4357362969239
 30
0.000000000000000
 10
155.4699812664462
 20
212.4822674352256
 30
0.000000000000000
 10
154.8091760105126
 20
211.4836536290418
 30
0.000000000000000
 10
154.0378431309460
 20
210.4517773741065
 30
0.000000000000000
 10
153.2687857642909
 20
209.5375491304831
 30
0.000000000000000
 10
152.5180592253018
 20
208.7332582843344
 30
0.000000000000000
 10
151.7994684318267
 20
208.0293762254910
 30
0.000000000000000
 10
151.0483701832094
 20
207.3567366760288
 30
0.000000000000000
 10
150.2968945844672
 20
206.7423363496402
 30
0.000000000000000
 10
149.5503055919131
 20
206.1832509250466
 30
0.000000000000000
 10
149.0592822961658
 20
205.8451614207824
 30
0.000000000000000
 10
148.8103008770022
 20
205.6809405639788
 30
0.000000000000000
  0
SPLINE
  5
141
100
AcDbEntity
  8
A5
  6
PHANTOM
 62
6
100
AcDbSpline
210
0.000000000000000
220
0.000000000000000
230
1.000000000000000
 70
     8
 71
     3
 72
    21
 73
    17
 74
     0
 42
1.000000000000000e-07
 43
1.000000000000000e-07
 12
0.2758674569186041
 22
-0.9611956857024779
 32
0.000000000000000
 13
0.8345771583562964
 23
0.5508910661383197
 33
0.000000000000000
 40
0.000000000000000
 40
0.000000000000000
 40
0.000000000000000
 40
0.000000000000000
 40
0.08134187504662750
 40
0.1731059712403568
 40
0.2890240849853128
 40
0.4372001395532708
 40
0.6198757394012260
 40
0.8359188269757094
 40
1.077519865985217
 40
1.348582275348747
 40
1.644401870518067
 40
1.955550037612963
 40
2.285343618023557
 40
2.628102654282066
 40
2.930167214960705
 40
3.237512163279434
 40
3.237512163279434
 40
3.237512163279434
 40
3.237512163279434
 10
145.8716889675443
 20
204.8032760444394
 30
0.000000000000000
 10
145.8791688262810
 20
204.7772142246522
 30
0.000000000000000
 10
145.9055778543392
 20
204.7229568019071
 30
0.000000000000000
 10
145.9900324970430
 20
204.6697330235964
 30
0.000000000000000
 10
146.1056189269317
 20
204.6399152402179
 30
0.000000000000000
 10
146.2551215912445
 20
204.6322605092225
 30
0.000000000000000
 10
146.4371519149001
 20
204.6464369011217
 30
0.000000000000000
 10
146.6476716480451
 20
204.6832951812670
 30
0.000000000000000
 10
146.8832268356639
 20
204.7432862471451
 30
0.000000000000000
 10
147.1400331578615
 20
204.8254673902415
 30
0.000000000000000
 10
147.4137779628432
 20
204.9293882566268
 30
0.000000000000000
 10
147.6999656267640
 20
205.0545625168639
 30
0.000000000000000
 10
147.9945007014491
 20
205.1988852142653
 30
0.000000000000000
 10
148.2801961360188
 20
205.3537459548095
 30
0.000000000000000
 10
148.5533750791386
 20
205.5154364796799
 30
0.000000000000000
 10
148.7247998524679
 20
205.6245027018950
 30
0.000000000000000
 10
148.8103008770022
 20
205.6809405639788
 30
0.000000000000000
  0
SPLINE
  5
142
100
AcDbEntity
  8
A5
  6
PHANTOM
 62
6
100
AcDbSpline
210
0.000000000000000
220
0.000000000000000
230
1.000000000000000
 70
     8
 71
     3
 72
    21
 73
    17
 74
     0
 42
1.000000000000000e-07
 43
1.000000000000000e-07
 12
-0.8163771032795921
 22
-0.5775191990221629
 32
0.000000000000000
 13
-0.2338804581304430
 23
0.9722653605367668
 33
0.000000000000000
 40
0.000000000000000
 40
0.000000000000000
 40
0.000000000000000
 40
0.000000000000000
 40
0.3770237937154394
 40
0.7454408160355578
 40
1.098809026518425
 40
1.434679110688691
 40
1.748832481557478
 40
2.034969796597232
 40
2.277499683432588
 40
2.491070274330206
 40
2.672852985100978
 40
2.821528474084961
 40
2.941065388672842
 40
3.035208392003075
 40
3.094990136456450
 40
3.152908310218826
 40
3.152908310218826
 40
3.152908310218826
 40
3.152908310218826
 10
148.2323108885015
 20
207.7744787002883
 30
0.000000000000000
 10
148.1297130243079
 20
207.7018992071687
 30
0.000000000000000
 10
147.9237243019996
 20
207.5627761200987
 30
0.000000000000000
 10
147.6118196384250
 20
207.3705679981231
 30
0.000000000000000
 10
147.3037429681472
 20
207.1988916454563
 30
0.000000000000000
 10
147.0038458906193
 20
207.0504984159288
 30
0.000000000000000
 10
146.7174502405652
 20
206.9262403432283
 30
0.000000000000000
 10
146.4538179865179
 20
206.8286586869949
 30
0.000000000000000
 10
146.2166005901933
 20
206.7577399221599
 30
0.000000000000000
 10
146.0088883905453
 20
206.7113191071917
 30
0.000000000000000
 10
145.8288554953545
 20
206.6872178498803
 30
0.000000000000000
 10
145.6783586755143
 20
206.6852210448491
 30
0.000000000000000
 10
145.5583105715083
 20
206.7036181789962
 30
0.000000000000000
 10
145.4729732193812
 20
206.7407060117865
 30
0.000000000000000
 10
145.4220264303699
 20
206.7917976152460
 30
0.000000000000000
 10
145.4066983540066
 20
206.8290225074522
 30
0.000000000000000
 10
145.4021830443354
 20
206.8477931188171
 30
0.000000000000000
  0
LINE
  5
143
100
AcDbEntity
  8
A5
  6
PHANTOM
 62
6
100
AcDbLine
 10
145.8716889675446
 20
204.8032760444393
 30
0.000000000000000
 11
145.4021830443356
 21
206.8477931188169
 31
0.000000000000000
  0
LINE
  5
144
100
AcDbEntity
  8
A5
  6
PHANTOM
 62
6
100
AcDbLine
 10
145.3298928223617
 20
207.1625891327324
 30
0.000000000000000
 11
144.4480101210148
 21
211.0028479055698
 31
0.000000000000000
  0
LINE
  5
145
100
AcDbEntity
  8
A5
  6
PHANTOM
 62
6
100
AcDbLine
 10
145.3298928223618
 20
207.1625891327326
 30
0.000000000000000
 11
145.4021830443355
 21
206.8477931188172
 31
0.000000000000000
  0
ARC
  5
146
100
AcDbEntity
  8
A5
  6
PHANTOM
 62
6
100
AcDbCircle
 10
138.6002213588731
 20
209.6599530499052
 30
0.000000000000000
 40
6.000000000000000
100
AcDbArc
 50
12.93325326550535
 51
78.48991783780808
  0
ARC
  5
147
100
AcDbEntity
  8
A5
  6
PHANTOM
 62
6
100
AcDbCircle
 10
141.4935566610535
 20
223.8683523555680
 30
0.000000000000000
 40
8.500000000000000
100
AcDbArc
 50
132.9332532655054
 51
258.4899178378080
  0
LINE
  5
148
100
AcDbEntity
  8
A5
  6
PHANTOM
 62
6
100
AcDbLine
 10
140.1422265325479
 20
234.2208359062304
 30
0.000000000000000
 11
135.7038164534126
 21
230.0916078001103
 31
0.000000000000000
  0
ARC
  5
149
100
AcDbEntity
  8
A5
  6
PHANTOM
 62
6
100
AcDbCircle
 10
138.7799347189853
 20
235.6851313049462
 30
0.000000000000000
 40
2.000000000000000
100
AcDbArc
 50
312.9332532655053
 51
372.9332532655053
  0
ARC
  5
14A
100
AcDbEntity
  8
A1
  6
CONTINUOUS
 62
7
100
AcDbCircle
 10
147.4935445388201
 20
196.8683609868197
 30
0.000000000000000
 40
5.000012122369524
100
AcDbArc
 50
250.4202034894889
 51
359.9998506026091
  0
SPLINE
  5
14B
100
AcDbEntity
  8
A1
  6
CONTINUOUS
 62
7
100
AcDbSpline
210
0.000000000000000
220
0.000000000000000
230
1.000000000000000
 70
     8
 71
     3
 72
     9
 73
     5
 74
     0
 42
1.000000000000000e-07
 43
1.000000000000000e-07
 12
0.6192527721842112
 22
-0.7851916989770871
 32
0.000000000000000
 13
0.6321138309609182
 23
-0.7748755414312427
 33
0.000000000000000
 40
0.000000000000000
 40
0.000000000000000
 40
0.000000000000000
 40
0.000000000000000
 40
0.8280431011018768
 40
1.659235454180972
 40
1.659235454180972
 40
1.659235454180972
 40
1.659235454180972
 10
70.89111755019161
 20
208.8514335900534
 30
0.000000000000000
 10
71.06204021214006
 20
208.6347094002599
 30
0.000000000000000
 10
71.40632371136570
 20
208.2018440186037
 30
0.000000000000000
 10
71.75416386499813
 20
207.7718313758764
 30
0.000000000000000
 10
71.92929992585488
 20
207.5571411676678
 30
0.000000000000000
  0
SPLINE
  5
14C
100
AcDbEntity
  8
A1
  6
CONTINUOUS
 62
7
100
AcDbSpline
210
0.000000000000000
220
0.000000000000000
230
1.000000000000000
 70
     8
 71
     3
 72
    12
 73
     8
 74
     0
 42
1.000000000000000e-07
 43
1.000000000000000e-07
 12
-0.003126870679352578
 22
-0.9999951113281895
 32
0.000000000000000
 13
0.6186521937338512
 23
-0.7856649815194032
 33
0.000000000000000
 40
0.000000000000000
 40
0.000000000000000
 40
0.000000000000000
 40
0.000000000000000
 40
0.3115193813733779
 40
0.6415086633567544
 40
0.9698982948325536
 40
1.312845533330934
 40
1.428502780373879
 40
1.428502780373879
 40
1.428502780373879
 40
1.428502780373879
 10
70.44831352008822
 20
210.1828165207125
 30
0.000000000000000
 10
70.44798882648166
 20
210.0789772345600
 30
0.000000000000000
 10
70.46185723314323
 20
209.8648586688391
 30
0.000000000000000
 10
70.52714514523353
 20
209.5470313187468
 30
0.000000000000000
 10
70.64451463281699
 20
209.2331235780036
 30
0.000000000000000
 10
70.77613320158781
 20
209.0045346981889
 30
0.000000000000000
 10
70.86726701365683
 20
208.8817228730069
 30
0.000000000000000
 10
70.89111755019161
 20
208.8514335900534
 30
0.000000000000000
  0
SPLINE
  5
14D
100
AcDbEntity
  8
A1
  6
CONTINUOUS
 62
7
100
AcDbSpline
210
0.000000000000000
220
0.000000000000000
230
1.000000000000000
 70
     8
 71
     3
 72
    13
 73
     9
 74
     0
 42
1.000000000000000e-07
 43
1.000000000000000e-07
 12
-0.006041539014745467
 22
-0.9999817497364347
 32
0.000000000000000
 13
0.6273196792558338
 23
-0.7787618506445142
 33
0.000000000000000
 40
0.000000000000000
 40
0.000000000000000
 40
0.000000000000000
 40
0.000000000000000
 40
0.2508543708908244
 40
0.5241441336124235
 40
0.8039062833361739
 40
1.101033745885226
 40
1.308330931506096
 40
1.518875617280813
 40
1.518875617280813
 40
1.518875617280813
 40
1.518875617280813
 10
70.44831352008822
 20
210.6869402865723
 30
0.000000000000000
 10
70.44780833793197
 20
210.6033236889948
 30
0.000000000000000
 10
70.45447434410141
 20
210.4285171129775
 30
0.000000000000000
 10
70.48729031760126
 20
210.1621282291377
 30
0.000000000000000
 10
70.55427592442953
 20
209.8860196198115
 30
0.000000000000000
 10
70.65014522730928
 20
209.6417395871416
 30
0.000000000000000
 10
70.76576876676569
 20
209.4328277801077
 30
0.000000000000000
 10
70.84709127527526
 20
209.3192906161922
 30
0.000000000000000
 10
70.89111755019167
 20
209.2646358931464
 30
0.000000000000000
  0
SPLINE
  5
14E
100
AcDbEntity
  8
A1
  6
CONTINUOUS
 62
7
100
AcDbSpline
210
0.000000000000000
220
0.000000000000000
230
1.000000000000000
 70
     8
 71
     3
 72
    15
 73
    11
 74
     0
 42
1.000000000000000e-07
 43
1.000000000000000e-07
 12
-0.9760238174579854
 22
-0.2176637492907503
 32
0.000000000000000
 13
-0.0009715113452557489
 23
-0.9999995280829808
 33
0.000000000000000
 40
0.000000000000000
 40
0.000000000000000
 40
0.000000000000000
 40
0.000000000000000
 40
0.3280494564915939
 40
0.6653174135746871
 40
0.9922951593715430
 40
1.327791611485103
 40
1.659739871445798
 40
2.000183209662486
 40
2.367450981549688
 40
2.746190459042341
 40
2.746190459042341
 40
2.746190459042341
 40
2.746190459042341
 10
72.02345423142560
 20
242.8082655423090
 30
0.000000000000000
 10
71.91672620381229
 20
242.7844640507581
 30
0.000000000000000
 10
71.70374794014288
 20
242.7184980627505
 30
0.000000000000000
 10
71.40750226383017
 20
242.5678764138135
 30
0.000000000000000
 10
71.13842962875583
 20
242.3687649908108
 30
0.000000000000000
 10
70.90698742434682
 20
242.1293103428003
 30
0.000000000000000
 10
70.71543567586235
 20
241.8515040103015
 30
0.000000000000000
 10
70.56734763193231
 20
241.5364303083280
 30
0.000000000000000
 10
70.47072201240985
 20
241.1855160116000
 30
0.000000000000000
 10
70.44843616998799
 20
240.9362534290790
 30
0.000000000000000
 10
70.44831352008822
 20
240.8100069961593
 30
0.000000000000000
  0
SPLINE
  5
14F
100
AcDbEntity
  8
A1
  6
CONTINUOUS
 62
7
100
AcDbSpline
210
0.000000000000000
220
0.000000000000000
230
1.000000000000000
 70
     8
 71
     3
 72
    27
 73
    23
 74
     0
 42
1.000000000000000e-07
 43
1.000000000000000e-07
 12
-0.3232791834584816
 22
0.9463036349620779
 32
0.000000000000000
 13
-0.5351340140974798
 23
0.8447671791423090
 33
0.000000000000000
 40
0.000000000000000
 40
0.000000000000000
 40
0.000000000000000
 40
0.000000000000000
 40
1.202231395360386
 40
2.380501779548168
 40
3.529947874193927
 40
4.645707684660890
 40
5.787048852674483
 40
6.886045724662504
 40
7.937227727409150
 40
8.715049440287824
 40
9.461664652712967
 40
10.17470099355977
 40
10.85178882897023
 40
11.64994697574153
 40
12.38751412217110
 40
13.06028303778446
 40
13.53497806268683
 40
13.96867682981469
 40
14.35982238914899
 40
14.70688824051695
 40
14.97615746155482
 40
15.21018479762061
 40
15.21018479762061
 40
15.21018479762061
 40
15.21018479762061
 10
82.99140584282264
 20
229.3928484356089
 30
0.000000000000000
 10
82.86185371488256
 20
229.7720737487739
 30
0.000000000000000
 10
82.60325642878206
 20
230.5222590271577
 30
0.000000000000000
 10
82.21384683246549
 20
231.6326088176137
 30
0.000000000000000
 10
81.82791584073726
 20
232.7136153333537
 30
0.000000000000000
 10
81.43988576761200
 20
233.7807815935302
 30
0.000000000000000
 10
81.05092078883894
 20
234.8296920874836
 30
0.000000000000000
 10
80.66244219116675
 20
235.8557977975921
 30
0.000000000000000
 10
80.31026191635175
 20
236.7660530360809
 30
0.000000000000000
 10
79.99484345178809
 20
237.5645584089325
 30
0.000000000000000
 10
79.71637804445965
 20
238.2564537961280
 30
0.000000000000000
 10
79.44592663787654
 20
238.9153618329233
 30
0.000000000000000
 10
79.16395167381074
 20
239.5880909046426
 30
0.000000000000000
 10
78.87261520458833
 20
240.2657376044725
 30
0.000000000000000
 10
78.57417335394047
 20
240.9387133446284
 30
0.000000000000000
 10
78.31197761337944
 20
241.5097628846235
 30
0.000000000000000
 10
78.08538553910648
 20
241.9856384218922
 30
0.000000000000000
 10
77.89371911386553
 20
242.3741255402386
 30
0.000000000000000
 10
77.71516854492023
 20
242.7215944204241
 30
0.000000000000000
 10
77.55558021132049
 20
243.0171072711018
 30
0.000000000000000
 10
77.41512425666525
 20
243.2633592684772
 30
0.000000000000000
 10
77.32719625231147
 20
243.4062723737588
 30
0.000000000000000
 10
77.28545092305899
 20
243.4721719112690
 30
0.000000000000000
  0
SPLINE
  5
150
100
AcDbEntity
  8
A1
  6
CONTINUOUS
 62
7
100
AcDbSpline
210
0.000000000000000
220
0.000000000000000
230
1.000000000000000
 70
     8
 71
     3
 72
    11
 73
     7
 74
     0
 42
1.000000000000000e-07
 43
1.000000000000000e-07
 12
0.3229258745209336
 22
-0.9464242598139663
 32
0.000000000000000
 13
0.1582809547588226
 23
-0.9873941155184411
 33
0.000000000000000
 40
0.000000000000000
 40
0.000000000000000
 40
0.000000000000000
 40
0.000000000000000
 40
0.7215911984880906
 40
1.453742358325893
 40
2.200618254832357
 40
2.956848752741545
 40
2.956848752741545
 40
2.956848752741545
 40
2.956848752741545
 10
82.99140584282264
 20
229.3928484356089
 30
0.000000000000000
 10
83.06907933242877
 20
229.1652046303031
 30
0.000000000000000
 10
83.21582654623620
 20
228.7031932563658
 30
0.000000000000000
 10
83.40733525440413
 20
227.9948655002858
 30
0.000000000000000
 10
83.57109166732693
 20
227.2677831588561
 30
0.000000000000000
 10
83.66085210953213
 20
226.7746786437968
 30
0.000000000000000
 10
83.70075107127440
 20
226.5257794625931
 30
0.000000000000000
  0
SPLINE
  5
151
100
AcDbEntity
  8
A1
  6
CONTINUOUS
 62
7
100
AcDbSpline
210
0.000000000000000
220
0.000000000000000
230
1.000000000000000
 70
     8
 71
     3
 72
    21
 73
    17
 74
     0
 42
1.000000000000000e-07
 43
1.000000000000000e-07
 12
0.9763387540180020
 22
0.2162467049515726
 32
0.000000000000000
 13
0.5738484065404919
 23
-0.8189615414103173
 33
0.000000000000000
 40
0.000000000000000
 40
0.000000000000000
 40
0.000000000000000
 40
0.000000000000000
 40
0.3825930934008513
 40
0.7631383767127793
 40
1.134623560718071
 40
1.493877852190574
 40
1.836810973864439
 40
2.156504588847976
 40
2.441133832961956
 40
2.698384861256490
 40
2.923947096695585
 40
3.112550130848661
 40
3.270620469306706
 40
3.399098234956917
 40
3.489386570653133
 40
3.567341828104750
 40
3.567341828104750
 40
3.567341828104750
 40
3.567341828104750
 10
73.80492034081527
 20
243.2026344518860
 30
0.000000000000000
 10
73.92943382885090
 20
243.2302126171477
 30
0.000000000000000
 10
74.17806810979681
 20
243.2839918234255
 30
0.000000000000000
 10
74.54846864173379
 20
243.3604709984229
 30
0.000000000000000
 10
74.91203393427668
 20
243.4314880302363
 30
0.000000000000000
 10
75.26413898180499
 20
243.4956484604328
 30
0.000000000000000
 10
75.60021239889250
 20
243.5512720821528
 30
0.000000000000000
 10
75.91276492772943
 20
243.5963262058830
 30
0.000000000000000
 10
76.19812265766780
 20
243.6291777351771
 30
0.000000000000000
 10
76.45323872779227
 20
243.6489904035469
 30
0.000000000000000
 10
76.67710656434576
 20
243.6551437407967
 30
0.000000000000000
 10
76.86785482395936
 20
243.6462131090798
 30
0.000000000000000
 10
77.02492625656936
 20
243.6228288732285
 30
0.000000000000000
 10
77.14551542616954
 20
243.5854993902553
 30
0.000000000000000
 10
77.23262897935092
 20
243.5360308862834
 30
0.000000000000000
 10
77.27053942296897
 20
243.4934526972035
 30
0.000000000000000
 10
77.28545092305899
 20
243.4721719112690
 30
0.000000000000000
  0
SPLINE
  5
152
100
AcDbEntity
  8
A1
  6
CONTINUOUS
 62
7
100
AcDbSpline
210
0.000000000000000
220
0.000000000000000
230
1.000000000000000
 70
     8
 71
     3
 72
    11
 73
     7
 74
     0
 42
1.000000000000000e-07
 43
1.000000000000000e-07
 12
0.1580885116580930
 22
-0.9874249452396953
 32
0.000000000000000
 13
-0.0006548237892616271
 23
-0.9999997856028813
 33
0.000000000000000
 40
0.000000000000000
 40
0.000000000000000
 40
0.000000000000000
 40
0.000000000000000
 40
0.7888953822516714
 40
1.586961101536921
 40
2.399422826284652
 40
3.216599005548976
 40
3.216599005548976
 40
3.216599005548976
 40
3.216599005548976
 10
83.70075107127440
 20
226.5257794625931
 30
0.000000000000000
 10
83.74232283688576
 20
226.2661211360532
 30
0.000000000000000
 10
83.81532964148226
 20
225.7420164854125
 30
0.000000000000000
 10
83.89248859754457
 20
224.9457200350307
 30
0.000000000000000
 10
83.93831107254431
 20
224.1375887759739
 30
0.000000000000000
 10
83.94849188888867
 20
223.5943165408812
 30
0.000000000000000
 10
83.94831352008794
 20
223.3219245395265
 30
0.000000000000000
  0
ELLIPSE
  5
153
100
AcDbEntity
  8
A1
  6
CONTINUOUS
 62
7
100
AcDbEllipse
 10
70.44831352008822
 20
206.2232022143249
 30
0.000000000000000
 11
-2.000000000000000
 21
0.000000000000000
 31
0.000000000000000
210
0.000000000000000
220
0.000000000000000
230
1.000000000000000
 40
0.9883936145804318
 41
3.141592653589793
 42
3.819960475205324
  0
ELLIPSE
  5
154
100
AcDbEntity
  8
A1
  6
CONTINUOUS
 62
7
100
AcDbEllipse
 10
70.44831352008845
 20
193.7223470155360
 30
0.000000000000000
 11
6.000000000000000
 21
0.000000000000000
 31
0.000000000000000
210
0.000000000000000
220
0.000000000000000
230
1.000000000000000
 40
0.9883936145804318
 41
3.141592653589793
 42
4.712388980384690
  0
ELLIPSE
  5
155
100
AcDbEntity
  8
A1
  6
CONTINUOUS
 62
7
100
AcDbEllipse
 10
79.94831352008794
 20
191.7455597863251
 30
0.000000000000000
 11
4.000000000000000
 21
0.000000000000000
 31
0.000000000000000
210
0.000000000000000
220
0.000000000000000
230
1.000000000000000
 40
0.9883936145804318
 41
4.712388980384690
 42
0.000000000000000
  0
ELLIPSE
  5
156
100
AcDbEntity
  8
A1
  6
CONTINUOUS
 62
7
100
AcDbEllipse
 10
65.44831352008845
 20
196.9913572662722
 30
0.000000000000000
 11
-1.000000000000000
 21
0.000000000000000
 31
0.000000000000000
210
0.000000000000000
220
0.000000000000000
230
1.000000000000000
 40
0.9883936145804318
 41
4.712388980384690
 42
0.000000000000000
  0
ELLIPSE
  5
157
100
AcDbEntity
  8
A1
  6
CONTINUOUS
 62
7
100
AcDbEllipse
 10
70.44831352008816
 20
199.9565381099872
 30
0.000000000000000
 11
2.000000000000000
 21
0.000000000000000
 31
0.000000000000000
210
0.000000000000000
220
0.000000000000000
230
1.000000000000000
 40
0.9883936145804318
 41
4.712388980384690
 42
0.000000000000000
  0
ELLIPSE
  5
158
100
AcDbEntity
  8
A1
  6
CONTINUOUS
 62
7
100
AcDbEllipse
 10
79.94831352008794
 20
192.0493891932937
 30
0.000000000000000
 11
-4.000000000000000
 21
0.000000000000000
 31
0.000000000000000
210
0.000000000000000
220
0.000000000000000
230
1.000000000000000
 40
0.9883936145804318
 41
1.570796326794897
 42
3.141592653589793
  0
ELLIPSE
  5
159
100
AcDbEntity
  8
A1
  6
CONTINUOUS
 62
7
100
AcDbEllipse
 10
70.44831352008845
 20
194.0261764225046
 30
0.000000000000000
 11
-6.000000000000000
 21
0.000000000000000
 31
0.000000000000000
210
0.000000000000000
220
0.000000000000000
230
1.000000000000000
 40
0.9883936145804318
 41
0.000000000000000
 42
1.570796326794897
  0
ARC
  5
15A
100
AcDbEntity
  8
A1
  6
CONTINUOUS
 62
7
100
AcDbCircle
 10
70.46355485407156
 20
206.6373380852499
 30
0.000000000000000
 40
1.984758816559763
100
AcDbArc
 50
0.02231588532486819
 51
37.12108031412932
  0
LINE
  5
15B
100
AcDbEntity
  8
A1
  6
CONTINUOUS
 62
7
100
AcDbLine
 10
71.92929992585492
 20
207.5571411676679
 30
0.000000000000000
 11
72.00550948998490
 21
207.4636817648652
 31
0.000000000000000
  0
LINE
  5
15C
100
AcDbEntity
  8
A1
  6
CONTINUOUS
 62
7
100
AcDbLine
 10
72.04612599850168
 20
207.8351427991866
 30
0.000000000000000
 11
72.00550948998485
 21
207.8870496793816
 31
0.000000000000000
  0
LINE
  5
15D
100
AcDbEntity
  8
A1
  6
CONTINUOUS
 62
7
100
AcDbLine
 10
72.00550948998483
 20
207.8870496793816
 30
0.000000000000000
 11
71.82602586233570
 21
208.1087968626576
 31
0.000000000000000
  0
LINE
  5
15E
100
AcDbEntity
  8
A1
  6
CONTINUOUS
 62
7
100
AcDbLine
 10
71.82602586233567
 20
208.1087968626576
 30
0.000000000000000
 11
70.89111755019165
 21
209.2646358931465
 31
0.000000000000000
  0
LINE
  5
15F
100
AcDbEntity
  8
A1
  6
CONTINUOUS
 62
7
100
AcDbLine
 10
70.44831352005659
 20
187.7919854233575
 30
0.000000000000000
 11
79.94831352006670
 21
187.7919854233075
 31
0.000000000000000
  0
LINE
  5
160
100
AcDbEntity
  8
A1
  6
CONTINUOUS
 62
7
100
AcDbLine
 10
83.94831352008789
 20
191.7455597863251
 30
0.000000000000000
 11
83.94831352008843
 21
192.0493891932937
 31
0.000000000000000
  0
LINE
  5
161
100
AcDbEntity
  8
A1
  6
CONTINUOUS
 62
7
100
AcDbLine
 10
70.44831352007752
 20
197.9797508808263
 30
0.000000000000000
 11
65.44831352009378
 21
197.9797508808526
 31
0.000000000000000
  0
LINE
  5
162
100
AcDbEntity
  8
A1
  6
CONTINUOUS
 62
7
100
AcDbLine
 10
72.44831352008819
 20
199.9565381099872
 30
0.000000000000000
 11
72.44831352008826
 21
206.6381111203565
 31
0.000000000000000
  0
LINE
  5
163
100
AcDbEntity
  8
A1
  6
CONTINUOUS
 62
7
100
AcDbLine
 10
70.44831352005653
 20
188.0958147350219
 30
0.000000000000000
 11
79.94831352006665
 21
188.0958147349720
 31
0.000000000000000
  0
LINE
  5
164
100
AcDbEntity
  8
A1
  6
CONTINUOUS
 62
7
100
AcDbLine
 10
72.02345423142563
 20
242.8082655423090
 30
0.000000000000000
 11
73.80492034081529
 21
243.2026344518860
 31
0.000000000000000
  0
SPLINE
  5
165
100
AcDbEntity
  8
A1
  6
CONTINUOUS
 62
7
100
AcDbSpline
210
0.000000000000000
220
0.000000000000000
230
1.000000000000000
 70
     8
 71
     3
 72
    18
 73
    14
 74
     0
 42
1.000000000000000e-07
 43
1.000000000000000e-07
 12
0.4319663003552705
 22
0.9018897467831266
 32
0.000000000000000
 13
0.01940025485419028
 23
0.9998117973452736
 33
0.000000000000000
 40
0.000000000000000
 40
0.000000000000000
 40
0.000000000000000
 40
0.000000000000000
 40
0.01872779659875650
 40
0.6743438168565622
 40
1.321483003202146
 40
1.956155186573513
 40
2.591690832784638
 40
3.209733965695199
 40
3.803316905245101
 40
4.366137150932396
 40
4.810943505968939
 40
5.229540397056583
 40
5.617860682475696
 40
5.617860682475696
 40
5.617860682475696
 40
5.617860682475696
 10
66.94831352008816
 20
225.4577067784398
 30
0.000000000000000
 10
66.95101011242502
 20
225.4633369143505
 30
0.000000000000000
 10
67.04813049455299
 20
225.6660540929631
 30
0.000000000000000
 10
67.23937099652647
 20
226.0628697853145
 30
0.000000000000000
 10
67.51978240559595
 20
226.6446252339865
 30
0.000000000000000
 10
67.79420552417901
 20
227.2218320213231
 30
0.000000000000000
 10
68.05890969373098
 20
227.7928992754968
 30
0.000000000000000
 10
68.30743771331873
 20
228.3563035740733
 30
0.000000000000000
 10
68.52955758325709
 20
228.9046156511050
 30
0.000000000000000
 10
68.70815420815643
 20
229.4078996120573
 30
0.000000000000000
 10
68.84035127373494
 20
229.8647797654862
 30
0.000000000000000
 10
68.92621491350599
 20
230.2739454318234
 30
0.000000000000000
 10
68.94580234925411
 20
230.5430500731741
 30
0.000000000000000
 10
68.94831352008816
 20
230.6724658073443
 30
0.000000000000000
  0
SPLINE
  5
166
100
AcDbEntity
  8
A1
  6
CONTINUOUS
 62
7
100
AcDbSpline
210
0.000000000000000
220
0.000000000000000
230
1.000000000000000
 70
     8
 71
     3
 72
    18
 73
    14
 74
     0
 42
1.000000000000000e-07
 43
1.000000000000000e-07
 12
-0.01940024714861011
 22
0.9998117974951128
 32
0.000000000000000
 13
-0.4319662878406234
 23
0.9018897527785157
 33
0.000000000000000
 40
0.000000000000000
 40
0.000000000000000
 40
0.000000000000000
 40
0.000000000000000
 40
0.3883203658442321
 40
0.8069173309239352
 40
1.251723752648736
 40
1.814544068922761
 40
2.408127069992020
 40
3.026170255814024
 40
3.661705946695072
 40
4.296378166220003
 40
4.943517381683329
 40
5.599133424103586
 40
5.617861221231078
 40
5.617861221231078
 40
5.617861221231078
 40
5.617861221231078
 10
68.94831352008816
 20
217.0642398466769
 30
0.000000000000000
 10
68.94580234973142
 20
217.1936556076698
 30
0.000000000000000
 10
68.92621491417452
 20
217.4627603005301
 30
0.000000000000000
 10
68.84035127526931
 20
217.8719260422344
 30
0.000000000000000
 10
68.70815421002254
 20
218.3288062691380
 30
0.000000000000000
 10
68.52955758551838
 20
218.8320903005705
 30
0.000000000000000
 10
68.30743771544769
 20
219.3804024441411
 30
0.000000000000000
 10
68.05890969571516
 20
219.9438068006479
 30
0.000000000000000
 10
67.79420552596793
 20
220.5148741038849
 30
0.000000000000000
 10
67.51978240728238
 20
221.0920809317597
 30
0.000000000000000
 10
67.23937099831016
 20
221.6738364128360
 30
0.000000000000000
 10
67.04813049499268
 20
222.0706521237078
 30
0.000000000000000
 10
66.95101011242303
 20
222.2733693104957
 30
0.000000000000000
 10
66.94831352008816
 20
222.2789994466029
 30
0.000000000000000
  0
ARC
  5
167
100
AcDbEntity
  8
A1
  6
CONTINUOUS
 62
7
100
AcDbCircle
 10
66.94831352008816
 20
253.8683470685672
 30
0.000000000000000
 40
2.000000000000000
100
AcDbArc
 50
359.9999999999999
 51
450.0000000000000
  0
ARC
  5
168
100
AcDbEntity
  8
A1
  6
CONTINUOUS
 62
7
100
AcDbCircle
 10
69.44831352008822
 20
231.8683522602286
 30
0.000000000000000
 40
1.000000000000000
100
AcDbArc
 50
0.000000000000000
 51
90.00000000000000
  0
ARC
  5
169
100
AcDbEntity
  8
A1
  6
CONTINUOUS
 62
7
100
AcDbCircle
 10
69.44831352008822
 20
215.8683522602286
 30
0.000000000000000
 40
1.000000000000000
100
AcDbArc
 50
270.0000000000000
 51
360.0000000000000
  0
LINE
  5
16A
100
AcDbEntity
  8
A1
  6
CONTINUOUS
 62
7
100
AcDbLine
 10
63.94831352008816
 20
255.8683470685672
 30
0.000000000000000
 11
66.94831352008816
 21
255.8683470685672
 31
0.000000000000000
  0
LINE
  5
16B
100
AcDbEntity
  8
A1
  6
CONTINUOUS
 62
7
100
AcDbLine
 10
64.74906005053816
 20
191.8683487690093
 30
0.000000000000000
 11
63.94831352008816
 21
191.8683487690093
 31
0.000000000000000
  0
LINE
  5
16C
100
AcDbEntity
  8
A1
  6
CONTINUOUS
 62
7
100
AcDbLine
 10
69.44831352008822
 20
214.8683522602286
 30
0.000000000000000
 11
68.94831352008816
 21
214.8683522602286
 31
0.000000000000000
  0
LINE
  5
16D
100
AcDbEntity
  8
A1
  6
CONTINUOUS
 62
7
100
AcDbLine
 10
68.94831352008816
 20
232.8683522602286
 30
0.000000000000000
 11
69.44831352008822
 21
232.8683522602286
 31
0.000000000000000
  0
LINE
  5
16E
100
AcDbEntity
  8
A1
  6
CONTINUOUS
 62
7
100
AcDbLine
 10
82.94831352008785
 20
206.5367593512168
 30
0.000000000000000
 11
73.44831352008791
 21
208.6288678502607
 31
0.000000000000000
  0
LINE
  5
16F
100
AcDbEntity
  8
A1
  6
CONTINUOUS
 62
7
100
AcDbLine
 10
83.94831352008846
 20
192.0493891932938
 30
0.000000000000000
 11
83.94831352008795
 21
223.3219245395264
 31
0.000000000000000
  0
LINE
  5
170
100
AcDbEntity
  8
A1
  6
CONTINUOUS
 62
7
100
AcDbLine
 10
70.44831352008822
 20
210.1828165207125
 30
0.000000000000000
 11
70.44831352008822
 21
240.8100069961593
 31
0.000000000000000
  0
LINE
  5
171
100
AcDbEntity
  8
A1
  6
CONTINUOUS
 62
7
100
AcDbLine
 10
68.94831352008822
 20
230.6724658073443
 30
0.000000000000000
 11
68.94831352008822
 21
253.8683470685672
 31
0.000000000000000
  0
LINE
  5
172
100
AcDbEntity
  8
A1
  6
CONTINUOUS
 62
7
100
AcDbLine
 10
63.94831352008816
 20
191.8683487690093
 30
0.000000000000000
 11
63.94831352008816
 21
255.8683470685672
 31
0.000000000000000
  0
LINE
  5
173
100
AcDbEntity
  8
A1
  6
CONTINUOUS
 62
7
100
AcDbLine
 10
64.44831352008850
 20
193.7223471108401
 30
0.000000000000000
 11
64.44831352008850
 21
196.9913572662722
 31
0.000000000000000
  0
LINE
  5
174
100
AcDbEntity
  8
A1
  6
CONTINUOUS
 62
7
100
AcDbLine
 10
68.94831352008821
 20
197.9797508808342
 30
0.000000000000000
 11
68.94831352008815
 21
217.0642398466769
 31
0.000000000000000
  0
SPLINE
  5
175
100
AcDbEntity
  8
A1
  6
CONTINUOUS
 62
7
100
AcDbSpline
210
0.000000000000000
220
0.000000000000000
230
1.000000000000000
 70
     8
 71
     3
 72
    17
 73
    13
 74
     0
 42
1.000000000000000e-07
 43
1.000000000000000e-07
 12
-0.3101748153392236
 22
0.9506795379775212
 32
0.000000000000000
 13
-0.9904459297340509
 23
0.2242229844771373
 33
0.000000000000000
 40
0.000000000000000
 40
0.000000000000000
 40
0.000000000000000
 40
0.000000000000000
 40
0.3436692642553604
 40
0.7241617490218588
 40
1.104706127343516
 40
1.475299031773940
 40
1.848018484707552
 40
2.219958307430711
 40
2.583521436741304
 40
2.947490730440146
 40
3.309047883539896
 40
3.617285706774512
 40
3.619676459581536
 40
3.619676459581536
 40
3.619676459581536
 10
144.3047563414069
 20
138.7924917606509
 30
0.000000000000000
 10
144.2692238245475
 20
138.9013982064374
 30
0.000000000000000
 10
144.1826073391910
 20
139.1272406380860
 30
0.000000000000000
 10
144.0137706981285
 20
139.4553485438427
 30
0.000000000000000
 10
143.8041098934629
 20
139.7699432910033
 30
0.000000000000000
 10
143.5612288777116
 20
140.0561833023436
 30
0.000000000000000
 10
143.2909754188886
 20
140.3124743420879
 30
0.000000000000000
 10
142.9967248216827
 20
140.5370146286643
 30
0.000000000000000
 10
142.6824717306703
 20
140.7269152357028
 30
0.000000000000000
 10
142.3538683755039
 20
140.8824950464972
 30
0.000000000000000
 10
142.0291269917511
 20
140.9996994505810
 30
0.000000000000000
 10
141.8115251654440
 20
141.0541030199963
 30
0.000000000000000
 10
141.7097608663064
 20
141.0771410215477
 30
0.000000000000000
  0
SPLINE
  5
176
100
AcDbEntity
  8
A1
  6
CONTINUOUS
 62
7
100
AcDbSpline
210
0.000000000000000
220
0.000000000000000
230
1.000000000000000
 70
     8
 71
     3
 72
    17
 73
    13
 74
     0
 42
1.000000000000000e-07
 43
1.000000000000000e-07
 12
0.9644592800439113
 22
-0.2642315218449767
 32
0.000000000000000
 13
0.2898794027646545
 23
-0.9570631806996062
 33
0.000000000000000
 40
0.000000000000000
 40
0.000000000000000
 40
0.000000000000000
 40
0.000000000000000
 40
0.3534892069521331
 40
0.7358017062338728
 40
1.121221597510166
 40
1.508811661719189
 40
1.895021658623673
 40
2.260452435661742
 40
2.626104409924343
 40
2.989372170882216
 40
3.348399229877788
 40
3.512198477114649
 40
3.512198477114649
 40
3.512198477114649
 40
3.512198477114649
 10
141.5691767732305
 20
141.1107561741255
 30
0.000000000000000
 10
141.6828187552439
 20
141.0796218437559
 30
0.000000000000000
 10
141.9164448143625
 20
141.0036744032386
 30
0.000000000000000
 10
142.2598676952293
 20
140.8545569979606
 30
0.000000000000000
 10
142.5949577290206
 20
140.6631921291949
 30
0.000000000000000
 10
142.9087012403194
 20
140.4363863037003
 30
0.000000000000000
 10
143.1908798375000
 20
140.1810172121359
 30
0.000000000000000
 10
143.4373745183825
 20
139.9008418726025
 30
0.000000000000000
 10
143.6480511144131
 20
139.6022055639748
 30
0.000000000000000
 10
143.8244135474917
 20
139.2844793395249
 30
0.000000000000000
 10
143.9379306904523
 20
139.0111137468865
 30
0.000000000000000
 10
143.9925059485405
 20
138.8455485021156
 30
0.000000000000000
 10
144.0083332911946
 20
138.7932930925967
 30
0.000000000000000
  0
SPLINE
  5
177
100
AcDbEntity
  8
A1
  6
CONTINUOUS
 62
7
100
AcDbSpline
210
0.000000000000000
220
0.000000000000000
230
1.000000000000000
 70
     8
 71
     3
 72
    10
 73
     6
 74
     0
 42
1.000000000000000e-07
 43
1.000000000000000e-07
 12
0.9777514162276475
 22
-0.2097669374913949
 32
0.000000000000000
 13
0.9869102363049933
 23
-0.1612705350540864
 33
0.000000000000000
 40
0.000000000000000
 40
0.000000000000000
 40
0.000000000000000
 40
0.000000000000000
 40
0.6055325474373578
 40
1.787367678212272
 40
2.383816619475548
 40
2.383816619475548
 40
2.383816619475548
 40
2.383816619475548
 10
138.8321595464453
 20
141.6396903965318
 30
0.000000000000000
 10
139.0295129817216
 20
141.5973501605228
 30
0.000000000000000
 10
139.6128232599204
 20
141.4759912559900
 30
0.000000000000000
 10
140.3936114268713
 20
141.3279510756275
 30
0.000000000000000
 10
140.9780213673690
 20
141.2287106746138
 30
0.000000000000000
 10
141.1742352225576
 20
141.1966474613171
 30
0.000000000000000
  0
SPLINE
  5
178
100
AcDbEntity
  8
A1
  6
CONTINUOUS
 62
7
100
AcDbSpline
210
0.000000000000000
220
0.000000000000000
230
1.000000000000000
 70
     8
 71
     3
 72
     9
 73
     5
 74
     0
 42
1.000000000000000e-07
 43
1.000000000000000e-07
 12
0.9853146588948221
 22
-0.1707484201017451
 32
0.000000000000000
 13
0.9672164785988571
 23
-0.2539533097315143
 33
0.000000000000000
 40
0.000000000000000
 40
0.000000000000000
 40
0.000000000000000
 40
0.000000000000000
 40
0.3766351102046520
 40
0.4041967222028671
 40
0.4041967222028671
 40
0.4041967222028671
 40
0.4041967222028671
 10
141.1742352225576
 20
141.1966474613171
 30
0.000000000000000
 10
141.2979365876040
 20
141.1752108446430
 30
0.000000000000000
 10
141.4298790876595
 20
141.1469247851391
 30
0.000000000000000
 10
141.5602907581300
 20
141.1130892949883
 30
0.000000000000000
 10
141.5691767732305
 20
141.1107561741255
 30
0.000000000000000
  0
SPLINE
  5
179
100
AcDbEntity
  8
A1
  6
CONTINUOUS
 62
7
100
AcDbSpline
210
0.000000000000000
220
0.000000000000000
230
1.000000000000000
 70
     8
 71
     3
 72
    12
 73
     8
 74
     0
 42
1.000000000000000e-07
 43
1.000000000000000e-07
 12
0.9987226131911484
 22
-0.05052862459206153
 32
0.000000000000000
 13
0.06256261424823606
 23
0.9980410408888929
 33
0.000000000000000
 40
0.000000000000000
 40
0.000000000000000
 40
0.000000000000000
 40
0.000000000000000
 40
0.1200899693470202
 40
0.2326468628683416
 40
0.3620357287050376
 40
0.5367349300948943
 40
0.6059277961215863
 40
0.6059277961215863
 40
0.6059277961215863
 40
0.6059277961215863
 10
138.7411083244939
 20
134.2919854234446
 30
0.000000000000000
 10
138.7810871804953
 20
134.2899627631185
 30
0.000000000000000
 10
138.8608831413256
 20
134.3020041897285
 30
0.000000000000000
 10
138.9619583529234
 20
134.3770878256362
 30
0.000000000000000
 10
139.0193664467099
 20
134.5078956095095
 30
0.000000000000000
 10
139.0394162347151
 20
134.6308170499366
 30
0.000000000000000
 10
139.0473261146959
 20
134.7117703468709
 30
0.000000000000000
 10
139.0487690768912
 20
134.7347894535480
 30
0.000000000000000
  0
SPLINE
  5
17A
100
AcDbEntity
  8
A1
  6
CONTINUOUS
 62
7
100
AcDbSpline
210
0.000000000000000
220
0.000000000000000
230
1.000000000000000
 70
     8
 71
     3
 72
     9
 73
     5
 74
     0
 42
1.000000000000000e-07
 43
1.000000000000000e-07
 12
-0.03456755124716437
 22
0.9994023636168095
 32
0.000000000000000
 13
-0.1867242504363276
 23
0.9824123646917542
 33
0.000000000000000
 40
0.000000000000000
 40
0.000000000000000
 40
0.000000000000000
 40
0.000000000000000
 40
0.1036071373495252
 40
0.6303926187230185
 40
0.6303926187230185
 40
0.6303926187230185
 40
0.6303926187230185
 10
139.0565692758859
 20
135.1467369336691
 30
0.000000000000000
 10
139.0553754608759
 20
135.1812520063206
 30
0.000000000000000
 10
139.0454768291896
 20
135.3911414409987
 30
0.000000000000000
 10
139.0193351999526
 20
135.6004649723974
 30
0.000000000000000
 10
138.9865473252359
 20
135.7729718292112
 30
0.000000000000000
  0
ELLIPSE
  5
17B
100
AcDbEntity
  8
A1
  6
CONTINUOUS
 62
7
100
AcDbEllipse
 10
134.8833718090584
 20
134.2919854234448
 30
0.000000000000000
 11
0.000000000000000
 21
-6.000000000000000
 31
0.000000000000000
210
0.000000000000000
220
0.000000000000000
230
1.000000000000000
 40
0.1519146558322425
 41
4.712388980384690
 42
0.000000000000000
  0
ELLIPSE
  5
17C
100
AcDbEntity
  8
A1
  6
CONTINUOUS
 62
7
100
AcDbEllipse
 10
137.3159036257916
 20
129.2919854234448
 30
0.000000000000000
 11
0.000000000000000
 21
1.000000000000000
 31
0.000000000000000
210
0.000000000000000
220
0.000000000000000
230
1.000000000000000
 40
0.1519146558322425
 41
3.141592653589793
 42
4.712388980384690
  0
ELLIPSE
  5
17D
100
AcDbEntity
  8
A1
  6
CONTINUOUS
 62
7
100
AcDbEllipse
 10
136.8601596582909
 20
134.2919854234448
 30
0.000000000000000
 11
0.000000000000000
 21
6.000000000000000
 31
0.000000000000000
210
0.000000000000000
220
0.000000000000000
230
1.000000000000000
 40
0.1519146558322425
 41
1.570796326794897
 42
3.141592653589793
  0
ELLIPSE
  5
17E
100
AcDbEntity
  8
A1
  6
CONTINUOUS
 62
7
100
AcDbEllipse
 10
138.7815228552181
 20
134.2919854234446
 30
0.000000000000000
 11
0.000000000000000
 21
-2.000000000000000
 31
0.000000000000000
210
0.000000000000000
220
0.000000000000000
230
1.000000000000000
 40
0.1519146558322425
 41
2.463224831974251
 42
3.141592653589793
  0
ELLIPSE
  5
17F
100
AcDbEntity
  8
A1
  6
CONTINUOUS
 62
7
100
AcDbEllipse
 10
137.7716475932843
 20
134.2919854234445
 30
0.000000000000000
 11
0.000000000000000
 21
-2.000000000000000
 31
0.000000000000000
210
0.000000000000000
220
0.000000000000000
230
1.000000000000000
 40
0.1519146558322425
 41
3.141592653589793
 42
4.712388980384690
  0
ELLIPSE
  5
180
100
AcDbEntity
  8
A1
  6
CONTINUOUS
 62
7
100
AcDbEllipse
 10
134.5795424973862
 20
143.7919854234443
 30
0.000000000000000
 11
0.000000000000000
 21
-4.000000000000000
 31
0.000000000000000
210
0.000000000000000
220
0.000000000000000
230
1.000000000000000
 40
0.1519146558322425
 41
3.141592653589793
 42
4.712388980384690
  0
ELLIPSE
  5
181
100
AcDbEntity
  8
A1
  6
CONTINUOUS
 62
7
100
AcDbEllipse
 10
136.5563303466187
 20
143.7919854234443
 30
0.000000000000000
 11
0.000000000000000
 21
4.000000000000000
 31
0.000000000000000
210
0.000000000000000
220
0.000000000000000
230
1.000000000000000
 40
0.1519146558322425
 41
0.000000000000000
 42
1.570796326794897
  0
ARC
  5
182
100
AcDbEntity
  8
A1
  6
CONTINUOUS
 62
7
100
AcDbCircle
 10
142.2492798424477
 20
143.6352985097665
 30
0.000000000000000
 40
2.614609788967322
100
AcDbArc
 50
254.9163249852143
 51
258.0397199257571
  0
ARC
  5
183
100
AcDbEntity
  8
A1
  6
CONTINUOUS
 62
7
100
AcDbCircle
 10
128.4935566611728
 20
136.2919854234446
 30
0.000000000000000
 40
2.000000000000000
100
AcDbArc
 50
192.2647737278931
 51
270.0000000000000
  0
LINE
  5
184
100
AcDbEntity
  8
A1
  6
CONTINUOUS
 62
7
100
AcDbLine
 10
149.9935566611726
 20
136.2919854234445
 30
0.000000000000000
 11
149.9935566611726
 21
134.2919854234445
 31
0.000000000000000
  0
LINE
  5
185
100
AcDbEntity
  8
A1
  6
CONTINUOUS
 62
7
100
AcDbLine
 10
128.4935566611728
 20
134.2919854234446
 30
0.000000000000000
 11
133.9718838740649
 21
134.2919854234446
 31
0.000000000000000
  0
LINE
  5
186
100
AcDbEntity
  8
A1
  6
CONTINUOUS
 62
7
100
AcDbLine
 10
126.5392039333272
 20
135.8671261347824
 30
0.000000000000000
 11
123.9483135198934
 21
147.7852220365770
 31
0.000000000000000
  0
LINE
  5
187
100
AcDbEntity
  8
A1
  6
CONTINUOUS
 62
7
100
AcDbLine
 10
123.9483135203780
 20
147.7852220370425
 30
0.000000000000000
 11
123.9553535209189
 21
147.7919854234443
 31
0.000000000000000
  0
LINE
  5
188
100
AcDbEntity
  8
A1
  6
CONTINUOUS
 62
7
100
AcDbLine
 10
139.0487690768910
 20
134.7347894535480
 30
0.000000000000000
 11
139.0565692758857
 21
135.1467369336691
 31
0.000000000000000
  0
LINE
  5
189
100
AcDbEntity
  8
A1
  6
CONTINUOUS
 62
7
100
AcDbLine
 10
138.6284160392533
 20
147.7919854234443
 30
0.000000000000000
 11
138.5797148482599
 21
147.7919854234443
 31
0.000000000000000
  0
LINE
  5
18A
100
AcDbEntity
  8
A1
  6
CONTINUOUS
 62
7
100
AcDbLine
 10
134.8833718090584
 20
128.2919854234449
 30
0.000000000000000
 11
136.8601590382192
 21
128.2919854234449
 31
0.000000000000000
  0
LINE
  5
18B
100
AcDbEntity
  8
A1
  6
CONTINUOUS
 62
7
100
AcDbLine
 10
133.9718838740649
 20
134.2919854234129
 30
0.000000000000000
 11
133.9718838740573
 21
143.7919854234230
 31
0.000000000000000
  0
LINE
  5
18C
100
AcDbEntity
  8
A1
  6
CONTINUOUS
 62
7
100
AcDbLine
 10
137.4678176615510
 20
130.7919854234445
 30
0.000000000000000
 11
137.4678176615523
 21
129.2919854234501
 31
0.000000000000000
  0
LINE
  5
18D
100
AcDbEntity
  8
A1
  6
CONTINUOUS
 62
7
100
AcDbLine
 10
137.4678176615482
 20
134.2919854234339
 30
0.000000000000000
 11
137.4678176615510
 21
130.7919854234446
 31
0.000000000000000
  0
LINE
  5
18E
100
AcDbEntity
  8
A1
  6
CONTINUOUS
 62
7
100
AcDbLine
 10
136.8601590382192
 20
128.2919854234449
 30
0.000000000000000
 11
137.3159030057200
 21
128.2919854234449
 31
0.000000000000000
  0
LINE
  5
18F
100
AcDbEntity
  8
A1
  6
CONTINUOUS
 62
7
100
AcDbLine
 10
135.9486711032257
 20
134.2919854234128
 30
0.000000000000000
 11
135.9486711032181
 21
143.7919854234230
 31
0.000000000000000
  0
LINE
  5
190
100
AcDbEntity
  8
A1
  6
CONTINUOUS
 62
7
100
AcDbLine
 10
138.9865473252359
 20
135.7729718292113
 30
0.000000000000000
 11
138.9721827514450
 21
135.8491813933412
 31
0.000000000000000
  0
LINE
  5
191
100
AcDbEntity
  8
A1
  6
CONTINUOUS
 62
7
100
AcDbLine
 10
137.7716469732127
 20
136.2919854234446
 30
0.000000000000000
 11
138.7815222351465
 21
136.2919854234447
 31
0.000000000000000
  0
SPLINE
  5
192
100
AcDbEntity
  8
A1
  6
CONTINUOUS
 62
7
100
AcDbSpline
210
0.000000000000000
220
0.000000000000000
230
1.000000000000000
 70
     8
 71
     3
 72
    15
 73
    11
 74
     0
 42
1.000000000000000e-07
 43
1.000000000000000e-07
 12
-0.8683420218662832
 22
-0.4959658587652029
 32
0.000000000000000
 13
-0.3508502426338964
 23
-0.9364315817219904
 33
0.000000000000000
 40
0.000000000000000
 40
0.000000000000000
 40
0.000000000000000
 40
0.000000000000000
 40
0.3740837632560485
 40
0.7680918907280556
 40
1.142428512551310
 40
1.399861486870202
 40
1.648272932835040
 40
1.890133600597429
 40
2.123620355765310
 40
2.132264769846354
 40
2.132264769846354
 40
2.132264769846354
 40
2.132264769846354
 10
134.0198588380845
 20
132.3598055215522
 30
0.000000000000000
 10
133.9115812876402
 20
132.2979612632544
 30
0.000000000000000
 10
133.6960673463142
 20
132.1586237771054
 30
0.000000000000000
 10
133.4010585472134
 20
131.9164943243284
 30
0.000000000000000
 10
133.1632052694039
 20
131.6697269006111
 30
0.000000000000000
 10
132.9814653304236
 20
131.4389999483066
 30
0.000000000000000
 10
132.8440112297343
 20
131.2307285604226
 30
0.000000000000000
 10
132.7287086242928
 20
131.0184847251268
 30
0.000000000000000
 10
132.6644549526939
 20
130.8702167263406
 30
0.000000000000000
 10
132.6360148304203
 20
130.7946837242282
 30
0.000000000000000
 10
132.6350038654944
 20
130.7919854234445
 30
0.000000000000000
  0
ARC
  5
193
100
AcDbEntity
  8
A1
  6
CONTINUOUS
 62
7
100
AcDbCircle
 10
133.4935566611727
 20
133.2919854234446
 30
0.000000000000000
 40
1.000000000000000
100
AcDbArc
 50
90.00000000000000
 51
180.0000000000000
  0
ARC
  5
194
100
AcDbEntity
  8
A1
  6
CONTINUOUS
 62
7
100
AcDbCircle
 10
149.4935566611727
 20
133.2919854234446
 30
0.000000000000000
 40
1.000000000000000
100
AcDbArc
 50
0.000000000000000
 51
90.00000000000000
  0
ARC
  5
195
100
AcDbEntity
  8
A1
  6
CONTINUOUS
 62
7
100
AcDbCircle
 10
150.4935566611794
 20
130.7919854234445
 30
0.000000000000000
 40
2.000000000000000
100
AcDbArc
 50
0.000000000000000
 51
90.00000000051936
  0
LINE
  5
196
100
AcDbEntity
  8
A1
  6
CONTINUOUS
 62
7
100
AcDbLine
 10
150.4935566611727
 20
133.2919854234446
 30
0.000000000000000
 11
150.4935566611727
 21
132.7919854234445
 31
0.000000000000000
  0
LINE
  5
197
100
AcDbEntity
  8
A1
  6
CONTINUOUS
 62
7
100
AcDbLine
 10
132.4935566611727
 20
127.7919854234445
 30
0.000000000000000
 11
132.4935566611727
 21
133.2919854234446
 31
0.000000000000000
  0
LINE
  5
198
100
AcDbEntity
  8
A1
  6
CONTINUOUS
 62
7
100
AcDbLine
 10
152.4935566611726
 20
130.7919854234445
 30
0.000000000000000
 11
152.4935566611726
 21
127.7919854234445
 31
0.000000000000000
  0
LINE
  5
199
100
AcDbEntity
  8
A1
  6
CONTINUOUS
 62
7
100
AcDbLine
 10
146.9935566611034
 20
138.7919854234445
 30
0.000000000000000
 11
147.9935566611034
 21
137.7919854234445
 31
0.000000000000000
  0
LINE
  5
19A
100
AcDbEntity
  8
A1
  6
CONTINUOUS
 62
7
100
AcDbLine
 10
146.9935566611034
 20
138.7919854234445
 30
0.000000000000000
 11
138.9301450004368
 21
138.7919854234445
 31
0.000000000000000
  0
LINE
  5
19B
100
AcDbEntity
  8
A1
  6
CONTINUOUS
 62
7
100
AcDbLine
 10
147.9935566611034
 20
137.7919854234445
 30
0.000000000000000
 11
147.9935566611034
 21
136.2919854234446
 31
0.000000000000000
  0
LINE
  5
19C
100
AcDbEntity
  8
A1
  6
CONTINUOUS
 62
7
100
AcDbLine
 10
138.6284160392534
 20
147.7919854234443
 30
0.000000000000000
 11
139.0552086915919
 21
135.1817616125143
 31
0.000000000000000
  0
SPLINE
  5
19D
100
AcDbEntity
  8
A1
  6
CONTINUOUS
 62
7
100
AcDbSpline
210
0.000000000000000
220
0.000000000000000
230
1.000000000000000
 70
     8
 71
     3
 72
     9
 73
     5
 74
     0
 42
1.000000000000000e-07
 43
1.000000000000000e-07
 12
-0.03383125897869377
 22
-0.9994275591137125
 32
0.000000000000000
 13
-0.03372028414599981
 23
-0.9994313095141649
 33
0.000000000000000
 40
0.000000000000000
 40
0.000000000000000
 40
0.000000000000000
 40
0.000000000000000
 40
2.368002533064208
 40
6.152490219277976
 40
6.152490219277976
 40
6.152490219277976
 40
6.152490219277976
 10
138.8362031701395
 20
306.0391106638552
 30
0.000000000000000
 10
138.8094990011534
 20
305.2502283333234
 30
0.000000000000000
 10
138.7401606358581
 20
303.2005707565303
 30
0.000000000000000
 10
138.6709360657512
 20
301.1509093318383
 30
0.000000000000000
 10
138.6283980657092
 20
299.8901308371474
 30
0.000000000000000
  0
SPLINE
  5
19E
100
AcDbEntity
  8
A1
  6
CONTINUOUS
 62
7
100
AcDbSpline
210
0.000000000000000
220
0.000000000000000
230
1.000000000000000
 70
     8
 71
     3
 72
    10
 73
     6
 74
     0
 42
1.000000000000000e-07
 43
1.000000000000000e-07
 12
0.3720993204296974
 22
0.9281929194512486
 32
0.000000000000000
 13
0.7620025391593117
 23
0.6475740346195380
 33
0.000000000000000
 40
0.000000000000000
 40
0.000000000000000
 40
0.000000000000000
 40
0.000000000000000
 40
0.04054492587978480
 40
0.1630470579153336
 40
0.3591788820139699
 40
0.3591788820139699
 40
0.3591788820139699
 40
0.3591788820139699
 10
126.0008569298213
 20
299.9236136403136
 30
0.000000000000000
 10
126.0058858429435
 20
299.9361581446874
 30
0.000000000000000
 10
126.0286877859407
 20
299.9859325096780
 30
0.000000000000000
 10
126.1153095198154
 20
300.0715899893643
 30
0.000000000000000
 10
126.1881782821066
 20
300.1480673832814
 30
0.000000000000000
 10
126.2379959314310
 20
300.1904040088310
 30
0.000000000000000
  0
SPLINE
  5
19F
100
AcDbEntity
  8
A1
  6
CONTINUOUS
 62
7
100
AcDbSpline
210
0.000000000000000
220
0.000000000000000
230
1.000000000000000
 70
     8
 71
     3
 72
    11
 73
     7
 74
     0
 42
1.000000000000000e-07
 43
1.000000000000000e-07
 12
0.7374406471153634
 22
0.6754119424340388
 32
0.000000000000000
 13
0.7321050381170835
 23
0.6811917594650367
 33
0.000000000000000
 40
0.000000000000000
 40
0.000000000000000
 40
0.000000000000000
 40
0.000000000000000
 40
0.2354848762940182
 40
0.5227643071349479
 40
0.8637739414525236
 40
1.254687208086528
 40
1.254687208086528
 40
1.254687208086528
 40
1.254687208086528
 10
126.2379959314310
 20
300.1904040088310
 30
0.000000000000000
 10
126.2958813046177
 20
300.2434204414016
 30
0.000000000000000
 10
126.4243736276061
 20
300.3611253680073
 30
0.000000000000000
 10
126.6368856645094
 20
300.5553913889414
 30
0.000000000000000
 10
126.8869874452125
 20
300.7853236229259
 30
0.000000000000000
 10
127.0659372813262
 20
300.9511573765815
 30
0.000000000000000
 10
127.1613338053160
 20
301.0399196752137
 30
0.000000000000000
  0
SPLINE
  5
1A0
100
AcDbEntity
  8
A1
  6
CONTINUOUS
 62
7
100
AcDbSpline
210
0.000000000000000
220
0.000000000000000
230
1.000000000000000
 70
     8
 71
     3
 72
     9
 73
     5
 74
     0
 42
1.000000000000000e-07
 43
1.000000000000000e-07
 12
-0.9985036470989144
 22
-0.05468516006658319
 32
0.000000000000000
 13
0.1803205609758152
 23
0.9836078971493407
 33
0.000000000000000
 40
0.000000000000000
 40
0.000000000000000
 40
0.000000000000000
 40
0.000000000000000
 40
0.04556960600451860
 40
0.06217804954953760
 40
0.06217804954953760
 40
0.06217804954953760
 40
0.06217804954953760
 10
126.0435907232443
 20
299.8900324176013
 30
0.000000000000000
 10
126.0284235839802
 20
299.8892017572018
 30
0.000000000000000
 10
125.9983404555218
 20
299.8949504346850
 30
0.000000000000000
 10
125.9998586485356
 20
299.9181682415702
 30
0.000000000000000
 10
126.0008569298213
 20
299.9236136403136
 30
0.000000000000000
  0
SPLINE
  5
1A1
100
AcDbEntity
  8
A1
  6
CONTINUOUS
 62
7
100
AcDbSpline
210
0.000000000000000
220
0.000000000000000
230
1.000000000000000
 70
     8
 71
     3
 72
    11
 73
     7
 74
     0
 42
1.000000000000000e-07
 43
1.000000000000000e-07
 12
-0.7685998018296232
 22
-0.6397298997453618
 32
0.000000000000000
 13
-0.3869719813665142
 23
-0.9220914735487895
 33
0.000000000000000
 40
0.000000000000000
 40
0.000000000000000
 40
0.000000000000000
 40
0.000000000000000
 40
0.1663588417071240
 40
0.2806252378008064
 40
0.3427513335889350
 40
0.3520617220794879
 40
0.3520617220794879
 40
0.3520617220794879
 40
0.3520617220794879
 10
124.2036904295654
 20
300.1375948664149
 30
0.000000000000000
 10
124.1610693053091
 20
300.1021199580392
 30
0.000000000000000
 10
124.0894442616350
 20
300.0411816929682
 30
0.000000000000000
 10
124.0076285717575
 20
299.9632712545363
 30
0.000000000000000
 10
123.9593867938286
 20
299.9214450682342
 30
0.000000000000000
 10
123.9495144735385
 20
299.8996574806174
 30
0.000000000000000
 10
123.9483135203780
 20
299.8967958040032
 30
0.000000000000000
  0
SPLINE
  5
1A2
100
AcDbEntity
  8
A1
  6
CONTINUOUS
 62
7
100
AcDbSpline
210
0.000000000000000
220
0.000000000000000
230
1.000000000000000
 70
     8
 71
     3
 72
     9
 73
     5
 74
     0
 42
1.000000000000000e-07
 43
1.000000000000000e-07
 12
0.9853928999107211
 22
0.1702963088414435
 32
0.000000000000000
 13
0.9670026776548184
 23
0.2547662093093095
 33
0.000000000000000
 40
0.000000000000000
 40
0.000000000000000
 40
0.000000000000000
 40
0.000000000000000
 40
0.3766351106669363
 40
0.4056579724811010
 40
0.4056579724811010
 40
0.4056579724811010
 40
0.4056579724811010
 10
141.1742352225577
 20
306.4853703797286
 30
0.000000000000000
 10
141.2979464105271
 20
306.5067502361042
 30
0.000000000000000
 10
141.4303705449142
 20
306.5351391825492
 30
0.000000000000000
 10
141.5612313782279
 20
306.5691822540913
 30
0.000000000000000
 10
141.5705864399237
 20
306.5716469355872
 30
0.000000000000000
  0
SPLINE
  5
1A3
100
AcDbEntity
  8
A1
  6
CONTINUOUS
 62
7
100
AcDbSpline
210
0.000000000000000
220
0.000000000000000
230
1.000000000000000
 70
     8
 71
     3
 72
    15
 73
    11
 74
     0
 42
1.000000000000000e-07
 43
1.000000000000000e-07
 12
-0.03236860445304046
 22
0.9994759994351625
 32
0.000000000000000
 13
-0.9383403583833569
 23
0.3457128459158412
 33
0.000000000000000
 40
0.000000000000000
 40
0.000000000000000
 40
0.000000000000000
 40
0.000000000000000
 40
0.3136251702124466
 40
0.6152619343692038
 40
0.8798240155919683
 40
1.115987610924027
 40
1.309116273292717
 40
1.461577332104838
 40
1.573245978454725
 40
1.640509492828027
 40
1.640509492828027
 40
1.640509492828027
 40
1.640509492828027
 10
144.4045936866002
 20
311.8148917062637
 30
0.000000000000000
 10
144.4012098169065
 20
311.9193786497457
 30
0.000000000000000
 10
144.3913189530692
 20
312.1242731265763
 30
0.000000000000000
 10
144.3689356431788
 20
312.4166895148277
 30
0.000000000000000
 10
144.3393738674446
 20
312.6827140827844
 30
0.000000000000000
 10
144.3036057774320
 20
312.9108801698026
 30
0.000000000000000
 10
144.2638478293453
 20
313.1019832878271
 30
0.000000000000000
 10
144.2162534777943
 20
313.2443619890906
 30
0.000000000000000
 10
144.1736831888197
 20
313.3526461484261
 30
0.000000000000000
 10
144.1185029549166
 20
313.3822811306077
 30
0.000000000000000
 10
144.0974642648555
 20
313.3900324176011
 30
0.000000000000000
  0
SPLINE
  5
1A4
100
AcDbEntity
  8
A1
  6
CONTINUOUS
 62
7
100
AcDbSpline
210
0.000000000000000
220
0.000000000000000
230
1.000000000000000
 70
     8
 71
     3
 72
    24
 73
    20
 74
     0
 42
1.000000000000000e-07
 43
1.000000000000000e-07
 12
0.7343980213834129
 22
0.6787190480517893
 32
0.000000000000000
 13
0.9869102363048796
 23
0.1612705350539727
 33
0.000000000000000
 40
0.000000000000000
 40
0.000000000000000
 40
0.000000000000000
 40
0.000000000000000
 40
0.5337873286347435
 40
1.101424105671179
 40
1.702565171226307
 40
2.336646303219077
 40
3.145913845696384
 40
4.006232443698297
 40
4.914643275308340
 40
5.868014621584084
 40
6.863103272250665
 40
7.896599169846620
 40
8.936503910121676
 40
10.01492353032393
 40
11.12680034423342
 40
12.26705810085083
 40
13.43062623940833
 40
14.61246147939971
 40
15.20891098446904
 40
15.20891098446904
 40
15.20891098446904
 40
15.20891098446904
 10
127.1613338053160
 20
301.0399196752137
 30
0.000000000000000
 10
127.2920045913123
 20
301.1606835510647
 30
0.000000000000000
 10
127.5681137233169
 20
301.4030019786514
 30
0.000000000000000
 10
128.0157002557815
 20
301.7523514583859
 30
0.000000000000000
 10
128.5066230604240
 20
302.0993098607867
 30
0.000000000000000
 10
129.0800115784974
 20
302.4680015141170
 30
0.000000000000000
 10
129.7439622780844
 20
302.8543286616271
 30
0.000000000000000
 10
130.5047967378952
 20
303.2543058589363
 30
0.000000000000000
 10
131.3238109865294
 20
303.6453351709301
 30
0.000000000000000
 10
132.1973246918046
 20
304.0250476601738
 30
0.000000000000000
 10
133.1216349702943
 20
304.3910982067731
 30
0.000000000000000
 10
134.0840302509857
 20
304.7379486414524
 30
0.000000000000000
 10
135.0826698207741
 20
305.0647338538414
 30
0.000000000000000
 10
136.1149450509229
 20
305.3713933333801
 30
0.000000000000000
 10
137.1871951897668
 20
305.6595983532383
 30
0.000000000000000
 10
138.2940159621469
 20
305.9271033490928
 30
0.000000000000000
 10
139.4299803010126
 20
306.1717338105838
 30
0.000000000000000
 10
140.3936194141268
 20
306.3540200887406
 30
0.000000000000000
 10
140.9780211818937
 20
306.4533071361235
 30
0.000000000000000
 10
141.1742352225577
 20
306.4853703797286
 30
0.000000000000000
  0
SPLINE
  5
1A5
100
AcDbEntity
  8
A1
  6
CONTINUOUS
 62
7
100
AcDbSpline
210
0.000000000000000
220
0.000000000000000
230
1.000000000000000
 70
     8
 71
     3
 72
    27
 73
    23
 74
     0
 42
1.000000000000000e-07
 43
1.000000000000000e-07
 12
0.7399826479270359
 22
0.6726259590336667
 32
0.000000000000000
 13
0.9912863775300025
 23
0.1317244006384044
 33
0.000000000000000
 40
0.000000000000000
 40
0.000000000000000
 40
0.000000000000000
 40
0.000000000000000
 40
0.6033715855778546
 40
1.254762097117751
 40
1.953809812757246
 40
2.699727961604833
 40
3.540446107822072
 40
4.434064174907054
 40
5.377911339103068
 40
6.141488881470265
 40
6.934504127030919
 40
7.755138739420551
 40
8.601547328226353
 40
9.701052920399452
 40
10.83897315330258
 40
12.01060389427030
 40
12.93958447492006
 40
13.88702288283307
 40
14.85027093892722
 40
15.82668161183211
 40
16.69909242245033
 40
17.57993114869600
 40
17.57993114869600
 40
17.57993114869600
 40
17.57993114869600
 10
125.0007793276783
 20
300.8469400948667
 30
0.000000000000000
 10
125.1496074955383
 20
300.9822212253343
 30
0.000000000000000
 10
125.4676771645144
 20
301.2543685916733
 30
0.000000000000000
 10
125.9909068145454
 20
301.6428672122097
 30
0.000000000000000
 10
126.5739242030472
 20
302.0286125140487
 30
0.000000000000000
 10
127.2295127244367
 20
302.4173425545265
 30
0.000000000000000
 10
127.9590727710045
 20
302.8068131003475
 30
0.000000000000000
 10
128.7632616726730
 20
303.1949280291517
 30
0.000000000000000
 10
129.5575672905651
 20
303.5429378893679
 30
0.000000000000000
 10
130.3306668444788
 20
303.8546130794169
 30
0.000000000000000
 10
131.0726501883713
 20
304.1329856441569
 30
0.000000000000000
 10
131.8468658601498
 20
304.4034175594895
 30
0.000000000000000
 10
132.7239422289396
 20
304.6885190669141
 30
0.000000000000000
 10
133.7088924479829
 20
304.9831091753105
 30
0.000000000000000
 10
134.8054232728164
 20
305.2817092165235
 30
0.000000000000000
 10
135.8535504640540
 20
305.5405435931530
 30
0.000000000000000
 10
136.8447758487844
 20
305.7638446310220
 30
0.000000000000000
 10
137.7717304483584
 20
305.9557134659079
 30
0.000000000000000
 10
138.7173661481443
 20
306.1346241578495
 30
0.000000000000000
 10
139.6412514582369
 20
306.2932436331791
 30
0.000000000000000
 10
140.5403810823809
 20
306.4329406208086
 30
0.000000000000000
 10
141.1191433940468
 20
306.5142190302057
 30
0.000000000000000
 10
141.4101978707562
 20
306.5528950146303
 30
0.000000000000000
  0
SPLINE
  5
1A6
100
AcDbEntity
  8
A1
  6
CONTINUOUS
 62
7
100
AcDbSpline
210
0.000000000000000
220
0.000000000000000
230
1.000000000000000
 70
     8
 71
     3
 72
    11
 73
     7
 74
     0
 42
1.000000000000000e-07
 43
1.000000000000000e-07
 12
-0.7360278436476619
 22
-0.6769512636637955
 32
0.000000000000000
 13
-0.7609457382955043
 23
-0.6488155233737416
 33
0.000000000000000
 40
0.000000000000000
 40
0.000000000000000
 40
0.000000000000000
 40
0.000000000000000
 40
0.3241641238743188
 40
0.6107986513316669
 40
0.8595940131727338
 40
1.067071922085655
 40
1.067071922085655
 40
1.067071922085655
 40
1.067071922085655
 10
125.0007793276783
 20
300.8469400948667
 30
0.000000000000000
 10
124.9212480539840
 20
300.7737923237696
 30
0.000000000000000
 10
124.7707577679160
 20
300.6366547058261
 30
0.000000000000000
 10
124.5574320148995
 20
300.4453594653487
 30
0.000000000000000
 10
124.3715962725700
 20
300.2816799896398
 30
0.000000000000000
 10
124.2563169064246
 20
300.1824664957682
 30
0.000000000000000
 10
124.2036904295654
 20
300.1375948664149
 30
0.000000000000000
  0
SPLINE
  5
1A7
100
AcDbEntity
  8
A1
  6
CONTINUOUS
 62
7
100
AcDbSpline
210
0.000000000000000
220
0.000000000000000
230
1.000000000000000
 70
     8
 71
     3
 72
    21
 73
    17
 74
     0
 42
1.000000000000000e-07
 43
1.000000000000000e-07
 12
0.03287297371821296
 22
-0.9994595377497717
 32
0.000000000000000
 13
-0.9762169452296803
 23
-0.2167959312209859
 33
0.000000000000000
 40
0.000000000000000
 40
0.000000000000000
 40
0.000000000000000
 40
0.000000000000000
 40
0.3740311464199894
 40
0.7500902508960300
 40
1.126034219168207
 40
1.503906008927348
 40
1.884398478759508
 40
2.264942846817224
 40
2.635535756328302
 40
3.008255205516031
 40
3.380195018275422
 40
3.743758140619139
 40
4.107727417003822
 40
4.469284523656891
 40
4.777522280701204
 40
4.781055762398393
 40
4.781055762398393
 40
4.781055762398393
 40
4.781055762398393
 10
144.4652076123536
 20
310.0334255968741
 30
0.000000000000000
 10
144.4693061177023
 20
309.9088159313058
 30
0.000000000000000
 10
144.4637821393088
 20
309.6582390461550
 30
0.000000000000000
 10
144.4135997767356
 20
309.2855215962737
 30
0.000000000000000
 10
144.3219849081557
 20
308.9193524646619
 30
0.000000000000000
 10
144.1877650247267
 20
308.5649714840565
 30
0.000000000000000
 10
144.0137892043199
 20
308.2266594816432
 30
0.000000000000000
 10
143.8041048412678
 20
307.9120770216573
 30
0.000000000000000
 10
143.5612300496634
 20
307.6258334838390
 30
0.000000000000000
 10
143.2909746492468
 20
307.3695446176233
 30
0.000000000000000
 10
142.9967255893925
 20
307.1449992404081
 30
0.000000000000000
 10
142.6824683845938
 20
306.9551164915813
 30
0.000000000000000
 10
142.3538799356044
 20
306.7994706949200
 30
0.000000000000000
 10
142.0290861700245
 20
306.6824991015155
 30
0.000000000000000
 10
141.8112300435819
 20
306.6274896693617
 30
0.000000000000000
 10
141.7097932982707
 20
306.6048922139996
 30
0.000000000000000
 10
141.7086434833679
 20
306.6046368658480
 30
0.000000000000000
  0
ARC
  5
1A8
100
AcDbEntity
  8
A1
  6
CONTINUOUS
 62
7
100
AcDbCircle
 10
128.4935566611728
 20
311.3900324176011
 30
0.000000000000000
 40
2.000000000000000
100
AcDbArc
 50
90.00000000000000
 51
167.7352262721070
  0
ARC
  5
1A9
100
AcDbEntity
  8
A1
  6
CONTINUOUS
 62
7
100
AcDbCircle
 10
142.2313333686339
 20
304.1213396410745
 30
0.000000000000000
 40
2.537891076944801
100
AcDbArc
 50
101.9133830787034
 51
105.1305939954617
  0
LINE
  5
1AA
100
AcDbEntity
  8
A1
  6
CONTINUOUS
 62
7
100
AcDbLine
 10
128.6444396716363
 20
313.3900324176011
 30
0.000000000000000
 11
128.4935566611728
 21
313.3900324176011
 31
0.000000000000000
  0
LINE
  5
1AB
100
AcDbEntity
  8
A1
  6
CONTINUOUS
 62
7
100
AcDbLine
 10
149.9935566611727
 20
313.3900324176011
 30
0.000000000000000
 11
149.9935566611727
 21
311.3900324176011
 31
0.000000000000000
  0
LINE
  5
1AC
100
AcDbEntity
  8
A1
  6
CONTINUOUS
 62
7
100
AcDbLine
 10
141.7086434833680
 20
306.6046368658480
 30
0.000000000000000
 11
141.4101978707563
 21
306.5528950146303
 31
0.000000000000000
  0
LINE
  5
1AD
100
AcDbEntity
  8
A1
  6
CONTINUOUS
 62
7
100
AcDbLine
 10
144.4045936866001
 20
311.8148917062637
 30
0.000000000000000
 11
144.4652076123535
 21
310.0334255968741
 31
0.000000000000000
  0
SPLINE
  5
1AE
100
AcDbEntity
  8
A1
  6
CONTINUOUS
 62
7
100
AcDbSpline
210
0.000000000000000
220
0.000000000000000
230
1.000000000000000
 70
     8
 71
     3
 72
    20
 73
    16
 74
     0
 42
1.000000000000000e-07
 43
1.000000000000000e-07
 12
0.3508502204931574
 22
-0.9364315900020301
 32
0.000000000000000
 13
0.9999982660010573
 23
-0.001862255382548028
 33
0.000000000000000
 40
0.000000000000000
 40
0.000000000000000
 40
0.000000000000000
 40
0.000000000000000
 40
0.008644327974662500
 40
0.2400716430540700
 40
0.4797246595497225
 40
0.7301925204629802
 40
0.9898366581609502
 40
1.354647316542767
 40
1.738132975850041
 40
2.152063252381887
 40
2.589145064433001
 40
2.869453435332845
 40
3.160118621900811
 40
3.469025583001586
 40
3.790481388253570
 40
3.790481388253570
 40
3.790481388253570
 40
3.790481388253570
 10
132.6350041713220
 20
316.8900324176011
 30
0.000000000000000
 10
132.6360151261139
 20
316.8873341436712
 30
0.000000000000000
 10
132.6642085884997
 20
316.8124418179901
 30
0.000000000000000
 10
132.7278402442022
 20
316.6654612671332
 30
0.000000000000000
 10
132.8425409130817
 20
316.4537368043638
 30
0.000000000000000
 10
132.9801493164414
 20
316.2447364804532
 30
0.000000000000000
 10
133.1607295150544
 20
316.0153191182612
 30
0.000000000000000
 10
133.3940466378762
 20
315.7725217495573
 30
0.000000000000000
 10
133.6930767972898
 20
315.5249080995139
 30
0.000000000000000
 10
134.0394003005568
 20
315.3008162263001
 30
0.000000000000000
 10
134.3802497491299
 20
315.1368369078909
 30
0.000000000000000
 10
134.6972079299247
 20
315.0241932490385
 30
0.000000000000000
 10
134.9815126944139
 20
314.9504985707497
 30
0.000000000000000
 10
135.2850988179512
 20
314.9016002434116
 30
0.000000000000000
 10
135.4953915153719
 20
314.8902319618689
 30
0.000000000000000
 10
135.6025432646546
 20
314.8900324176011
 30
0.000000000000000
  0
ARC
  5
1AF
100
AcDbEntity
  8
A1
  6
CONTINUOUS
 62
7
100
AcDbCircle
 10
149.4935566611728
 20
314.3900324176011
 30
0.000000000000000
 40
1.000000000000000
100
AcDbArc
 50
270.0000000000000
 51
360.0000000000000
  0
ARC
  5
1B0
100
AcDbEntity
  8
A1
  6
CONTINUOUS
 62
7
100
AcDbCircle
 10
133.4935566611728
 20
314.3900324176011
 30
0.000000000000000
 40
1.000000000000000
100
AcDbArc
 50
180.0000000000000
 51
270.0000000000000
  0
ARC
  5
1B1
100
AcDbEntity
  8
A1
  6
CONTINUOUS
 62
7
100
AcDbCircle
 10
150.4935566611728
 20
316.8900324176011
 30
0.000000000000000
 40
2.000000000000000
100
AcDbArc
 50
270.0000000000000
 51
360.0000000000015
  0
LINE
  5
1B2
100
AcDbEntity
  8
A1
  6
CONTINUOUS
 62
7
100
AcDbLine
 10
132.4935566611728
 20
314.3900324176011
 30
0.000000000000000
 11
132.4935566611728
 21
319.8900324176011
 31
0.000000000000000
  0
LINE
  5
1B3
100
AcDbEntity
  8
A1
  6
CONTINUOUS
 62
7
100
AcDbLine
 10
150.4935566611728
 20
314.8900324176011
 30
0.000000000000000
 11
150.4935566611728
 21
314.3900324176011
 31
0.000000000000000
  0
LINE
  5
1B4
100
AcDbEntity
  8
A1
  6
CONTINUOUS
 62
7
100
AcDbLine
 10
152.4935566611728
 20
316.8900324176011
 30
0.000000000000000
 11
152.4935566611728
 21
319.8900324176011
 31
0.000000000000000
  0
LINE
  5
1B5
100
AcDbEntity
  8
A1
  6
CONTINUOUS
 62
7
100
AcDbLine
 10
147.9935566611035
 20
311.3900324176011
 30
0.000000000000000
 11
147.9935566611035
 21
309.8900324176011
 31
0.000000000000000
  0
LINE
  5
1B6
100
AcDbEntity
  8
A1
  6
CONTINUOUS
 62
7
100
AcDbLine
 10
144.3062459733888
 20
308.8900324176011
 30
0.000000000000000
 11
146.9935566611035
 21
308.8900324176011
 31
0.000000000000000
  0
LINE
  5
1B7
100
AcDbEntity
  8
A1
  6
CONTINUOUS
 62
7
100
AcDbLine
 10
147.9935566611034
 20
309.8900324176012
 30
0.000000000000000
 11
146.9935566611034
 21
308.8900324176012
 31
0.000000000000000
  0
LINE
  5
1B8
100
AcDbEntity
  8
A1
  6
CONTINUOUS
 62
7
100
AcDbLine
 10
147.9935566611035
 20
309.8900324176011
 30
0.000000000000000
 11
144.4663648121859
 21
309.8900324176011
 31
0.000000000000000
  0
LINE
  5
1B9
100
AcDbEntity
  8
A1
  6
CONTINUOUS
 62
7
100
AcDbLine
 10
152.4935566611728
 20
319.8900324176011
 30
0.000000000000000
 11
132.4935566611728
 21
319.8900324176011
 31
0.000000000000000
  0
LINE
  5
1BA
100
AcDbEntity
  8
A1
  6
CONTINUOUS
 62
7
100
AcDbLine
 10
150.4935566611727
 20
314.8900324176010
 30
0.000000000000000
 11
135.6025432646545
 21
314.8900324176010
 31
0.000000000000000
  0
LINE
  5
1BB
100
AcDbEntity
  8
A1
  6
CONTINUOUS
 62
7
100
AcDbLine
 10
149.9935566611727
 20
313.3900324176012
 30
0.000000000000000
 11
128.6444396716364
 21
313.3900324176011
 31
0.000000000000000
  0
LINE
  5
1BC
100
AcDbEntity
  8
A1
  6
CONTINUOUS
 62
7
100
AcDbLine
 10
149.9935566611727
 20
311.3900324176011
 30
0.000000000000000
 11
144.4115434175840
 21
311.3900324176011
 31
0.000000000000000
  0
LINE
  5
1BD
100
AcDbEntity
  8
A1
  6
CONTINUOUS
 62
7
100
AcDbLine
 10
138.6284158724429
 20
299.8900324176013
 30
0.000000000000000
 11
123.9553535209190
 21
299.8900324176013
 31
0.000000000000000
  0
LINE
  5
1BE
100
AcDbEntity
  8
A1
  6
CONTINUOUS
 62
7
100
AcDbLine
 10
138.5797148482599
 20
147.7919854234443
 30
0.000000000000000
 11
123.9553535209189
 21
147.7919854234443
 31
0.000000000000000
  0
LINE
  5
1BF
100
AcDbEntity
  8
A1
  6
CONTINUOUS
 62
7
100
AcDbLine
 10
147.9935566611034
 20
137.7919854234445
 30
0.000000000000000
 11
138.9631785811526
 21
137.7919854234445
 31
0.000000000000000
  0
LINE
  5
1C0
100
AcDbEntity
  8
A1
  6
CONTINUOUS
 62
7
100
AcDbLine
 10
149.9935566611726
 20
136.2919854234445
 30
0.000000000000000
 11
139.0176331995101
 21
136.2919854234445
 31
0.000000000000000
  0
LINE
  5
1C1
100
AcDbEntity
  8
A1
  6
CONTINUOUS
 62
7
100
AcDbLine
 10
149.9935566611726
 20
134.2919854234445
 30
0.000000000000000
 11
137.4678176615482
 21
134.2919854234446
 31
0.000000000000000
  0
LINE
  5
1C2
100
AcDbEntity
  8
A1
  6
CONTINUOUS
 62
7
100
AcDbLine
 10
150.4935566611614
 20
132.7919854234446
 30
0.000000000000000
 11
137.4678176615494
 21
132.7919854234445
 31
0.000000000000000
  0
LINE
  5
1C3
100
AcDbEntity
  8
A1
  6
CONTINUOUS
 62
7
100
AcDbLine
 10
152.4935566611726
 20
127.7919854234445
 30
0.000000000000000
 11
132.4935566611727
 21
127.7919854234445
 31
0.000000000000000
  0
LINE
  5
1C4
100
AcDbEntity
  8
A1
  6
CONTINUOUS
 62
7
100
AcDbLine
 10
126.5392039333273
 20
311.8148917062632
 30
0.000000000000000
 11
123.9483135198188
 21
299.8967958041247
 31
0.000000000000000
  0
LINE
  5
1C5
100
AcDbEntity
  8
A1
  6
CONTINUOUS
 62
7
100
AcDbLine
 10
123.9483135203780
 20
299.8967958040033
 30
0.000000000000000
 11
123.9553535209189
 21
299.8900324176016
 31
0.000000000000000
  0
LINE
  5
1C6
100
AcDbEntity
  8
A4
  6
CENTER
 62
1
100
AcDbLine
 10
70.44831352008811
 20
246.8683523555704
 30
0.000000000000000
 11
62.44831352008811
 21
246.8683523555704
 31
0.000000000000000
  0
LINE
  5
1C7
100
AcDbEntity
  8
A4
  6
CENTER
 62
1
100
AcDbLine
 10
62.44831352008811
 20
223.8683523555012
 30
0.000000000000000
 11
76.44831352008811
 21
223.8683523555012
 31
0.000000000000000
  0
LINE
  5
1C8
100
AcDbEntity
  8
A4
  6
CENTER
 62
1
100
AcDbLine
 10
70.44831352008811
 20
200.8683523555704
 30
0.000000000000000
 11
62.44831352008811
 21
200.8683523555704
 31
0.000000000000000
  0
LINE
  5
1C9
100
AcDbEntity
  8
A4
  6
CENTER
 62
1
100
AcDbLine
 10
144.4935566611727
 20
134.2919854234445
 30
0.000000000000000
 11
144.4935566611727
 21
126.2919854234445
 31
0.000000000000000
  0
LINE
  5
1CA
100
AcDbEntity
  8
A4
  6
CENTER
 62
1
100
AcDbLine
 10
141.4935566611034
 20
140.2919854234445
 30
0.000000000000000
 11
141.4935566611034
 21
126.2919854234445
 31
0.000000000000000
  0
LINE
  5
1CB
100
AcDbEntity
  8
A4
  6
CENTER
 62
1
100
AcDbLine
 10
141.4935566604774
 20
307.4447192878158
 30
0.000000000000000
 11
141.4935566603725
 21
321.4447192878157
 31
0.000000000000000
  0
LINE
  5
1CC
100
AcDbEntity
  8
A4
  6
CENTER
 62
1
100
AcDbLine
 10
144.4935566605016
 20
313.4447192878381
 30
0.000000000000000
 11
144.4935566604417
 21
321.4447192878382
 31
0.000000000000000
  0
ARC
  5
1CD
100
AcDbEntity
  8
A2
  6
CONTINUOUS
 62
4
100
AcDbCircle
 10
138.8578720995268
 20
224.2734532255141
 30
0.000000000000000
 40
1.145412728988863
100
AcDbArc
 50
116.7997777920008
 51
157.7995393917331
  0
ARC
  5
1CE
100
AcDbEntity
  8
A2
  6
CONTINUOUS
 62
4
100
AcDbCircle
 10
140.9264154432664
 20
220.1783939694265
 30
0.000000000000000
 40
5.733264282363177
100
AcDbArc
 50
45.72442220799910
 51
116.7997777920008
  0
ARC
  5
1CF
100
AcDbEntity
  8
A2
  6
CONTINUOUS
 62
4
100
AcDbCircle
 10
144.1292412226801
 20
223.4632514857462
 30
0.000000000000000
 40
1.145412728988864
100
AcDbArc
 50
323.5117545546281
 51
405.7244222079992
  0
ARC
  5
1D0
100
AcDbEntity
  8
A2
  6
CONTINUOUS
 62
4
100
AcDbCircle
 10
138.8578720995268
 20
224.2734532255141
 30
0.000000000000000
 40
1.145412728988863
100
AcDbArc
 50
171.2621000000000
 51
225.7244222080521
  0
ARC
  5
1D1
100
AcDbEntity
  8
A2
  6
CONTINUOUS
 62
4
100
AcDbCircle
 10
142.0606978789415
 20
227.5583107418410
 30
0.000000000000000
 40
5.733264282363177
100
AcDbArc
 50
225.7244222080520
 51
296.7997777919479
  0
ARC
  5
1D2
100
AcDbEntity
  8
A2
  6
CONTINUOUS
 62
4
100
AcDbCircle
 10
144.1292412226801
 20
223.4632514857462
 30
0.000000000000000
 40
1.145412728988864
100
AcDbArc
 50
296.7997777919479
 51
306.9609392796171
  0
LINE
  5
1D3
100
AcDbEntity
  8
A2
  6
CONTINUOUS
 62
4
100
AcDbLine
 10
138.8234107958475
 20
225.5120316384433
 30
0.000000000000000
 11
138.5323688267001
 21
223.6184419626852
 31
0.000000000000000
  0
LINE
  5
1D4
100
AcDbEntity
  8
A2
  6
CONTINUOUS
 62
4
100
AcDbLine
 10
138.9529440445472
 20
223.4292223529790
 30
0.000000000000000
 11
139.2020809147702
 21
225.0501672864091
 31
0.000000000000000
  0
ARC
  5
1D5
100
AcDbEntity
  8
A2
  6
CONTINUOUS
 62
4
100
AcDbCircle
 10
139.4217212949016
 20
225.0164088805854
 30
0.000000000000000
 40
0.2222195458280301
100
AcDbArc
 50
107.2764659996366
 51
171.2621000000000
  0
ARC
  5
1D6
100
AcDbEntity
  8
A2
  6
CONTINUOUS
 62
4
100
AcDbCircle
 10
140.9264154432664
 20
220.1783939694265
 30
0.000000000000000
 40
5.288825190707117
100
AcDbArc
 50
104.2060535565378
 51
107.2764659996366
  0
ARC
  5
1D7
100
AcDbEntity
  8
A2
  6
CONTINUOUS
 62
4
100
AcDbCircle
 10
139.6393928253764
 20
225.2623990645480
 30
0.000000000000000
 40
0.04444390916560601
100
AcDbArc
 50
351.2621000000000
 51
464.2060535565375
  0
LINE
  5
1D8
100
AcDbEntity
  8
A2
  6
CONTINUOUS
 62
4
100
AcDbLine
 10
139.6833209014027
 20
225.2556473833833
 30
0.000000000000000
 11
139.3502655784402
 21
223.0887086327101
 31
0.000000000000000
  0
ARC
  5
1D9
100
AcDbEntity
  8
A2
  6
CONTINUOUS
 62
4
100
AcDbCircle
 10
139.3063375024140
 20
223.0954603138748
 30
0.000000000000000
 40
0.04444390916560601
100
AcDbArc
 50
238.3181464434623
 51
351.2621000000000
  0
ARC
  5
1DA
100
AcDbEntity
  8
A2
  6
CONTINUOUS
 62
4
100
AcDbCircle
 10
142.0606978789415
 20
227.5583107418410
 30
0.000000000000000
 40
5.288825190707117
100
AcDbArc
 50
235.2477340003634
 51
238.3181464434622
  0
ARC
  5
1DB
100
AcDbEntity
  8
A2
  6
CONTINUOUS
 62
4
100
AcDbCircle
 10
139.1725844246785
 20
223.3954639471553
 30
0.000000000000000
 40
0.2222195458280301
100
AcDbArc
 50
171.2621000000000
 51
235.2477340003634
  0
LINE
  5
1DC
100
AcDbEntity
  8
A2
  6
CONTINUOUS
 62
4
100
AcDbLine
 10
140.4763749344233
 20
224.5642812970637
 30
0.000000000000000
 11
140.6053317513739
 21
225.4033056409119
 31
0.000000000000000
  0
ARC
  5
1DD
100
AcDbEntity
  8
A2
  6
CONTINUOUS
 62
4
100
AcDbCircle
 10
140.5614036753476
 20
225.4100573220767
 30
0.000000000000000
 40
0.04444390916560601
100
AcDbArc
 50
351.2621000000000
 51
453.9910438731226
  0
ARC
  5
1DE
100
AcDbEntity
  8
A2
  6
CONTINUOUS
 62
4
100
AcDbCircle
 10
140.9264154432664
 20
220.1783939694265
 30
0.000000000000000
 40
5.288825190707117
100
AcDbArc
 50
93.99104387312263
 51
94.53021897055622
  0
ARC
  5
1DF
100
AcDbEntity
  8
A2
  6
CONTINUOUS
 62
4
100
AcDbCircle
 10
140.9264154432664
 20
220.1783939694265
 30
0.000000000000000
 40
5.288825190707117
100
AcDbArc
 50
94.53021897055626
 51
96.51962329045639
  0
ARC
  5
1E0
100
AcDbEntity
  8
A2
  6
CONTINUOUS
 62
4
100
AcDbCircle
 10
140.3511353226124
 20
225.2122340089490
 30
0.000000000000000
 40
0.2222195458280301
100
AcDbArc
 50
96.51962329045642
 51
171.2621000000000
  0
LINE
  5
1E1
100
AcDbEntity
  8
A2
  6
CONTINUOUS
 62
4
100
AcDbLine
 10
140.1314949424810
 20
225.2459924147726
 30
0.000000000000000
 11
139.7806530578875
 21
222.9633299780261
 31
0.000000000000000
  0
ARC
  5
1E2
100
AcDbEntity
  8
A2
  6
CONTINUOUS
 62
4
100
AcDbCircle
 10
140.0002934380189
 20
222.9295715722024
 30
0.000000000000000
 40
0.2222195458280301
100
AcDbArc
 50
171.2621000000000
 51
246.0045767095436
  0
ARC
  5
1E3
100
AcDbEntity
  8
A2
  6
CONTINUOUS
 62
4
100
AcDbCircle
 10
142.0606978789415
 20
227.5583107418410
 30
0.000000000000000
 40
5.288825190707117
100
AcDbArc
 50
246.0045767095436
 51
246.0558121239420
  0
ARC
  5
1E4
100
AcDbEntity
  8
A2
  6
CONTINUOUS
 62
4
100
AcDbCircle
 10
142.0606978789415
 20
227.5583107418410
 30
0.000000000000000
 40
5.288825190707117
100
AcDbArc
 50
246.0558121239420
 51
248.5331561268773
  0
ARC
  5
1E5
100
AcDbEntity
  8
A2
  6
CONTINUOUS
 62
4
100
AcDbCircle
 10
140.1414496934940
 20
222.6777348097569
 30
0.000000000000000
 40
0.04444390916560601
100
AcDbArc
 50
248.5331561268775
 51
351.2621000000000
  0
LINE
  5
1E6
100
AcDbEntity
  8
A2
  6
CONTINUOUS
 62
4
100
AcDbLine
 10
140.1853777695202
 20
222.6709831285921
 30
0.000000000000000
 11
140.3143345864697
 21
223.5100074724331
 31
0.000000000000000
  0
LINE
  5
1E7
100
AcDbEntity
  8
A2
  6
CONTINUOUS
 62
4
100
AcDbLine
 10
141.0645359121974
 20
225.4654153079422
 30
0.000000000000000
 11
140.6047351292221
 21
222.4738398382674
 31
0.000000000000000
  0
LINE
  5
1E8
100
AcDbEntity
  8
A2
  6
CONTINUOUS
 62
4
100
AcDbLine
 10
141.5095155982432
 20
225.4349770903448
 30
0.000000000000000
 11
141.0383169637020
 21
222.3692444325700
 31
0.000000000000000
  0
LINE
  5
1E9
100
AcDbEntity
  8
A2
  6
CONTINUOUS
 62
4
100
AcDbLine
 10
141.2739162809721
 20
223.9021107614538
 30
0.000000000000000
 11
140.8346355207092
 21
223.9696275731011
 31
0.000000000000000
  0
LINE
  5
1EA
100
AcDbEntity
  8
A2
  6
CONTINUOUS
 62
4
100
AcDbLine
 10
141.9487963585059
 20
225.3674602786975
 30
0.000000000000000
 11
141.4775977239648
 21
222.3017276209227
 31
0.000000000000000
  0
LINE
  5
1EB
100
AcDbEntity
  8
A2
  6
CONTINUOUS
 62
4
100
AcDbLine
 10
142.6727787357371
 20
224.2266972388271
 30
0.000000000000000
 11
142.7823713679565
 21
224.9397334978849
 31
0.000000000000000
  0
ARC
  5
1EC
100
AcDbEntity
  8
A2
  6
CONTINUOUS
 62
4
100
AcDbCircle
 10
142.5627309878251
 20
224.9734919037085
 30
0.000000000000000
 40
0.2222195458280301
100
AcDbArc
 50
351.2621000000000
 51
431.1579172838749
  0
ARC
  5
1ED
100
AcDbEntity
  8
A2
  6
CONTINUOUS
 62
4
100
AcDbCircle
 10
140.9264154432664
 20
220.1783939694265
 30
0.000000000000000
 40
5.288825190707117
100
AcDbArc
 50
71.15791728387499
 51
73.46917566457761
  0
ARC
  5
1EE
100
AcDbEntity
  8
A2
  6
CONTINUOUS
 62
4
100
AcDbCircle
 10
142.4186052032954
 20
225.2060081895360
 30
0.000000000000000
 40
0.04444390916560601
100
AcDbArc
 50
73.46917566457731
 51
171.2621000000000
  0
LINE
  5
1EF
100
AcDbEntity
  8
A2
  6
CONTINUOUS
 62
4
100
AcDbLine
 10
142.3746771272691
 20
225.2127598707007
 30
0.000000000000000
 11
141.9302784757272
 21
222.3213944056248
 31
0.000000000000000
  0
ARC
  5
1F0
100
AcDbEntity
  8
A2
  6
CONTINUOUS
 62
4
100
AcDbCircle
 10
141.9742065517534
 20
222.3146427244601
 30
0.000000000000000
 40
0.04444390916560601
100
AcDbArc
 50
171.2621000000000
 51
269.0550243354227
  0
ARC
  5
1F1
100
AcDbEntity
  8
A2
  6
CONTINUOUS
 62
4
100
AcDbCircle
 10
142.0606978789415
 20
227.5583107418410
 30
0.000000000000000
 40
5.288825190707117
100
AcDbArc
 50
269.0550243354223
 51
271.3662827161249
  0
ARC
  5
1F2
100
AcDbEntity
  8
A2
  6
CONTINUOUS
 62
4
100
AcDbCircle
 10
142.1815053754340
 20
222.4931455609697
 30
0.000000000000000
 40
0.2222195458280301
100
AcDbArc
 50
271.3662827161249
 51
351.2621000000000
  0
LINE
  5
1F3
100
AcDbEntity
  8
A2
  6
CONTINUOUS
 62
4
100
AcDbLine
 10
142.4011457555653
 20
222.4593871551461
 30
0.000000000000000
 11
142.5917585617603
 21
223.6995603265118
 31
0.000000000000000
  0
LINE
  5
1F4
100
AcDbEntity
  8
A2
  6
CONTINUOUS
 62
4
100
AcDbLine
 10
142.5917585617603
 20
223.6995603265118
 30
0.000000000000000
 11
142.3721181816290
 21
223.7333187323355
 31
0.000000000000000
  0
LINE
  5
1F5
100
AcDbEntity
  8
A2
  6
CONTINUOUS
 62
4
100
AcDbLine
 10
143.2529787255407
 20
225.0760351301486
 30
0.000000000000000
 11
142.8302677007673
 21
222.3257746275659
 31
0.000000000000000
  0
LINE
  5
1F6
100
AcDbEntity
  8
A2
  6
CONTINUOUS
 62
4
100
AcDbLine
 10
143.6604514691044
 20
224.8015676432972
 30
0.000000000000000
 11
143.5040784881096
 21
223.7841670833486
 31
0.000000000000000
  0
ARC
  5
1F7
100
AcDbEntity
  8
A2
  6
CONTINUOUS
 62
4
100
AcDbCircle
 10
143.7237188682410
 20
223.7504086775249
 30
0.000000000000000
 40
0.2222195458280311
100
AcDbArc
 50
171.2621000000000
 51
351.2621000000000
  0
LINE
  5
1F8
100
AcDbEntity
  8
A2
  6
CONTINUOUS
 62
4
100
AcDbLine
 10
143.9433592483724
 20
223.7166502717012
 30
0.000000000000000
 11
144.0875956648692
 21
224.6550873979573
 31
0.000000000000000
  0
LINE
  5
1F9
100
AcDbEntity
  8
A2
  6
CONTINUOUS
 62
4
100
AcDbLine
 10
143.6899604624173
 20
223.5307682973935
 30
0.000000000000000
 11
143.5280138938442
 21
222.4771046241690
 31
0.000000000000000
  0
LINE
  5
1FA
100
AcDbEntity
  8
A2
  6
CONTINUOUS
 62
4
100
AcDbLine
 10
144.0069220401688
 20
222.6405995453481
 30
0.000000000000000
 11
144.7878076916762
 21
224.4163143598236
 31
0.000000000000000
  0
LINE
  5
1FB
100
AcDbEntity
  8
A2
  6
CONTINUOUS
 62
4
100
AcDbLine
 10
145.2613598500718
 20
223.2892465052360
 30
0.000000000000000
 11
144.3535304470140
 21
223.4287785593544
 31
0.000000000000000
  0
CIRCLE
  5
1FC
100
AcDbEntity
  8
A1
  6
CONTINUOUS
 62
7
100
AcDbCircle
 10
417.1615226163534
 20
210.3642176241605
 30
0.000000000000000
 40
2.500000000000000
  0
CIRCLE
  5
1FD
100
AcDbEntity
  8
A1
  6
CONTINUOUS
 62
7
100
AcDbCircle
 10
417.1615226163534
 20
234.3642176241605
 30
0.000000000000000
 40
2.500000000000000
  0
ARC
  5
1FE
100
AcDbEntity
  8
A1
  6
CONTINUOUS
 62
7
100
AcDbCircle
 10
413.3615346163534
 20
239.8642176241605
 30
0.000000000000000
 40
2.500000000000000
100
AcDbArc
 50
90.00000000000000
 51
180.0000000000000
  0
ARC
  5
1FF
100
AcDbEntity
  8
A1
  6
CONTINUOUS
 62
7
100
AcDbCircle
 10
413.3615346163534
 20
204.8642176241605
 30
0.000000000000000
 40
2.500000000000000
100
AcDbArc
 50
180.0000000000000
 51
270.0000000000000
  0
LINE
  5
200
100
AcDbEntity
  8
A1
  6
CONTINUOUS
 62
7
100
AcDbLine
 10
433.1615226163534
 20
228.0586574273732
 30
0.000000000000000
 11
433.1615226163534
 21
216.6697778209477
 31
0.000000000000000
  0
SPLINE
  5
201
100
AcDbEntity
  8
A1
  6
CONTINUOUS
 62
7
100
AcDbSpline
210
0.000000000000000
220
0.000000000000000
230
1.000000000000000
 70
     8
 71
     3
 72
    15
 73
    11
 74
     0
 42
1.000000000000000e-07
 43
1.000000000000000e-07
 12
-0.002250462368465378
 22
-0.9999974677059527
 32
0.000000000000000
 13
-0.9631085037785851
 23
-0.2691133775015260
 33
0.000000000000000
 40
0.000000000000000
 40
0.000000000000000
 40
0.000000000000000
 40
0.000000000000000
 40
0.4273740030090919
 40
0.8547419577568831
 40
1.282198042840198
 40
1.709639382180794
 40
2.135363922725610
 40
2.561071944961548
 40
2.914164898766294
 40
3.267251587479943
 40
3.267251587479943
 40
3.267251587479943
 40
3.267251587479943
 10
468.6615226163534
 20
219.2844592852228
 30
0.000000000000000
 10
468.6612020199830
 20
219.1420016449653
 30
0.000000000000000
 10
468.6371244339792
 20
218.8565781784869
 30
0.000000000000000
 10
468.5303542764319
 20
218.4406714976583
 30
0.000000000000000
 10
468.3540675512427
 20
218.0490578738498
 30
0.000000000000000
 10
468.1157677011170
 20
217.6924088669904
 30
0.000000000000000
 10
467.8199998793235
 20
217.3825884663969
 30
0.000000000000000
 10
467.4967804319170
 20
217.1410368196388
 30
0.000000000000000
 10
467.1616113760134
 20
216.9651916249089
 30
0.000000000000000
 10
466.9389954937257
 20
216.8859293233478
 30
0.000000000000000
 10
466.8256418962353
 20
216.8542558728976
 30
0.000000000000000
  0
SPLINE
  5
202
100
AcDbEntity
  8
A1
  6
CONTINUOUS
 62
7
100
AcDbSpline
210
0.000000000000000
220
0.000000000000000
230
1.000000000000000
 70
     8
 71
     3
 72
    16
 73
    12
 74
     0
 42
1.000000000000000e-07
 43
1.000000000000000e-07
 12
0.9848235320405365
 22
0.1735586665636220
 32
0.000000000000000
 13
-6.745206519553903e-05
 23
0.9999999977235348
 33
0.000000000000000
 40
0.000000000000000
 40
0.000000000000000
 40
0.000000000000000
 40
0.000000000000000
 40
0.4192777759983681
 40
0.8385685719073859
 40
1.257720602175683
 40
1.676892093981734
 40
2.098627631372598
 40
2.520381902499221
 40
2.946444783146764
 40
3.372517865344027
 40
3.518382284554255
 40
3.518382284554255
 40
3.518382284554255
 40
3.518382284554255
 10
466.5849024730817
 20
217.0036987933141
 30
0.000000000000000
 10
466.7225406798366
 20
217.0279552238881
 30
0.000000000000000
 10
466.9943747251335
 20
217.0992645522785
 30
0.000000000000000
 10
467.3781899796518
 20
217.2727547152125
 30
0.000000000000000
 10
467.7268012800027
 20
217.5091128648278
 30
0.000000000000000
 10
468.0326295990323
 20
217.7998648125768
 30
0.000000000000000
 10
468.2851786551571
 20
218.1390206711492
 30
0.000000000000000
 10
468.4801860595850
 20
218.5168098120113
 30
0.000000000000000
 10
468.6087993399462
 20
218.9235404387674
 30
0.000000000000000
 10
468.6561240798046
 20
219.2545377361708
 30
0.000000000000000
 10
468.6615258959722
 20
219.4451897792205
 30
0.000000000000000
 10
468.6615226163534
 20
219.4938112521799
 30
0.000000000000000
  0
SPLINE
  5
203
100
AcDbEntity
  8
A1
  6
CONTINUOUS
 62
7
100
AcDbSpline
210
0.000000000000000
220
0.000000000000000
230
1.000000000000000
 70
     8
 71
     3
 72
    16
 73
    12
 74
     0
 42
1.000000000000000e-07
 43
1.000000000000000e-07
 12
0.9848235320405365
 22
-0.1735586665633946
 32
0.000000000000000
 13
-6.745206519553903e-05
 23
-0.9999999977226253
 33
0.000000000000000
 40
0.000000000000000
 40
0.000000000000000
 40
0.000000000000000
 40
0.000000000000000
 40
0.4192777759983681
 40
0.8385685719073859
 40
1.257720602175683
 40
1.676892093981734
 40
2.098627631372598
 40
2.520381902499221
 40
2.946444783146764
 40
3.372517865344027
 40
3.518382284554255
 40
3.518382284554255
 40
3.518382284554255
 40
3.518382284554255
 10
466.5849024730817
 20
227.7247364550068
 30
0.000000000000000
 10
466.7225406798366
 20
227.7004800244328
 30
0.000000000000000
 10
466.9943747251335
 20
227.6291706960424
 30
0.000000000000000
 10
467.3781899796518
 20
227.4556805331084
 30
0.000000000000000
 10
467.7268012800027
 20
227.2193223834930
 30
0.000000000000000
 10
468.0326295990323
 20
226.9285704357440
 30
0.000000000000000
 10
468.2851786551571
 20
226.5894145771718
 30
0.000000000000000
 10
468.4801860595850
 20
226.2116254363096
 30
0.000000000000000
 10
468.6087993399462
 20
225.8048948095535
 30
0.000000000000000
 10
468.6561240798046
 20
225.4738975121500
 30
0.000000000000000
 10
468.6615258959722
 20
225.2832454691004
 30
0.000000000000000
 10
468.6615226163534
 20
225.2346239961410
 30
0.000000000000000
  0
SPLINE
  5
204
100
AcDbEntity
  8
A1
  6
CONTINUOUS
 62
7
100
AcDbSpline
210
0.000000000000000
220
0.000000000000000
230
1.000000000000000
 70
     8
 71
     3
 72
    15
 73
    11
 74
     0
 42
1.000000000000000e-07
 43
1.000000000000000e-07
 12
-0.002250462368465378
 22
0.9999974677059527
 32
0.000000000000000
 13
-0.9631085037785851
 23
0.2691133775015260
 33
0.000000000000000
 40
0.000000000000000
 40
0.000000000000000
 40
0.000000000000000
 40
0.000000000000000
 40
0.4273740030090919
 40
0.8547419577568831
 40
1.282198042840198
 40
1.709639382180794
 40
2.135363922725610
 40
2.561071944961514
 40
2.914164898766286
 40
3.267251587479935
 40
3.267251587479935
 40
3.267251587479935
 40
3.267251587479935
 10
468.6615226163534
 20
225.4439759630981
 30
0.000000000000000
 10
468.6612020199830
 20
225.5864336033556
 30
0.000000000000000
 10
468.6371244339792
 20
225.8718570698339
 30
0.000000000000000
 10
468.5303542764319
 20
226.2877637506626
 30
0.000000000000000
 10
468.3540675512427
 20
226.6793773744712
 30
0.000000000000000
 10
468.1157677011170
 20
227.0360263813304
 30
0.000000000000000
 10
467.8199998793236
 20
227.3458467819241
 30
0.000000000000000
 10
467.4967804319169
 20
227.5873984286820
 30
0.000000000000000
 10
467.1616113760134
 20
227.7632436234122
 30
0.000000000000000
 10
466.9389954937257
 20
227.8425059249731
 30
0.000000000000000
 10
466.8256418962353
 20
227.8741793754233
 30
0.000000000000000
  0
ELLIPSE
  5
205
100
AcDbEntity
  8
A1
  6
CONTINUOUS
 62
7
100
AcDbEllipse
 10
464.6615226163534
 20
228.4753251650933
 30
0.000000000000000
 11
1.500000000000000
 21
0.000000000000000
 31
0.000000000000000
210
0.000000000000000
220
0.000000000000000
230
1.000000000000000
 40
0.2777784918134278
 41
3.141592653589793
 42
4.712388980384690
  0
ELLIPSE
  5
206
100
AcDbEntity
  8
A1
  6
CONTINUOUS
 62
7
100
AcDbEllipse
 10
464.6615226163534
 20
216.2531100832276
 30
0.000000000000000
 11
1.500000000000000
 21
0.000000000000000
 31
0.000000000000000
210
0.000000000000000
220
0.000000000000000
230
1.000000000000000
 40
0.2777784918134278
 41
1.570796326794897
 42
3.141592653589793
  0
ARC
  5
207
100
AcDbEntity
  8
A1
  6
CONTINUOUS
 62
7
100
AcDbCircle
 10
475.6267922050090
 20
239.8642176241605
 30
0.000000000000000
 40
2.500000000000000
100
AcDbArc
 50
90.00000000000000
 51
150.7511928171625
  0
ARC
  5
208
100
AcDbEntity
  8
A1
  6
CONTINUOUS
 62
7
100
AcDbCircle
 10
475.6268530178812
 20
204.8642176241605
 30
0.000000000000000
 40
2.500000000000000
100
AcDbArc
 50
209.2488391056982
 51
270.0000000000000
  0
LINE
  5
209
100
AcDbEntity
  8
A1
  6
CONTINUOUS
 62
7
100
AcDbLine
 10
491.1615226163534
 20
242.3642176241605
 30
0.000000000000000
 11
491.1615226163534
 21
202.3642176241605
 31
0.000000000000000
  0
LINE
  5
20A
100
AcDbEntity
  8
A1
  6
CONTINUOUS
 62
7
100
AcDbLine
 10
467.1614873763331
 20
229.8642176241605
 30
0.000000000000000
 11
473.4455267567903
 21
241.0857253173033
 31
0.000000000000000
  0
LINE
  5
20B
100
AcDbEntity
  8
A1
  6
CONTINUOUS
 62
7
100
AcDbLine
 10
473.4455882502369
 20
203.6427087157060
 30
0.000000000000000
 11
467.1615399763625
 21
214.8642176241605
 31
0.000000000000000
  0
LINE
  5
20C
100
AcDbEntity
  8
A1
  6
CONTINUOUS
 62
7
100
AcDbLine
 10
466.8256418962352
 20
227.8741793754232
 30
0.000000000000000
 11
464.6615226163534
 21
228.4753251650932
 31
0.000000000000000
  0
LINE
  5
20D
100
AcDbEntity
  8
A1
  6
CONTINUOUS
 62
7
100
AcDbLine
 10
466.8256418962353
 20
216.8542558728975
 30
0.000000000000000
 11
464.6615226163534
 21
216.2531100832275
 31
0.000000000000000
  0
LINE
  5
20E
100
AcDbEntity
  8
A1
  6
CONTINUOUS
 62
7
100
AcDbLine
 10
468.6615226163534
 20
219.2844592852228
 30
0.000000000000000
 11
468.6615226163534
 21
219.4938112521799
 31
0.000000000000000
  0
LINE
  5
20F
100
AcDbEntity
  8
A1
  6
CONTINUOUS
 62
7
100
AcDbLine
 10
464.6615226163534
 20
216.6697778209477
 30
0.000000000000000
 11
466.5849024730817
 21
217.0036987933141
 31
0.000000000000000
  0
LINE
  5
210
100
AcDbEntity
  8
A1
  6
CONTINUOUS
 62
7
100
AcDbLine
 10
468.6615226163534
 20
225.2346239961410
 30
0.000000000000000
 11
468.6615226163534
 21
219.4938112521799
 31
0.000000000000000
  0
LINE
  5
211
100
AcDbEntity
  8
A1
  6
CONTINUOUS
 62
7
100
AcDbLine
 10
464.6615226163535
 20
228.0586574273732
 30
0.000000000000000
 11
466.5849024730818
 21
227.7247364550068
 31
0.000000000000000
  0
LINE
  5
212
100
AcDbEntity
  8
A1
  6
CONTINUOUS
 62
7
100
AcDbLine
 10
468.6615226163534
 20
225.2346239961410
 30
0.000000000000000
 11
468.6615226163534
 21
225.4439759630981
 31
0.000000000000000
  0
ARC
  5
213
100
AcDbEntity
  8
A1
  6
CONTINUOUS
 62
7
100
AcDbCircle
 10
424.6615226163535
 20
273.8642176241605
 30
0.000000000000000
 40
1.500000000000000
100
AcDbArc
 50
180.0000000000000
 51
270.0000000000000
  0
ARC
  5
214
100
AcDbEntity
  8
A1
  6
CONTINUOUS
 62
7
100
AcDbCircle
 10
431.6615226163534
 20
273.8642176241605
 30
0.000000000000000
 40
1.500000000000000
100
AcDbArc
 50
270.0000000000000
 51
359.9999999999987
  0
ARC
  5
215
100
AcDbEntity
  8
A1
  6
CONTINUOUS
 62
7
100
AcDbCircle
 10
423.1615226163535
 20
298.8642176241605
 30
0.000000000000000
 40
1.500000000000000
100
AcDbArc
 50
0.000000000000000
 51
90.00000000000000
  0
LINE
  5
216
100
AcDbEntity
  8
A1
  6
CONTINUOUS
 62
7
100
AcDbLine
 10
433.1615226163534
 20
277.8642176241605
 30
0.000000000000000
 11
431.6615226163534
 21
277.8642176241605
 31
0.000000000000000
  0
LINE
  5
217
100
AcDbEntity
  8
A1
  6
CONTINUOUS
 62
7
100
AcDbLine
 10
426.6615226163535
 20
273.8642176241605
 30
0.000000000000000
 11
426.6615226163535
 21
272.3642176241605
 31
0.000000000000000
  0
LINE
  5
218
100
AcDbEntity
  8
A1
  6
CONTINUOUS
 62
7
100
AcDbLine
 10
423.1615226163535
 20
276.3641823841402
 30
0.000000000000000
 11
424.6615226163535
 21
276.3641823841402
 31
0.000000000000000
  0
LINE
  5
219
100
AcDbEntity
  8
A1
  6
CONTINUOUS
 62
7
100
AcDbLine
 10
410.8615346163534
 20
300.3642176241605
 30
0.000000000000000
 11
410.8615346163534
 21
298.8642176241605
 31
0.000000000000000
  0
ARC
  5
21A
100
AcDbEntity
  8
A1
  6
CONTINUOUS
 62
7
100
AcDbCircle
 10
368.3962650276978
 20
239.8642176241605
 30
0.000000000000000
 40
2.500000000000000
100
AcDbArc
 50
29.24880718283757
 51
90.00000000000000
  0
ARC
  5
21B
100
AcDbEntity
  8
A1
  6
CONTINUOUS
 62
7
100
AcDbCircle
 10
368.3962042148256
 20
204.8642176241605
 30
0.000000000000000
 40
2.500000000000000
100
AcDbArc
 50
270.0000000000000
 51
330.7511608943017
  0
LINE
  5
21C
100
AcDbEntity
  8
A1
  6
CONTINUOUS
 62
7
100
AcDbLine
 10
380.8615346163534
 20
229.8642176241605
 30
0.000000000000000
 11
380.8615346163534
 21
214.8642176241605
 31
0.000000000000000
  0
LINE
  5
21D
100
AcDbEntity
  8
A1
  6
CONTINUOUS
 62
7
100
AcDbLine
 10
376.8615698563736
 20
229.8642176241605
 30
0.000000000000000
 11
370.5775304759165
 21
241.0857253173032
 31
0.000000000000000
  0
LINE
  5
21E
100
AcDbEntity
  8
A1
  6
CONTINUOUS
 62
7
100
AcDbLine
 10
370.5774689824699
 20
203.6427087157060
 30
0.000000000000000
 11
376.8615172563443
 21
214.8642176241605
 31
0.000000000000000
  0
ARC
  5
21F
100
AcDbEntity
  8
A1
  6
CONTINUOUS
 62
7
100
AcDbCircle
 10
431.6615226163534
 20
170.8642176241604
 30
0.000000000000000
 40
1.500000000000000
100
AcDbArc
 50
1.221300000000000e-12
 51
90.00000000000000
  0
ARC
  5
220
100
AcDbEntity
  8
A1
  6
CONTINUOUS
 62
7
100
AcDbCircle
 10
424.6615226163535
 20
170.8642176241604
 30
0.000000000000000
 40
1.500000000000000
100
AcDbArc
 50
90.00000000000000
 51
180.0000000000000
  0
ARC
  5
221
100
AcDbEntity
  8
A1
  6
CONTINUOUS
 62
7
100
AcDbCircle
 10
423.1615226163535
 20
145.8642176241604
 30
0.000000000000000
 40
1.500000000000000
100
AcDbArc
 50
270.0000000000000
 51
360.0000000000000
  0
LINE
  5
222
100
AcDbEntity
  8
A1
  6
CONTINUOUS
 62
7
100
AcDbLine
 10
431.6615226163534
 20
166.8642176241604
 30
0.000000000000000
 11
433.1615226163534
 21
166.8642176241604
 31
0.000000000000000
  0
LINE
  5
223
100
AcDbEntity
  8
A1
  6
CONTINUOUS
 62
7
100
AcDbLine
 10
426.6615226163535
 20
170.8642176241604
 30
0.000000000000000
 11
426.6615226163535
 21
172.3642176241605
 31
0.000000000000000
  0
LINE
  5
224
100
AcDbEntity
  8
A1
  6
CONTINUOUS
 62
7
100
AcDbLine
 10
423.1615226163535
 20
168.3642002641513
 30
0.000000000000000
 11
424.6615226163535
 21
168.3642002641513
 31
0.000000000000000
  0
LINE
  5
225
100
AcDbEntity
  8
A1
  6
CONTINUOUS
 62
7
100
AcDbLine
 10
410.8615346163534
 20
144.3642176241604
 30
0.000000000000000
 11
410.8615346163534
 21
145.8642176241604
 31
0.000000000000000
  0
CIRCLE
  5
226
100
AcDbEntity
  8
A1
  6
CONTINUOUS
 62
7
100
AcDbCircle
 10
528.1615226163533
 20
234.3642176241605
 30
0.000000000000000
 40
2.500000000000000
  0
CIRCLE
  5
227
100
AcDbEntity
  8
A1
  6
CONTINUOUS
 62
7
100
AcDbCircle
 10
528.1615226163534
 20
210.3642176241605
 30
0.000000000000000
 40
2.500000000000000
  0
ARC
  5
228
100
AcDbEntity
  8
A1
  6
CONTINUOUS
 62
7
100
AcDbCircle
 10
531.9615106163533
 20
204.8642176241605
 30
0.000000000000000
 40
2.500000000000000
100
AcDbArc
 50
270.0000000000000
 51
360.0000000000000
  0
ARC
  5
229
100
AcDbEntity
  8
A1
  6
CONTINUOUS
 62
7
100
AcDbCircle
 10
531.9615106163533
 20
239.8642176241605
 30
0.000000000000000
 40
2.500000000000000
100
AcDbArc
 50
0.000000000000000
 51
90.00000000000000
  0
LINE
  5
22A
100
AcDbEntity
  8
A1
  6
CONTINUOUS
 62
7
100
AcDbLine
 10
518.6615226163533
 20
214.8642176241605
 30
0.000000000000000
 11
520.6615226163533
 21
214.8642176241605
 31
0.000000000000000
  0
LINE
  5
22B
100
AcDbEntity
  8
A1
  6
CONTINUOUS
 62
7
100
AcDbLine
 10
518.6615226163533
 20
229.8642176241605
 30
0.000000000000000
 11
520.6615226163533
 21
229.8642176241605
 31
0.000000000000000
  0
LINE
  5
22C
100
AcDbEntity
  8
A1
  6
CONTINUOUS
 62
7
100
AcDbLine
 10
520.6615226163533
 20
202.3642176241605
 30
0.000000000000000
 11
520.6615226163533
 21
242.3642176241605
 31
0.000000000000000
  0
LINE
  5
22D
100
AcDbEntity
  8
A4
  6
CENTER
 62
1
100
AcDbLine
 10
421.1615226163534
 20
234.3642176241605
 30
0.000000000000000
 11
413.1615226163534
 21
234.3642176241605
 31
0.000000000000000
  0
LINE
  5
22E
100
AcDbEntity
  8
A4
  6
CENTER
 62
1
100
AcDbLine
 10
417.1615226163534
 20
238.3642176241605
 30
0.000000000000000
 11
417.1615226163534
 21
230.3642176241605
 31
0.000000000000000
  0
LINE
  5
22F
100
AcDbEntity
  8
A4
  6
CENTER
 62
1
100
AcDbLine
 10
421.1615226163534
 20
210.3642176241605
 30
0.000000000000000
 11
413.1615226163534
 21
210.3642176241605
 31
0.000000000000000
  0
LINE
  5
230
100
AcDbEntity
  8
A4
  6
CENTER
 62
1
100
AcDbLine
 10
417.1615226163534
 20
214.3642176241605
 30
0.000000000000000
 11
417.1615226163534
 21
206.3642176241605
 31
0.000000000000000
  0
LINE
  5
231
100
AcDbEntity
  8
A4
  6
CENTER
 62
1
100
AcDbLine
 10
409.3615346163534
 20
222.3642176241605
 30
0.000000000000000
 11
434.6615226163535
 21
222.3642176241605
 31
0.000000000000000
  0
LINE
  5
232
100
AcDbEntity
  8
A1
  6
CONTINUOUS
 62
7
100
AcDbLine
 10
423.1615226163535
 20
202.3642176241605
 30
0.000000000000000
 11
423.1615226163535
 21
242.3642176241605
 31
0.000000000000000
  0
LINE
  5
233
100
AcDbEntity
  8
A1
  6
CONTINUOUS
 62
7
100
AcDbLine
 10
424.6615226163535
 20
202.3642176241605
 30
0.000000000000000
 11
424.6615226163535
 21
214.8642176241605
 31
0.000000000000000
  0
LINE
  5
234
100
AcDbEntity
  8
A1
  6
CONTINUOUS
 62
7
100
AcDbLine
 10
424.6615226163535
 20
229.8642176241605
 30
0.000000000000000
 11
424.6615226163535
 21
242.3642176241605
 31
0.000000000000000
  0
LINE
  5
235
100
AcDbEntity
  8
A1
  6
CONTINUOUS
 62
7
100
AcDbLine
 10
413.3615346163534
 20
242.3642176241605
 30
0.000000000000000
 11
424.6615226163535
 21
242.3642176241605
 31
0.000000000000000
  0
LINE
  5
236
100
AcDbEntity
  8
A1
  6
CONTINUOUS
 62
7
100
AcDbLine
 10
413.3615346163534
 20
202.3642176241605
 30
0.000000000000000
 11
424.6615226163535
 21
202.3642176241605
 31
0.000000000000000
  0
LINE
  5
237
100
AcDbEntity
  8
A1
  6
CONTINUOUS
 62
7
100
AcDbLine
 10
423.1615226163535
 20
214.8642176241605
 30
0.000000000000000
 11
426.6615226163535
 21
214.8642176241605
 31
0.000000000000000
  0
LINE
  5
238
100
AcDbEntity
  8
A1
  6
CONTINUOUS
 62
7
100
AcDbLine
 10
423.1615226163535
 20
229.8642176241605
 30
0.000000000000000
 11
426.6615226163535
 21
229.8642176241605
 31
0.000000000000000
  0
LINE
  5
239
100
AcDbEntity
  8
A1
  6
CONTINUOUS
 62
7
100
AcDbLine
 10
426.6615226163534
 20
229.8642176241604
 30
0.000000000000000
 11
433.1615226163533
 21
228.0586574273731
 31
0.000000000000000
  0
LINE
  5
23A
100
AcDbEntity
  8
A1
  6
CONTINUOUS
 62
7
100
AcDbLine
 10
426.6615226163535
 20
214.8642176241605
 30
0.000000000000000
 11
433.1615226163534
 21
216.6697778209476
 31
0.000000000000000
  0
LINE
  5
23B
100
AcDbEntity
  8
A1
  6
CONTINUOUS
 62
7
100
AcDbLine
 10
352.8615346163534
 20
242.3642176241605
 30
0.000000000000000
 11
368.3962650276978
 21
242.3642176241605
 31
0.000000000000000
  0
LINE
  5
23C
100
AcDbEntity
  8
A1
  6
CONTINUOUS
 62
7
100
AcDbLine
 10
352.8615346163534
 20
202.3642176241605
 30
0.000000000000000
 11
352.8615346163534
 21
242.3642176241605
 31
0.000000000000000
  0
LINE
  5
23D
100
AcDbEntity
  8
A1
  6
CONTINUOUS
 62
7
100
AcDbLine
 10
352.8615346163534
 20
202.3642176241605
 30
0.000000000000000
 11
368.3962042148256
 21
202.3642176241605
 31
0.000000000000000
  0
LINE
  5
23E
100
AcDbEntity
  8
A1
  6
CONTINUOUS
 62
7
100
AcDbLine
 10
354.3615346163533
 20
202.3642176241605
 30
0.000000000000000
 11
354.3615346163533
 21
242.3642176241605
 31
0.000000000000000
  0
LINE
  5
23F
100
AcDbEntity
  8
A1
  6
CONTINUOUS
 62
7
100
AcDbLine
 10
376.8615172563443
 20
214.8642176241605
 30
0.000000000000000
 11
380.8615346163534
 21
214.8642176241605
 31
0.000000000000000
  0
LINE
  5
240
100
AcDbEntity
  8
A1
  6
CONTINUOUS
 62
7
100
AcDbLine
 10
376.8615698563738
 20
229.8642176241605
 30
0.000000000000000
 11
380.8615346163534
 21
229.8642176241605
 31
0.000000000000000
  0
LINE
  5
241
100
AcDbEntity
  8
A1
  6
CONTINUOUS
 62
7
100
AcDbLine
 10
410.8615346163534
 20
145.8642176241604
 30
0.000000000000000
 11
423.1615226163535
 21
145.8642176241604
 31
0.000000000000000
  0
LINE
  5
242
100
AcDbEntity
  8
A1
  6
CONTINUOUS
 62
7
100
AcDbLine
 10
410.8615346163534
 20
144.3642176241604
 30
0.000000000000000
 11
423.1615226163535
 21
144.3642176241604
 31
0.000000000000000
  0
LINE
  5
243
100
AcDbEntity
  8
A1
  6
CONTINUOUS
 62
7
100
AcDbLine
 10
423.1615226163535
 20
145.8642176241604
 30
0.000000000000000
 11
423.1615226163535
 21
170.8642176241604
 31
0.000000000000000
  0
LINE
  5
244
100
AcDbEntity
  8
A1
  6
CONTINUOUS
 62
7
100
AcDbLine
 10
424.6615226163535
 20
145.8642176241604
 30
0.000000000000000
 11
424.6615226163535
 21
170.8642176241604
 31
0.000000000000000
  0
LINE
  5
245
100
AcDbEntity
  8
A1
  6
CONTINUOUS
 62
7
100
AcDbLine
 10
424.6615226163535
 20
170.8642176241604
 30
0.000000000000000
 11
431.6615226163534
 21
170.8642176241604
 31
0.000000000000000
  0
LINE
  5
246
100
AcDbEntity
  8
A1
  6
CONTINUOUS
 62
7
100
AcDbLine
 10
424.6615226163535
 20
172.3642176241605
 30
0.000000000000000
 11
431.6615226163534
 21
172.3642176241605
 31
0.000000000000000
  0
LINE
  5
247
100
AcDbEntity
  8
A1
  6
CONTINUOUS
 62
7
100
AcDbLine
 10
433.1615226163534
 20
166.8642176241604
 30
0.000000000000000
 11
433.1615226163534
 21
170.8642176241604
 31
0.000000000000000
  0
LINE
  5
248
100
AcDbEntity
  8
A1
  6
CONTINUOUS
 62
7
100
AcDbLine
 10
431.6615226163534
 20
166.8642176241604
 30
0.000000000000000
 11
431.6615226163534
 21
170.8642176241604
 31
0.000000000000000
  0
LINE
  5
249
100
AcDbEntity
  8
A1
  6
CONTINUOUS
 62
7
100
AcDbLine
 10
410.8615346163534
 20
298.8642176241605
 30
0.000000000000000
 11
423.1615226163535
 21
298.8642176241605
 31
0.000000000000000
  0
LINE
  5
24A
100
AcDbEntity
  8
A1
  6
CONTINUOUS
 62
7
100
AcDbLine
 10
410.8615346163534
 20
300.3642176241605
 30
0.000000000000000
 11
423.1615226163535
 21
300.3642176241605
 31
0.000000000000000
  0
LINE
  5
24B
100
AcDbEntity
  8
A1
  6
CONTINUOUS
 62
7
100
AcDbLine
 10
424.6615226163535
 20
273.8642176241605
 30
0.000000000000000
 11
424.6615226163535
 21
298.8642176241605
 31
0.000000000000000
  0
LINE
  5
24C
100
AcDbEntity
  8
A1
  6
CONTINUOUS
 62
7
100
AcDbLine
 10
424.6615226163535
 20
273.8642176241605
 30
0.000000000000000
 11
431.6615226163534
 21
273.8642176241605
 31
0.000000000000000
  0
LINE
  5
24D
100
AcDbEntity
  8
A1
  6
CONTINUOUS
 62
7
100
AcDbLine
 10
424.6615226163535
 20
272.3642176241605
 30
0.000000000000000
 11
431.6615226163534
 21
272.3642176241605
 31
0.000000000000000
  0
LINE
  5
24E
100
AcDbEntity
  8
A1
  6
CONTINUOUS
 62
7
100
AcDbLine
 10
423.1615226163535
 20
273.8642176241605
 30
0.000000000000000
 11
423.1615226163535
 21
298.8642176241605
 31
0.000000000000000
  0
LINE
  5
24F
100
AcDbEntity
  8
A1
  6
CONTINUOUS
 62
7
100
AcDbLine
 10
431.6615226163534
 20
273.8642176241605
 30
0.000000000000000
 11
431.6615226163534
 21
277.8642176241605
 31
0.000000000000000
  0
LINE
  5
250
100
AcDbEntity
  8
A1
  6
CONTINUOUS
 62
7
100
AcDbLine
 10
433.1615226163534
 20
273.8642176241605
 30
0.000000000000000
 11
433.1615226163534
 21
277.8642176241605
 31
0.000000000000000
  0
LINE
  5
251
100
AcDbEntity
  8
A4
  6
CENTER
 62
1
100
AcDbLine
 10
417.1615226163534
 20
147.3642176241604
 30
0.000000000000000
 11
417.1615226163534
 21
142.8642176241604
 31
0.000000000000000
  0
LINE
  5
252
100
AcDbEntity
  8
A4
  6
CENTER
 62
1
100
AcDbLine
 10
417.1615226163534
 20
301.8642176241605
 30
0.000000000000000
 11
417.1615226163534
 21
297.3642176241605
 31
0.000000000000000
  0
LINE
  5
253
100
AcDbEntity
  8
A1
  6
CONTINUOUS
 62
7
100
AcDbLine
 10
463.1615226163534
 20
229.8642176241605
 30
0.000000000000000
 11
467.1614873763331
 21
229.8642176241605
 31
0.000000000000000
  0
LINE
  5
254
100
AcDbEntity
  8
A1
  6
CONTINUOUS
 62
7
100
AcDbLine
 10
463.1615226163534
 20
214.8642176241605
 30
0.000000000000000
 11
463.1615226163534
 21
229.8642176241605
 31
0.000000000000000
  0
LINE
  5
255
100
AcDbEntity
  8
A1
  6
CONTINUOUS
 62
7
100
AcDbLine
 10
464.6615226163534
 20
228.0586574273732
 30
0.000000000000000
 11
464.6615226163534
 21
229.8642176241605
 31
0.000000000000000
  0
LINE
  5
256
100
AcDbEntity
  8
A1
  6
CONTINUOUS
 62
7
100
AcDbLine
 10
464.6615226163534
 20
214.8642176241605
 30
0.000000000000000
 11
464.6615226163534
 21
216.6697778209477
 31
0.000000000000000
  0
LINE
  5
257
100
AcDbEntity
  8
A1
  6
CONTINUOUS
 62
7
100
AcDbLine
 10
463.1615226163534
 20
214.8642176241605
 30
0.000000000000000
 11
467.1615399763625
 21
214.8642176241605
 31
0.000000000000000
  0
LINE
  5
258
100
AcDbEntity
  8
A1
  6
CONTINUOUS
 62
7
100
AcDbLine
 10
475.6268530178812
 20
202.3642176241605
 30
0.000000000000000
 11
491.1615226163534
 21
202.3642176241605
 31
0.000000000000000
  0
LINE
  5
259
100
AcDbEntity
  8
A4
  6
CENTER
 62
1
100
AcDbLine
 10
461.6615226163534
 20
222.3642176241605
 30
0.000000000000000
 11
492.6615226163534
 21
222.3642176241605
 31
0.000000000000000
  0
LINE
  5
25A
100
AcDbEntity
  8
A4
  6
CENTER
 62
1
100
AcDbLine
 10
488.1615226163534
 20
234.3642176241605
 30
0.000000000000000
 11
492.6615226163534
 21
234.3642176241605
 31
0.000000000000000
  0
LINE
  5
25B
100
AcDbEntity
  8
A4
  6
CENTER
 62
1
100
AcDbLine
 10
488.1615226163534
 20
210.3642176241605
 30
0.000000000000000
 11
492.6615226163534
 21
210.3642176241605
 31
0.000000000000000
  0
LINE
  5
25C
100
AcDbEntity
  8
A4
  6
CENTER
 62
1
100
AcDbLine
 10
382.3615346163534
 20
222.3642176241605
 30
0.000000000000000
 11
351.3615346163534
 21
222.3642176241605
 31
0.000000000000000
  0
LINE
  5
25D
100
AcDbEntity
  8
A4
  6
CENTER
 62
1
100
AcDbLine
 10
355.8615346163534
 20
234.3642176241605
 30
0.000000000000000
 11
351.3615346163534
 21
234.3642176241605
 31
0.000000000000000
  0
LINE
  5
25E
100
AcDbEntity
  8
A4
  6
CENTER
 62
1
100
AcDbLine
 10
355.8615346163534
 20
210.3642176241605
 30
0.000000000000000
 11
351.3615346163534
 21
210.3642176241605
 31
0.000000000000000
  0
LINE
  5
25F
100
AcDbEntity
  8
A1
  6
CONTINUOUS
 62
7
100
AcDbLine
 10
475.6267922050090
 20
242.3642176241605
 30
0.000000000000000
 11
491.1615226163534
 21
242.3642176241605
 31
0.000000000000000
  0
LINE
  5
260
100
AcDbEntity
  8
A4
  6
CENTER
 62
1
100
AcDbLine
 10
528.1615226163535
 20
238.3642176241605
 30
0.000000000000000
 11
528.1615226163535
 21
230.3642176241605
 31
0.000000000000000
  0
LINE
  5
261
100
AcDbEntity
  8
A4
  6
CENTER
 62
1
100
AcDbLine
 10
524.1615226163535
 20
234.3642176241605
 30
0.000000000000000
 11
532.1615226163535
 21
234.3642176241605
 31
0.000000000000000
  0
LINE
  5
262
100
AcDbEntity
  8
A4
  6
CENTER
 62
1
100
AcDbLine
 10
535.9615106163535
 20
222.3642176241605
 30
0.000000000000000
 11
510.6615226163534
 21
222.3642176241605
 31
0.000000000000000
  0
LINE
  5
263
100
AcDbEntity
  8
A4
  6
CENTER
 62
1
100
AcDbLine
 10
528.1615226163535
 20
214.3642176241605
 30
0.000000000000000
 11
528.1615226163535
 21
206.3642176241605
 31
0.000000000000000
  0
LINE
  5
264
100
AcDbEntity
  8
A4
  6
CENTER
 62
1
100
AcDbLine
 10
524.1615226163535
 20
210.3642176241605
 30
0.000000000000000
 11
532.1615226163535
 21
210.3642176241605
 31
0.000000000000000
  0
LINE
  5
265
100
AcDbEntity
  8
A1
  6
CONTINUOUS
 62
7
100
AcDbLine
 10
520.6615226163533
 20
242.3642176241605
 30
0.000000000000000
 11
531.9615106163533
 21
242.3642176241605
 31
0.000000000000000
  0
LINE
  5
266
100
AcDbEntity
  8
A1
  6
CONTINUOUS
 62
7
100
AcDbLine
 10
512.1615226163536
 20
228.0586574273732
 30
0.000000000000000
 11
518.6615226163534
 21
229.8642176241605
 31
0.000000000000000
  0
LINE
  5
267
100
AcDbEntity
  8
A1
  6
CONTINUOUS
 62
7
100
AcDbLine
 10
513.6615226163534
 20
216.2531100832276
 30
0.000000000000000
 11
513.6615226163534
 21
228.4753251650933
 31
0.000000000000000
  0
LINE
  5
268
100
AcDbEntity
  8
A1
  6
CONTINUOUS
 62
7
100
AcDbLine
 10
512.1615226163534
 20
216.6697778209477
 30
0.000000000000000
 11
512.1615226163534
 21
228.0586574273732
 31
0.000000000000000
  0
LINE
  5
269
100
AcDbEntity
  8
A1
  6
CONTINUOUS
 62
7
100
AcDbLine
 10
512.1615226163535
 20
216.6697778209477
 30
0.000000000000000
 11
518.6615226163535
 21
214.8642176241605
 31
0.000000000000000
  0
LINE
  5
26A
100
AcDbEntity
  8
A1
  6
CONTINUOUS
 62
7
100
AcDbLine
 10
520.6615226163533
 20
202.3642176241605
 30
0.000000000000000
 11
531.9615106163533
 21
202.3642176241605
 31
0.000000000000000
  0
LINE
  5
26B
100
AcDbEntity
  8
A1
  6
CONTINUOUS
 62
7
100
AcDbLine
 10
410.8615346163534
 20
204.8642176241605
 30
0.000000000000000
 11
410.8615346163534
 21
239.8642176241605
 31
0.000000000000000
  0
LINE
  5
26C
100
AcDbEntity
  8
A1
  6
CONTINUOUS
 62
7
100
AcDbLine
 10
534.4615106163533
 20
204.8642176241605
 30
0.000000000000000
 11
534.4615106163533
 21
239.8642176241605
 31
0.000000000000000
  0
ENDSEC
  0
SECTION
  2
OBJECTS
  0
DICTIONARY
  5
2A0
100
AcDbDictionary
  3
ACAD_GROUP
350
2A1
  3
ACAD_LAYOUT
350
2A2
  3
ACAD_MLINESTYLE
350
2A3
  0
DICTIONARY
  5
2A1
102
{ACAD_REACTORS
330
2A0
102
}
330
2A0
100
AcDbDictionary
  0
DICTIONARY
  5
2A2
102
{ACAD_REACTORS
330
2A0
102
}
330
2A0
100
AcDbDictionary
  3
Model
350
2A4
  3
ﾚｲｱｳﾄ1
350
2A5
  3
ﾚｲｱｳﾄ2
350
2A6
  0
DICTIONARY
  5
2A3
102
{ACAD_REACTORS
330
2A0
102
}
330
2A0
100
AcDbDictionary
  3
STANDARD
350
2A7
  0
LAYOUT
  5
2A4
102
{ACAD_REACTORS
330
2A2
102
}
330
2A2
100
AcDbPlotSettings
 70
11952
  4
A2
 44
420.000000
 45
594.000000
 73
  1
 72
  1
100
AcDbLayout
  1
Model
 71
0
330
297
  0
LAYOUT
  5
2A5
102
{ACAD_REACTORS
330
2A2
102
}
330
2A2
100
AcDbPlotSettings
100
AcDbLayout
  1
ﾚｲｱｳﾄ1
 71
1
330
298
  0
LAYOUT
  5
2A6
102
{ACAD_REACTORS
330
2A2
102
}
330
2A2
100
AcDbPlotSettings
100
AcDbLayout
  1
ﾚｲｱｳﾄ2
 71
2
330
299
  0
MLINESTYLE
  5
2A7
102
{ACAD_REACTORS
330
2A3
102
}
330
2A3
100
AcDbMlineStyle
  2
STANDARD
 70
     0
  3

 62
   256
 51
90.00
 52
90.00
 71
     2
 49
0.50
 62
   256
  6
BYLAYER
 49
-0.50
 62
   256
  6
BYLAYER
  0
ENDSEC
  0
EOF
