  0
SECTION
  2
HEADER
  9
$ACADVER
  1
AC1027
  9
$DWGCODEPAGE
  3
ANSI_932
  9
$LTSCALE
 40
20.0
  9
$FILLMODE
 70
     1
  9
$CLAYER
  8
0
  9
$PDMODE
 70
     0
  9
$SPLFRAME
 70
     0
  9
$SPLINETYPE
 70
     6
  9
$SPLINESEGS
 70
     8
  9
$DIMASZ
 40
2.000000
  9
$DIMEXE
 40
1.500000
  9
$DIMEXO
 40
0.800000
  9
$DIMTAD
 70
     1
  9
$DIMTIH
 70
     0
  9
$DIMTOH
 70
     0
  9
$DIMTVP
 40
0.500000
  9
$DIMTXT
 40
3.100000
  9
$EXTMIN
 10
0.000000
 20
0.000000
 30
0.000000
  9
$EXTMAX
 10
297.000000
 20
420.000000
 30
0.000000
  9
$MEASUREMENT
 70
  1
  9
$LIMMIN
 10
0.000000
 20
0.000000
  9
$LIMMAX
 10
297.000000
 20
420.000000
  9
$HANDSEED
  5
237
  9
$LWDISPLAY
290
     0
  9
$DIMBLK
  1
_OPEN
  9
$DIMDEC
 70
     2
  9
$DIMADEC
 70
     2
  9
$DIMAUNIT
 70
     0
  9
$DIMZIN
 70
     8
  9
$DIMAZIN
 70
     2
  9
$DIMTOFL
 70
     1
  0
ENDSEC
  0
SECTION
  2
CLASSES
  0
ENDSEC
  0
SECTION
  2
TABLES
  0
TABLE
  2
VPORT
  5
1FC
100
AcDbSymbolTable
 70
     1
  0
VPORT
  5
1FD
100
AcDbSymbolTableRecord
100
AcDbViewportTableRecord
  2
*ACTIVE
 70
     0
 12
162.147336
 22
132.253142
 40
228.506282
 41
1.331669
  0
ENDTAB
  0
TABLE
  2
LTYPE
  5
1FE
100
AcDbSymbolTable
 70
     3
  0
LTYPE
  5
1FF
100
AcDbSymbolTableRecord
100
AcDbLinetypeTableRecord
  2
BYBLOCK
 70
     0
  3

 72
    65
 73
     0
 40
0.0
  0
LTYPE
  5
200
100
AcDbSymbolTableRecord
100
AcDbLinetypeTableRecord
  2
BYLAYER
 70
     0
  3

 72
    65
 73
     0
 40
0.0
  0
LTYPE
  5
201
100
AcDbSymbolTableRecord
100
AcDbLinetypeTableRecord
  2
CONTINUOUS
 70
     0
  3
Solid line (NEC CAE2D for Win R18.0 : 2024.01.23)
 72
    65
 73
     0
 40
0.0
  0
LTYPE
  5
202
100
AcDbSymbolTableRecord
100
AcDbLinetypeTableRecord
  2
CENTER
 70
     0
  3
____ _ ____ _ ____ _ ____ _ ____ _ ____
 72
    65
 73
     4
 40
2.0
 49
1.25
 74
     0
 49
-0.25
 74
     0
 49
0.25
 74
     0
 49
-0.25
 74
     0
  0
LTYPE
  5
203
100
AcDbSymbolTableRecord
100
AcDbLinetypeTableRecord
  2
PHANTOM
 70
     0
  3
______  __  __  ______  __  __  ______ 
 72
    65
 73
     6
 40
2.5
 49
1.25
 74
     0
 49
-0.25
 74
     0
 49
0.25
 74
     0
 49
-0.25
 74
     0
 49
0.25
 74
     0
 49
-0.25
 74
     0
  0
ENDTAB
  0
TABLE
  2
LAYER
  5
204
100
AcDbSymbolTable
 70
    20
  0
LAYER
  5
205
100
AcDbSymbolTableRecord
100
AcDbLayerTableRecord
  2
0
 70
     0
 62
     7
  6
CONTINUOUS
370
    -3
390

  0
LAYER
  5
206
100
AcDbSymbolTableRecord
100
AcDbLayerTableRecord
  2
A0
 70
     0
 62
     9
  6
CONTINUOUS
370
    -3
390

  0
LAYER
  5
207
100
AcDbSymbolTableRecord
100
AcDbLayerTableRecord
  2
A1
 70
     0
 62
    12
  6
CONTINUOUS
370
    -3
390

  0
LAYER
  5
208
100
AcDbSymbolTableRecord
100
AcDbLayerTableRecord
  2
A2
 70
     0
 62
     9
  6
CONTINUOUS
370
    -3
390

  0
LAYER
  5
209
100
AcDbSymbolTableRecord
100
AcDbLayerTableRecord
  2
A4
 70
     0
 62
     9
  6
CONTINUOUS
370
    -3
390

  0
LAYER
  5
20A
100
AcDbSymbolTableRecord
100
AcDbLayerTableRecord
  2
A5
 70
     0
 62
     8
  6
CONTINUOUS
370
    -3
390

  0
LAYER
  5
20B
100
AcDbSymbolTableRecord
100
AcDbLayerTableRecord
  2
A6
 70
     0
 62
    12
  6
CONTINUOUS
370
    -3
390

  0
LAYER
  5
20C
100
AcDbSymbolTableRecord
100
AcDbLayerTableRecord
  2
A7
 70
     0
 62
    12
  6
CONTINUOUS
370
    -3
390

  0
LAYER
  5
20D
100
AcDbSymbolTableRecord
100
AcDbLayerTableRecord
  2
A8
 70
     0
 62
    10
  6
CONTINUOUS
370
    -3
390

  0
LAYER
  5
20E
100
AcDbSymbolTableRecord
100
AcDbLayerTableRecord
  2
A9
 70
     0
 62
     9
  6
CONTINUOUS
370
    -3
390

  0
LAYER
  5
20F
100
AcDbSymbolTableRecord
100
AcDbLayerTableRecord
  2
A10
 70
     0
 62
     6
  6
CONTINUOUS
370
    -3
390

  0
LAYER
  5
210
100
AcDbSymbolTableRecord
100
AcDbLayerTableRecord
  2
A11
 70
     0
 62
    10
  6
CONTINUOUS
370
    -3
390

  0
LAYER
  5
211
100
AcDbSymbolTableRecord
100
AcDbLayerTableRecord
  2
A19
 70
     0
 62
     5
  6
CONTINUOUS
370
    -3
390

  0
LAYER
  5
212
100
AcDbSymbolTableRecord
100
AcDbLayerTableRecord
  2
A20
 70
     0
 62
     1
  6
CONTINUOUS
370
    -3
390

  0
LAYER
  5
213
100
AcDbSymbolTableRecord
100
AcDbLayerTableRecord
  2
A22
 70
     0
 62
    81
  6
CONTINUOUS
370
    -3
390

  0
LAYER
  5
214
100
AcDbSymbolTableRecord
100
AcDbLayerTableRecord
  2
A23
 70
     0
 62
   121
  6
CONTINUOUS
370
    -3
390

  0
LAYER
  5
215
100
AcDbSymbolTableRecord
100
AcDbLayerTableRecord
  2
A30
 70
     0
 62
     1
  6
CONTINUOUS
370
    -3
390

  0
LAYER
  5
216
100
AcDbSymbolTableRecord
100
AcDbLayerTableRecord
  2
A40
 70
     0
 62
     9
  6
CONTINUOUS
370
    -3
390

  0
LAYER
  5
217
100
AcDbSymbolTableRecord
100
AcDbLayerTableRecord
  2
A50
 70
     0
 62
    12
  6
CONTINUOUS
370
    -3
390

  0
LAYER
  5
218
100
AcDbSymbolTableRecord
100
AcDbLayerTableRecord
  2
A1023
 70
     0
 62
    16
  6
CONTINUOUS
370
    -3
390

  0
ENDTAB
  0
TABLE
  2
STYLE
  5
219
100
AcDbSymbolTable
 70
     4
  0
STYLE
  5
21A
100
AcDbSymbolTableRecord
100
AcDbTextStyleTableRecord
  2
STANDARD
 70
    64
 40
0.0
 41
1.0
 50
0.0
 71
     0
 42
3.000000000000000
  3
TXT
  4

  0
STYLE
  5
21B
100
AcDbSymbolTableRecord
100
AcDbTextStyleTableRecord
  2
ANKTATE
 70
    68
 40
0.0
 41
1.0
 50
0.0
 71
     0
 42
3.000000000000000
  3
TXT
  4

  0
STYLE
  5
21C
100
AcDbSymbolTableRecord
100
AcDbTextStyleTableRecord
  2
KNJYOKO
 70
    64
 40
0.0
 41
1.0
 50
0.0
 71
     0
 42
3.000000000000000
  3
TXT
  4
BIGFONT
  0
STYLE
  5
21D
100
AcDbSymbolTableRecord
100
AcDbTextStyleTableRecord
  2
KNJTATE
 70
    68
 40
0.0
 41
1.0
 50
0.0
 71
     0
 42
3.000000000000000
  3
TXT
  4
BIGFONT
  0
ENDTAB
  0
TABLE
  2
VIEW
  5
21E
100
AcDbSymbolTable
 70
     0
  0
ENDTAB
  0
TABLE
  2
UCS
  5
21F
100
AcDbSymbolTable
 70
     0
  0
ENDTAB
  0
TABLE
  2
APPID
  5
220
100
AcDbSymbolTable
 70
     1
  0
APPID
  5
221
100
AcDbSymbolTableRecord
100
AcDbRegAppTableRecord
  2
ACAD
 70
     0
  0
ENDTAB
  0
TABLE
  2
DIMSTYLE
  5
222
100
AcDbSymbolTable
 70
     2
100
AcDbDimStyleTable
  0
DIMSTYLE
105
223
100
AcDbSymbolTableRecord
100
AcDbDimStyleTableRecord
  2
STANDARD
 70
     0
 41
2.000000
 44
1.500000
 42
0.800000
145
0.661290
140
3.100000
144
1.000000
146
0.645161
340
21A
  0
DIMSTYLE
105
224
100
AcDbSymbolTableRecord
100
AcDbDimStyleTableRecord
  2
A001
 70
     0
 41
2.000000
 44
1.500000
 42
0.800000
145
0.661290
140
3.100000
144
1.000000
146
0.645161
 77
     1
 73
     0
 74
     0
271
     2
179
     2
275
     0
 78
     8
 79
     2
172
     1
340
21A
  0
ENDTAB
  0
TABLE
  2
BLOCK_RECORD
  5
225
100
AcDbSymbolTable
 70
    12
  0
BLOCK_RECORD
  5
226
100
AcDbSymbolTableRecord
100
AcDbBlockTableRecord
  2
*MODEL_SPACE
  0
BLOCK_RECORD
  5
227
100
AcDbSymbolTableRecord
100
AcDbBlockTableRecord
  2
*PAPER_SPACE
  0
BLOCK_RECORD
  5
228
100
AcDbSymbolTableRecord
100
AcDbBlockTableRecord
  2
*PAPER_SPACE0
  0
BLOCK_RECORD
  5
1
100
AcDbSymbolTableRecord
100
AcDbBlockTableRecord
  2
_NONE
  0
BLOCK_RECORD
  5
4
100
AcDbSymbolTableRecord
100
AcDbBlockTableRecord
  2
_CLOSED
  0
BLOCK_RECORD
  5
B
100
AcDbSymbolTableRecord
100
AcDbBlockTableRecord
  2
_DOT
  0
BLOCK_RECORD
  5
13
100
AcDbSymbolTableRecord
100
AcDbBlockTableRecord
  2
_OPEN
  0
BLOCK_RECORD
  5
19
100
AcDbSymbolTableRecord
100
AcDbBlockTableRecord
  2
_ORIGIN
  0
BLOCK_RECORD
  5
1E
100
AcDbSymbolTableRecord
100
AcDbBlockTableRecord
  2
_OPEN30
  0
BLOCK_RECORD
  5
24
100
AcDbSymbolTableRecord
100
AcDbBlockTableRecord
  2
_BOXFILLED
  0
BLOCK_RECORD
  5
29
100
AcDbSymbolTableRecord
100
AcDbBlockTableRecord
  2
_BOXBLANK
  0
BLOCK_RECORD
  5
31
100
AcDbSymbolTableRecord
100
AcDbBlockTableRecord
  2
_OBLIQUE
  0
BLOCK_RECORD
  5
35
100
AcDbSymbolTableRecord
100
AcDbBlockTableRecord
  2
_OPEN90
  0
BLOCK_RECORD
  5
3B
100
AcDbSymbolTableRecord
100
AcDbBlockTableRecord
  2
_CLOSEDBLANK
  0
BLOCK_RECORD
  5
41
100
AcDbSymbolTableRecord
100
AcDbBlockTableRecord
  2
_DOTBLANK
  0
ENDTAB
  0
ENDSEC
  0
SECTION
  2
BLOCKS
  0
BLOCK
  5
229
100
AcDbEntity
  8
0
100
AcDbBlockBegin
  2
*MODEL_SPACE
 70
     0
 10
0.0
 20
0.0
 30
0.0
  3
*MODEL_SPACE
  1

  0
ENDBLK
  5
22A
100
AcDbEntity
  8
0
100
AcDbBlockEnd
  0
BLOCK
  5
22B
100
AcDbEntity
  8
0
100
AcDbBlockBegin
  2
*PAPER_SPACE
 70
     0
 10
0.0
 20
0.0
 30
0.0
  3
*PAPER_SPACE
  1

  0
ENDBLK
  5
22C
100
AcDbEntity
  8
0
100
AcDbBlockEnd
  0
BLOCK
  5
22D
100
AcDbEntity
  8
0
100
AcDbBlockBegin
  2
*PAPER_SPACE0
 70
     0
 10
0.0
 20
0.0
 30
0.0
  3
*PAPER_SPACE0
  1

  0
ENDBLK
  5
22E
100
AcDbEntity
  8
0
100
AcDbBlockEnd
  0
BLOCK
  5
2
330
1
100
AcDbEntity
  8
0
100
AcDbBlockBegin
  2
_NONE
 70
     0
 10
0.0
 20
0.0
 30
0.0
  3
_NONE
  1

  0
ENDBLK
  5
3
330
1
100
AcDbEntity
  8
0
100
AcDbBlockEnd
  0
BLOCK
  5
5
330
4
100
AcDbEntity
  8
0
100
AcDbBlockBegin
  2
_CLOSED
 70
     0
 10
0.0
 20
0.0
 30
0.0
  3
_CLOSED
  1

  0
LINE
  5
6
330
4
100
AcDbEntity
  8
0
  6
BYBLOCK
 62
     0
370
    -2
100
AcDbLine
 10
-1.0
 20
0.166667
 30
0.0
 11
0.0
 21
0.0
 31
0.0
  0
LINE
  5
7
330
4
100
AcDbEntity
  8
0
  6
BYBLOCK
 62
     0
370
    -2
100
AcDbLine
 10
0.0
 20
0.0
 30
0.0
 11
-1.0
 21
-0.166667
 31
0.0
  0
LINE
  5
8
330
4
100
AcDbEntity
  8
0
  6
BYBLOCK
 62
     0
370
    -2
100
AcDbLine
 10
-1.0
 20
0.166667
 30
0.0
 11
-1.0
 21
-0.166667
 31
0.0
  0
LINE
  5
9
330
4
100
AcDbEntity
  8
0
  6
BYBLOCK
 62
     0
370
    -2
100
AcDbLine
 10
0.0
 20
0.0
 30
0.0
 11
-1.0
 21
0.0
 31
0.0
  0
ENDBLK
  5
A
330
4
100
AcDbEntity
  8
0
100
AcDbBlockEnd
  0
BLOCK
  5
C
330
B
100
AcDbEntity
  8
0
100
AcDbBlockBegin
  2
_DOT
 70
     0
 10
0.0
 20
0.0
 30
0.0
  3
_DOT
  1

  0
POLYLINE
  5
D
330
B
100
AcDbEntity
  8
0
  6
BYBLOCK
 62
     0
370
    -2
100
AcDb2dPolyline
 66
     1
 10
0.0
 20
0.0
 30
0.0
 70
     1
 40
0.5
 41
0.5
  0
VERTEX
  5
E
330
B
100
AcDbEntity
  8
0
  6
BYBLOCK
 62
     0
370
    -2
100
AcDbVertex
100
AcDb2dVertex
 10
-0.25
 20
0.0
 30
0.0
 42
1.0
  0
VERTEX
  5
F
330
B
100
AcDbEntity
  8
0
  6
BYBLOCK
 62
     0
370
    -2
100
AcDbVertex
100
AcDb2dVertex
 10
0.25
 20
0.0
 30
0.0
 42
1.0
  0
SEQEND
  5
10
330
B
100
AcDbEntity
  8
0
  6
BYBLOCK
 62
     0
370
    -2
  0
LINE
  5
11
330
B
100
AcDbEntity
  8
0
  6
BYBLOCK
 62
     0
370
    -2
100
AcDbLine
 10
-0.5
 20
0.0
 30
0.0
 11
-1.0
 21
0.0
 31
0.0
  0
ENDBLK
  5
12
330
B
100
AcDbEntity
  8
0
100
AcDbBlockEnd
  0
BLOCK
  5
14
330
13
100
AcDbEntity
  8
0
100
AcDbBlockBegin
  2
_OPEN
 70
     0
 10
0.0
 20
0.0
 30
0.0
  3
_OPEN
  1

  0
LINE
  5
15
330
13
100
AcDbEntity
  8
0
  6
BYBLOCK
 62
     0
370
    -2
100
AcDbLine
 10
-1.0
 20
0.166667
 30
0.0
 11
0.0
 21
0.0
 31
0.0
  0
LINE
  5
16
330
13
100
AcDbEntity
  8
0
  6
BYBLOCK
 62
     0
370
    -2
100
AcDbLine
 10
0.0
 20
0.0
 30
0.0
 11
-1.0
 21
-0.166667
 31
0.0
  0
LINE
  5
17
330
13
100
AcDbEntity
  8
0
  6
BYBLOCK
 62
     0
370
    -2
100
AcDbLine
 10
0.0
 20
0.0
 30
0.0
 11
-1.0
 21
0.0
 31
0.0
  0
ENDBLK
  5
18
330
13
100
AcDbEntity
  8
0
100
AcDbBlockEnd
  0
BLOCK
  5
1A
330
19
100
AcDbEntity
  8
0
100
AcDbBlockBegin
  2
_ORIGIN
 70
     0
 10
0.0
 20
0.0
 30
0.0
  3
_ORIGIN
  1

  0
CIRCLE
  5
1B
330
19
100
AcDbEntity
  8
0
  6
BYBLOCK
 62
     0
370
    -2
100
AcDbCircle
 10
0.0
 20
0.0
 30
0.0
 40
0.5
  0
LINE
  5
1C
330
19
100
AcDbEntity
  8
0
  6
BYBLOCK
 62
     0
370
    -2
100
AcDbLine
 10
0.0
 20
0.0
 30
0.0
 11
-1.0
 21
0.0
 31
0.0
  0
ENDBLK
  5
1D
330
19
100
AcDbEntity
  8
0
100
AcDbBlockEnd
  0
BLOCK
  5
1F
330
1E
100
AcDbEntity
  8
0
100
AcDbBlockBegin
  2
_OPEN30
 70
     0
 10
0.0
 20
0.0
 30
0.0
  3
_OPEN30
  1

  0
LINE
  5
20
330
1E
100
AcDbEntity
  8
0
  6
BYBLOCK
 62
     0
370
    -2
100
AcDbLine
 10
-1.0
 20
0.267949
 30
0.0
 11
0.0
 21
0.0
 31
0.0
  0
LINE
  5
21
330
1E
100
AcDbEntity
  8
0
  6
BYBLOCK
 62
     0
370
    -2
100
AcDbLine
 10
0.0
 20
0.0
 30
0.0
 11
-1.0
 21
-0.267949
 31
0.0
  0
LINE
  5
22
330
1E
100
AcDbEntity
  8
0
  6
BYBLOCK
 62
     0
370
    -2
100
AcDbLine
 10
0.0
 20
0.0
 30
0.0
 11
-1.0
 21
0.0
 31
0.0
  0
ENDBLK
  5
23
330
1E
100
AcDbEntity
  8
0
100
AcDbBlockEnd
  0
BLOCK
  5
25
330
24
100
AcDbEntity
  8
0
100
AcDbBlockBegin
  2
_BOXFILLED
 70
     0
 10
0.0
 20
0.0
 30
0.0
  3
_BOXFILLED
  1

  0
SOLID
  5
26
330
24
100
AcDbEntity
  8
0
  6
BYBLOCK
 62
     0
370
    -2
100
AcDbTrace
 10
-0.5
 20
0.5
 30
0.0
 11
0.5
 21
0.5
 31
0.0
 12
-0.5
 22
-0.5
 32
0.0
 13
0.5
 23
-0.5
 33
0.0
  0
LINE
  5
27
330
24
100
AcDbEntity
  8
0
  6
BYBLOCK
 62
     0
370
    -2
100
AcDbLine
 10
-0.5
 20
0.0
 30
0.0
 11
-1.0
 21
0.0
 31
0.0
  0
ENDBLK
  5
28
330
24
100
AcDbEntity
  8
0
100
AcDbBlockEnd
  0
BLOCK
  5
2A
330
29
100
AcDbEntity
  8
0
100
AcDbBlockBegin
  2
_BOXBLANK
 70
     0
 10
0.0
 20
0.0
 30
0.0
  3
_BOXBLANK
  1

  0
LINE
  5
2B
330
29
100
AcDbEntity
  8
0
  6
BYBLOCK
 62
     0
370
    -2
100
AcDbLine
 10
-0.5
 20
-0.5
 30
0.0
 11
0.5
 21
-0.5
 31
0.0
  0
LINE
  5
2C
330
29
100
AcDbEntity
  8
0
  6
BYBLOCK
 62
     0
370
    -2
100
AcDbLine
 10
0.5
 20
-0.5
 30
0.0
 11
0.5
 21
0.5
 31
0.0
  0
LINE
  5
2D
330
29
100
AcDbEntity
  8
0
  6
BYBLOCK
 62
     0
370
    -2
100
AcDbLine
 10
0.5
 20
0.5
 30
0.0
 11
-0.5
 21
0.5
 31
0.0
  0
LINE
  5
2E
330
29
100
AcDbEntity
  8
0
  6
BYBLOCK
 62
     0
370
    -2
100
AcDbLine
 10
-0.5
 20
0.5
 30
0.0
 11
-0.5
 21
-0.5
 31
0.0
  0
LINE
  5
2F
330
29
100
AcDbEntity
  8
0
  6
BYBLOCK
 62
     0
370
    -2
100
AcDbLine
 10
-0.5
 20
0.0
 30
0.0
 11
-1.0
 21
0.0
 31
0.0
  0
ENDBLK
  5
30
330
29
100
AcDbEntity
  8
0
100
AcDbBlockEnd
  0
BLOCK
  5
32
330
31
100
AcDbEntity
  8
0
100
AcDbBlockBegin
  2
_OBLIQUE
 70
     0
 10
0.0
 20
0.0
 30
0.0
  3
_OBLIQUE
  1

  0
LINE
  5
33
330
31
100
AcDbEntity
  8
0
  6
BYBLOCK
 62
     0
370
    -2
100
AcDbLine
 10
-0.5
 20
-0.5
 30
0.0
 11
0.5
 21
0.5
 31
0.0
  0
ENDBLK
  5
34
330
31
100
AcDbEntity
  8
0
100
AcDbBlockEnd
  0
BLOCK
  5
36
330
35
100
AcDbEntity
  8
0
100
AcDbBlockBegin
  2
_OPEN90
 70
     0
 10
0.0
 20
0.0
 30
0.0
  3
_OPEN90
  1

  0
LINE
  5
37
330
35
100
AcDbEntity
  8
0
  6
BYBLOCK
 62
     0
370
    -2
100
AcDbLine
 10
-0.5
 20
0.5
 30
0.0
 11
0.0
 21
0.0
 31
0.0
  0
LINE
  5
38
330
35
100
AcDbEntity
  8
0
  6
BYBLOCK
 62
     0
370
    -2
100
AcDbLine
 10
0.0
 20
0.0
 30
0.0
 11
-0.5
 21
-0.5
 31
0.0
  0
LINE
  5
39
330
35
100
AcDbEntity
  8
0
  6
BYBLOCK
 62
     0
370
    -2
100
AcDbLine
 10
0.0
 20
0.0
 30
0.0
 11
-1.0
 21
0.0
 31
0.0
  0
ENDBLK
  5
3A
330
35
100
AcDbEntity
  8
0
100
AcDbBlockEnd
  0
BLOCK
  5
3C
330
3B
100
AcDbEntity
  8
0
100
AcDbBlockBegin
  2
_CLOSEDBLANK
 70
     0
 10
0.0
 20
0.0
 30
0.0
  3
_CLOSEDBLANK
  1

  0
LINE
  5
3D
330
3B
100
AcDbEntity
  8
0
  6
BYBLOCK
 62
     0
370
    -2
100
AcDbLine
 10
-1.0
 20
0.1666666666666666
 30
0.0
 11
0.0
 21
0.0
 31
0.0
  0
LINE
  5
3E
330
3B
100
AcDbEntity
  8
0
  6
BYBLOCK
 62
     0
370
    -2
100
AcDbLine
 10
0.0
 20
0.0
 30
0.0
 11
-1.0
 21
-0.1666666666666666
 31
0.0
  0
LINE
  5
3F
330
3B
100
AcDbEntity
  8
0
  6
BYBLOCK
 62
     0
370
    -2
100
AcDbLine
 10
-1.0
 20
0.1666666666666666
 30
0.0
 11
-1.0
 21
-0.1666666666666666
 31
0.0
  0
ENDBLK
  5
40
330
3B
100
AcDbEntity
  8
0
100
AcDbBlockEnd
  0
BLOCK
  5
42
330
41
100
AcDbEntity
  8
0
100
AcDbBlockBegin
  2
_DOTBLANK
 70
     0
 10
0.0
 20
0.0
 30
0.0
  3
_DOTBLANK
  1

  0
CIRCLE
  5
43
330
41
100
AcDbEntity
  8
0
  6
BYBLOCK
 62
     0
370
    -2
100
AcDbCircle
 10
0.0
 20
0.0
 30
0.0
 40
0.5
  0
LINE
  5
44
330
41
100
AcDbEntity
  8
0
  6
BYBLOCK
 62
     0
370
    -2
100
AcDbLine
 10
-0.5
 20
0.0
 30
0.0
 11
-1.0
 21
0.0
 31
0.0
  0
ENDBLK
  5
45
330
41
100
AcDbEntity
  8
0
100
AcDbBlockEnd
  0
ENDSEC
  0
SECTION
  2
ENTITIES
  0
MTEXT
  5
46
100
AcDbEntity
  8
A8
  6
CONTINUOUS
 62
3
100
AcDbMText
 10
9.999997526638502
 20
18.00000076076889
 30
0.000000000000000
 40
3.000000000000000
 41
0.000000000000000
 44
0.6739999771118164
 71
     7
 72
     1
  1
{\H0.93x;{TYPE No.TL-443-R}}
 11
1.000000000000000
 21
0.000000000000000
 31
0.000000000000000
  7
STANDARD
  0
POINT
  5
47
100
AcDbEntity
  8
A0
  6
CONTINUOUS
 62
3
100
AcDbPoint
 10
9.999997526638502
 20
18.00000076076889
 30
0.000000000000000
  0
POINT
  5
48
100
AcDbEntity
  8
A10
  6
CONTINUOUS
 62
3
100
AcDbPoint
 10
50.00000000000000
 20
50.00000000000000
 30
0.000000000000000
  0
ARC
  5
49
100
AcDbEntity
  8
A1
  6
CONTINUOUS
 62
7
100
AcDbCircle
 10
106.4494305482561
 20
171.8299159969716
 30
0.000000000000000
 40
6.800000000000000
100
AcDbArc
 50
298.3176211170079
 51
540.0000000000000
  0
LINE
  5
4A
100
AcDbEntity
  8
A1
  6
CONTINUOUS
 62
7
100
AcDbLine
 10
107.9522747804114
 20
165.0751628432088
 30
0.000000000000000
 11
107.4319202613587
 21
154.8518480971260
 31
0.000000000000000
  0
ARC
  5
4B
100
AcDbEntity
  8
A1
  6
CONTINUOUS
 62
7
100
AcDbCircle
 10
106.4494305482561
 20
171.8299159969716
 30
0.000000000000000
 40
5.600000000000000
100
AcDbArc
 50
298.3176211170076
 51
540.0000000000000
  0
ARC
  5
4C
100
AcDbEntity
  8
A1
  6
CONTINUOUS
 62
7
100
AcDbCircle
 10
110.1494305482561
 20
164.9633302369304
 30
0.000000000000000
 40
1.000000000000000
100
AcDbArc
 50
118.3176211170051
 51
177.0862276947699
  0
ARC
  5
4D
100
AcDbEntity
  8
A1
  6
CONTINUOUS
 62
7
100
AcDbCircle
 10
110.1494305482561
 20
164.9633302369304
 30
0.000000000000000
 40
2.200000000000000
100
AcDbArc
 50
118.3176211170073
 51
177.0862276947697
  0
LINE
  5
4E
100
AcDbEntity
  8
A1
  6
CONTINUOUS
 62
7
100
AcDbLine
 10
107.2864478012945
 20
136.9111748255742
 30
0.000000000000000
 11
113.2494305482592
 21
125.2515746258989
 31
0.000000000000000
  0
LINE
  5
4F
100
AcDbEntity
  8
A1
  6
CONTINUOUS
 62
7
100
AcDbLine
 10
106.2180610662961
 20
136.3647777314391
 30
0.000000000000000
 11
112.1810438132608
 21
124.7051775317637
 31
0.000000000000000
  0
LINE
  5
50
100
AcDbEntity
  8
A1
  6
CONTINUOUS
 62
7
100
AcDbLine
 10
113.2494305482593
 20
125.2515746258989
 30
0.000000000000000
 11
112.1810438132609
 21
124.7051775317637
 31
0.000000000000000
  0
SPLINE
  5
51
100
AcDbEntity
  8
A1
  6
CONTINUOUS
 62
7
100
AcDbSpline
210
0.000000000000000
220
0.000000000000000
230
1.000000000000000
 70
     8
 71
     3
 72
    21
 73
    17
 74
     0
 42
1.000000000000000e-07
 43
1.000000000000000e-07
 12
-0.09858054263713711
 22
0.9951290753533613
 32
0.000000000000000
 13
0.9790205427516412
 23
-0.2037615686808749
 33
0.000000000000000
 40
0.000000000000000
 40
0.000000000000000
 40
0.000000000000000
 40
0.000000000000000
 40
0.08134187504662750
 40
0.1731059712403568
 40
0.2890240849853128
 40
0.4372001395532708
 40
0.6198757394012260
 40
0.8359188269757094
 40
1.077519865985217
 40
1.348582275348747
 40
1.644401870518067
 40
1.955550037612963
 40
2.285343618023557
 40
2.628102654282066
 40
2.930167214960705
 40
3.237512163279434
 40
3.237512163279434
 40
3.237512163279434
 40
3.237512163279434
 10
232.2777795970307
 20
168.2641981889237
 30
0.000000000000000
 10
232.2751066883037
 20
168.2911800772246
 30
0.000000000000000
 10
232.2796129671081
 20
168.3513548072800
 30
0.000000000000000
 10
232.3384438189518
 20
168.4320039741898
 30
0.000000000000000
 10
232.4348493605206
 20
168.5023978271520
 30
0.000000000000000
 10
232.5709582379716
 20
168.5647196934773
 30
0.000000000000000
 10
232.7453574480770
 20
168.6187652699109
 30
0.000000000000000
 10
232.9546083398047
 20
168.6622526838356
 30
0.000000000000000
 10
233.1956675954162
 20
168.6934874350494
 30
0.000000000000000
 10
233.4646702536236
 20
168.7119481305564
 30
0.000000000000000
 10
233.7574421806418
 20
168.7164607212494
 30
0.000000000000000
 10
234.0696259183574
 20
168.7058170230085
 30
0.000000000000000
 10
234.3966381744326
 20
168.6804608485801
 30
0.000000000000000
 10
234.7193270656261
 20
168.6420471817912
 30
0.000000000000000
 10
235.0329062437559
 20
168.5926643928833
 30
0.000000000000000
 10
235.2324903325898
 20
168.5546106779052
 30
0.000000000000000
 10
235.3327893386281
 20
168.5337356483067
 30
0.000000000000000
  0
SPLINE
  5
52
100
AcDbEntity
  8
A1
  6
CONTINUOUS
 62
7
100
AcDbSpline
210
0.000000000000000
220
0.000000000000000
230
1.000000000000000
 70
     8
 71
     3
 72
    13
 73
     9
 74
     0
 42
1.000000000000000e-07
 43
1.000000000000000e-07
 12
0.3991144153101231
 22
0.9169011307060373
 32
0.000000000000000
 13
0.7730306898524759
 23
0.6343686251291274
 33
0.000000000000000
 40
0.000000000000000
 40
0.000000000000000
 40
0.000000000000000
 40
0.000000000000000
 40
0.3154904748712180
 40
0.6328745677494811
 40
0.9490760097717084
 40
1.265273742438776
 40
1.589627480919971
 40
1.913976787342362
 40
1.913976787342362
 40
1.913976787342362
 40
1.913976787342362
 10
238.0018788848904
 20
135.2443802577502
 30
0.000000000000000
 10
238.0438511503617
 20
135.3408047821289
 30
0.000000000000000
 10
238.1355218047496
 20
135.5310767397086
 30
0.000000000000000
 10
238.2945891987033
 20
135.8048907464466
 30
0.000000000000000
 10
238.4746715669805
 20
136.0656725165013
 30
0.000000000000000
 10
238.6759747061552
 20
136.3134526893140
 30
0.000000000000000
 10
238.8983001009052
 20
136.5463425393668
 30
0.000000000000000
 10
239.0600060452595
 20
136.6903179621756
 30
0.000000000000000
 10
239.1435833679585
 20
136.7589036367012
 30
0.000000000000000
  0
SPLINE
  5
53
100
AcDbEntity
  8
A1
  6
CONTINUOUS
 62
7
100
AcDbSpline
210
0.000000000000000
220
0.000000000000000
230
1.000000000000000
 70
     8
 71
     3
 72
    12
 73
     8
 74
     0
 42
1.000000000000000e-07
 43
1.000000000000000e-07
 12
-0.3978379254899664
 22
-0.9174557128499146
 32
0.000000000000000
 13
-0.05740678035544988
 23
-0.9983508709719899
 33
0.000000000000000
 40
0.000000000000000
 40
0.000000000000000
 40
0.000000000000000
 40
0.000000000000000
 40
0.3326575956942814
 40
0.6681388689883675
 40
0.9811490224800929
 40
1.280138307047628
 40
1.373250948403831
 40
1.373250948403831
 40
1.373250948403831
 40
1.373250948403831
 10
238.0018788848904
 20
135.2443802577502
 30
0.000000000000000
 10
237.9577642823005
 20
135.1426473872193
 30
0.000000000000000
 10
237.8782607675189
 20
134.9342136902662
 30
0.000000000000000
 10
237.7904129860871
 20
134.6187325145622
 30
0.000000000000000
 10
237.7314085934068
 20
134.3081416873164
 30
0.000000000000000
 10
237.7049269077515
 20
134.0743848675984
 30
0.000000000000000
 10
237.6959998981433
 20
133.9439836892898
 30
0.000000000000000
 10
237.6942181324931
 20
133.9129973270910
 30
0.000000000000000
  0
SPLINE
  5
54
100
AcDbEntity
  8
A1
  6
CONTINUOUS
 62
7
100
AcDbSpline
210
0.000000000000000
220
0.000000000000000
230
1.000000000000000
 70
     8
 71
     3
 72
     9
 73
     5
 74
     0
 42
1.000000000000000e-07
 43
1.000000000000000e-07
 12
-0.05659686271633291
 22
-0.9983971129419160
 32
0.000000000000000
 13
0.1521070507055811
 23
-0.9883640246010827
 33
0.000000000000000
 40
0.000000000000000
 40
0.000000000000000
 40
0.000000000000000
 40
0.000000000000000
 40
0.6480640599851742
 40
1.297573210167191
 40
1.297573210167191
 40
1.297573210167191
 40
1.297573210167191
 10
237.6942181324931
 20
133.9129973270910
 30
0.000000000000000
 10
237.6819920016149
 20
133.6973222315942
 30
0.000000000000000
 10
237.6799057282600
 20
133.2639112173932
 30
0.000000000000000
 10
237.7235082437349
 20
132.8326887306019
 30
0.000000000000000
 10
237.7564398841484
 20
132.6187049047056
 30
0.000000000000000
  0
SPLINE
  5
55
100
AcDbEntity
  8
A1
  6
CONTINUOUS
 62
7
100
AcDbSpline
210
0.000000000000000
220
0.000000000000000
230
1.000000000000000
 70
     8
 71
     3
 72
    15
 73
    11
 74
     0
 42
1.000000000000000e-07
 43
1.000000000000000e-07
 12
-0.1498370130357216
 22
0.9887107107360862
 32
0.000000000000000
 13
0.9352006169265223
 23
0.3541183504125911
 33
0.000000000000000
 40
0.000000000000000
 40
0.000000000000000
 40
0.000000000000000
 40
0.000000000000000
 40
0.3515403625610908
 40
0.7030678188235133
 40
1.054793190029666
 40
1.406483099690128
 40
1.754179280374890
 40
2.101833669280690
 40
2.437296768145645
 40
2.772733031747653
 40
2.772733031747653
 40
2.772733031747653
 40
2.772733031747653
 10
240.1400601904820
 20
130.2755836234742
 30
0.000000000000000
 10
240.1225022711861
 20
130.3914408640476
 30
0.000000000000000
 10
240.1063534334599
 20
130.6264894996311
 30
0.000000000000000
 10
240.1409456172111
 20
130.9780249413661
 30
0.000000000000000
 10
240.2351967191354
 20
131.3185625821885
 30
0.000000000000000
 10
240.3843202700918
 20
131.6375278096784
 30
0.000000000000000
 10
240.5859851822483
 20
131.9244799682340
 30
0.000000000000000
 10
240.8293340718814
 20
132.1695282231256
 30
0.000000000000000
 10
241.1081429182762
 20
132.3660700876658
 30
0.000000000000000
 10
241.3111459772545
 20
132.4627798703839
 30
0.000000000000000
 10
241.4157127108079
 20
132.5023745824956
 30
0.000000000000000
  0
SPLINE
  5
56
100
AcDbEntity
  8
A1
  6
CONTINUOUS
 62
7
100
AcDbSpline
210
0.000000000000000
220
0.000000000000000
230
1.000000000000000
 70
     8
 71
     3
 72
    23
 73
    19
 74
     0
 42
1.000000000000000e-07
 43
1.000000000000000e-07
 12
-0.9357307583704824
 22
-0.3527151086050253
 32
0.000000000000000
 13
0.1515709026775767
 23
-0.9884463877531289
 33
0.000000000000000
 40
0.000000000000000
 40
0.000000000000000
 40
0.000000000000000
 40
0.000000000000000
 40
0.3295619766893667
 40
0.6591270962650235
 40
0.9983964339692053
 40
1.337669791992448
 40
1.667179426967875
 40
1.996693228387137
 40
2.335503333470164
 40
2.674318197464538
 40
3.008851002781707
 40
3.343387942344111
 40
3.687208374752585
 40
4.031032533059968
 40
4.403721720152232
 40
4.776414273788101
 40
5.161651519285352
 40
5.546889710050777
 40
5.546889710050777
 40
5.546889710050777
 40
5.546889710050777
 10
240.7109253207743
 20
134.4239835953395
 30
0.000000000000000
 10
240.6081315613150
 20
134.3852364325394
 30
0.000000000000000
 10
240.4056694548864
 20
134.2991306201579
 30
0.000000000000000
 10
240.1110708824178
 20
134.1435195473118
 30
0.000000000000000
 10
239.8280254640185
 20
133.9616208991723
 30
0.000000000000000
 10
239.5615202574976
 20
133.7562958876935
 30
0.000000000000000
 10
239.3157136603275
 20
133.5314327977368
 30
0.000000000000000
 10
239.0892420848760
 20
133.2873245044418
 30
0.000000000000000
 10
238.8819835814981
 20
133.0227242896169
 30
0.000000000000000
 10
238.6965317339471
 20
132.7404099706059
 30
0.000000000000000
 10
238.5358349310748
 20
132.4449454496968
 30
0.000000000000000
 10
238.3989773336534
 20
132.1358904463036
 30
0.000000000000000
 10
238.2871132310798
 20
131.8136292851410
 30
0.000000000000000
 10
238.1990670479435
 20
131.4709152537596
 30
0.000000000000000
 10
238.1394064330929
 20
131.1122844914930
 30
0.000000000000000
 10
238.1107429852421
 20
130.7360017704048
 30
0.000000000000000
 10
238.1164409657142
 20
130.3544693631301
 30
0.000000000000000
 10
238.1438087276843
 20
130.0986831865569
 30
0.000000000000000
 10
238.1632723611244
 20
129.9717540871947
 30
0.000000000000000
  0
SPLINE
  5
57
100
AcDbEntity
  8
A1
  6
CONTINUOUS
 62
7
100
AcDbSpline
210
0.000000000000000
220
0.000000000000000
230
1.000000000000000
 70
     8
 71
     3
 72
    21
 73
    17
 74
     0
 42
1.000000000000000e-07
 43
1.000000000000000e-07
 12
-0.9719401010022466
 22
0.2352284848041108
 32
0.000000000000000
 13
0.1416876395633153
 23
-0.9899114166382788
 33
0.000000000000000
 40
0.000000000000000
 40
0.000000000000000
 40
0.000000000000000
 40
0.000000000000000
 40
0.3770237937154394
 40
0.7454408160355578
 40
1.098809026518425
 40
1.434679110688691
 40
1.748832481557478
 40
2.034969796597232
 40
2.277499683432588
 40
2.491070274330206
 40
2.672852985100978
 40
2.821528474084961
 40
2.941065388672842
 40
3.035208392003075
 40
3.094990136456450
 40
3.152908310218826
 40
3.152908310218826
 40
3.152908310218826
 40
3.152908310218826
 10
235.5687519868266
 20
166.3747321782668
 30
0.000000000000000
 10
235.4466038054453
 20
166.4042944235104
 30
0.000000000000000
 10
235.2037994289981
 20
166.4575168046309
 30
0.000000000000000
 10
234.8429622128628
 20
166.5209595722617
 30
0.000000000000000
 10
234.4932643717260
 20
166.5667353817992
 30
0.000000000000000
 10
234.1597659449147
 20
166.5938943028697
 30
0.000000000000000
 10
233.8477272505583
 20
166.6036097660877
 30
0.000000000000000
 10
233.5666940419975
 20
166.5969403813090
 30
0.000000000000000
 10
233.3200546960370
 20
166.5752471254693
 30
0.000000000000000
 10
233.1098816549092
 20
166.5416831160541
 30
0.000000000000000
 10
232.9336736486725
 20
166.4975985099787
 30
0.000000000000000
 10
232.7930767751919
 20
166.4438788750223
 30
0.000000000000000
 10
232.6883075118235
 20
166.3824508417355
 30
0.000000000000000
 10
232.6226976771567
 20
166.3164711433113
 30
0.000000000000000
 10
232.5942189301169
 20
166.2501771901808
 30
0.000000000000000
 10
232.5937206314676
 20
166.2099230696065
 30
0.000000000000000
 10
232.5964560612436
 20
166.1908117824604
 30
0.000000000000000
  0
SPLINE
  5
58
100
AcDbEntity
  8
A1
  6
CONTINUOUS
 62
7
100
AcDbSpline
210
0.000000000000000
220
0.000000000000000
230
1.000000000000000
 70
     8
 71
     3
 72
    24
 73
    20
 74
     0
 42
1.000000000000000e-07
 43
1.000000000000000e-07
 12
-0.3802160583205705
 22
0.9248976965025690
 32
0.000000000000000
 13
-0.9720593267868480
 23
0.2347353088201771
 33
0.000000000000000
 40
0.000000000000000
 40
0.000000000000000
 40
0.000000000000000
 40
0.000000000000000
 40
0.9965371271563505
 40
1.994844928735737
 40
2.994111029633749
 40
3.993536093732885
 40
5.200321329633569
 40
6.413965577893726
 40
7.632768369619987
 40
8.855016710094214
 40
10.07906749880277
 40
11.30342972141473
 40
12.49481252938067
 40
13.69525622024258
 40
14.90250178262609
 40
16.11428710250248
 40
17.32843640441007
 40
18.54294956294972
 40
19.15015686915572
 40
19.15015686915572
 40
19.15015686915572
 40
19.15015686915572
 10
249.5816534040683
 20
154.3724486567017
 30
0.000000000000000
 10
249.4553535979158
 20
154.6796802878305
 30
0.000000000000000
 10
249.1873737285678
 20
155.2885862585960
 30
0.000000000000000
 10
248.7405798090778
 20
156.1814583314566
 30
0.000000000000000
 10
248.2499576998078
 20
157.0521520962291
 30
0.000000000000000
 10
247.6800585268848
 20
157.9564730272074
 30
0.000000000000000
 10
247.0193200120878
 20
158.8862874733313
 30
0.000000000000000
 10
246.2580152920321
 20
159.8316486345939
 30
0.000000000000000
 10
245.4384437240435
 20
160.7339434619590
 30
0.000000000000000
 10
244.5642703888040
 20
161.5884257950994
 30
0.000000000000000
 10
243.6391991580267
 20
162.3903739143936
 30
0.000000000000000
 10
242.6754335883523
 20
163.1286411541570
 30
0.000000000000000
 10
241.6748672940905
 20
163.8021249360230
 30
0.000000000000000
 10
240.6411563787335
 20
164.4123341819691
 30
0.000000000000000
 10
239.5674936461682
 20
164.9641719417696
 30
0.000000000000000
 10
238.4592349345688
 20
165.4541865745676
 30
0.000000000000000
 10
237.3218098761903
 20
165.8790414583993
 30
0.000000000000000
 10
236.3536421583951
 20
166.1757825696044
 30
0.000000000000000
 10
235.7654991619235
 20
166.3272211800867
 30
0.000000000000000
 10
235.5687519868266
 20
166.3747321782668
 30
0.000000000000000
  0
SPLINE
  5
59
100
AcDbEntity
  8
A1
  6
CONTINUOUS
 62
7
100
AcDbSpline
210
0.000000000000000
220
0.000000000000000
230
1.000000000000000
 70
     8
 71
     3
 72
    27
 73
    23
 74
     0
 42
1.000000000000000e-07
 43
1.000000000000000e-07
 12
-0.3487822718974485
 22
0.9372037808345226
 32
0.000000000000000
 13
-0.9790933486573294
 23
0.2034114417009505
 33
0.000000000000000
 40
0.000000000000000
 40
0.000000000000000
 40
0.000000000000000
 40
0.000000000000000
 40
1.225740415426370
 40
2.453913748147056
 40
3.683165537240447
 40
4.912159639040525
 40
6.213838639415771
 40
7.518952992430415
 40
8.825795942814052
 40
9.838049534315049
 40
10.85333436887769
 40
11.87075408381882
 40
12.88943695386231
 40
14.17275575141809
 40
15.46104856582986
 40
16.75227833344180
 40
17.75471056546776
 40
18.76064185632762
 40
19.76893979114741
 40
20.77849760832952
 40
21.67163384623868
 40
22.56641992798258
 40
22.56641992798258
 40
22.56641992798258
 40
22.56641992798258
 10
251.7422078817060
 20
154.4544121726466
 30
0.000000000000000
 10
251.5997023727564
 20
154.8373350231997
 30
0.000000000000000
 10
251.2933388363416
 20
155.5962931384563
 30
0.000000000000000
 10
250.7714642395950
 20
156.7082251826702
 30
0.000000000000000
 10
250.1889811431562
 20
157.7909137072304
 30
0.000000000000000
 10
249.5349961940793
 20
158.8608069338219
 30
0.000000000000000
 10
248.8064861790130
 20
159.9124605898602
 30
0.000000000000000
 10
248.0020030782560
 20
160.9403412409306
 30
0.000000000000000
 10
247.2027131178071
 20
161.8471594176999
 30
0.000000000000000
 10
246.4249550889204
 20
162.6416696277068
 30
0.000000000000000
 10
245.6825248131441
 20
163.3342780534369
 30
0.000000000000000
 10
244.9078412722810
 20
163.9939245944548
 30
0.000000000000000
 10
244.0333409023490
 20
164.6724155908491
 30
0.000000000000000
 10
243.0504752527523
 20
165.3564245345138
 30
0.000000000000000
 10
241.9526111044176
 20
166.0305293693885
 30
0.000000000000000
 10
240.9003065630897
 20
166.5961420168300
 30
0.000000000000000
 10
239.9056347644174
 20
167.0663569830604
 30
0.000000000000000
 10
238.9779061606028
 20
167.4551272479893
 30
0.000000000000000
 10
238.0315049738591
 20
167.8028589496025
 30
0.000000000000000
 10
237.1062596259963
 20
168.0963285099146
 30
0.000000000000000
 10
236.2059821193780
 20
168.3401974232126
 30
0.000000000000000
 10
235.6248157056636
 20
168.4730657393395
 30
0.000000000000000
 10
235.3327893386281
 20
168.5337356483067
 30
0.000000000000000
  0
SPLINE
  5
5A
100
AcDbEntity
  8
A1
  6
CONTINUOUS
 62
7
100
AcDbSpline
210
0.000000000000000
220
0.000000000000000
230
1.000000000000000
 70
     8
 71
     3
 72
    11
 73
     7
 74
     0
 42
1.000000000000000e-07
 43
1.000000000000000e-07
 12
-0.1890582292368208
 22
0.9819658782045053
 32
0.000000000000000
 13
-0.3799608879357947
 23
0.9250025533144708
 33
0.000000000000000
 40
0.000000000000000
 40
0.000000000000000
 40
0.000000000000000
 40
0.000000000000000
 40
0.8136418419050404
 40
1.623216093954848
 40
2.433916775170910
 40
3.237491704625319
 40
3.237491704625319
 40
3.237491704625319
 40
3.237491704625319
 10
250.5049912779534
 20
151.2746734133393
 30
0.000000000000000
 10
250.4537160493322
 20
151.5409962552827
 30
0.000000000000000
 10
250.3381684081225
 20
152.0698564486469
 30
0.000000000000000
 10
250.1257598694817
 20
152.8531958992538
 30
0.000000000000000
 10
249.8755481042885
 20
153.6217718273149
 30
0.000000000000000
 10
249.6834290853078
 20
154.1246790361935
 30
0.000000000000000
 10
249.5816534040683
 20
154.3724486567017
 30
0.000000000000000
  0
SPLINE
  5
5B
100
AcDbEntity
  8
A1
  6
CONTINUOUS
 62
7
100
AcDbSpline
210
0.000000000000000
220
0.000000000000000
230
1.000000000000000
 70
     8
 71
     3
 72
    11
 73
     7
 74
     0
 42
1.000000000000000e-07
 43
1.000000000000000e-07
 12
0.1856279225988828
 22
-0.9826201068326554
 32
0.000000000000000
 13
-0.03124752060614355
 23
-0.9995116769982815
 33
0.000000000000000
 40
0.000000000000000
 40
0.000000000000000
 40
0.000000000000000
 40
0.000000000000000
 40
0.7914465647295599
 40
1.590206842745151
 40
2.402401426320837
 40
3.219441277696507
 40
3.219441277696507
 40
3.219441277696507
 40
3.219441277696507
 10
252.5392967798190
 20
151.5873431996308
 30
0.000000000000000
 10
252.5882683070385
 20
151.3281127636351
 30
0.000000000000000
 10
252.6726724508636
 20
150.8044997326382
 30
0.000000000000000
 10
252.7570194844071
 20
150.0077698704438
 30
0.000000000000000
 10
252.7982179087489
 20
149.1990970378184
 30
0.000000000000000
 10
252.7961438449961
 20
148.6557019005718
 30
0.000000000000000
 10
252.7876336884654
 20
148.3834882765642
 30
0.000000000000000
  0
SPLINE
  5
5C
100
AcDbEntity
  8
A1
  6
CONTINUOUS
 62
7
100
AcDbSpline
210
0.000000000000000
220
0.000000000000000
230
1.000000000000000
 70
     8
 71
     3
 72
    11
 73
     7
 74
     0
 42
1.000000000000000e-07
 43
1.000000000000000e-07
 12
0.08045896891167104
 22
0.9967579216247486
 32
0.000000000000000
 13
-0.1888809256630566
 23
0.9819999979230261
 33
0.000000000000000
 40
0.000000000000000
 40
0.000000000000000
 40
0.000000000000000
 40
0.000000000000000
 40
0.8909745823171505
 40
1.785877403215460
 40
2.694870356963930
 40
3.604741470919019
 40
3.604741470919019
 40
3.604741470919019
 40
3.604741470919019
 10
250.6993964861400
 20
147.6855074964706
 30
0.000000000000000
 10
250.7232921182133
 20
147.9815361541009
 30
0.000000000000000
 10
250.7515756510522
 20
148.5766670473939
 30
0.000000000000000
 10
250.7346677759647
 20
149.4754406265911
 30
0.000000000000000
 10
250.6564021331517
 20
150.3773311526381
 30
0.000000000000000
 10
250.5622770440327
 20
150.9768422693346
 30
0.000000000000000
 10
250.5049912779534
 20
151.2746734133393
 30
0.000000000000000
  0
ARC
  5
5D
100
AcDbEntity
  8
A1
  6
CONTINUOUS
 62
7
100
AcDbCircle
 10
235.2494305482116
 20
148.9299159972663
 30
0.000000000000000
 40
8.500000000000000
100
AcDbArc
 50
123.1812354276974
 51
248.7379000000000
  0
ARC
  5
5E
100
AcDbEntity
  8
A1
  6
CONTINUOUS
 62
7
100
AcDbCircle
 10
227.3137378611388
 20
161.0655981608836
 30
0.000000000000000
 40
6.000000000000000
100
AcDbArc
 50
303.1812354276973
 51
368.7379000000000
  0
ARC
  5
5F
100
AcDbEntity
  8
A1
  6
CONTINUOUS
 62
7
100
AcDbCircle
 10
237.0912985395176
 20
136.9462800262622
 30
0.000000000000000
 40
2.000000000000000
100
AcDbArc
 50
8.737900000000048
 51
68.73790000000002
  0
ARC
  5
60
100
AcDbEntity
  8
A1
  6
CONTINUOUS
 62
7
100
AcDbCircle
 10
241.7136846740344
 20
133.2669053306130
 30
0.000000000000000
 40
3.944512108463647
100
AcDbArc
 50
112.4414399267946
 51
129.3693942873789
  0
ARC
  5
61
100
AcDbEntity
  8
A1
  6
CONTINUOUS
 62
7
100
AcDbCircle
 10
235.2494305482116
 20
148.9299159972663
 30
0.000000000000000
 40
17.54671344277210
100
AcDbArc
 50
290.5742495150481
 51
358.2154455968655
  0
ARC
  5
62
100
AcDbEntity
  8
A1
  6
CONTINUOUS
 62
7
100
AcDbCircle
 10
230.5051411982253
 20
148.2007256492715
 30
0.000000000000000
 40
17.80000000000013
100
AcDbArc
 50
8.737900000222862
 51
83.09369030144823
  0
ARC
  5
63
100
AcDbEntity
  8
A1
  6
CONTINUOUS
 62
7
100
AcDbCircle
 10
235.2375799358333
 20
148.3215379821777
 30
0.000000000000000
 40
17.60723968905409
100
AcDbArc
 50
10.68916640911816
 51
20.38431707328187
  0
ARC
  5
64
100
AcDbEntity
  8
A1
  6
CONTINUOUS
 62
7
100
AcDbCircle
 10
235.2494305482116
 20
148.9299159972663
 30
0.000000000000000
 40
15.50000000000000
100
AcDbArc
 50
290.6313947371435
 51
355.3950856462615
  0
ARC
  5
65
100
AcDbEntity
  8
A1
  6
CONTINUOUS
 62
7
100
AcDbCircle
 10
235.2494305482116
 20
148.9299159972663
 30
0.000000000000000
 40
13.00000000000000
100
AcDbArc
 50
292.4217645635719
 51
368.7379000003051
  0
LINE
  5
66
100
AcDbEntity
  8
A1
  6
CONTINUOUS
 62
7
100
AcDbLine
 10
232.6455229445287
 20
165.8715707331972
 30
0.000000000000000
 11
233.2440995486214
 21
161.9770860958771
 31
0.000000000000000
  0
LINE
  5
67
100
AcDbEntity
  8
A1
  6
CONTINUOUS
 62
7
100
AcDbLine
 10
239.2116110181817
 20
136.3162992367037
 30
0.000000000000000
 11
239.0680857686785
 21
137.2501093379266
 31
0.000000000000000
  0
LINE
  5
68
100
AcDbEntity
  8
A1
  6
CONTINUOUS
 62
7
100
AcDbLine
 10
237.8165682517823
 20
138.8101426404243
 30
0.000000000000000
 11
232.1670342710869
 21
141.0084998870769
 31
0.000000000000000
  0
LINE
  5
69
100
AcDbEntity
  8
A1
  6
CONTINUOUS
 62
7
100
AcDbLine
 10
232.2777795970307
 20
168.2641981889236
 30
0.000000000000000
 11
232.5964560612436
 21
166.1908117824603
 31
0.000000000000000
  0
LINE
  5
6A
100
AcDbEntity
  8
A1
  6
CONTINUOUS
 62
7
100
AcDbLine
 10
242.7711033353269
 20
113.1573784720097
 30
0.000000000000000
 11
240.7943161061661
 21
112.8535491603452
 31
0.000000000000000
  0
LINE
  5
6B
100
AcDbEntity
  8
A1
  6
CONTINUOUS
 62
7
100
AcDbLine
 10
232.6455229445288
 20
165.8715707331971
 30
0.000000000000000
 11
232.5964560612437
 21
166.1908117824603
 31
0.000000000000000
  0
CIRCLE
  5
6C
100
AcDbEntity
  8
A1
  6
CONTINUOUS
 62
7
100
AcDbCircle
 10
232.2494305482116
 20
171.9299159972663
 30
0.000000000000000
 40
2.249999999977773
  0
CIRCLE
  5
6D
100
AcDbEntity
  8
A1
  6
CONTINUOUS
 62
7
100
AcDbCircle
 10
232.2494305482116
 20
125.9299159972663
 30
0.000000000000000
 40
2.249999999977773
  0
ARC
  5
6E
100
AcDbEntity
  8
A1
  6
CONTINUOUS
 62
7
100
AcDbCircle
 10
229.2494305482116
 20
175.9299108056049
 30
0.000000000000000
 40
4.999999999999998
100
AcDbArc
 50
70.42022850231406
 51
180.0000050000000
  0
ARC
  5
6F
100
AcDbEntity
  8
A1
  6
CONTINUOUS
 62
7
100
AcDbCircle
 10
231.2976485482115
 20
126.9039258056050
 30
0.000000000000000
 40
9.000000000000000
100
AcDbArc
 50
289.5797707736858
 51
332.4231947653640
  0
ARC
  5
70
100
AcDbEntity
  8
A1
  6
CONTINUOUS
 62
7
100
AcDbCircle
 10
231.2976485482115
 20
170.9558818056049
 30
0.000000000000000
 40
9.000000000000000
100
AcDbArc
 50
10.17148751208867
 51
70.42021299999999
  0
ARC
  5
71
100
AcDbEntity
  8
A1
  6
CONTINUOUS
 62
7
100
AcDbCircle
 10
235.2494305482116
 20
148.9299159972663
 30
0.000000000000000
 40
9.000000000000000
100
AcDbArc
 50
111.1322118339415
 51
267.9260364537213
  0
LINE
  5
72
100
AcDbEntity
  8
A1
  6
CONTINUOUS
 62
7
100
AcDbLine
 10
230.9250245482116
 20
180.6407878056053
 30
0.000000000000000
 11
234.3137214080602
 21
179.4354634287800
 31
0.000000000000000
  0
LINE
  5
73
100
AcDbEntity
  8
A1
  6
CONTINUOUS
 62
7
100
AcDbLine
 10
234.3137195482117
 20
118.4243418056049
 30
0.000000000000000
 11
230.9250435482117
 21
117.2190348056051
 31
0.000000000000000
  0
LINE
  5
74
100
AcDbEntity
  8
A1
  6
CONTINUOUS
 62
7
100
AcDbLine
 10
224.2494305482116
 20
121.9299115910030
 30
0.000000000000000
 11
224.2494305482116
 21
175.9299103692725
 31
0.000000000000000
  0
LINE
  5
75
100
AcDbEntity
  8
A1
  6
CONTINUOUS
 62
7
100
AcDbLine
 10
241.4479764750654
 20
132.5145213618807
 30
0.000000000000000
 11
240.5581898565501
 21
127.5551305523446
 31
0.000000000000000
  0
LINE
  5
76
100
AcDbEntity
  8
A1
  6
CONTINUOUS
 62
7
100
AcDbLine
 10
240.1562010380625
 20
172.5452363238161
 30
0.000000000000000
 11
241.2608626608123
 21
166.3882066262083
 31
0.000000000000000
  0
CIRCLE
  5
77
100
AcDbEntity
  8
A1
  6
CONTINUOUS
 62
7
100
AcDbCircle
 10
235.2494305482809
 20
148.9299159971970
 30
0.000000000000000
 40
6.500000000000000
  0
CIRCLE
  5
78
100
AcDbEntity
  8
A1
  6
CONTINUOUS
 62
7
100
AcDbCircle
 10
235.2494305482809
 20
148.9299159971970
 30
0.000000000000000
 40
5.500000000000005
  0
SPLINE
  5
79
100
AcDbEntity
  8
A1
  6
CONTINUOUS
 62
7
100
AcDbSpline
210
0.000000000000000
220
0.000000000000000
230
1.000000000000000
 70
     8
 71
     3
 72
    11
 73
     7
 74
     0
 42
1.000000000000000e-07
 43
1.000000000000000e-07
 12
0.3229258745209336
 22
-0.9464242598141936
 32
0.000000000000000
 13
0.1582809547589932
 23
-0.9873941155187822
 33
0.000000000000000
 40
0.000000000000000
 40
0.000000000000000
 40
0.000000000000000
 40
0.000000000000000
 40
0.7215911984881063
 40
1.453742358325901
 40
2.200618254832357
 40
2.956848752741553
 40
2.956848752741553
 40
2.956848752741553
 40
2.956848752741553
 10
173.2925228709464
 20
154.4544121725476
 30
0.000000000000000
 10
173.3701963605525
 20
154.2267683672417
 30
0.000000000000000
 10
173.5169435743600
 20
153.7647569933046
 30
0.000000000000000
 10
173.7084522825280
 20
153.0564292372245
 30
0.000000000000000
 10
173.8722086954507
 20
152.3293468957947
 30
0.000000000000000
 10
173.9619691376558
 20
151.8362423807355
 30
0.000000000000000
 10
174.0018680993982
 20
151.5873431995317
 30
0.000000000000000
  0
SPLINE
  5
7A
100
AcDbEntity
  8
A1
  6
CONTINUOUS
 62
7
100
AcDbSpline
210
0.000000000000000
220
0.000000000000000
230
1.000000000000000
 70
     8
 71
     3
 72
    11
 73
     7
 74
     0
 42
1.000000000000000e-07
 43
1.000000000000000e-07
 12
0.1580885116583204
 22
-0.9874249452398089
 32
0.000000000000000
 13
-0.0006548237895458442
 23
-0.9999997856028813
 33
0.000000000000000
 40
0.000000000000000
 40
0.000000000000000
 40
0.000000000000000
 40
0.000000000000000
 40
0.7888953822516677
 40
1.586961101536925
 40
2.399422826284648
 40
3.216599005548971
 40
3.216599005548971
 40
3.216599005548971
 40
3.216599005548971
 10
174.0018680993982
 20
151.5873431995317
 30
0.000000000000000
 10
174.0434398650096
 20
151.3276848729918
 30
0.000000000000000
 10
174.1164466696059
 20
150.8035802223511
 30
0.000000000000000
 10
174.1936056256685
 20
150.0072837719694
 30
0.000000000000000
 10
174.2394281006680
 20
149.1991525129125
 30
0.000000000000000
 10
174.2496089170124
 20
148.6558802778198
 30
0.000000000000000
 10
174.2494305482116
 20
148.3834882764651
 30
0.000000000000000
  0
SPLINE
  5
7B
100
AcDbEntity
  8
A1
  6
CONTINUOUS
 62
7
100
AcDbSpline
210
0.000000000000000
220
0.000000000000000
230
1.000000000000000
 70
     8
 71
     3
 72
    11
 73
     7
 74
     0
 42
1.000000000000000e-07
 43
1.000000000000000e-07
 12
0.001012254922557076
 22
0.9999994876697542
 32
0.000000000000000
 13
-0.1731733502065254
 23
0.9848913598862055
 33
0.000000000000000
 40
0.000000000000000
 40
0.000000000000000
 40
0.000000000000000
 40
0.000000000000000
 40
0.8901329665421088
 40
1.786457446282776
 40
2.696886234157471
 40
3.606036510300527
 40
3.606036510300527
 40
3.606036510300527
 40
3.606036510300527
 10
174.2494305482116
 20
147.6855074963715
 30
0.000000000000000
 10
174.2497308953707
 20
147.9822183332049
 30
0.000000000000000
 10
174.2382511397312
 20
148.5777760575719
 30
0.000000000000000
 10
174.1854252033702
 20
149.4754273474448
 30
0.000000000000000
 10
174.0926531650958
 20
150.3762826307656
 30
0.000000000000000
 10
174.0015391567023
 20
150.9762019959697
 30
0.000000000000000
 10
173.9490589569820
 20
151.2746734132402
 30
0.000000000000000
  0
SPLINE
  5
7C
100
AcDbEntity
  8
A1
  6
CONTINUOUS
 62
7
100
AcDbSpline
210
0.000000000000000
220
0.000000000000000
230
1.000000000000000
 70
     8
 71
     3
 72
    12
 73
     8
 74
     0
 42
1.000000000000000e-07
 43
1.000000000000000e-07
 12
-0.003126870679807325
 22
-0.9999951113275074
 32
0.000000000000000
 13
0.6186521937352154
 23
-0.7856649815221317
 33
0.000000000000000
 40
0.000000000000000
 40
0.000000000000000
 40
0.000000000000000
 40
0.000000000000000
 40
0.3115193813733841
 40
0.6415086633567453
 40
0.9698982948325503
 40
1.312845533330937
 40
1.428502780373880
 40
1.428502780373880
 40
1.428502780373880
 40
1.428502780373880
 10
160.7494305482120
 20
135.2443802576511
 30
0.000000000000000
 10
160.7491058546054
 20
135.1405409714988
 30
0.000000000000000
 10
160.7629742612671
 20
134.9264224057777
 30
0.000000000000000
 10
160.8282621733573
 20
134.6085950556854
 30
0.000000000000000
 10
160.9456316609408
 20
134.2946873149422
 30
0.000000000000000
 10
161.0772502297116
 20
134.0660984351275
 30
0.000000000000000
 10
161.1683840417805
 20
133.9432866099456
 30
0.000000000000000
 10
161.1922345783154
 20
133.9129973269920
 30
0.000000000000000
  0
SPLINE
  5
7D
100
AcDbEntity
  8
A1
  6
CONTINUOUS
 62
7
100
AcDbSpline
210
0.000000000000000
220
0.000000000000000
230
1.000000000000000
 70
     8
 71
     3
 72
     9
 73
     5
 74
     0
 42
1.000000000000000e-07
 43
1.000000000000000e-07
 12
0.6192527721843817
 22
-0.7851916989766323
 32
0.000000000000000
 13
0.6321138309604066
 23
-0.7748755414310153
 33
0.000000000000000
 40
0.000000000000000
 40
0.000000000000000
 40
0.000000000000000
 40
0.000000000000000
 40
0.8280431011018707
 40
1.659235454180962
 40
1.659235454180962
 40
1.659235454180962
 40
1.659235454180962
 10
161.1922345783154
 20
133.9129973269920
 30
0.000000000000000
 10
161.3631572402639
 20
133.6962731371987
 30
0.000000000000000
 10
161.7074407394894
 20
133.2634077555423
 30
0.000000000000000
 10
162.0552808931219
 20
132.8333951128150
 30
0.000000000000000
 10
162.2304169539785
 20
132.6187049046065
 30
0.000000000000000
  0
SPLINE
  5
7E
100
AcDbEntity
  8
A1
  6
CONTINUOUS
 62
7
100
AcDbSpline
210
0.000000000000000
220
0.000000000000000
230
1.000000000000000
 70
     8
 71
     3
 72
    27
 73
    23
 74
     0
 42
1.000000000000000e-07
 43
1.000000000000000e-07
 12
-0.3232791834582827
 22
0.9463036349621916
 32
0.000000000000000
 13
-0.5351340140969114
 23
0.8447671791427638
 33
0.000000000000000
 40
0.000000000000000
 40
0.000000000000000
 40
0.000000000000000
 40
0.000000000000000
 40
1.202231395360376
 40
2.380501779548157
 40
3.529947874193927
 40
4.645707684660881
 40
5.787048852674490
 40
6.886045724662505
 40
7.937227727409149
 40
8.715049440287824
 40
9.461664652712951
 40
10.17470099355976
 40
10.85178882897023
 40
11.64994697574152
 40
12.38751412217109
 40
13.06028303778446
 40
13.53497806268683
 40
13.96867682981469
 40
14.35982238914898
 40
14.70688824051693
 40
14.97615746155481
 40
15.21018479762060
 40
15.21018479762060
 40
15.21018479762060
 40
15.21018479762060
 10
173.2925228709464
 20
154.4544121725476
 30
0.000000000000000
 10
173.1629707430064
 20
154.8336374857126
 30
0.000000000000000
 10
172.9043734569058
 20
155.5838227640963
 30
0.000000000000000
 10
172.5149638605893
 20
156.6941725545523
 30
0.000000000000000
 10
172.1290328688611
 20
157.7751790702924
 30
0.000000000000000
 10
171.7410027957358
 20
158.8423453304688
 30
0.000000000000000
 10
171.3520378169626
 20
159.8912558244223
 30
0.000000000000000
 10
170.9635592192905
 20
160.9173615345308
 30
0.000000000000000
 10
170.6113789444756
 20
161.8276167730195
 30
0.000000000000000
 10
170.2959604799117
 20
162.6261221458711
 30
0.000000000000000
 10
170.0174950725835
 20
163.3180175330667
 30
0.000000000000000
 10
169.7470436660003
 20
163.9769255698619
 30
0.000000000000000
 10
169.4650687019345
 20
164.6496546415813
 30
0.000000000000000
 10
169.1737322327120
 20
165.3273013414112
 30
0.000000000000000
 10
168.8752903820642
 20
166.0002770815671
 30
0.000000000000000
 10
168.6130946415032
 20
166.5713266215622
 30
0.000000000000000
 10
168.3865025672303
 20
167.0472021588309
 30
0.000000000000000
 10
168.1948361419893
 20
167.4356892771773
 30
0.000000000000000
 10
168.0162855730441
 20
167.7831581573628
 30
0.000000000000000
 10
167.8566972394442
 20
168.0786710080405
 30
0.000000000000000
 10
167.7162412847891
 20
168.3249230054158
 30
0.000000000000000
 10
167.6283132804352
 20
168.4678361106975
 30
0.000000000000000
 10
167.5865679511828
 20
168.5337356482077
 30
0.000000000000000
  0
SPLINE
  5
7F
100
AcDbEntity
  8
A1
  6
CONTINUOUS
 62
7
100
AcDbSpline
210
0.000000000000000
220
0.000000000000000
230
1.000000000000000
 70
     8
 71
     3
 72
    15
 73
    11
 74
     0
 42
1.000000000000000e-07
 43
1.000000000000000e-07
 12
-0.9760238174580991
 22
-0.2176637492912050
 32
0.000000000000000
 13
-0.0009715113455968094
 23
-0.9999995280829808
 33
0.000000000000000
 40
0.000000000000000
 40
0.000000000000000
 40
0.000000000000000
 40
0.000000000000000
 40
0.3280494564915986
 40
0.6653174135746998
 40
0.9922951593715634
 40
1.327791611485106
 40
1.659739871445820
 40
2.000183209662505
 40
2.367450981549695
 40
2.746190459042348
 40
2.746190459042348
 40
2.746190459042348
 40
2.746190459042348
 10
162.3245712595494
 20
167.8698292792477
 30
0.000000000000000
 10
162.2178432319361
 20
167.8460277876968
 30
0.000000000000000
 10
162.0048649682667
 20
167.7800617996891
 30
0.000000000000000
 10
161.7086192919538
 20
167.6294401507521
 30
0.000000000000000
 10
161.4395466568795
 20
167.4303287277494
 30
0.000000000000000
 10
161.2081044524706
 20
167.1908740797389
 30
0.000000000000000
 10
161.0165527039861
 20
166.9130677472402
 30
0.000000000000000
 10
160.8684646600560
 20
166.5979940452667
 30
0.000000000000000
 10
160.7718390405337
 20
166.2470797485387
 30
0.000000000000000
 10
160.7495531981118
 20
165.9978171660176
 30
0.000000000000000
 10
160.7494305482120
 20
165.8715707330979
 30
0.000000000000000
  0
SPLINE
  5
80
100
AcDbEntity
  8
A1
  6
CONTINUOUS
 62
7
100
AcDbSpline
210
0.000000000000000
220
0.000000000000000
230
1.000000000000000
 70
     8
 71
     3
 72
    11
 73
     7
 74
     0
 42
1.000000000000000e-07
 43
1.000000000000000e-07
 12
-0.1735896851921552
 22
0.9848180650225231
 32
0.000000000000000
 13
-0.3566264501964724
 23
0.9342470631584092
 33
0.000000000000000
 40
0.000000000000000
 40
0.000000000000000
 40
0.000000000000000
 40
0.000000000000000
 40
0.8106438319174861
 40
1.615705063555533
 40
2.420381213758985
 40
3.216693432695427
 40
3.216693432695427
 40
3.216693432695427
 40
3.216693432695427
 10
173.9490589569820
 20
151.2746734132402
 30
0.000000000000000
 10
173.9021524877868
 20
151.5407856432307
 30
0.000000000000000
 10
173.7963929955590
 20
152.0690923133329
 30
0.000000000000000
 10
173.6022606185632
 20
152.8524639141289
 30
0.000000000000000
 10
173.3724331029246
 20
153.6211720423245
 30
0.000000000000000
 10
173.1942052905619
 20
154.1244645393032
 30
0.000000000000000
 10
173.0995432905994
 20
154.3724486566027
 30
0.000000000000000
  0
SPLINE
  5
81
100
AcDbEntity
  8
A1
  6
CONTINUOUS
 62
7
100
AcDbSpline
210
0.000000000000000
220
0.000000000000000
230
1.000000000000000
 70
     8
 71
     3
 72
    24
 73
    20
 74
     0
 42
1.000000000000000e-07
 43
1.000000000000000e-07
 12
-0.3571675783178989
 22
0.9340403208635735
 32
0.000000000000000
 13
-0.5581880580743928
 23
0.8297144640318947
 33
0.000000000000000
 40
0.000000000000000
 40
0.000000000000000
 40
0.000000000000000
 40
0.000000000000000
 40
0.9775929498789270
 40
1.936626525648265
 40
2.873974938187940
 40
3.786513408101536
 40
4.851534372004757
 40
5.878514007853231
 40
6.862247722428538
 40
7.797533531837259
 40
8.679175592175266
 40
9.501989157236075
 40
10.24210763934635
 40
10.92560215144662
 40
11.54855473235532
 40
12.10707361140051
 40
12.59731604320831
 40
13.01553325898233
 40
13.19693690249482
 40
13.19693690249482
 40
13.19693690249482
 40
13.19693690249482
 10
173.0995432905994
 20
154.3724486566027
 30
0.000000000000000
 10
172.9831551217698
 20
154.6768190674624
 30
0.000000000000000
 10
172.7508331473136
 20
155.2791118319963
 30
0.000000000000000
 10
172.4010274991186
 20
156.1709602270311
 30
0.000000000000000
 10
172.0539974530549
 20
157.0405873530195
 30
0.000000000000000
 10
171.6883849656548
 20
157.9408183531314
 30
0.000000000000000
 10
171.3048485524905
 20
158.8659943752014
 30
0.000000000000000
 10
170.9044391459911
 20
159.8098288919788
 30
0.000000000000000
 10
170.5131876979971
 20
160.7105345839287
 30
0.000000000000000
 10
170.1334285847362
 20
161.5633722827095
 30
0.000000000000000
 10
169.7675109388093
 20
162.3636100368004
 30
0.000000000000000
 10
169.4204392273726
 20
163.1008798902693
 30
0.000000000000000
 10
169.0929995655439
 20
163.7743254088508
 30
0.000000000000000
 10
168.7864095026423
 20
164.3837648202492
 30
0.000000000000000
 10
168.4985151879506
 20
164.9347683813983
 30
0.000000000000000
 10
168.2316191984273
 20
165.4239790293645
 30
0.000000000000000
 10
167.9878361342758
 20
165.8479119557519
 30
0.000000000000000
 10
167.7980303129689
 20
166.1577829382374
 30
0.000000000000000
 10
167.6878450352511
 20
166.3245611025509
 30
0.000000000000000
 10
167.6540925860845
 20
166.3747321781677
 30
0.000000000000000
  0
SPLINE
  5
82
100
AcDbEntity
  8
A1
  6
CONTINUOUS
 62
7
100
AcDbSpline
210
0.000000000000000
220
0.000000000000000
230
1.000000000000000
 70
     8
 71
     3
 72
    21
 73
    17
 74
     0
 42
1.000000000000000e-07
 43
1.000000000000000e-07
 12
-0.5997263282415588
 22
0.8002051806961390
 32
0.000000000000000
 13
-0.9760474109418737
 23
-0.2175579269826358
 33
0.000000000000000
 40
0.000000000000000
 40
0.000000000000000
 40
0.000000000000000
 40
0.000000000000000
 40
0.1129769871660668
 40
0.2453342662553338
 40
0.4047845498716911
 40
0.5976604542706097
 40
0.8250522515562635
 40
1.084665693853566
 40
1.359763988336631
 40
1.660580435337736
 40
1.981651408316509
 40
2.317516171163013
 40
2.667353101981917
 40
3.024975590428632
 40
3.295601389982380
 40
3.567172320419728
 40
3.567172320419728
 40
3.567172320419728
 40
3.567172320419728
 10
167.6540925860845
 20
166.3747321781677
 30
0.000000000000000
 10
167.6315074948549
 20
166.4048671016443
 30
0.000000000000000
 10
167.5740931524041
 20
166.4651139070082
 30
0.000000000000000
 10
167.4520948116900
 20
166.5269524253442
 30
0.000000000000000
 10
167.2961576435757
 20
166.5710967756343
 30
0.000000000000000
 10
167.1039483328733
 20
166.5958045652841
 30
0.000000000000000
 10
166.8772836948490
 20
166.6036793242074
 30
0.000000000000000
 10
166.6232277339939
 20
166.5951900918053
 30
0.000000000000000
 10
166.3456023420399
 20
166.5721767911778
 30
0.000000000000000
 10
166.0486105149815
 20
166.5372277693103
 30
0.000000000000000
 10
165.7326282526434
 20
166.4914577899844
 30
0.000000000000000
 10
165.4015657409212
 20
166.4363977482031
 30
0.000000000000000
 10
165.0594814008283
 20
166.3736715912651
 30
0.000000000000000
 10
164.7396426194549
 20
166.3103951063516
 30
0.000000000000000
 10
164.4460426037979
 20
166.2490361540096
 30
0.000000000000000
 10
164.2694623075596
 20
166.2105059185796
 30
0.000000000000000
 10
164.1811069397128
 20
166.1908117823614
 30
0.000000000000000
  0
SPLINE
  5
83
100
AcDbEntity
  8
A1
  6
CONTINUOUS
 62
7
100
AcDbSpline
210
0.000000000000000
220
0.000000000000000
230
1.000000000000000
 70
     8
 71
     3
 72
    21
 73
    17
 74
     0
 42
1.000000000000000e-07
 43
1.000000000000000e-07
 12
0.9763387540183430
 22
0.2162467049515726
 32
0.000000000000000
 13
0.5738484065423108
 23
-0.8189615414103173
 33
0.000000000000000
 40
0.000000000000000
 40
0.000000000000000
 40
0.000000000000000
 40
0.000000000000000
 40
0.3825930934008659
 40
0.7631383767127891
 40
1.134623560718088
 40
1.493877852190581
 40
1.836810973864425
 40
2.156504588847983
 40
2.441133832961978
 40
2.698384861256505
 40
2.923947096695578
 40
3.112550130848683
 40
3.270620469306714
 40
3.399098234956923
 40
3.489386570653137
 40
3.567341828104764
 40
3.567341828104764
 40
3.567341828104764
 40
3.567341828104764
 10
164.1060373689390
 20
168.2641981888247
 30
0.000000000000000
 10
164.2305508569747
 20
168.2917763540864
 30
0.000000000000000
 10
164.4791851379207
 20
168.3455555603642
 30
0.000000000000000
 10
164.8495856698573
 20
168.4220347353616
 30
0.000000000000000
 10
165.2131509624005
 20
168.4930517671750
 30
0.000000000000000
 10
165.5652560099288
 20
168.5572121973714
 30
0.000000000000000
 10
165.9013294270163
 20
168.6128358190914
 30
0.000000000000000
 10
166.2138819558531
 20
168.6578899428216
 30
0.000000000000000
 10
166.4992396857916
 20
168.6907414721157
 30
0.000000000000000
 10
166.7543557559161
 20
168.7105541404856
 30
0.000000000000000
 10
166.9782235924695
 20
168.7167074777354
 30
0.000000000000000
 10
167.1689718520832
 20
168.7077768460184
 30
0.000000000000000
 10
167.3260432846932
 20
168.6843926101672
 30
0.000000000000000
 10
167.4466324542933
 20
168.6470631271939
 30
0.000000000000000
 10
167.5337460074746
 20
168.5975946232221
 30
0.000000000000000
 10
167.5716564510927
 20
168.5550164341422
 30
0.000000000000000
 10
167.5865679511828
 20
168.5337356482077
 30
0.000000000000000
  0
ELLIPSE
  5
84
100
AcDbEntity
  8
A1
  6
CONTINUOUS
 62
7
100
AcDbEllipse
 10
160.7494305482120
 20
125.0181018469259
 30
0.000000000000000
 11
-2.000000000000000
 21
0.000000000000000
 31
0.000000000000000
210
0.000000000000000
220
0.000000000000000
230
1.000000000000000
 40
0.9883936145804318
 41
1.570796326794897
 42
3.141592653589793
  0
ELLIPSE
  5
85
100
AcDbEntity
  8
A1
  6
CONTINUOUS
 62
7
100
AcDbEllipse
 10
160.7494305482122
 20
118.7839107524747
 30
0.000000000000000
 11
-6.000000000000000
 21
0.000000000000000
 31
0.000000000000000
210
0.000000000000000
220
0.000000000000000
230
1.000000000000000
 40
0.9883936145804318
 41
0.3179586565354622
 42
1.570796326794897
  0
ELLIPSE
  5
86
100
AcDbEntity
  8
A1
  6
CONTINUOUS
 62
7
100
AcDbEllipse
 10
170.2494305482116
 20
116.8071235232639
 30
0.000000000000000
 11
-4.000000000000000
 21
0.000000000000000
 31
0.000000000000000
210
0.000000000000000
220
0.000000000000000
230
1.000000000000000
 40
0.9883936145804318
 41
1.570796326794897
 42
3.141592653589793
  0
ELLIPSE
  5
87
100
AcDbEntity
  8
A1
  6
CONTINUOUS
 62
7
100
AcDbEllipse
 10
160.7494305482120
 20
124.7142724399572
 30
0.000000000000000
 11
2.000000000000000
 21
0.000000000000000
 31
0.000000000000000
210
0.000000000000000
220
0.000000000000000
230
1.000000000000000
 40
0.9883936145804318
 41
4.712388980384690
 42
0.000000000000000
  0
ELLIPSE
  5
88
100
AcDbEntity
  8
A1
  6
CONTINUOUS
 62
7
100
AcDbEllipse
 10
160.7494305482120
 20
131.2847659512635
 30
0.000000000000000
 11
2.000000000000000
 21
0.000000000000000
 31
0.000000000000000
210
0.000000000000000
220
0.000000000000000
230
1.000000000000000
 40
0.9883936145804318
 41
0.000000000000000
 42
0.6783678216155419
  0
LINE
  5
89
100
AcDbEntity
  8
A1
  6
CONTINUOUS
 62
7
100
AcDbLine
 10
160.7494305482014
 20
123.0413146177651
 30
0.000000000000000
 11
159.2494305482120
 21
123.0413146177730
 31
0.000000000000000
  0
LINE
  5
8A
100
AcDbEntity
  8
A1
  6
CONTINUOUS
 62
7
100
AcDbLine
 10
160.7494305482120
 20
136.7589036366022
 30
0.000000000000000
 11
160.7494305482120
 21
137.2501093378276
 31
0.000000000000000
  0
LINE
  5
8B
100
AcDbEntity
  8
A1
  6
CONTINUOUS
 62
7
100
AcDbLine
 10
162.2304169539786
 20
132.6187049046065
 30
0.000000000000000
 11
162.3066265181086
 21
132.5252455018039
 31
0.000000000000000
  0
LINE
  5
8C
100
AcDbEntity
  8
A1
  6
CONTINUOUS
 62
7
100
AcDbLine
 10
160.7494305482013
 20
122.7374853061006
 30
0.000000000000000
 11
159.2494305482120
 21
122.7374853061085
 31
0.000000000000000
  0
LINE
  5
8D
100
AcDbEntity
  8
A1
  6
CONTINUOUS
 62
7
100
AcDbLine
 10
160.7494305481802
 20
112.8535491602962
 30
0.000000000000000
 11
170.2494305481903
 21
112.8535491602462
 31
0.000000000000000
  0
LINE
  5
8E
100
AcDbEntity
  8
A1
  6
CONTINUOUS
 62
7
100
AcDbLine
 10
162.7494305482120
 20
124.7142725352613
 30
0.000000000000000
 11
162.7494305482120
 21
131.2847660465676
 31
0.000000000000000
  0
LINE
  5
8F
100
AcDbEntity
  8
A1
  6
CONTINUOUS
 62
7
100
AcDbLine
 10
160.7494305482120
 20
136.7589036366023
 30
0.000000000000000
 11
162.7494305482120
 21
136.3162992366048
 31
0.000000000000000
  0
LINE
  5
90
100
AcDbEntity
  8
A1
  6
CONTINUOUS
 62
7
100
AcDbLine
 10
162.3245712595495
 20
167.8698292792478
 30
0.000000000000000
 11
164.1060373689391
 21
168.2641981888248
 31
0.000000000000000
  0
LINE
  5
91
100
AcDbEntity
  8
A1
  6
CONTINUOUS
 62
7
100
AcDbLine
 10
162.7494305482120
 20
165.8715707330982
 30
0.000000000000000
 11
164.1811069397129
 21
166.1908117823615
 31
0.000000000000000
  0
ARC
  5
92
100
AcDbEntity
  8
A1
  6
CONTINUOUS
 62
7
100
AcDbCircle
 10
159.7494305482120
 20
140.9299159971673
 30
0.000000000000000
 40
1.000000000000000
100
AcDbArc
 50
270.0000000000000
 51
360.0000000000000
  0
ARC
  5
93
100
AcDbEntity
  8
A1
  6
CONTINUOUS
 62
7
100
AcDbCircle
 10
159.7494305482120
 20
156.9299159971673
 30
0.000000000000000
 40
1.000000000000000
100
AcDbArc
 50
5.090000000000000e-14
 51
90.00000000000000
  0
ARC
  5
94
100
AcDbEntity
  8
A1
  6
CONTINUOUS
 62
7
100
AcDbCircle
 10
157.2494305482120
 20
118.9299125059481
 30
0.000000000000000
 40
2.000000000000000
100
AcDbArc
 50
270.0000000000000
 51
360.0000000000000
  0
ARC
  5
95
100
AcDbEntity
  8
A1
  6
CONTINUOUS
 62
7
100
AcDbCircle
 10
157.2494305482120
 20
178.9299108055059
 30
0.000000000000000
 40
2.000000000000000
100
AcDbArc
 50
359.9999999999998
 51
450.0000000000000
  0
LINE
  5
96
100
AcDbEntity
  8
A1
  6
CONTINUOUS
 62
7
100
AcDbLine
 10
159.7494305482120
 20
157.9299159971673
 30
0.000000000000000
 11
159.2494305482120
 21
157.9299159971673
 31
0.000000000000000
  0
LINE
  5
97
100
AcDbEntity
  8
A1
  6
CONTINUOUS
 62
7
100
AcDbLine
 10
159.2494305482120
 20
139.9299159971673
 30
0.000000000000000
 11
159.7494305482120
 21
139.9299159971673
 31
0.000000000000000
  0
LINE
  5
98
100
AcDbEntity
  8
A1
  6
CONTINUOUS
 62
7
100
AcDbLine
 10
154.2494305482120
 20
116.9299125059481
 30
0.000000000000000
 11
157.2494305482120
 21
116.9299125059481
 31
0.000000000000000
  0
LINE
  5
99
100
AcDbEntity
  8
A1
  6
CONTINUOUS
 62
7
100
AcDbLine
 10
157.2494305482120
 20
180.9299108055059
 30
0.000000000000000
 11
154.2494305482120
 21
180.9299108055059
 31
0.000000000000000
  0
LINE
  5
9A
100
AcDbEntity
  8
A1
  6
CONTINUOUS
 62
7
100
AcDbLine
 10
164.2494305482120
 20
155.4299159970981
 30
0.000000000000000
 11
162.7494305482120
 21
155.4299159970981
 31
0.000000000000000
  0
LINE
  5
9B
100
AcDbEntity
  8
A1
  6
CONTINUOUS
 62
7
100
AcDbLine
 10
162.7494305482120
 20
142.4299159970980
 30
0.000000000000000
 11
164.2494305482120
 21
142.4299159970980
 31
0.000000000000000
  0
LINE
  5
9C
100
AcDbEntity
  8
A1
  6
CONTINUOUS
 62
7
100
AcDbLine
 10
165.2494305482120
 20
154.3660808772904
 30
0.000000000000000
 11
165.2494305482120
 21
143.4299159970980
 31
0.000000000000000
  0
LINE
  5
9D
100
AcDbEntity
  8
A1
  6
CONTINUOUS
 62
7
100
AcDbLine
 10
165.2494305482119
 20
154.4299159970980
 30
0.000000000000000
 11
164.2494305482119
 21
155.4299159970980
 31
0.000000000000000
  0
LINE
  5
9E
100
AcDbEntity
  8
A1
  6
CONTINUOUS
 62
7
100
AcDbLine
 10
164.2494305482119
 20
142.4299159970980
 30
0.000000000000000
 11
165.2494305482119
 21
143.4299159970980
 31
0.000000000000000
  0
LINE
  5
9F
100
AcDbEntity
  8
A1
  6
CONTINUOUS
 62
7
100
AcDbLine
 10
164.2494305482120
 20
142.4299159970980
 30
0.000000000000000
 11
164.2494305482120
 21
155.4299159970981
 31
0.000000000000000
  0
LINE
  5
A0
100
AcDbEntity
  8
A1
  6
CONTINUOUS
 62
7
100
AcDbLine
 10
165.2494305482120
 20
154.4299159970980
 30
0.000000000000000
 11
165.2494305482120
 21
154.3660808772904
 31
0.000000000000000
  0
SPLINE
  5
A1
100
AcDbEntity
  8
A1
  6
CONTINUOUS
 62
7
100
AcDbSpline
210
0.000000000000000
220
0.000000000000000
230
1.000000000000000
 70
     8
 71
     3
 72
    11
 73
     7
 74
     0
 42
1.000000000000000e-07
 43
1.000000000000000e-07
 12
-0.1856279225988828
 22
-0.9826201068325418
 32
0.000000000000000
 13
0.03124752060637093
 23
-0.9995116769981678
 33
0.000000000000000
 40
0.000000000000000
 40
0.000000000000000
 40
0.000000000000000
 40
0.000000000000000
 40
0.7914465647295689
 40
1.590206842745171
 40
2.402401426320829
 40
3.219441277696514
 40
3.219441277696514
 40
3.219441277696514
 40
3.219441277696514
 10
85.95956431664865
 20
151.5873431993359
 30
0.000000000000000
 10
85.91059278942907
 20
151.3281127633403
 30
0.000000000000000
 10
85.82618864560396
 20
150.8044997323434
 30
0.000000000000000
 10
85.74184161206057
 20
150.0077698701490
 30
0.000000000000000
 10
85.70064318771870
 20
149.1990970375236
 30
0.000000000000000
 10
85.70271725147160
 20
148.6557019002770
 30
0.000000000000000
 10
85.71122740800229
 20
148.3834882762693
 30
0.000000000000000
  0
SPLINE
  5
A2
100
AcDbEntity
  8
A1
  6
CONTINUOUS
 62
7
100
AcDbSpline
210
0.000000000000000
220
0.000000000000000
230
1.000000000000000
 70
     8
 71
     3
 72
    21
 73
    17
 74
     0
 42
1.000000000000000e-07
 43
1.000000000000000e-07
 12
0.3487822718972211
 22
0.9372037808344089
 32
0.000000000000000
 13
0.8836123241493397
 23
0.4682192441711095
 33
0.000000000000000
 40
0.000000000000000
 40
0.000000000000000
 40
0.000000000000000
 40
0.000000000000000
 40
1.225740484462071
 40
2.453913836498614
 40
3.683165634677519
 40
4.912159740516440
 40
6.213838741932179
 40
7.518953095583121
 40
8.825796046006646
 40
9.838049640171274
 40
10.85333447795862
 40
11.87075419624180
 40
12.88943707123613
 40
14.17275587856311
 40
15.46104869821436
 40
16.23992769998386
 40
16.23992769998386
 40
16.23992769998386
 40
16.23992769998386
 10
86.75665321476168
 20
154.4544121723518
 30
0.000000000000000
 10
86.89915873173737
 20
154.8373350444716
 30
0.000000000000000
 10
87.20552231753936
 20
155.5962931716795
 30
0.000000000000000
 10
87.72739691912659
 20
156.7082252484722
 30
0.000000000000000
 10
88.30988002562407
 20
157.7909137804483
 30
0.000000000000000
 10
88.96386497711779
 20
158.8608070105742
 30
0.000000000000000
 10
89.69237499583880
 20
159.9124606678599
 30
0.000000000000000
 10
90.49685809370317
 20
160.9403413162685
 30
0.000000000000000
 10
91.29614807028508
 20
161.8471595011717
 30
0.000000000000000
 10
92.07390605873070
 20
162.6416696880017
 30
0.000000000000000
 10
92.81633648725028
 20
163.3342781995167
 30
0.000000000000000
 10
93.59101946882265
 20
163.9939244263672
 30
0.000000000000000
 10
94.46552212969169
 20
164.6724167103142
 30
0.000000000000000
 10
95.44837703924958
 20
165.3564196213855
 30
0.000000000000000
 10
96.40066165923440
 20
165.9411345681278
 30
0.000000000000000
 10
97.00396297011986
 20
166.2743357850109
 30
0.000000000000000
 10
97.23337199844809
 20
166.3958978308474
 30
0.000000000000000
  0
ARC
  5
A3
100
AcDbEntity
  8
A1
  6
CONTINUOUS
 62
7
100
AcDbCircle
 10
103.2494305482561
 20
148.9299159969715
 30
0.000000000000000
 40
17.54671344277210
100
AcDbArc
 50
181.7845544031344
 51
249.3131797375810
  0
ARC
  5
A4
100
AcDbEntity
  8
A1
  6
CONTINUOUS
 62
7
100
AcDbCircle
 10
103.2612811606334
 20
148.3215379818832
 30
0.000000000000000
 40
17.60723968905306
100
AcDbArc
 50
159.6156829267179
 51
169.3108335908821
  0
ARC
  5
A5
100
AcDbEntity
  8
A1
  6
CONTINUOUS
 62
7
100
AcDbCircle
 10
103.2494305482561
 20
148.9299159969715
 30
0.000000000000000
 40
4.600000000000000
100
AcDbArc
 50
30.24847727223437
 51
36.26210000103747
  0
ARC
  5
A6
100
AcDbEntity
  8
A1
  6
CONTINUOUS
 62
7
100
AcDbCircle
 10
103.2494305482561
 20
148.9299159969715
 30
0.000000000000000
 40
4.600000000000000
100
AcDbArc
 50
306.2620999987925
 51
313.7668502352889
  0
ARC
  5
A7
100
AcDbEntity
  8
A1
  6
CONTINUOUS
 62
7
100
AcDbCircle
 10
103.2494305482561
 20
148.9299159969715
 30
0.000000000000000
 40
4.600000000000000
100
AcDbArc
 50
209.0458739469246
 51
216.2620999989679
  0
ARC
  5
A8
100
AcDbEntity
  8
A1
  6
CONTINUOUS
 62
7
100
AcDbCircle
 10
103.2494305482561
 20
148.9299159969715
 30
0.000000000000000
 40
4.600000000000000
100
AcDbArc
 50
126.2621000012022
 51
133.7668502355939
  0
LINE
  5
A9
100
AcDbEntity
  8
A1
  6
CONTINUOUS
 62
7
100
AcDbLine
 10
97.24690431947477
 20
123.0413146175956
 30
0.000000000000000
 11
99.22369154863564
 21
122.7374853059312
 31
0.000000000000000
  0
LINE
  5
AA
100
AcDbEntity
  8
A1
  6
CONTINUOUS
 62
7
100
AcDbLine
 10
97.70454499030915
 20
112.8535491601005
 30
0.000000000000000
 11
95.72775776114827
 21
113.1573784717649
 31
0.000000000000000
  0
SPLINE
  5
AB
100
AcDbEntity
  8
A1
  6
CONTINUOUS
 62
7
100
AcDbSpline
210
0.000000000000000
220
0.000000000000000
230
1.000000000000000
 70
     8
 71
     3
 72
    18
 73
    14
 74
     0
 42
1.000000000000000e-07
 43
1.000000000000000e-07
 12
0.1765955706578097
 22
-0.9842834979863255
 32
0.000000000000000
 13
0.7554749290145537
 23
-0.6551775573312852
 33
0.000000000000000
 40
0.000000000000000
 40
0.000000000000000
 40
0.000000000000000
 40
0.000000000000000
 40
0.01580806844326280
 40
0.5524923547053451
 40
1.091646456126818
 40
1.634209778725684
 40
2.192625687895582
 40
2.761047912253172
 40
3.339236864689125
 40
3.927258697809820
 40
4.423022091917585
 40
4.927933720166633
 40
5.436292747908708
 40
5.436292747908708
 40
5.436292747908708
 40
5.436292747908708
 10
95.37516139654207
 20
147.5171579404152
 30
0.000000000000000
 10
95.37609194149798
 20
147.5119714001139
 30
0.000000000000000
 10
95.40880434287448
 20
147.3307365975303
 30
0.000000000000000
 10
95.48577503837276
 20
146.9747598638013
 30
0.000000000000000
 10
95.63514020787636
 20
146.4559761934778
 30
0.000000000000000
 10
95.82167817829469
 20
145.9416216889027
 30
0.000000000000000
 10
96.04720853414040
 20
145.4324105522661
 30
0.000000000000000
 10
96.31355727858596
 20
144.9298017879886
 30
0.000000000000000
 10
96.62035471536029
 20
144.4391162334450
 30
0.000000000000000
 10
96.94766375116217
 20
143.9915031544727
 30
0.000000000000000
 10
97.28919706847137
 20
143.5863514876093
 30
0.000000000000000
 10
97.63666278919840
 20
143.2222065002115
 30
0.000000000000000
 10
97.88495553187215
 20
142.9928378824955
 30
0.000000000000000
 10
98.01297303200460
 20
142.8818160738144
 30
0.000000000000000
  0
SPLINE
  5
AC
100
AcDbEntity
  8
A1
  6
CONTINUOUS
 62
7
100
AcDbSpline
210
0.000000000000000
220
0.000000000000000
230
1.000000000000000
 70
     8
 71
     3
 72
    18
 73
    14
 74
     0
 42
1.000000000000000e-07
 43
1.000000000000000e-07
 12
-0.7554750550851850
 22
-0.6551774119606080
 32
0.000000000000000
 13
-0.1765957600691763
 23
-0.9842834640112414
 33
0.000000000000000
 40
0.000000000000000
 40
0.000000000000000
 40
0.000000000000000
 40
0.000000000000000
 40
0.5083590277420978
 40
1.013270655991174
 40
1.509034050098903
 40
2.097055883219642
 40
2.675244835655607
 40
3.243667060013181
 40
3.802082969183122
 40
4.344646291756678
 40
4.883800393153363
 40
5.420484679469261
 40
5.436292747909158
 40
5.436292747909158
 40
5.436292747909158
 40
5.436292747909158
 10
98.01297419579549
 20
154.9780169277410
 30
0.000000000000000
 10
97.88495667429999
 20
154.8669951436933
 30
0.000000000000000
 10
97.63666388749056
 20
154.6376265737543
 30
0.000000000000000
 10
97.28919809669367
 20
154.2734816532169
 30
0.000000000000000
 10
96.94766470142440
 20
153.8683300520721
 30
0.000000000000000
 10
96.62035557949139
 20
153.4207170360816
 30
0.000000000000000
 10
96.31355804829838
 20
152.9300315405726
 30
0.000000000000000
 10
96.04720920713919
 20
152.4274228275467
 30
0.000000000000000
 10
95.82167875331430
 20
151.9182117343147
 30
0.000000000000000
 10
95.63514068392288
 20
151.4038572656515
 30
0.000000000000000
 10
95.48577541458928
 20
150.8850736240691
 30
0.000000000000000
 10
95.40880465059740
 20
150.5290969051406
 30
0.000000000000000
 10
95.37609221434235
 20
150.3478621088358
 30
0.000000000000000
 10
95.37516166838856
 20
150.3426755687147
 30
0.000000000000000
  0
CIRCLE
  5
AD
100
AcDbEntity
  8
A1
  6
CONTINUOUS
 62
7
100
AcDbCircle
 10
106.2494305482561
 20
171.9299159969715
 30
0.000000000000000
 40
4.714213562370503
  0
CIRCLE
  5
AE
100
AcDbEntity
  8
A1
  6
CONTINUOUS
 62
7
100
AcDbCircle
 10
106.2494305482561
 20
125.9299159969715
 30
0.000000000000000
 40
4.714213562370503
  0
CIRCLE
  5
AF
100
AcDbEntity
  8
A1
  6
CONTINUOUS
 62
7
100
AcDbCircle
 10
106.2494305482561
 20
125.9299159969715
 30
0.000000000000000
 40
2.249999999977773
  0
CIRCLE
  5
B0
100
AcDbEntity
  8
A1
  6
CONTINUOUS
 62
7
100
AcDbCircle
 10
106.2494305482561
 20
125.9299159969715
 30
0.000000000000000
 40
3.249999999977549
  0
CIRCLE
  5
B1
100
AcDbEntity
  8
A1
  6
CONTINUOUS
 62
7
100
AcDbCircle
 10
106.2494305482561
 20
171.9299159969715
 30
0.000000000000000
 40
2.249999999977773
  0
CIRCLE
  5
B2
100
AcDbEntity
  8
A1
  6
CONTINUOUS
 62
7
100
AcDbCircle
 10
106.2494305482561
 20
171.9299159969715
 30
0.000000000000000
 40
3.249999999977549
  0
ARC
  5
B3
100
AcDbEntity
  8
A1
  6
CONTINUOUS
 62
7
100
AcDbCircle
 10
103.2494305482561
 20
148.9299159969715
 30
0.000000000000000
 40
4.650000000000000
100
AcDbArc
 50
210.0663165062358
 51
216.2620999989785
  0
ARC
  5
B4
100
AcDbEntity
  8
A1
  6
CONTINUOUS
 62
7
100
AcDbCircle
 10
103.2494305482561
 20
148.9299159969715
 30
0.000000000000000
 40
4.650000000000000
100
AcDbArc
 50
126.2621000011898
 51
134.2380256784533
  0
ARC
  5
B5
100
AcDbEntity
  8
A1
  6
CONTINUOUS
 62
7
100
AcDbCircle
 10
103.2494305482561
 20
148.9299159969715
 30
0.000000000000000
 40
4.650000000000000
100
AcDbArc
 50
31.10588405585684
 51
36.26210000102677
  0
ARC
  5
B6
100
AcDbEntity
  8
A1
  6
CONTINUOUS
 62
7
100
AcDbCircle
 10
103.2494305482561
 20
148.9299159969715
 30
0.000000000000000
 40
4.650000000000000
100
AcDbArc
 50
306.2620999988047
 51
314.2380256781532
  0
ARC
  5
B7
100
AcDbEntity
  8
A1
  6
CONTINUOUS
 62
7
100
AcDbCircle
 10
103.2494305482561
 20
148.9299159969715
 30
0.000000000000000
 40
8.000000000000000
100
AcDbArc
 50
169.8285124879119
 51
190.1714764870875
  0
ARC
  5
B8
100
AcDbEntity
  8
A1
  6
CONTINUOUS
 62
7
100
AcDbCircle
 10
109.2494305482561
 20
175.9299108053101
 30
0.000000000000000
 40
4.999999999999998
100
AcDbArc
 50
359.9999950000002
 51
469.5797714976859
  0
ARC
  5
B9
100
AcDbEntity
  8
A1
  6
CONTINUOUS
 62
7
100
AcDbCircle
 10
107.2012125482562
 20
170.9558818053101
 30
0.000000000000000
 40
9.000000000000000
100
AcDbArc
 50
109.5797870000000
 51
169.8285124879113
  0
ARC
  5
BA
100
AcDbEntity
  8
A1
  6
CONTINUOUS
 62
7
100
AcDbCircle
 10
103.2494305482561
 20
148.9299159969715
 30
0.000000000000000
 40
9.000000000000000
100
AcDbArc
 50
169.8285124879119
 51
190.1714764870875
  0
ARC
  5
BB
100
AcDbEntity
  8
A1
  6
CONTINUOUS
 62
7
100
AcDbCircle
 10
107.2012125482562
 20
126.9039258053101
 30
0.000000000000000
 40
9.000000000000000
100
AcDbArc
 50
190.1714764870874
 51
250.4202292263142
  0
ARC
  5
BC
100
AcDbEntity
  8
A1
  6
CONTINUOUS
 62
7
100
AcDbCircle
 10
109.2494184259035
 20
121.9299246281217
 30
0.000000000000000
 40
5.000012122369524
100
AcDbArc
 50
250.4202034894889
 51
359.9998506026091
  0
ARC
  5
BD
100
AcDbEntity
  8
A1
  6
CONTINUOUS
 62
7
100
AcDbCircle
 10
109.2494184259035
 20
121.9299246281217
 30
0.000000000000000
 40
4.000012122369524
100
AcDbArc
 50
250.4202034894889
 51
359.9998506026091
  0
ARC
  5
BE
100
AcDbEntity
  8
A1
  6
CONTINUOUS
 62
7
100
AcDbCircle
 10
107.2012125482562
 20
126.9039258053101
 30
0.000000000000000
 40
8.000000000000000
100
AcDbArc
 50
190.1714764870874
 51
250.4202324434168
  0
ARC
  5
BF
100
AcDbEntity
  8
A1
  6
CONTINUOUS
 62
7
100
AcDbCircle
 10
107.2012125482562
 20
170.9558818053101
 30
0.000000000000000
 40
8.000000000000000
100
AcDbArc
 50
109.5797870000000
 51
169.8285124879113
  0
ARC
  5
C0
100
AcDbEntity
  8
A1
  6
CONTINUOUS
 62
7
100
AcDbCircle
 10
109.2494305482561
 20
175.9299108053101
 30
0.000000000000000
 40
3.999999999999998
100
AcDbArc
 50
359.9999950000002
 51
469.5797305661956
  0
LINE
  5
C1
100
AcDbEntity
  8
A1
  6
CONTINUOUS
 62
7
100
AcDbLine
 10
95.37516166838878
 20
150.3426755687148
 30
0.000000000000000
 11
99.32694366838865
 21
172.3686413770535
 31
0.000000000000000
  0
LINE
  5
C2
100
AcDbEntity
  8
A1
  6
CONTINUOUS
 62
7
100
AcDbLine
 10
114.2494305482561
 20
175.9299103689777
 30
0.000000000000000
 11
114.2494305482561
 21
121.9299115907082
 31
0.000000000000000
  0
LINE
  5
C3
100
AcDbEntity
  8
A1
  6
CONTINUOUS
 62
7
100
AcDbLine
 10
104.1851396884075
 20
179.4354634284850
 30
0.000000000000000
 11
107.5738365482561
 21
180.6407878053103
 31
0.000000000000000
  0
LINE
  5
C4
100
AcDbEntity
  8
A1
  6
CONTINUOUS
 62
7
100
AcDbLine
 10
94.39087805840525
 20
150.5192705151827
 30
0.000000000000000
 11
98.34266005840512
 21
172.5452363235215
 31
0.000000000000000
  0
LINE
  5
C5
100
AcDbEntity
  8
A1
  6
CONTINUOUS
 62
7
100
AcDbLine
 10
98.34265975257784
 20
125.3145729916845
 30
0.000000000000000
 11
94.39087775257771
 21
147.3405631833458
 31
0.000000000000000
  0
LINE
  5
C6
100
AcDbEntity
  8
A1
  6
CONTINUOUS
 62
7
100
AcDbLine
 10
107.5738175482561
 20
117.2190348053101
 30
0.000000000000000
 11
104.1851415482560
 21
118.4243418053100
 31
0.000000000000000
  0
LINE
  5
C7
100
AcDbEntity
  8
A1
  6
CONTINUOUS
 62
7
100
AcDbLine
 10
113.2494305482561
 20
175.9299104562442
 30
0.000000000000000
 11
113.2494305482594
 21
121.9299141981846
 31
0.000000000000000
  0
LINE
  5
C8
100
AcDbEntity
  8
A1
  6
CONTINUOUS
 62
7
100
AcDbLine
 10
107.9089369112974
 20
118.1612104855922
 30
0.000000000000000
 11
104.5202609112974
 21
119.3665174855921
 31
0.000000000000000
  0
LINE
  5
C9
100
AcDbEntity
  8
A1
  6
CONTINUOUS
 62
7
100
AcDbLine
 10
99.32694339654196
 20
125.4911677487538
 30
0.000000000000000
 11
95.37516139654187
 21
147.5171579404152
 31
0.000000000000000
  0
LINE
  5
CA
100
AcDbEntity
  8
A1
  6
CONTINUOUS
 62
7
100
AcDbLine
 10
104.5202588950574
 20
178.4932876925766
 30
0.000000000000000
 11
107.9089581923031
 21
179.6986129363548
 31
0.000000000000000
  0
CIRCLE
  5
CB
100
AcDbEntity
  8
A1
  6
CONTINUOUS
 62
7
100
AcDbCircle
 10
103.2494305481868
 20
148.9299159969022
 30
0.000000000000000
 40
0.9999999999307648
  0
ARC
  5
CC
100
AcDbEntity
  8
A1
  6
CONTINUOUS
 62
7
100
AcDbCircle
 10
108.8917078004997
 20
146.2415694033703
 30
0.000000000000000
 40
0.9999999999999996
100
AcDbArc
 50
261.2620999999999
 51
334.5238432386237
  0
ARC
  5
CD
100
AcDbEntity
  8
A1
  6
CONTINUOUS
 62
7
100
AcDbCircle
 10
103.2494305481289
 20
148.9299159969812
 30
0.000000000000000
 40
7.250000000000000
100
AcDbArc
 50
334.5238432386237
 51
368.0003567613765
  0
ARC
  5
CE
100
AcDbEntity
  8
A1
  6
CONTINUOUS
 62
7
100
AcDbCircle
 10
109.4386005614958
 20
149.7997864158599
 30
0.000000000000000
 40
1.000000000000000
100
AcDbArc
 50
8.000356761376491
 51
81.26210000000000
  0
ARC
  5
CF
100
AcDbEntity
  8
A1
  6
CONTINUOUS
 62
7
100
AcDbCircle
 10
97.60715329575805
 20
151.6182625905920
 30
0.000000000000000
 40
1.000000000000000
100
AcDbArc
 50
81.26210000000000
 51
154.5238432386236
  0
ARC
  5
D0
100
AcDbEntity
  8
A1
  6
CONTINUOUS
 62
7
100
AcDbCircle
 10
103.2494305481289
 20
148.9299159969812
 30
0.000000000000000
 40
7.250000000000001
100
AcDbArc
 50
154.5238432386236
 51
188.0003567613763
  0
ARC
  5
D1
100
AcDbEntity
  8
A1
  6
CONTINUOUS
 62
7
100
AcDbCircle
 10
97.06026053476199
 20
148.0600455781024
 30
0.000000000000000
 40
0.9999999999999998
100
AcDbArc
 50
188.0003567613763
 51
261.2620999999999
  0
ARC
  5
D2
100
AcDbEntity
  8
A1
  6
CONTINUOUS
 62
7
100
AcDbCircle
 10
100.4066257811933
 20
154.4959703496702
 30
0.000000000000000
 40
1.000000000000000
100
AcDbArc
 50
117.0552037786889
 51
216.2620999999969
  0
ARC
  5
D3
100
AcDbEntity
  8
A1
  6
CONTINUOUS
 62
7
100
AcDbCircle
 10
107.6325250127209
 20
153.3853601852146
 30
0.000000000000000
 40
1.000000000000000
100
AcDbArc
 50
306.2621000000031
 51
405.4689962213112
  0
ARC
  5
D4
100
AcDbEntity
  8
A1
  6
CONTINUOUS
 62
7
100
AcDbCircle
 10
103.2494305481289
 20
148.9299159969812
 30
0.000000000000000
 40
7.250000000000000
100
AcDbArc
 50
45.46899622131120
 51
117.0552037786888
  0
ARC
  5
D5
100
AcDbEntity
  8
A1
  6
CONTINUOUS
 62
7
100
AcDbCircle
 10
106.0922353150612
 20
143.3638616442906
 30
0.000000000000000
 40
1.000000000000000
100
AcDbArc
 50
297.0552037786545
 51
396.2620999999979
  0
ARC
  5
D6
100
AcDbEntity
  8
A1
  6
CONTINUOUS
 62
7
100
AcDbCircle
 10
98.86633608353958
 20
144.4744718087452
 30
0.000000000000000
 40
1.000000000000000
100
AcDbArc
 50
126.2621000000022
 51
225.4689962213455
  0
ARC
  5
D7
100
AcDbEntity
  8
A1
  6
CONTINUOUS
 62
7
100
AcDbCircle
 10
103.2494305481289
 20
148.9299159969812
 30
0.000000000000000
 40
7.250000000000000
100
AcDbArc
 50
225.4689962213455
 51
297.0552037786545
  0
ARC
  5
D8
100
AcDbEntity
  8
A1
  6
CONTINUOUS
 62
7
100
AcDbCircle
 10
103.2494305481289
 20
148.9299159969812
 30
0.000000000000000
 40
4.000000000000000
100
AcDbArc
 50
36.26209999994472
 51
126.2621000000552
  0
ARC
  5
D9
100
AcDbEntity
  8
A1
  6
CONTINUOUS
 62
7
100
AcDbCircle
 10
103.2494305481289
 20
148.9299159969812
 30
0.000000000000000
 40
4.000000000000000
100
AcDbArc
 50
216.2620999999983
 51
306.2621000000017
  0
LINE
  5
DA
100
AcDbEntity
  8
A1
  6
CONTINUOUS
 62
7
100
AcDbLine
 10
100.9072894636338
 20
152.1227791541368
 30
0.000000000000000
 11
100.8835107719260
 21
152.1551948395888
 31
0.000000000000000
  0
LINE
  5
DB
100
AcDbEntity
  8
A1
  6
CONTINUOUS
 62
7
100
AcDbLine
 10
100.0565673909731
 20
146.5877749124863
 30
0.000000000000000
 11
100.0241517055211
 21
146.5639962207786
 31
0.000000000000000
  0
LINE
  5
DC
100
AcDbEntity
  8
A1
  6
CONTINUOUS
 62
7
100
AcDbLine
 10
105.5915716326240
 20
145.7370528398256
 30
0.000000000000000
 11
105.6153503243318
 21
145.7046371543736
 31
0.000000000000000
  0
LINE
  5
DD
100
AcDbEntity
  8
A1
  6
CONTINUOUS
 62
7
100
AcDbLine
 10
106.4422937052846
 20
151.2720570814761
 30
0.000000000000000
 11
106.4747093907365
 21
151.2958357731839
 31
0.000000000000000
  0
LINE
  5
DE
100
AcDbEntity
  8
A1
  6
CONTINUOUS
 62
7
100
AcDbLine
 10
100.2920308278722
 20
152.9615145502384
 30
0.000000000000000
 11
99.60030607054118
 21
153.9044904056195
 31
0.000000000000000
  0
LINE
  5
DF
100
AcDbEntity
  8
A1
  6
CONTINUOUS
 62
7
100
AcDbLine
 10
108.2240049567716
 20
152.5790404745627
 30
0.000000000000000
 11
107.2810291013907
 21
151.8873157172317
 31
0.000000000000000
  0
LINE
  5
E0
100
AcDbEntity
  8
A1
  6
CONTINUOUS
 62
7
100
AcDbLine
 10
98.27485613948882
 20
145.2807915193970
 30
0.000000000000000
 11
99.21783199486931
 21
145.9725162767278
 31
0.000000000000000
  0
LINE
  5
E1
100
AcDbEntity
  8
A1
  6
CONTINUOUS
 62
7
100
AcDbLine
 10
106.2068302683824
 20
144.8983174437217
 30
0.000000000000000
 11
106.8985550257131
 21
143.9553415883412
 31
0.000000000000000
  0
LINE
  5
E2
100
AcDbEntity
  8
A1
  6
CONTINUOUS
 62
7
100
AcDbLine
 10
100.8835107719263
 20
152.1551948395890
 30
0.000000000000000
 11
100.2920308278756
 21
152.9615145502410
 31
0.000000000000000
  0
LINE
  5
E3
100
AcDbEntity
  8
A1
  6
CONTINUOUS
 62
7
100
AcDbLine
 10
107.2810291013883
 20
151.8873157172350
 30
0.000000000000000
 11
106.4747093907364
 21
151.2958357731843
 31
0.000000000000000
  0
LINE
  5
E4
100
AcDbEntity
  8
A1
  6
CONTINUOUS
 62
7
100
AcDbLine
 10
105.6153503243315
 20
145.7046371543736
 30
0.000000000000000
 11
106.2068302683822
 21
144.8983174437215
 31
0.000000000000000
  0
LINE
  5
E5
100
AcDbEntity
  8
A1
  6
CONTINUOUS
 62
7
100
AcDbLine
 10
99.21783199486946
 20
145.9725162767275
 30
0.000000000000000
 11
100.0241517055214
 21
146.5639962207782
 31
0.000000000000000
  0
ARC
  5
E6
100
AcDbEntity
  8
A1
  6
CONTINUOUS
 62
7
100
AcDbCircle
 10
1833.891150974331
 20
7694.520284834479
 30
0.000000000000000
 40
7742.244324247553
100
AcDbArc
 50
257.5423438497217
 51
257.6143329366876
  0
ARC
  5
E7
100
AcDbEntity
  8
A1
  6
CONTINUOUS
 62
7
100
AcDbCircle
 10
232.2494305482116
 20
171.9299159972663
 30
0.000000000000000
 40
4.300000000000000
100
AcDbArc
 50
309.2796893174266
 51
631.6732146095223
  0
CIRCLE
  5
E8
100
AcDbEntity
  8
A1
  6
CONTINUOUS
 62
7
100
AcDbCircle
 10
232.2494305482116
 20
125.9299159972663
 30
0.000000000000000
 40
4.300000000000000
  0
LINE
  5
E9
100
AcDbEntity
  8
A4
  6
CENTER
 62
1
100
AcDbLine
 10
238.0494305482116
 20
125.9299159972663
 30
0.000000000000000
 11
226.4494305482116
 21
125.9299159972663
 31
0.000000000000000
  0
LINE
  5
EA
100
AcDbEntity
  8
A4
  6
CENTER
 62
1
100
AcDbLine
 10
232.2494305482116
 20
131.7299159972663
 30
0.000000000000000
 11
232.2494305482116
 21
120.1299159972663
 31
0.000000000000000
  0
LINE
  5
EB
100
AcDbEntity
  8
A4
  6
CENTER
 62
1
100
AcDbLine
 10
238.0494305482116
 20
171.9299159972663
 30
0.000000000000000
 11
226.4494305482116
 21
171.9299159972663
 31
0.000000000000000
  0
LINE
  5
EC
100
AcDbEntity
  8
A4
  6
CENTER
 62
1
100
AcDbLine
 10
232.2494305482116
 20
177.7299159972663
 30
0.000000000000000
 11
232.2494305482116
 21
166.1299159972663
 31
0.000000000000000
  0
LINE
  5
ED
100
AcDbEntity
  8
A4
  6
CENTER
 62
1
100
AcDbLine
 10
224.7494305482117
 20
148.9299159972663
 30
0.000000000000000
 11
243.2494305482809
 21
148.9299159971970
 31
0.000000000000000
  0
LINE
  5
EE
100
AcDbEntity
  8
A4
  6
CENTER
 62
1
100
AcDbLine
 10
235.2494305482809
 20
140.9299159971970
 30
0.000000000000000
 11
235.2494305482809
 21
156.9299159971970
 31
0.000000000000000
  0
LINE
  5
EF
100
AcDbEntity
  8
A4
  6
CENTER
 62
1
100
AcDbLine
 10
152.7494305482120
 20
148.9299159970981
 30
0.000000000000000
 11
166.7494305482120
 21
148.9299159970981
 31
0.000000000000000
  0
LINE
  5
F0
100
AcDbEntity
  8
A1
  6
CONTINUOUS
 62
7
100
AcDbLine
 10
237.7564398841485
 20
132.6187049047056
 30
0.000000000000000
 11
240.7943154860945
 21
112.8535490650412
 31
0.000000000000000
  0
LINE
  5
F1
100
AcDbEntity
  8
A1
  6
CONTINUOUS
 62
7
100
AcDbLine
 10
240.1400601904820
 20
130.2755836234743
 30
0.000000000000000
 11
242.7711033353271
 21
113.1573784720098
 31
0.000000000000000
  0
LINE
  5
F2
100
AcDbEntity
  8
A1
  6
CONTINUOUS
 62
7
100
AcDbLine
 10
154.2494305482120
 20
116.9299125059481
 30
0.000000000000000
 11
154.2494305482120
 21
180.9299108055059
 31
0.000000000000000
  0
LINE
  5
F3
100
AcDbEntity
  8
A1
  6
CONTINUOUS
 62
7
100
AcDbLine
 10
159.2494305482120
 20
118.9299125059481
 30
0.000000000000000
 11
159.2494305482120
 21
178.9299108055059
 31
0.000000000000000
  0
LINE
  5
F4
100
AcDbEntity
  8
A1
  6
CONTINUOUS
 62
7
100
AcDbLine
 10
160.7494305482120
 20
135.2443802576511
 30
0.000000000000000
 11
160.7494305482120
 21
165.8715707330979
 31
0.000000000000000
  0
LINE
  5
F5
100
AcDbEntity
  8
A1
  6
CONTINUOUS
 62
7
100
AcDbLine
 10
162.7494305482120
 20
136.3162992366047
 30
0.000000000000000
 11
162.7494305482120
 21
165.8715707330981
 31
0.000000000000000
  0
LINE
  5
F6
100
AcDbEntity
  8
A1
  6
CONTINUOUS
 62
7
100
AcDbLine
 10
174.2494305482116
 20
116.8071235232639
 30
0.000000000000000
 11
174.2494305482116
 21
148.3834882764651
 31
0.000000000000000
  0
LINE
  5
F7
100
AcDbEntity
  8
A1
  6
CONTINUOUS
 62
7
100
AcDbLine
 10
97.70454561038075
 20
112.8535490647963
 30
0.000000000000000
 11
99.22369216870723
 21
122.7374852106270
 31
0.000000000000000
  0
LINE
  5
F8
100
AcDbEntity
  8
A1
  6
CONTINUOUS
 62
7
100
AcDbLine
 10
95.72775776114831
 20
113.1573784717648
 30
0.000000000000000
 11
97.94067123991751
 21
127.5551305520498
 31
0.000000000000000
  0
LINE
  5
F9
100
AcDbEntity
  8
A4
  6
CENTER
 62
1
100
AcDbLine
 10
160.7494305482120
 20
171.9299159971673
 30
0.000000000000000
 11
152.7494305482120
 21
171.9299159971673
 31
0.000000000000000
  0
LINE
  5
FA
100
AcDbEntity
  8
A4
  6
CENTER
 62
1
100
AcDbLine
 10
160.7494305482120
 20
125.9299159971673
 30
0.000000000000000
 11
152.7494305482120
 21
125.9299159971673
 31
0.000000000000000
  0
LINE
  5
FB
100
AcDbEntity
  8
A4
  6
CENTER
 62
1
100
AcDbLine
 10
112.4636441106266
 20
171.9299159969715
 30
0.000000000000000
 11
100.0352169858856
 21
171.9299159969715
 31
0.000000000000000
  0
LINE
  5
FC
100
AcDbEntity
  8
A4
  6
CENTER
 62
1
100
AcDbLine
 10
106.2494305482561
 20
178.1441295593420
 30
0.000000000000000
 11
106.2494305482561
 21
165.7157024346010
 31
0.000000000000000
  0
LINE
  5
FD
100
AcDbEntity
  8
A4
  6
CENTER
 62
1
100
AcDbLine
 10
103.2494305482561
 20
158.4299159969715
 30
0.000000000000000
 11
103.2494305482561
 21
139.4299159969715
 31
0.000000000000000
  0
LINE
  5
FE
100
AcDbEntity
  8
A4
  6
CENTER
 62
1
100
AcDbLine
 10
112.4636441106266
 20
125.9299159969715
 30
0.000000000000000
 11
100.0352169858856
 21
125.9299159969715
 31
0.000000000000000
  0
LINE
  5
FF
100
AcDbEntity
  8
A4
  6
CENTER
 62
1
100
AcDbLine
 10
106.2494305482561
 20
132.1441295593420
 30
0.000000000000000
 11
106.2494305482561
 21
119.7157024346010
 31
0.000000000000000
  0
LINE
  5
100
100
AcDbEntity
  8
A4
  6
CENTER
 62
1
100
AcDbLine
 10
93.74943054825602
 20
148.9299159969715
 30
0.000000000000000
 11
112.7494305482561
 21
148.9299159969715
 31
0.000000000000000
  0
LINE
  5
101
100
AcDbEntity
  8
A1
  6
CONTINUOUS
 62
7
100
AcDbLine
 10
107.1808347087666
 20
137.4565764618436
 30
0.000000000000000
 11
108.4761515474226
 21
151.7792308478436
 31
0.000000000000000
  0
ARC
  5
102
100
AcDbEntity
  8
A1
  6
CONTINUOUS
 62
7
100
AcDbCircle
 10
108.1767700804599
 20
137.3665057373537
 30
0.000000000000000
 40
2.200000000000000
100
AcDbArc
 50
174.8323241694605
 51
207.0862276947982
  0
ARC
  5
103
100
AcDbEntity
  8
A1
  6
CONTINUOUS
 62
7
100
AcDbCircle
 10
108.1767700804599
 20
137.3665057373535
 30
0.000000000000000
 40
1.000000000000000
100
AcDbArc
 50
174.8323241694607
 51
207.0862276947988
  0
ARC
  5
104
100
AcDbEntity
  8
A1
  6
CONTINUOUS
 62
7
100
AcDbCircle
 10
119.2176632507726
 20
146.0546730500375
 30
0.000000000000000
 40
20.00000000000000
100
AcDbArc
 50
176.3114015294423
 51
180.2353624892191
  0
ARC
  5
105
100
AcDbEntity
  8
A1
  6
CONTINUOUS
 62
7
100
AcDbCircle
 10
119.2176632507726
 20
146.0546730500375
 30
0.000000000000000
 40
21.20000000000000
100
AcDbArc
 50
176.3114015294423
 51
182.7420369348050
  0
LINE
  5
106
100
AcDbEntity
  8
A1
  6
CONTINUOUS
 62
7
100
AcDbLine
 10
99.66351715577397
 20
172.2673853441618
 30
0.000000000000000
 11
98.06158032126936
 21
147.4185480736305
 31
0.000000000000000
  0
LINE
  5
107
100
AcDbEntity
  8
A1
  6
CONTINUOUS
 62
7
100
AcDbLine
 10
98.12588072690552
 20
143.8023662628433
 30
0.000000000000000
 11
99.53121389169958
 21
124.6299159969715
 31
0.000000000000000
  0
LINE
  5
108
100
AcDbEntity
  8
A1
  6
CONTINUOUS
 62
7
100
AcDbLine
 10
99.40375175136683
 20
142.7839209927420
 30
0.000000000000000
 11
100.7280031242425
 21
124.7176401833139
 31
0.000000000000000
  0
LINE
  5
109
100
AcDbEntity
  8
A1
  6
CONTINUOUS
 62
7
100
AcDbLine
 10
100.7280031242425
 20
124.7176401833138
 30
0.000000000000000
 11
99.53121389169959
 21
124.6299159969715
 31
0.000000000000000
  0
LINE
  5
10A
100
AcDbEntity
  8
A1
  6
CONTINUOUS
 62
7
100
AcDbLine
 10
108.5371361921114
 20
152.9591224415532
 30
0.000000000000000
 11
108.4782777449419
 21
151.8027407655079
 31
0.000000000000000
  0
LINE
  5
10B
100
AcDbEntity
  8
A1
  6
CONTINUOUS
 62
7
100
AcDbLine
 10
109.1507233810540
 20
165.0141632397843
 30
0.000000000000000
 11
108.5757390374747
 21
153.7175458313639
 31
0.000000000000000
  0
LINE
  5
10C
100
AcDbEntity
  8
A1
  6
CONTINUOUS
 62
7
100
AcDbLine
 10
107.2146502030921
 20
151.1533470151488
 30
0.000000000000000
 11
106.4422937052846
 21
151.2720570814760
 31
0.000000000000000
  0
LINE
  5
10D
100
AcDbEntity
  8
A1
  6
CONTINUOUS
 62
7
100
AcDbLine
 10
109.5905152173280
 20
150.7881800304403
 30
0.000000000000000
 11
108.4030289162525
 21
150.9706949415772
 31
0.000000000000000
  0
LINE
  5
10E
100
AcDbEntity
  8
A1
  6
CONTINUOUS
 62
7
100
AcDbLine
 10
106.7092733231478
 20
145.5652637214683
 30
0.000000000000000
 11
105.5915716326241
 21
145.7370528398258
 31
0.000000000000000
  0
LINE
  5
10F
100
AcDbEntity
  8
A1
  6
CONTINUOUS
 62
7
100
AcDbLine
 10
108.7397931446674
 20
145.2531757887900
 30
0.000000000000000
 11
107.8976520363081
 21
145.3826116478965
 31
0.000000000000000
  0
LINE
  5
110
100
AcDbEntity
  8
A1
  6
CONTINUOUS
 62
7
100
AcDbLine
 10
105.9857122627347
 20
137.5646613312318
 30
0.000000000000000
 11
106.4240919172039
 21
142.4119389187995
 31
0.000000000000000
  0
LINE
  5
111
100
AcDbEntity
  8
A1
  6
CONTINUOUS
 62
7
100
AcDbLine
 10
106.6004298350228
 20
144.3617530312200
 30
0.000000000000000
 11
107.2810291013907
 21
151.8873157172317
 31
0.000000000000000
  0
ARC
  5
112
100
AcDbEntity
  8
A1
  6
CONTINUOUS
 62
7
100
AcDbCircle
 10
103.2494305482561
 20
148.9299159969715
 30
0.000000000000000
 40
8.000000000000000
100
AcDbArc
 50
303.0466275691516
 51
407.7028276104389
  0
ARC
  5
113
100
AcDbEntity
  8
A1
  6
CONTINUOUS
 62
7
100
AcDbCircle
 10
103.2494305482561
 20
148.9299159969715
 30
0.000000000000000
 40
8.000000000000000
100
AcDbArc
 50
58.10607594600891
 51
115.3228203618377
  0
ARC
  5
114
100
AcDbEntity
  8
A1
  6
CONTINUOUS
 62
7
100
AcDbCircle
 10
103.2494305482561
 20
148.9299159969715
 30
0.000000000000000
 40
8.000000000000000
100
AcDbArc
 50
125.7301933105449
 51
130.8860712189315
  0
LINE
  5
115
100
AcDbEntity
  8
A1
  6
CONTINUOUS
 62
7
100
AcDbLine
 10
99.67558648891253
 20
153.8018663255141
 30
0.000000000000000
 11
99.25909444935439
 21
147.3413476005969
 31
0.000000000000000
  0
LINE
  5
116
100
AcDbEntity
  8
A1
  6
CONTINUOUS
 62
7
100
AcDbLine
 10
100.8610312838591
 20
172.1901848711282
 30
0.000000000000000
 11
99.77005164717794
 21
155.2671858655298
 31
0.000000000000000
  0
LINE
  5
117
100
AcDbEntity
  8
A1
  6
CONTINUOUS
 62
7
100
AcDbLine
 10
97.75906795159047
 20
152.6066562051725
 30
0.000000000000000
 11
98.38979395169613
 21
152.5097145396083
 31
0.000000000000000
  0
LINE
  5
118
100
AcDbEntity
  8
A1
  6
CONTINUOUS
 62
7
100
AcDbLine
 10
99.58048697104958
 20
152.3267067605528
 30
0.000000000000000
 11
100.9072894636338
 21
152.1227791541368
 31
0.000000000000000
  0
LINE
  5
119
100
AcDbEntity
  8
A1
  6
CONTINUOUS
 62
7
100
AcDbLine
 10
96.90834587892974
 20
147.0716519635221
 30
0.000000000000000
 11
98.03446614184199
 21
146.8985689228768
 31
0.000000000000000
  0
LINE
  5
11A
100
AcDbEntity
  8
A1
  6
CONTINUOUS
 62
7
100
AcDbLine
 10
99.22856824311332
 20
146.7150371729067
 30
0.000000000000000
 11
100.0565673909732
 21
146.5877749124863
 31
0.000000000000000
  0
ARC
  5
11B
100
AcDbEntity
  8
A1
  6
CONTINUOUS
 62
7
100
AcDbCircle
 10
103.2494305482561
 20
148.9299159969715
 30
0.000000000000000
 40
8.000000000000000
100
AcDbArc
 50
229.1139177560685
 51
230.9106017929815
  0
ARC
  5
11C
100
AcDbEntity
  8
A1
  6
CONTINUOUS
 62
7
100
AcDbCircle
 10
103.2494305482561
 20
148.9299159969715
 30
0.000000000000000
 40
8.000000000000000
100
AcDbArc
 50
241.8086437160235
 51
292.7760776463252
  0
LINE
  5
11D
100
AcDbEntity
  8
A1
  6
CONTINUOUS
 62
7
100
AcDbLine
 10
105.6518856803405
 20
147.5917421150260
 30
0.000000000000000
 11
103.8043751398866
 21
146.2364913181990
 31
0.000000000000000
  0
LINE
  5
11E
100
AcDbEntity
  8
A1
  6
CONTINUOUS
 62
7
100
AcDbLine
 10
102.6944859755772
 20
151.6233406796486
 30
0.000000000000000
 11
100.8469754067558
 21
150.2680898620125
 31
0.000000000000000
  0
LINE
  5
11F
100
AcDbEntity
  8
A1
  6
CONTINUOUS
 62
7
100
AcDbLine
 10
100.5560058655790
 20
148.3749714242929
 30
0.000000000000000
 11
101.9112566832152
 21
146.5274608554713
 31
0.000000000000000
  0
LINE
  5
120
100
AcDbEntity
  8
A1
  6
CONTINUOUS
 62
7
100
AcDbLine
 10
104.5876044302015
 20
151.3323711290561
 30
0.000000000000000
 11
105.9428552270285
 21
149.4848605886020
 31
0.000000000000000
  0
ARC
  5
121
100
AcDbEntity
  8
A1
  6
CONTINUOUS
 62
7
100
AcDbCircle
 10
103.2494305482561
 20
148.9299159969715
 30
0.000000000000000
 40
2.750000000000000
100
AcDbArc
 50
150.8820775116659
 51
191.6421224511956
  0
ARC
  5
122
100
AcDbEntity
  8
A1
  6
CONTINUOUS
 62
7
100
AcDbCircle
 10
103.2494305482561
 20
148.9299159969715
 30
0.000000000000000
 40
2.750000000000000
100
AcDbArc
 50
240.8820775116688
 51
281.6421228543542
  0
ARC
  5
123
100
AcDbEntity
  8
A1
  6
CONTINUOUS
 62
7
100
AcDbCircle
 10
103.2494305482561
 20
148.9299159969715
 30
0.000000000000000
 40
2.750000000000000
100
AcDbArc
 50
330.8820771085112
 51
371.6421228543512
  0
ARC
  5
124
100
AcDbEntity
  8
A1
  6
CONTINUOUS
 62
7
100
AcDbCircle
 10
103.2494305482561
 20
148.9299159969715
 30
0.000000000000000
 40
2.750000000000000
100
AcDbArc
 50
60.88207710851403
 51
101.6421224511995
  0
LINE
  5
125
100
AcDbEntity
  8
A1
  6
CONTINUOUS
 62
7
100
AcDbLine
 10
103.4389659617726
 20
151.6733766449530
 30
0.000000000000000
 11
103.7005940579914
 21
151.8652952718565
 31
0.000000000000000
  0
LINE
  5
126
100
AcDbEntity
  8
A1
  6
CONTINUOUS
 62
7
100
AcDbLine
 10
103.7005940579913
 20
151.8652952718566
 30
0.000000000000000
 11
103.8925126848755
 21
151.6036671756643
 31
0.000000000000000
  0
LINE
  5
127
100
AcDbEntity
  8
A1
  6
CONTINUOUS
 62
7
100
AcDbLine
 10
105.9928911962184
 20
148.7403805831770
 30
0.000000000000000
 11
106.1848098230044
 21
148.4787524871185
 31
0.000000000000000
  0
LINE
  5
128
100
AcDbEntity
  8
A1
  6
CONTINUOUS
 62
7
100
AcDbLine
 10
106.1848098230045
 20
148.4787524871186
 30
0.000000000000000
 11
105.9231817269438
 21
148.2868338603310
 31
0.000000000000000
  0
LINE
  5
129
100
AcDbEntity
  8
A1
  6
CONTINUOUS
 62
7
100
AcDbLine
 10
103.0598951344830
 20
146.1864553490077
 30
0.000000000000000
 11
102.7982670382663
 21
145.9945367221057
 31
0.000000000000000
  0
LINE
  5
12A
100
AcDbEntity
  8
A1
  6
CONTINUOUS
 62
7
100
AcDbLine
 10
102.7982670382664
 20
145.9945367221057
 30
0.000000000000000
 11
102.6063484113450
 21
146.2561648183488
 31
0.000000000000000
  0
LINE
  5
12B
100
AcDbEntity
  8
A1
  6
CONTINUOUS
 62
7
100
AcDbLine
 10
100.5059699002731
 20
149.1194514104667
 30
0.000000000000000
 11
100.3140512732535
 21
149.3810795068438
 31
0.000000000000000
  0
LINE
  5
12C
100
AcDbEntity
  8
A1
  6
CONTINUOUS
 62
7
100
AcDbLine
 10
100.3140512732534
 20
149.3810795068437
 30
0.000000000000000
 11
100.5756793696285
 21
149.5729981338619
 31
0.000000000000000
  0
LINE
  5
12D
100
AcDbEntity
  8
A5
  6
PHANTOM
 62
6
100
AcDbLine
 10
237.5931291102074
 20
168.0717406662193
 30
0.000000000000000
 11
241.4694440548140
 21
184.9515960591983
 31
0.000000000000000
  0
LINE
  5
12E
100
AcDbEntity
  8
A5
  6
PHANTOM
 62
6
100
AcDbLine
 10
241.4694440548139
 20
184.9515960591982
 30
0.000000000000000
 11
243.4187069755278
 21
184.5039644406434
 31
0.000000000000000
  0
LINE
  5
12F
100
AcDbEntity
  8
A5
  6
PHANTOM
 62
6
100
AcDbLine
 10
238.9430065256767
 20
165.0140137218159
 30
0.000000000000000
 11
243.4187075869657
 21
184.5039643002318
 31
0.000000000000000
  0
SPLINE
  5
130
100
AcDbEntity
  8
A5
  6
PHANTOM
 62
6
100
AcDbSpline
210
0.000000000000000
220
0.000000000000000
230
1.000000000000000
 70
     8
 71
     3
 72
    23
 73
    19
 74
     0
 42
1.000000000000000e-07
 43
1.000000000000000e-07
 12
0.9998422622616090
 22
-0.01776092890531800
 32
0.000000000000000
 13
0.2241547535008976
 23
0.9745535626548190
 33
0.000000000000000
 40
0.000000000000000
 40
0.000000000000000
 40
0.000000000000000
 40
0.000000000000000
 40
0.3295619766893667
 40
0.6591270962650235
 40
0.9983964339692053
 40
1.337669791992448
 40
1.667179426967875
 40
1.996693228387137
 40
2.335503333470164
 40
2.674318197464538
 40
3.008851002781707
 40
3.343387942344111
 40
3.687208374752585
 40
4.031032533059968
 40
4.403721720152232
 40
4.776414273788101
 40
5.161651519285352
 40
5.546889710050777
 40
5.546889710050777
 40
5.546889710050777
 40
5.546889710050777
 10
235.5306968609669
 20
164.4273638277393
 30
0.000000000000000
 10
235.6405335250764
 20
164.4254127187934
 30
0.000000000000000
 10
235.8604823898383
 20
164.4306674647778
 30
0.000000000000000
 10
236.1917222146735
 20
164.4664906881948
 30
0.000000000000000
 10
236.5219329258270
 20
164.5310097808053
 30
0.000000000000000
 10
236.8454233724069
 20
164.6234073804123
 30
0.000000000000000
 10
237.1568932166199
 20
164.7416056400573
 30
0.000000000000000
 10
237.4575015132145
 20
164.8848288412554
 30
0.000000000000000
 10
237.7478219790119
 20
165.0541905489903
 30
0.000000000000000
 10
238.0244185589755
 20
165.2480670417149
 30
0.000000000000000
 10
238.2828659075685
 20
165.4633057779467
 30
0.000000000000000
 10
238.5241777175686
 20
165.6999777185076
 30
0.000000000000000
 10
238.7471393633420
 20
165.9581519580290
 30
0.000000000000000
 10
238.9555193871394
 20
166.2441288860367
 30
0.000000000000000
 10
239.1433978872485
 20
166.5553797202605
 30
0.000000000000000
 10
239.3089886394789
 20
166.8944814486667
 30
0.000000000000000
 10
239.4445852753338
 20
167.2511507592712
 30
0.000000000000000
 10
239.5136083477438
 20
167.4989639510030
 30
0.000000000000000
 10
239.5423926716405
 20
167.6241090347634
 30
0.000000000000000
  0
SPLINE
  5
131
100
AcDbEntity
  8
A5
  6
PHANTOM
 62
6
100
AcDbSpline
210
0.000000000000000
220
0.000000000000000
230
1.000000000000000
 70
     8
 71
     3
 72
     9
 73
     5
 74
     0
 42
1.000000000000000e-07
 43
1.000000000000000e-07
 12
0.4212835250039006
 22
0.9069289892599954
 32
0.000000000000000
 13
0.2236260861859591
 23
0.9746750092093635
 33
0.000000000000000
 40
0.000000000000000
 40
0.000000000000000
 40
0.000000000000000
 40
0.000000000000000
 40
0.6480640599851742
 40
1.297573210167191
 40
1.297573210167191
 40
1.297573210167191
 40
1.297573210167191
 10
238.5228754500795
 20
163.7882265052318
 30
0.000000000000000
 10
238.6138816872858
 20
163.9841425328644
 30
0.000000000000000
 10
238.7758700510057
 20
164.3861490375215
 30
0.000000000000000
 10
238.8945907959443
 20
164.8029936095041
 30
0.000000000000000
 10
238.9430065256766
 20
165.0140137218159
 30
0.000000000000000
  0
LINE
  5
132
100
AcDbEntity
  8
A5
  6
PHANTOM
 62
6
100
AcDbLine
 10
236.2252452695537
 20
162.1151345197682
 30
0.000000000000000
 11
236.0137895696852
 21
161.1943265650979
 31
0.000000000000000
  0
SPLINE
  5
133
100
AcDbEntity
  8
A5
  6
PHANTOM
 62
6
100
AcDbSpline
210
0.000000000000000
220
0.000000000000000
230
1.000000000000000
 70
     8
 71
     3
 72
    13
 73
     9
 74
     0
 42
1.000000000000000e-07
 43
1.000000000000000e-07
 12
-0.7094967127291056
 22
-0.7047087445348552
 32
0.000000000000000
 13
-0.9526507669638704
 23
-0.3040666311921996
 33
0.000000000000000
 40
0.000000000000000
 40
0.000000000000000
 40
0.000000000000000
 40
0.000000000000000
 40
0.3154904748712180
 40
0.6328745677494811
 40
0.9490760097717084
 40
1.265273742438776
 40
1.589627480919971
 40
1.913976787342362
 40
1.913976787342362
 40
1.913976787342362
 40
1.913976787342362
 10
237.7453089370010
 20
162.6645602005153
 30
0.000000000000000
 10
237.6706957853948
 20
162.5904505683623
 30
0.000000000000000
 10
237.5152411173250
 20
162.4474793373667
 30
0.000000000000000
 10
237.2663030872456
 20
162.2517591205127
 30
0.000000000000000
 10
237.0026479807137
 20
162.0759103907566
 30
0.000000000000000
 10
236.7240732326435
 20
161.9199806706316
 30
0.000000000000000
 10
236.4314607935367
 20
161.7856518803878
 30
0.000000000000000
 10
236.2280173614608
 20
161.7115674369619
 30
0.000000000000000
 10
236.1250201562850
 20
161.6786928366508
 30
0.000000000000000
  0
ARC
  5
134
100
AcDbEntity
  8
A5
  6
PHANTOM
 62
6
100
AcDbCircle
 10
235.0260985437654
 20
165.8729560833669
 30
0.000000000000000
 40
3.944512108463647
100
AcDbArc
 50
270.7702866612893
 51
287.6982410218735
  0
SPLINE
  5
135
100
AcDbEntity
  8
A5
  6
PHANTOM
 62
6
100
AcDbSpline
210
0.000000000000000
220
0.000000000000000
230
1.000000000000000
 70
     8
 71
     3
 72
    12
 73
     8
 74
     0
 42
1.000000000000000e-07
 43
1.000000000000000e-07
 12
0.7085152424783701
 22
0.7056955088241921
 32
0.000000000000000
 13
0.4220191203548893
 23
0.9065869302257852
 33
0.000000000000000
 40
0.000000000000000
 40
0.000000000000000
 40
0.000000000000000
 40
0.000000000000000
 40
0.3326575956942814
 40
0.6681388689883675
 40
0.9811490224800929
 40
1.280138307047628
 40
1.373250948403831
 40
1.373250948403831
 40
1.373250948403831
 40
1.373250948403831
 10
237.7453089370010
 20
162.6645602005153
 30
0.000000000000000
 10
237.8238732626929
 20
162.7428118576012
 30
0.000000000000000
 10
237.9747275289858
 20
162.9071541991611
 30
0.000000000000000
 10
238.1728666548649
 20
163.1678963931419
 30
0.000000000000000
 10
238.3423951801966
 20
163.4347451507250
 30
0.000000000000000
 10
238.4533265693431
 20
163.6422005853173
 30
0.000000000000000
 10
238.5097770117464
 20
163.7600882706677
 30
0.000000000000000
 10
238.5228754500795
 20
163.7882265052318
 30
0.000000000000000
  0
ARC
  5
136
100
AcDbEntity
  8
A5
  6
PHANTOM
 62
6
100
AcDbCircle
 10
235.2494305483308
 20
148.9299159971649
 30
0.000000000000000
 40
13.00000000000000
100
AcDbArc
 50
90.75061129806652
 51
167.0667467347998
  0
ARC
  5
137
100
AcDbEntity
  8
A5
  6
PHANTOM
 62
6
100
AcDbCircle
 10
235.2494305483308
 20
148.9299159971649
 30
0.000000000000000
 40
15.50000000000000
100
AcDbArc
 50
88.96024147163818
 51
153.7239323807562
  0
SPLINE
  5
138
100
AcDbEntity
  8
A5
  6
PHANTOM
 62
6
100
AcDbSpline
210
0.000000000000000
220
0.000000000000000
230
1.000000000000000
 70
     8
 71
     3
 72
    15
 73
    11
 74
     0
 42
1.000000000000000e-07
 43
1.000000000000000e-07
 12
-0.2258636983192446
 22
-0.9741589140287488
 32
0.000000000000000
 13
-0.9998677795692856
 23
0.01626110011920900
 33
0.000000000000000
 40
0.000000000000000
 40
0.000000000000000
 40
0.000000000000000
 40
0.000000000000000
 40
0.3515403625610908
 40
0.7030678188235133
 40
1.054793190029666
 40
1.406483099690128
 40
1.754179280374890
 40
2.101833669280690
 40
2.437296768145645
 40
2.772733031747653
 40
2.772733031747653
 40
2.772733031747653
 40
2.772733031747653
 10
237.5931291102071
 20
168.0717406662193
 30
0.000000000000000
 10
237.5666623747415
 20
167.9575886069427
 30
0.000000000000000
 10
237.4948712839754
 20
167.7331901102094
 30
0.000000000000000
 10
237.3329094957193
 20
167.4192758462497
 30
0.000000000000000
 10
237.1195668205707
 20
167.1376128241980
 30
0.000000000000000
 10
236.8631963948295
 20
166.8962606860205
 30
0.000000000000000
 10
236.5698200558208
 20
166.7040613056762
 30
0.000000000000000
 10
236.2531802490618
 20
166.5661970170203
 30
0.000000000000000
 10
235.9214992319844
 20
166.4865052341604
 30
0.000000000000000
 10
235.6971318272413
 20
166.4715957835717
 30
0.000000000000000
 10
235.5853345232165
 20
166.4734139711271
 30
0.000000000000000
  0
ARC
  5
139
100
AcDbEntity
  8
A5
  6
PHANTOM
 62
6
100
AcDbCircle
 10
235.2494305483308
 20
148.9299159971649
 30
0.000000000000000
 40
17.54671344277210
100
AcDbArc
 50
88.90309624954274
 51
156.5442923313602
  0
SPLINE
  5
13A
100
AcDbEntity
  8
A5
  6
PHANTOM
 62
6
100
AcDbSpline
210
0.000000000000000
220
0.000000000000000
230
1.000000000000000
 70
     8
 71
     3
 72
    11
 73
     7
 74
     0
 42
1.000000000000000e-07
 43
1.000000000000000e-07
 12
0.1903534083523937
 22
0.9817156308874928
 32
0.000000000000000
 13
0.3981374946316691
 23
0.9173257520468496
 33
0.000000000000000
 40
0.000000000000000
 40
0.000000000000000
 40
0.000000000000000
 40
0.000000000000000
 40
0.7914465647295599
 40
1.590206842745151
 40
2.402401426320837
 40
3.219441277696507
 40
3.219441277696507
 40
3.219441277696507
 40
3.219441277696507
 10
218.2003042426470
 20
152.8451025643139
 30
0.000000000000000
 10
218.2505224263553
 20
153.1040943855164
 30
0.000000000000000
 10
218.3654433390807
 20
153.6218663908845
 30
0.000000000000000
 10
218.5812736138014
 20
154.3934298606613
 30
0.000000000000000
 10
218.8416129812815
 20
155.1601582833343
 30
0.000000000000000
 10
219.0442048165218
 20
155.6643795891294
 30
0.000000000000000
 10
219.1526362163355
 20
155.9142101545012
 30
0.000000000000000
  0
SPLINE
  5
13B
100
AcDbEntity
  8
A5
  6
PHANTOM
 62
6
100
AcDbSpline
210
0.000000000000000
220
0.000000000000000
230
1.000000000000000
 70
     8
 71
     3
 72
    11
 73
     7
 74
     0
 42
1.000000000000000e-07
 43
1.000000000000000e-07
 12
-0.4428537055749757
 22
-0.8965938854679507
 32
0.000000000000000
 13
-0.1871013389170457
 23
-0.9823406175942750
 33
0.000000000000000
 40
0.000000000000000
 40
0.000000000000000
 40
0.000000000000000
 40
0.000000000000000
 40
0.8909745823171505
 40
1.785877403215460
 40
2.694870356963930
 40
3.604741470919019
 40
3.604741470919019
 40
3.604741470919019
 40
3.604741470919019
 10
221.3510234996525
 20
155.7917147051751
 30
0.000000000000000
 10
221.2194997012018
 20
155.5254339176374
 30
0.000000000000000
 10
220.9734459944750
 20
154.9828122153552
 30
0.000000000000000
 10
220.6572606611686
 20
154.1413214798716
 30
0.000000000000000
 10
220.3969452205338
 20
153.2742759774985
 30
0.000000000000000
 10
220.2630306000937
 20
152.6823807284242
 30
0.000000000000000
 10
220.2062845655394
 20
152.3844462777529
 30
0.000000000000000
  0
ARC
  5
13C
100
AcDbEntity
  8
A5
  6
PHANTOM
 62
6
100
AcDbCircle
 10
235.4851047190755
 20
149.4909168273787
 30
0.000000000000000
 40
17.60723968905409
100
AcDbArc
 50
169.0180131436128
 51
178.7131638077765
  0
SPLINE
  5
13D
100
AcDbEntity
  8
A5
  6
PHANTOM
 62
6
100
AcDbSpline
210
0.000000000000000
220
0.000000000000000
230
1.000000000000000
 70
     8
 71
     3
 72
    11
 73
     7
 74
     0
 42
1.000000000000000e-07
 43
1.000000000000000e-07
 12
-0.1869239677129144
 22
-0.9823743839771168
 32
0.000000000000000
 13
0.01152078085294761
 23
-0.9999336336016995
 33
0.000000000000000
 40
0.000000000000000
 40
0.000000000000000
 40
0.000000000000000
 40
0.000000000000000
 40
0.8136418419050404
 40
1.623216093954848
 40
2.433916775170910
 40
3.237491704625319
 40
3.237491704625319
 40
3.237491704625319
 40
3.237491704625319
 10
220.2062845655394
 20
152.3844462777529
 30
0.000000000000000
 10
220.1555881784107
 20
152.1180126433464
 30
0.000000000000000
 10
220.0676718309463
 20
151.5838637152722
 30
0.000000000000000
 10
219.9757962929059
 20
150.7774537899399
 30
0.000000000000000
 10
219.9245038544870
 20
149.9708039462053
 30
0.000000000000000
 10
219.9173306034765
 20
149.4324974139524
 30
0.000000000000000
 10
219.9204165403636
 20
149.1646568809255
 30
0.000000000000000
  0
ARC
  5
13E
100
AcDbEntity
  8
A5
  6
PHANTOM
 62
6
100
AcDbCircle
 10
239.9276615580443
 20
147.8556001126332
 30
0.000000000000000
 40
17.80000000000013
100
AcDbArc
 50
167.0667467347175
 51
241.4225370359429
  0
SPLINE
  5
13F
100
AcDbEntity
  8
A5
  6
PHANTOM
 62
6
100
AcDbSpline
210
0.000000000000000
220
0.000000000000000
230
1.000000000000000
 70
     8
 71
     3
 72
    24
 73
    20
 74
     0
 42
1.000000000000000e-07
 43
1.000000000000000e-07
 12
0.01179663685047672
 22
-0.9999304172589518
 32
0.000000000000000
 13
0.8166700215156197
 23
-0.5771049089712506
 33
0.000000000000000
 40
0.000000000000000
 40
0.000000000000000
 40
0.000000000000000
 40
0.000000000000000
 40
0.9965371271563505
 40
1.994844928735737
 40
2.994111029633749
 40
3.993536093732885
 40
5.200321329633569
 40
6.413965577893726
 40
7.632768369619987
 40
8.855016710094214
 40
10.07906749880277
 40
11.30342972141473
 40
12.49481252938067
 40
13.69525622024258
 40
14.90250178262609
 40
16.11428710250248
 40
17.32843640441007
 40
18.54294956294972
 40
19.15015686915572
 40
19.15015686915572
 40
19.15015686915572
 40
19.15015686915572
 10
219.9204165403636
 20
149.1646568809255
 30
0.000000000000000
 10
219.9243351358959
 20
148.8325009524684
 30
0.000000000000000
 10
219.9485176766607
 20
148.1676739852568
 30
0.000000000000000
 10
220.0340127466310
 20
147.1729197754148
 30
0.000000000000000
 10
220.1684281506711
 20
146.1825914534554
 30
0.000000000000000
 10
220.3640994017323
 20
145.1317374317130
 30
0.000000000000000
 10
220.6347751260192
 20
144.0236467578787
 30
0.000000000000000
 10
220.9931678222557
 20
142.8639712527105
 30
0.000000000000000
 10
221.4216124738952
 20
141.7228013744598
 30
0.000000000000000
 10
221.9184557102094
 20
140.6059012552810
 30
0.000000000000000
 10
222.4819990858054
 20
139.5190266388356
 30
0.000000000000000
 10
223.1050178370459
 20
138.4770428451994
 30
0.000000000000000
 10
223.7861593518596
 20
137.4816737928140
 30
0.000000000000000
 10
224.5214687321526
 20
136.5328673343519
 30
0.000000000000000
 10
225.3154614390333
 20
135.6235532203841
 30
0.000000000000000
 10
226.1644348106194
 20
134.7589169231296
 30
0.000000000000000
 10
227.0645751327627
 20
133.9440642762081
 30
0.000000000000000
 10
227.8547311739042
 20
133.3107733102947
 30
0.000000000000000
 10
228.3453803196082
 20
132.9528497809434
 30
0.000000000000000
 10
228.5106763208828
 20
132.8360423418852
 30
0.000000000000000
  0
SPLINE
  5
140
100
AcDbEntity
  8
A5
  6
PHANTOM
 62
6
100
AcDbSpline
210
0.000000000000000
220
0.000000000000000
230
1.000000000000000
 70
     8
 71
     3
 72
    27
 73
    23
 74
     0
 42
1.000000000000000e-07
 43
1.000000000000000e-07
 12
-0.02195974339281292
 22
-0.9997588557600920
 32
0.000000000000000
 13
0.8347741127521431
 23
-0.5505925723057317
 33
0.000000000000000
 40
0.000000000000000
 40
0.000000000000000
 40
0.000000000000000
 40
0.000000000000000
 40
1.225740415426370
 40
2.453913748147056
 40
3.683165537240447
 40
4.912159639040525
 40
6.213838639415771
 40
7.518952992430415
 40
8.825795942814052
 40
9.838049534315049
 40
10.85333436887769
 40
11.87075408381882
 40
12.88943695386231
 40
14.17275575141809
 40
15.46104856582986
 40
16.75227833344180
 40
17.75471056546776
 40
18.76064185632762
 40
19.76893979114741
 40
20.77849760832952
 40
21.67163384623868
 40
22.56641992798258
 40
22.56641992798258
 40
22.56641992798258
 40
22.56641992798258
 10
217.8823056570060
 20
149.8863338834173
 30
0.000000000000000
 10
217.8733333420097
 20
149.4778522716887
 30
0.000000000000000
 10
217.8777754451123
 20
148.6594047749741
 30
0.000000000000000
 10
217.9521501561870
 20
147.4333483455910
 30
0.000000000000000
 10
218.0936484893138
 20
146.2120870219695
 30
0.000000000000000
 10
218.3063198585815
 20
144.9763124799841
 30
0.000000000000000
 10
218.5949842475186
 20
143.7299677745073
 30
0.000000000000000
 10
218.9630307084637
 20
142.4776605059688
 30
0.000000000000000
 10
219.3709569071878
 20
141.3397765650556
 30
0.000000000000000
 10
219.8003460458224
 20
140.3142137961693
 30
0.000000000000000
 10
220.2345346268322
 20
139.3963960463397
 30
0.000000000000000
 10
220.7108688965060
 20
138.4972999385208
 30
0.000000000000000
 10
221.2730059429381
 20
137.5438310768225
 30
0.000000000000000
 10
221.9338111988717
 20
136.5452172706387
 30
0.000000000000000
 10
222.7051440784383
 20
135.5133410157034
 30
0.000000000000000
 10
223.4742014450934
 20
134.5991127720800
 30
0.000000000000000
 10
224.2249279840825
 20
133.7948219259313
 30
0.000000000000000
 10
224.9435187775576
 20
133.0909398670879
 30
0.000000000000000
 10
225.6946170261749
 20
132.4183003176257
 30
0.000000000000000
 10
226.4460926249171
 20
131.8038999912371
 30
0.000000000000000
 10
227.1926816174712
 20
131.2448145666435
 30
0.000000000000000
 10
227.6837049132185
 20
130.9067250623793
 30
0.000000000000000
 10
227.9326863323821
 20
130.7425042055757
 30
0.000000000000000
  0
SPLINE
  5
141
100
AcDbEntity
  8
A5
  6
PHANTOM
 62
6
100
AcDbSpline
210
0.000000000000000
220
0.000000000000000
230
1.000000000000000
 70
     8
 71
     3
 72
    21
 73
    17
 74
     0
 42
1.000000000000000e-07
 43
1.000000000000000e-07
 12
-0.2758674569176947
 22
-0.9611956857015684
 32
0.000000000000000
 13
-0.8345771583562964
 23
0.5508910661383197
 33
0.000000000000000
 40
0.000000000000000
 40
0.000000000000000
 40
0.000000000000000
 40
0.000000000000000
 40
0.08134187504662750
 40
0.1731059712403568
 40
0.2890240849853128
 40
0.4372001395532708
 40
0.6198757394012260
 40
0.8359188269757094
 40
1.077519865985217
 40
1.348582275348747
 40
1.644401870518067
 40
1.955550037612963
 40
2.285343618023557
 40
2.628102654282066
 40
2.930167214960705
 40
3.237512163279434
 40
3.237512163279434
 40
3.237512163279434
 40
3.237512163279434
 10
230.8712982418400
 20
129.8648396860363
 30
0.000000000000000
 10
230.8638183831033
 20
129.8387778662491
 30
0.000000000000000
 10
230.8374093550451
 20
129.7845204435041
 30
0.000000000000000
 10
230.7529547123413
 20
129.7312966651933
 30
0.000000000000000
 10
230.6373682824526
 20
129.7014788818148
 30
0.000000000000000
 10
230.4878656181398
 20
129.6938241508194
 30
0.000000000000000
 10
230.3058352944842
 20
129.7080005427186
 30
0.000000000000000
 10
230.0953155613392
 20
129.7448588228639
 30
0.000000000000000
 10
229.8597603737204
 20
129.8048498887420
 30
0.000000000000000
 10
229.6029540515228
 20
129.8870310318384
 30
0.000000000000000
 10
229.3292092465411
 20
129.9909518982237
 30
0.000000000000000
 10
229.0430215826203
 20
130.1161261584608
 30
0.000000000000000
 10
228.7484865079352
 20
130.2604488558623
 30
0.000000000000000
 10
228.4627910733655
 20
130.4153095964064
 30
0.000000000000000
 10
228.1896121302456
 20
130.5770001212768
 30
0.000000000000000
 10
228.0181873569164
 20
130.6860663434919
 30
0.000000000000000
 10
227.9326863323821
 20
130.7425042055757
 30
0.000000000000000
  0
SPLINE
  5
142
100
AcDbEntity
  8
A5
  6
PHANTOM
 62
6
100
AcDbSpline
210
0.000000000000000
220
0.000000000000000
230
1.000000000000000
 70
     8
 71
     3
 72
    21
 73
    17
 74
     0
 42
1.000000000000000e-07
 43
1.000000000000000e-07
 12
0.8163771032793647
 22
-0.5775191990221629
 32
0.000000000000000
 13
0.2338804581304430
 23
0.9722653605376763
 33
0.000000000000000
 40
0.000000000000000
 40
0.000000000000000
 40
0.000000000000000
 40
0.000000000000000
 40
0.3770237937154394
 40
0.7454408160355578
 40
1.098809026518425
 40
1.434679110688691
 40
1.748832481557478
 40
2.034969796597232
 40
2.277499683432588
 40
2.491070274330206
 40
2.672852985100978
 40
2.821528474084961
 40
2.941065388672842
 40
3.035208392003075
 40
3.094990136456450
 40
3.152908310218826
 40
3.152908310218826
 40
3.152908310218826
 40
3.152908310218826
 10
228.5106763208828
 20
132.8360423418852
 30
0.000000000000000
 10
228.6132741850764
 20
132.7634628487656
 30
0.000000000000000
 10
228.8192629073847
 20
132.6243397616956
 30
0.000000000000000
 10
229.1311675709593
 20
132.4321316397200
 30
0.000000000000000
 10
229.4392442412371
 20
132.2604552870532
 30
0.000000000000000
 10
229.7391413187650
 20
132.1120620575257
 30
0.000000000000000
 10
230.0255369688191
 20
131.9878039848252
 30
0.000000000000000
 10
230.2891692228664
 20
131.8902223285918
 30
0.000000000000000
 10
230.5263866191910
 20
131.8193035637568
 30
0.000000000000000
 10
230.7340988188390
 20
131.7728827487886
 30
0.000000000000000
 10
230.9141317140298
 20
131.7487814914772
 30
0.000000000000000
 10
231.0646285338700
 20
131.7467846864460
 30
0.000000000000000
 10
231.1846766378760
 20
131.7651818205931
 30
0.000000000000000
 10
231.2700139900031
 20
131.8022696533834
 30
0.000000000000000
 10
231.3209607790144
 20
131.8533612568429
 30
0.000000000000000
 10
231.3362888553777
 20
131.8905861490491
 30
0.000000000000000
 10
231.3408041650489
 20
131.9093567604140
 30
0.000000000000000
  0
LINE
  5
143
100
AcDbEntity
  8
A5
  6
PHANTOM
 62
6
100
AcDbLine
 10
230.8712982418397
 20
129.8648396860362
 30
0.000000000000000
 11
231.3408041650486
 21
131.9093567604138
 31
0.000000000000000
  0
LINE
  5
144
100
AcDbEntity
  8
A5
  6
PHANTOM
 62
6
100
AcDbLine
 10
231.4130943870225
 20
132.2241527743293
 30
0.000000000000000
 11
232.2949770883695
 21
136.0644115471666
 31
0.000000000000000
  0
LINE
  5
145
100
AcDbEntity
  8
A5
  6
PHANTOM
 62
6
100
AcDbLine
 10
231.4130943870225
 20
132.2241527743295
 30
0.000000000000000
 11
231.3408041650488
 21
131.9093567604141
 31
0.000000000000000
  0
ARC
  5
146
100
AcDbEntity
  8
A5
  6
PHANTOM
 62
6
100
AcDbCircle
 10
238.1427658505112
 20
134.7215166915021
 30
0.000000000000000
 40
6.000000000000000
100
AcDbArc
 50
101.5100821621919
 51
167.0667467344946
  0
ARC
  5
147
100
AcDbEntity
  8
A5
  6
PHANTOM
 62
6
100
AcDbCircle
 10
235.2494305483308
 20
148.9299159971649
 30
0.000000000000000
 40
8.500000000000000
100
AcDbArc
 50
281.5100821621920
 51
407.0667467344946
  0
LINE
  5
148
100
AcDbEntity
  8
A5
  6
PHANTOM
 62
6
100
AcDbLine
 10
236.6007606768365
 20
159.2823995478273
 30
0.000000000000000
 11
241.0391707559719
 21
155.1531714417072
 31
0.000000000000000
  0
ARC
  5
149
100
AcDbEntity
  8
A5
  6
PHANTOM
 62
6
100
AcDbCircle
 10
237.9630524903990
 20
160.7466949465431
 30
0.000000000000000
 40
2.000000000000000
100
AcDbArc
 50
167.0667467344947
 51
227.0667467344947
  0
ARC
  5
14A
100
AcDbEntity
  8
A1
  6
CONTINUOUS
 62
7
100
AcDbCircle
 10
229.2494426705642
 20
121.9299246284165
 30
0.000000000000000
 40
5.000012122369524
100
AcDbArc
 50
180.0001493973909
 51
289.5797965105111
  0
ARC
  5
14B
100
AcDbEntity
  8
A2
  6
CONTINUOUS
 62
4
100
AcDbCircle
 10
232.6137459867043
 20
148.5248151273431
 30
0.000000000000000
 40
1.145412728988863
100
AcDbArc
 50
134.2755777920008
 51
175.2753393917331
  0
ARC
  5
14C
100
AcDbEntity
  8
A2
  6
CONTINUOUS
 62
4
100
AcDbCircle
 10
235.8165717661179
 20
145.2399576110233
 30
0.000000000000000
 40
5.733264282363177
100
AcDbArc
 50
63.20022220799910
 51
134.2755777920008
  0
ARC
  5
14D
100
AcDbEntity
  8
A2
  6
CONTINUOUS
 62
4
100
AcDbCircle
 10
237.8851151098577
 20
149.3350168671109
 30
0.000000000000000
 40
1.145412728988864
100
AcDbArc
 50
340.9875545546281
 51
423.2002222079992
  0
ARC
  5
14E
100
AcDbEntity
  8
A2
  6
CONTINUOUS
 62
4
100
AcDbCircle
 10
232.6137459867043
 20
148.5248151273431
 30
0.000000000000000
 40
1.145412728988863
100
AcDbArc
 50
188.7379000000000
 51
243.2002222080521
  0
ARC
  5
14F
100
AcDbEntity
  8
A2
  6
CONTINUOUS
 62
4
100
AcDbCircle
 10
234.6822893304429
 20
152.6198743834379
 30
0.000000000000000
 40
5.733264282363177
100
AcDbArc
 50
243.2002222080521
 51
314.2755777919480
  0
ARC
  5
150
100
AcDbEntity
  8
A2
  6
CONTINUOUS
 62
4
100
AcDbCircle
 10
237.8851151098577
 20
149.3350168671109
 30
0.000000000000000
 40
1.145412728988864
100
AcDbArc
 50
314.2755777919480
 51
324.4367392796171
  0
LINE
  5
151
100
AcDbEntity
  8
A2
  6
CONTINUOUS
 62
4
100
AcDbLine
 10
232.2089265301209
 20
149.6958767286251
 30
0.000000000000000
 11
232.4999684992684
 21
147.8022870528669
 31
0.000000000000000
  0
LINE
  5
152
100
AcDbEntity
  8
A2
  6
CONTINUOUS
 62
4
100
AcDbLine
 10
232.9579548019468
 20
147.7481010664553
 30
0.000000000000000
 11
232.7088179317237
 21
149.3690459998855
 31
0.000000000000000
  0
ARC
  5
153
100
AcDbEntity
  8
A2
  6
CONTINUOUS
 62
4
100
AcDbCircle
 10
232.9284583118550
 20
149.4028044057090
 30
0.000000000000000
 40
0.2222195458280301
100
AcDbArc
 50
124.7522659996366
 51
188.7379000000000
  0
ARC
  5
154
100
AcDbEntity
  8
A2
  6
CONTINUOUS
 62
4
100
AcDbCircle
 10
235.8165717661179
 20
145.2399576110233
 30
0.000000000000000
 40
5.288825190707117
100
AcDbArc
 50
121.6818535565378
 51
124.7522659996366
  0
ARC
  5
155
100
AcDbEntity
  8
A2
  6
CONTINUOUS
 62
4
100
AcDbCircle
 10
233.0622113895904
 20
149.7028080389895
 30
0.000000000000000
 40
0.04444390916560601
100
AcDbArc
 50
8.737900000000000
 51
121.6818535565375
  0
LINE
  5
156
100
AcDbEntity
  8
A2
  6
CONTINUOUS
 62
4
100
AcDbLine
 10
233.1061394656168
 20
149.7095597201543
 30
0.000000000000000
 11
233.4391947885792
 21
147.5426209694810
 31
0.000000000000000
  0
ARC
  5
157
100
AcDbEntity
  8
A2
  6
CONTINUOUS
 62
4
100
AcDbCircle
 10
233.3952667125528
 20
147.5358692883162
 30
0.000000000000000
 40
0.04444390916560601
100
AcDbArc
 50
255.7939464434623
 51
368.7379000000000
  0
ARC
  5
158
100
AcDbEntity
  8
A2
  6
CONTINUOUS
 62
4
100
AcDbCircle
 10
234.6822893304429
 20
152.6198743834379
 30
0.000000000000000
 40
5.288825190707117
100
AcDbArc
 50
252.7235340003634
 51
255.7939464434623
  0
ARC
  5
159
100
AcDbEntity
  8
A2
  6
CONTINUOUS
 62
4
100
AcDbCircle
 10
233.1775951820781
 20
147.7818594722789
 30
0.000000000000000
 40
0.2222195458280301
100
AcDbArc
 50
188.7379000000000
 51
252.7235340003634
  0
LINE
  5
15A
100
AcDbEntity
  8
A2
  6
CONTINUOUS
 62
4
100
AcDbLine
 10
234.0702084736474
 20
149.2882608804240
 30
0.000000000000000
 11
233.9412516566968
 21
150.1272852242722
 31
0.000000000000000
  0
ARC
  5
15B
100
AcDbEntity
  8
A2
  6
CONTINUOUS
 62
4
100
AcDbCircle
 10
233.8973235806703
 20
150.1205335431074
 30
0.000000000000000
 40
0.04444390916560601
100
AcDbArc
 50
8.737900000000000
 51
111.4668438731226
  0
ARC
  5
15C
100
AcDbEntity
  8
A2
  6
CONTINUOUS
 62
4
100
AcDbCircle
 10
235.8165717661179
 20
145.2399576110233
 30
0.000000000000000
 40
5.288825190707117
100
AcDbArc
 50
111.4668438731226
 51
112.0060189705562
  0
ARC
  5
15D
100
AcDbEntity
  8
A2
  6
CONTINUOUS
 62
4
100
AcDbCircle
 10
235.8165717661179
 20
145.2399576110233
 30
0.000000000000000
 40
5.288825190707117
100
AcDbArc
 50
112.0060189705562
 51
113.9954232904564
  0
ARC
  5
15E
100
AcDbEntity
  8
A2
  6
CONTINUOUS
 62
4
100
AcDbCircle
 10
233.7561673251953
 20
149.8686967806619
 30
0.000000000000000
 40
0.2222195458280301
100
AcDbArc
 50
113.9954232904564
 51
188.7379000000000
  0
LINE
  5
15F
100
AcDbEntity
  8
A2
  6
CONTINUOUS
 62
4
100
AcDbLine
 10
233.5365269450641
 20
149.8349383748383
 30
0.000000000000000
 11
233.8873688296575
 21
147.5522759380917
 31
0.000000000000000
  0
ARC
  5
160
100
AcDbEntity
  8
A2
  6
CONTINUOUS
 62
4
100
AcDbCircle
 10
234.1070092097887
 20
147.5860343439153
 30
0.000000000000000
 40
0.2222195458280301
100
AcDbArc
 50
188.7379000000000
 51
263.4803767095436
  0
ARC
  5
161
100
AcDbEntity
  8
A2
  6
CONTINUOUS
 62
4
100
AcDbCircle
 10
234.6822893304429
 20
152.6198743834379
 30
0.000000000000000
 40
5.288825190707117
100
AcDbArc
 50
263.4803767095436
 51
263.5316121239420
  0
ARC
  5
162
100
AcDbEntity
  8
A2
  6
CONTINUOUS
 62
4
100
AcDbCircle
 10
234.6822893304429
 20
152.6198743834379
 30
0.000000000000000
 40
5.288825190707117
100
AcDbArc
 50
263.5316121239420
 51
266.0089561268774
  0
ARC
  5
163
100
AcDbEntity
  8
A2
  6
CONTINUOUS
 62
4
100
AcDbCircle
 10
234.3172775625239
 20
147.3882110307876
 30
0.000000000000000
 40
0.04444390916560601
100
AcDbArc
 50
266.0089561268775
 51
368.7379000000000
  0
LINE
  5
164
100
AcDbEntity
  8
A2
  6
CONTINUOUS
 62
4
100
AcDbLine
 10
234.3612056385504
 20
147.3949627119524
 30
0.000000000000000
 11
234.2322488216010
 21
148.2339870557934
 31
0.000000000000000
  0
LINE
  5
165
100
AcDbEntity
  8
A2
  6
CONTINUOUS
 62
4
100
AcDbLine
 10
234.3606090163987
 20
150.3244285145971
 30
0.000000000000000
 11
234.8204097993740
 21
147.3328530449223
 31
0.000000000000000
  0
LINE
  5
166
100
AcDbEntity
  8
A2
  6
CONTINUOUS
 62
4
100
AcDbLine
 10
234.7941908508786
 20
150.4290239202944
 30
0.000000000000000
 11
235.2653894854198
 21
147.3632912625196
 31
0.000000000000000
  0
LINE
  5
167
100
AcDbEntity
  8
A2
  6
CONTINUOUS
 62
4
100
AcDbLine
 10
235.0297901681498
 20
148.8961575914034
 30
0.000000000000000
 11
234.5905094078869
 21
148.8286407797561
 31
0.000000000000000
  0
LINE
  5
168
100
AcDbEntity
  8
A2
  6
CONTINUOUS
 62
4
100
AcDbLine
 10
235.2334716111414
 20
150.4965407319417
 30
0.000000000000000
 11
235.7046702456826
 21
147.4308080741669
 31
0.000000000000000
  0
LINE
  5
169
100
AcDbEntity
  8
A2
  6
CONTINUOUS
 62
4
100
AcDbLine
 10
236.2666122749613
 20
149.6258449386607
 30
0.000000000000000
 11
236.1570196427419
 21
150.3388811977184
 31
0.000000000000000
  0
ARC
  5
16A
100
AcDbEntity
  8
A2
  6
CONTINUOUS
 62
4
100
AcDbCircle
 10
235.9373792626104
 20
150.3051227918947
 30
0.000000000000000
 40
0.2222195458280301
100
AcDbArc
 50
8.737900000000000
 51
88.63371728387490
  0
ARC
  5
16B
100
AcDbEntity
  8
A2
  6
CONTINUOUS
 62
4
100
AcDbCircle
 10
235.8165717661179
 20
145.2399576110233
 30
0.000000000000000
 40
5.288825190707117
100
AcDbArc
 50
88.63371728387499
 51
90.94497566457760
  0
ARC
  5
16C
100
AcDbEntity
  8
A2
  6
CONTINUOUS
 62
4
100
AcDbCircle
 10
235.7300804389299
 20
150.4836256284042
 30
0.000000000000000
 40
0.04444390916560601
100
AcDbArc
 50
90.94497566457729
 51
188.7379000000000
  0
LINE
  5
16D
100
AcDbEntity
  8
A2
  6
CONTINUOUS
 62
4
100
AcDbLine
 10
235.6861523629037
 20
150.4768739472396
 30
0.000000000000000
 11
236.1305510144456
 21
147.5855084821637
 31
0.000000000000000
  0
ARC
  5
16E
100
AcDbEntity
  8
A2
  6
CONTINUOUS
 62
4
100
AcDbCircle
 10
236.1744790904719
 20
147.5922601633284
 30
0.000000000000000
 40
0.04444390916560601
100
AcDbArc
 50
188.7379000000000
 51
286.5308243354227
  0
ARC
  5
16F
100
AcDbEntity
  8
A2
  6
CONTINUOUS
 62
4
100
AcDbCircle
 10
234.6822893304429
 20
152.6198743834379
 30
0.000000000000000
 40
5.288825190707117
100
AcDbArc
 50
286.5308243354223
 51
288.8420827161250
  0
ARC
  5
170
100
AcDbEntity
  8
A2
  6
CONTINUOUS
 62
4
100
AcDbCircle
 10
236.3186048750016
 20
147.8247764491559
 30
0.000000000000000
 40
0.2222195458280301
100
AcDbArc
 50
288.8420827161250
 51
368.7379000000000
  0
LINE
  5
171
100
AcDbEntity
  8
A2
  6
CONTINUOUS
 62
4
100
AcDbLine
 10
236.5382452551331
 20
147.8585348549796
 30
0.000000000000000
 11
236.3476324489380
 21
149.0987080263453
 31
0.000000000000000
  0
LINE
  5
172
100
AcDbEntity
  8
A2
  6
CONTINUOUS
 62
4
100
AcDbLine
 10
236.3476324489380
 20
149.0987080263453
 30
0.000000000000000
 11
236.1279920688067
 21
149.0649496205217
 31
0.000000000000000
  0
LINE
  5
173
100
AcDbEntity
  8
A2
  6
CONTINUOUS
 62
4
100
AcDbLine
 10
236.5649738056833
 20
150.6102164532768
 30
0.000000000000000
 11
236.9876848304568
 21
147.8599559506941
 31
0.000000000000000
  0
LINE
  5
174
100
AcDbEntity
  8
A2
  6
CONTINUOUS
 62
4
100
AcDbLine
 10
237.0360625826452
 20
150.4707825897200
 30
0.000000000000000
 11
237.1924355636399
 21
149.4533820297714
 31
0.000000000000000
  0
ARC
  5
175
100
AcDbEntity
  8
A2
  6
CONTINUOUS
 62
4
100
AcDbCircle
 10
237.4120759437712
 20
149.4871404355951
 30
0.000000000000000
 40
0.2222195458280311
100
AcDbArc
 50
188.7379000000000
 51
368.7379000000000
  0
LINE
  5
176
100
AcDbEntity
  8
A2
  6
CONTINUOUS
 62
4
100
AcDbLine
 10
237.6317163239027
 20
149.5208988414188
 30
0.000000000000000
 11
237.4874799074059
 21
150.4593359676748
 31
0.000000000000000
  0
LINE
  5
177
100
AcDbEntity
  8
A2
  6
CONTINUOUS
 62
4
100
AcDbLine
 10
237.4458343495950
 20
149.2675000554637
 30
0.000000000000000
 11
237.6077809181681
 21
148.2138363822392
 31
0.000000000000000
  0
LINE
  5
178
100
AcDbEntity
  8
A2
  6
CONTINUOUS
 62
4
100
AcDbLine
 10
238.0154865126802
 20
148.5136025412211
 30
0.000000000000000
 11
238.2270771082649
 21
150.4418595061866
 31
0.000000000000000
  0
LINE
  5
179
100
AcDbEntity
  8
A2
  6
CONTINUOUS
 62
4
100
AcDbLine
 10
239.0172337372495
 20
149.5090218476212
 30
0.000000000000000
 11
238.1094043341917
 21
149.3694897935028
 31
0.000000000000000
  0
SPLINE
  5
17A
100
AcDbEntity
  8
A1
  6
CONTINUOUS
 62
7
100
AcDbSpline
210
0.000000000000000
220
0.000000000000000
230
1.000000000000000
 70
     8
 71
     3
 72
     9
 73
     5
 74
     0
 42
1.000000000000000e-07
 43
1.000000000000000e-07
 12
-0.6192527721841543
 22
-0.7851916989770302
 32
0.000000000000000
 13
-0.6321138309606340
 23
-0.7748755414311859
 33
0.000000000000000
 40
0.000000000000000
 40
0.000000000000000
 40
0.000000000000000
 40
0.000000000000000
 40
0.8280431011018768
 40
1.659235454180972
 40
1.659235454180972
 40
1.659235454180972
 40
1.659235454180972
 10
305.8518696591927
 20
133.9129972316503
 30
0.000000000000000
 10
305.6809469972442
 20
133.6962730418568
 30
0.000000000000000
 10
305.3366634980186
 20
133.2634076602006
 30
0.000000000000000
 10
304.9888233443862
 20
132.8333950174733
 30
0.000000000000000
 10
304.8136872835294
 20
132.6187048092647
 30
0.000000000000000
  0
SPLINE
  5
17B
100
AcDbEntity
  8
A1
  6
CONTINUOUS
 62
7
100
AcDbSpline
210
0.000000000000000
220
0.000000000000000
230
1.000000000000000
 70
     8
 71
     3
 72
    12
 73
     8
 74
     0
 42
1.000000000000000e-07
 43
1.000000000000000e-07
 12
0.003126870679807325
 22
-0.9999951113279621
 32
0.000000000000000
 13
-0.6186521937352154
 23
-0.7856649815189485
 33
0.000000000000000
 40
0.000000000000000
 40
0.000000000000000
 40
0.000000000000000
 40
0.000000000000000
 40
0.3115193813733779
 40
0.6415086633567544
 40
0.9698982948325536
 40
1.312845533330934
 40
1.428502780373879
 40
1.428502780373879
 40
1.428502780373879
 40
1.428502780373879
 10
306.2946736892961
 20
135.2443801623094
 30
0.000000000000000
 10
306.2949983829026
 20
135.1405408761569
 30
0.000000000000000
 10
306.2811299762411
 20
134.9264223104360
 30
0.000000000000000
 10
306.2158420641508
 20
134.6085949603437
 30
0.000000000000000
 10
306.0984725765673
 20
134.2946872196005
 30
0.000000000000000
 10
305.9668540077965
 20
134.0660983397858
 30
0.000000000000000
 10
305.8757201957275
 20
133.9432865146038
 30
0.000000000000000
 10
305.8518696591927
 20
133.9129972316503
 30
0.000000000000000
  0
SPLINE
  5
17C
100
AcDbEntity
  8
A1
  6
CONTINUOUS
 62
7
100
AcDbSpline
210
0.000000000000000
220
0.000000000000000
230
1.000000000000000
 70
     8
 71
     3
 72
    13
 73
     9
 74
     0
 42
1.000000000000000e-07
 43
1.000000000000000e-07
 12
0.006041539015313901
 22
-0.9999817497362073
 32
0.000000000000000
 13
-0.6273196792553790
 23
-0.7787618506445142
 33
0.000000000000000
 40
0.000000000000000
 40
0.000000000000000
 40
0.000000000000000
 40
0.000000000000000
 40
0.2508543708908244
 40
0.5241441336124235
 40
0.8039062833361739
 40
1.101033745885226
 40
1.308330931506096
 40
1.518875617280813
 40
1.518875617280813
 40
1.518875617280813
 40
1.518875617280813
 10
306.2946736892961
 20
135.7485039281692
 30
0.000000000000000
 10
306.2951788714523
 20
135.6648873305917
 30
0.000000000000000
 10
306.2885128652829
 20
135.4900807545744
 30
0.000000000000000
 10
306.2556968917830
 20
135.2236918707346
 30
0.000000000000000
 10
306.1887112849548
 20
134.9475832614084
 30
0.000000000000000
 10
306.0928419820750
 20
134.7033032287385
 30
0.000000000000000
 10
305.9772184426186
 20
134.4943914217046
 30
0.000000000000000
 10
305.8958959341090
 20
134.3808542577891
 30
0.000000000000000
 10
305.8518696591926
 20
134.3261995347434
 30
0.000000000000000
  0
SPLINE
  5
17D
100
AcDbEntity
  8
A1
  6
CONTINUOUS
 62
7
100
AcDbSpline
210
0.000000000000000
220
0.000000000000000
230
1.000000000000000
 70
     8
 71
     3
 72
    15
 73
    11
 74
     0
 42
1.000000000000000e-07
 43
1.000000000000000e-07
 12
0.9760238174580991
 22
-0.2176637492912050
 32
0.000000000000000
 13
0.0009715113451420621
 23
-0.9999995280829808
 33
0.000000000000000
 40
0.000000000000000
 40
0.000000000000000
 40
0.000000000000000
 40
0.000000000000000
 40
0.3280494564915939
 40
0.6653174135746871
 40
0.9922951593715430
 40
1.327791611485103
 40
1.659739871445798
 40
2.000183209662486
 40
2.367450981549688
 40
2.746190459042341
 40
2.746190459042341
 40
2.746190459042341
 40
2.746190459042341
 10
304.7195329779587
 20
167.8698291839059
 30
0.000000000000000
 10
304.8262610055720
 20
167.8460276923550
 30
0.000000000000000
 10
305.0392392692414
 20
167.7800617043474
 30
0.000000000000000
 10
305.3354849455541
 20
167.6294400554104
 30
0.000000000000000
 10
305.6045575806285
 20
167.4303286324077
 30
0.000000000000000
 10
305.8359997850375
 20
167.1908739843972
 30
0.000000000000000
 10
306.0275515335219
 20
166.9130676518984
 30
0.000000000000000
 10
306.1756395774520
 20
166.5979939499249
 30
0.000000000000000
 10
306.2722651969744
 20
166.2470796531969
 30
0.000000000000000
 10
306.2945510393963
 20
165.9978170706759
 30
0.000000000000000
 10
306.2946736892961
 20
165.8715706377562
 30
0.000000000000000
  0
SPLINE
  5
17E
100
AcDbEntity
  8
A1
  6
CONTINUOUS
 62
7
100
AcDbSpline
210
0.000000000000000
220
0.000000000000000
230
1.000000000000000
 70
     8
 71
     3
 72
    27
 73
    23
 74
     0
 42
1.000000000000000e-07
 43
1.000000000000000e-07
 12
0.3232791834584532
 22
0.9463036349620779
 32
0.000000000000000
 13
0.5351340140978209
 23
0.8447671791423090
 33
0.000000000000000
 40
0.000000000000000
 40
0.000000000000000
 40
0.000000000000000
 40
0.000000000000000
 40
1.202231395360386
 40
2.380501779548168
 40
3.529947874193927
 40
4.645707684660890
 40
5.787048852674483
 40
6.886045724662504
 40
7.937227727409150
 40
8.715049440287824
 40
9.461664652712967
 40
10.17470099355977
 40
10.85178882897023
 40
11.64994697574153
 40
12.38751412217110
 40
13.06028303778446
 40
13.53497806268683
 40
13.96867682981469
 40
14.35982238914899
 40
14.70688824051695
 40
14.97615746155482
 40
15.21018479762061
 40
15.21018479762061
 40
15.21018479762061
 40
15.21018479762061
 10
293.7515813665617
 20
154.4544120772058
 30
0.000000000000000
 10
293.8811334945017
 20
154.8336373903708
 30
0.000000000000000
 10
294.1397307806022
 20
155.5838226687546
 30
0.000000000000000
 10
294.5291403769188
 20
156.6941724592106
 30
0.000000000000000
 10
294.9150713686470
 20
157.7751789749506
 30
0.000000000000000
 10
295.3031014417723
 20
158.8423452351271
 30
0.000000000000000
 10
295.6920664205454
 20
159.8912557290805
 30
0.000000000000000
 10
296.0805450182175
 20
160.9173614391890
 30
0.000000000000000
 10
296.4327252930325
 20
161.8276166776778
 30
0.000000000000000
 10
296.7481437575962
 20
162.6261220505294
 30
0.000000000000000
 10
297.0266091649247
 20
163.3180174377249
 30
0.000000000000000
 10
297.2970605715078
 20
163.9769254745202
 30
0.000000000000000
 10
297.5790355355736
 20
164.6496545462395
 30
0.000000000000000
 10
297.8703720047960
 20
165.3273012460694
 30
0.000000000000000
 10
298.1688138554438
 20
166.0002769862253
 30
0.000000000000000
 10
298.4310095960049
 20
166.5713265262204
 30
0.000000000000000
 10
298.6576016702778
 20
167.0472020634891
 30
0.000000000000000
 10
298.8492680955188
 20
167.4356891818355
 30
0.000000000000000
 10
299.0278186644641
 20
167.7831580620210
 30
0.000000000000000
 10
299.1874069980638
 20
168.0786709126987
 30
0.000000000000000
 10
299.3278629527190
 20
168.3249229100741
 30
0.000000000000000
 10
299.4157909570728
 20
168.4678360153557
 30
0.000000000000000
 10
299.4575362863253
 20
168.5337355528659
 30
0.000000000000000
  0
SPLINE
  5
17F
100
AcDbEntity
  8
A1
  6
CONTINUOUS
 62
7
100
AcDbSpline
210
0.000000000000000
220
0.000000000000000
230
1.000000000000000
 70
     8
 71
     3
 72
    11
 73
     7
 74
     0
 42
1.000000000000000e-07
 43
1.000000000000000e-07
 12
-0.3229258745211609
 22
-0.9464242598140800
 32
0.000000000000000
 13
-0.1582809547589932
 23
-0.9873941155185548
 33
0.000000000000000
 40
0.000000000000000
 40
0.000000000000000
 40
0.000000000000000
 40
0.000000000000000
 40
0.7215911984880906
 40
1.453742358325893
 40
2.200618254832357
 40
2.956848752741545
 40
2.956848752741545
 40
2.956848752741545
 40
2.956848752741545
 10
293.7515813665617
 20
154.4544120772058
 30
0.000000000000000
 10
293.6739078769555
 20
154.2267682719000
 30
0.000000000000000
 10
293.5271606631481
 20
153.7647568979627
 30
0.000000000000000
 10
293.3356519549802
 20
153.0564291418827
 30
0.000000000000000
 10
293.1718955420574
 20
152.3293468004530
 30
0.000000000000000
 10
293.0821350998522
 20
151.8362422853937
 30
0.000000000000000
 10
293.0422361381099
 20
151.5873431041900
 30
0.000000000000000
  0
SPLINE
  5
180
100
AcDbEntity
  8
A1
  6
CONTINUOUS
 62
7
100
AcDbSpline
210
0.000000000000000
220
0.000000000000000
230
1.000000000000000
 70
     8
 71
     3
 72
    21
 73
    17
 74
     0
 42
1.000000000000000e-07
 43
1.000000000000000e-07
 12
-0.9763387540183430
 22
0.2162467049515726
 32
0.000000000000000
 13
-0.5738484065404919
 23
-0.8189615414112268
 33
0.000000000000000
 40
0.000000000000000
 40
0.000000000000000
 40
0.000000000000000
 40
0.000000000000000
 40
0.3825930934008513
 40
0.7631383767127793
 40
1.134623560718071
 40
1.493877852190574
 40
1.836810973864439
 40
2.156504588847976
 40
2.441133832961956
 40
2.698384861256490
 40
2.923947096695585
 40
3.112550130848661
 40
3.270620469306706
 40
3.399098234956917
 40
3.489386570653133
 40
3.567341828104750
 40
3.567341828104750
 40
3.567341828104750
 40
3.567341828104750
 10
302.9380668685690
 20
168.2641980934829
 30
0.000000000000000
 10
302.8135533805334
 20
168.2917762587446
 30
0.000000000000000
 10
302.5649190995875
 20
168.3455554650224
 30
0.000000000000000
 10
302.1945185676505
 20
168.4220346400198
 30
0.000000000000000
 10
301.8309532751076
 20
168.4930516718332
 30
0.000000000000000
 10
301.4788482275793
 20
168.5572121020297
 30
0.000000000000000
 10
301.1427748104918
 20
168.6128357237497
 30
0.000000000000000
 10
300.8302222816549
 20
168.6578898474799
 30
0.000000000000000
 10
300.5448645517165
 20
168.6907413767740
 30
0.000000000000000
 10
300.2897484815920
 20
168.7105540451439
 30
0.000000000000000
 10
300.0658806450385
 20
168.7167073823936
 30
0.000000000000000
 10
299.8751323854249
 20
168.7077767506767
 30
0.000000000000000
 10
299.7180609528149
 20
168.6843925148254
 30
0.000000000000000
 10
299.5974717832148
 20
168.6470630318522
 30
0.000000000000000
 10
299.5103582300334
 20
168.5975945278803
 30
0.000000000000000
 10
299.4724477864153
 20
168.5550163388004
 30
0.000000000000000
 10
299.4575362863253
 20
168.5337355528659
 30
0.000000000000000
  0
SPLINE
  5
181
100
AcDbEntity
  8
A1
  6
CONTINUOUS
 62
7
100
AcDbSpline
210
0.000000000000000
220
0.000000000000000
230
1.000000000000000
 70
     8
 71
     3
 72
    11
 73
     7
 74
     0
 42
1.000000000000000e-07
 43
1.000000000000000e-07
 12
-0.1580885116579793
 22
-0.9874249452396953
 32
0.000000000000000
 13
0.0006548237890910968
 23
-0.9999997856029950
 33
0.000000000000000
 40
0.000000000000000
 40
0.000000000000000
 40
0.000000000000000
 40
0.000000000000000
 40
0.7888953822516714
 40
1.586961101536921
 40
2.399422826284652
 40
3.216599005548976
 40
3.216599005548976
 40
3.216599005548976
 40
3.216599005548976
 10
293.0422361381099
 20
151.5873431041900
 30
0.000000000000000
 10
293.0006643724985
 20
151.3276847776501
 30
0.000000000000000
 10
292.9276575679020
 20
150.8035801270094
 30
0.000000000000000
 10
292.8504986118397
 20
150.0072836766277
 30
0.000000000000000
 10
292.8046761368400
 20
149.1991524175708
 30
0.000000000000000
 10
292.7944953204956
 20
148.6558801824781
 30
0.000000000000000
 10
292.7946736892964
 20
148.3834881811234
 30
0.000000000000000
  0
ELLIPSE
  5
182
100
AcDbEntity
  8
A1
  6
CONTINUOUS
 62
7
100
AcDbEllipse
 10
306.2946736892961
 20
131.2847658559218
 30
0.000000000000000
 11
2.000000000000000
 21
0.000000000000000
 31
0.000000000000000
210
0.000000000000000
220
0.000000000000000
230
1.000000000000000
 40
0.9883936145804318
 41
2.463224831974251
 42
3.141592653589793
  0
ELLIPSE
  5
183
100
AcDbEntity
  8
A1
  6
CONTINUOUS
 62
7
100
AcDbEllipse
 10
306.2946736892958
 20
118.7839106571329
 30
0.000000000000000
 11
-6.000000000000000
 21
0.000000000000000
 31
0.000000000000000
210
0.000000000000000
220
0.000000000000000
230
1.000000000000000
 40
0.9883936145804318
 41
1.570796326794897
 42
3.141592653589793
  0
ELLIPSE
  5
184
100
AcDbEntity
  8
A1
  6
CONTINUOUS
 62
7
100
AcDbEllipse
 10
296.7946736892964
 20
116.8071234279221
 30
0.000000000000000
 11
-4.000000000000000
 21
0.000000000000000
 31
0.000000000000000
210
0.000000000000000
220
0.000000000000000
230
1.000000000000000
 40
0.9883936145804318
 41
0.000000000000000
 42
1.570796326794897
  0
ELLIPSE
  5
185
100
AcDbEntity
  8
A1
  6
CONTINUOUS
 62
7
100
AcDbEllipse
 10
311.2946736892958
 20
122.0529209078691
 30
0.000000000000000
 11
1.000000000000000
 21
0.000000000000000
 31
0.000000000000000
210
0.000000000000000
220
0.000000000000000
230
1.000000000000000
 40
0.9883936145804318
 41
0.000000000000000
 42
1.570796326794897
  0
ELLIPSE
  5
186
100
AcDbEntity
  8
A1
  6
CONTINUOUS
 62
7
100
AcDbEllipse
 10
306.2946736892961
 20
125.0181017515841
 30
0.000000000000000
 11
-2.000000000000000
 21
0.000000000000000
 31
0.000000000000000
210
0.000000000000000
220
0.000000000000000
230
1.000000000000000
 40
0.9883936145804318
 41
0.000000000000000
 42
1.570796326794897
  0
ELLIPSE
  5
187
100
AcDbEntity
  8
A1
  6
CONTINUOUS
 62
7
100
AcDbEllipse
 10
296.7946736892964
 20
117.1109528348907
 30
0.000000000000000
 11
4.000000000000000
 21
0.000000000000000
 31
0.000000000000000
210
0.000000000000000
220
0.000000000000000
230
1.000000000000000
 40
0.9883936145804318
 41
3.141592653589793
 42
4.712388980384690
  0
ELLIPSE
  5
188
100
AcDbEntity
  8
A1
  6
CONTINUOUS
 62
7
100
AcDbEllipse
 10
306.2946736892958
 20
119.0877400641015
 30
0.000000000000000
 11
6.000000000000000
 21
0.000000000000000
 31
0.000000000000000
210
0.000000000000000
220
0.000000000000000
230
1.000000000000000
 40
0.9883936145804318
 41
4.712388980384690
 42
0.000000000000000
  0
ARC
  5
189
100
AcDbEntity
  8
A1
  6
CONTINUOUS
 62
7
100
AcDbCircle
 10
306.2794323553127
 20
131.6989017268468
 30
0.000000000000000
 40
1.984758816559763
100
AcDbArc
 50
142.8789196858707
 51
179.9776841146751
  0
LINE
  5
18A
100
AcDbEntity
  8
A1
  6
CONTINUOUS
 62
7
100
AcDbLine
 10
304.8136872835294
 20
132.6187048092647
 30
0.000000000000000
 11
304.7374777193994
 21
132.5252454064620
 31
0.000000000000000
  0
LINE
  5
18B
100
AcDbEntity
  8
A1
  6
CONTINUOUS
 62
7
100
AcDbLine
 10
304.6968612108827
 20
132.8967064407834
 30
0.000000000000000
 11
304.7374777193995
 21
132.9486133209785
 31
0.000000000000000
  0
LINE
  5
18C
100
AcDbEntity
  8
A1
  6
CONTINUOUS
 62
7
100
AcDbLine
 10
304.7374777193995
 20
132.9486133209785
 30
0.000000000000000
 11
304.9169613470486
 21
133.1703605042545
 31
0.000000000000000
  0
LINE
  5
18D
100
AcDbEntity
  8
A1
  6
CONTINUOUS
 62
7
100
AcDbLine
 10
304.9169613470486
 20
133.1703605042545
 30
0.000000000000000
 11
305.8518696591927
 21
134.3261995347434
 31
0.000000000000000
  0
LINE
  5
18E
100
AcDbEntity
  8
A1
  6
CONTINUOUS
 62
7
100
AcDbLine
 10
306.2946736893277
 20
112.8535490649544
 30
0.000000000000000
 11
296.7946736893176
 21
112.8535490649044
 31
0.000000000000000
  0
LINE
  5
18F
100
AcDbEntity
  8
A1
  6
CONTINUOUS
 62
7
100
AcDbLine
 10
292.7946736892964
 20
116.8071234279221
 30
0.000000000000000
 11
292.7946736892958
 21
117.1109528348907
 31
0.000000000000000
  0
LINE
  5
190
100
AcDbEntity
  8
A1
  6
CONTINUOUS
 62
7
100
AcDbLine
 10
306.2946736893068
 20
123.0413145224232
 30
0.000000000000000
 11
311.2946736892905
 21
123.0413145224495
 31
0.000000000000000
  0
LINE
  5
191
100
AcDbEntity
  8
A1
  6
CONTINUOUS
 62
7
100
AcDbLine
 10
304.2946736892961
 20
125.0181017515841
 30
0.000000000000000
 11
304.2946736892960
 21
131.6996747619534
 31
0.000000000000000
  0
LINE
  5
192
100
AcDbEntity
  8
A1
  6
CONTINUOUS
 62
7
100
AcDbLine
 10
306.2946736893277
 20
113.1573783766189
 30
0.000000000000000
 11
296.7946736893176
 21
113.1573783765689
 31
0.000000000000000
  0
LINE
  5
193
100
AcDbEntity
  8
A1
  6
CONTINUOUS
 62
7
100
AcDbLine
 10
304.7195329779587
 20
167.8698291839059
 30
0.000000000000000
 11
302.9380668685690
 21
168.2641980934829
 31
0.000000000000000
  0
SPLINE
  5
194
100
AcDbEntity
  8
A1
  6
CONTINUOUS
 62
7
100
AcDbSpline
210
0.000000000000000
220
0.000000000000000
230
1.000000000000000
 70
     8
 71
     3
 72
    18
 73
    14
 74
     0
 42
1.000000000000000e-07
 43
1.000000000000000e-07
 12
-0.4319663003552705
 22
0.9018897467831266
 32
0.000000000000000
 13
-0.01940025485373553
 23
0.9998117973455010
 33
0.000000000000000
 40
0.000000000000000
 40
0.000000000000000
 40
0.000000000000000
 40
0.000000000000000
 40
0.01872779659875650
 40
0.6743438168565622
 40
1.321483003202146
 40
1.956155186573513
 40
2.591690832784638
 40
3.209733965695199
 40
3.803316905245101
 40
4.366137150932396
 40
4.810943505968939
 40
5.229540397056583
 40
5.617860682475696
 40
5.617860682475696
 40
5.617860682475696
 40
5.617860682475696
 10
309.7946736892961
 20
150.5192704200367
 30
0.000000000000000
 10
309.7919770969593
 20
150.5249005559475
 30
0.000000000000000
 10
309.6948567148313
 20
150.7276177345600
 30
0.000000000000000
 10
309.5036162128578
 20
151.1244334269114
 30
0.000000000000000
 10
309.2232048037883
 20
151.7061888755834
 30
0.000000000000000
 10
308.9487816852053
 20
152.2833956629200
 30
0.000000000000000
 10
308.6840775156533
 20
152.8544629170937
 30
0.000000000000000
 10
308.4355494960656
 20
153.4178672156702
 30
0.000000000000000
 10
308.2134296261272
 20
153.9661792927019
 30
0.000000000000000
 10
308.0348330012279
 20
154.4694632536542
 30
0.000000000000000
 10
307.9026359356494
 20
154.9263434070832
 30
0.000000000000000
 10
307.8167722958783
 20
155.3355090734203
 30
0.000000000000000
 10
307.7971848601302
 20
155.6046137147710
 30
0.000000000000000
 10
307.7946736892961
 20
155.7340294489412
 30
0.000000000000000
  0
SPLINE
  5
195
100
AcDbEntity
  8
A1
  6
CONTINUOUS
 62
7
100
AcDbSpline
210
0.000000000000000
220
0.000000000000000
230
1.000000000000000
 70
     8
 71
     3
 72
    18
 73
    14
 74
     0
 42
1.000000000000000e-07
 43
1.000000000000000e-07
 12
0.01940024714895117
 22
0.9998117974951128
 32
0.000000000000000
 13
0.4319662878406234
 23
0.9018897527785157
 33
0.000000000000000
 40
0.000000000000000
 40
0.000000000000000
 40
0.000000000000000
 40
0.000000000000000
 40
0.3883203658442321
 40
0.8069173309239352
 40
1.251723752648736
 40
1.814544068922761
 40
2.408127069992020
 40
3.026170255814024
 40
3.661705946695072
 40
4.296378166220003
 40
4.943517381683329
 40
5.599133424103586
 40
5.617861221231078
 40
5.617861221231078
 40
5.617861221231078
 40
5.617861221231078
 10
307.7946736892961
 20
142.1258034882738
 30
0.000000000000000
 10
307.7971848596529
 20
142.2552192492667
 30
0.000000000000000
 10
307.8167722952098
 20
142.5243239421270
 30
0.000000000000000
 10
307.9026359341150
 20
142.9334896838313
 30
0.000000000000000
 10
308.0348329993618
 20
143.3903699107349
 30
0.000000000000000
 10
308.2134296238659
 20
143.8936539421674
 30
0.000000000000000
 10
308.4355494939366
 20
144.4419660857380
 30
0.000000000000000
 10
308.6840775136691
 20
145.0053704422448
 30
0.000000000000000
 10
308.9487816834164
 20
145.5764377454818
 30
0.000000000000000
 10
309.2232048021019
 20
146.1536445733566
 30
0.000000000000000
 10
309.5036162110741
 20
146.7354000544329
 30
0.000000000000000
 10
309.6948567143916
 20
147.1322157653047
 30
0.000000000000000
 10
309.7919770969613
 20
147.3349329520926
 30
0.000000000000000
 10
309.7946736892961
 20
147.3405630881998
 30
0.000000000000000
  0
ARC
  5
196
100
AcDbEntity
  8
A1
  6
CONTINUOUS
 62
7
100
AcDbCircle
 10
309.7946736892961
 20
178.9299107101641
 30
0.000000000000000
 40
2.000000000000000
100
AcDbArc
 50
90.00000000000000
 51
180.0000000000001
  0
ARC
  5
197
100
AcDbEntity
  8
A1
  6
CONTINUOUS
 62
7
100
AcDbCircle
 10
307.2946736892961
 20
156.9299159018256
 30
0.000000000000000
 40
1.000000000000000
100
AcDbArc
 50
90.00000000000000
 51
180.0000000000000
  0
ARC
  5
198
100
AcDbEntity
  8
A1
  6
CONTINUOUS
 62
7
100
AcDbCircle
 10
307.2946736892961
 20
140.9299159018256
 30
0.000000000000000
 40
1.000000000000000
100
AcDbArc
 50
180.0000000000000
 51
270.0000000000000
  0
LINE
  5
199
100
AcDbEntity
  8
A1
  6
CONTINUOUS
 62
7
100
AcDbLine
 10
312.7946736892961
 20
180.9299107101641
 30
0.000000000000000
 11
309.7946736892961
 21
180.9299107101641
 31
0.000000000000000
  0
LINE
  5
19A
100
AcDbEntity
  8
A1
  6
CONTINUOUS
 62
7
100
AcDbLine
 10
311.9939271588461
 20
116.9299124106062
 30
0.000000000000000
 11
312.7946736892961
 21
116.9299124106062
 31
0.000000000000000
  0
LINE
  5
19B
100
AcDbEntity
  8
A1
  6
CONTINUOUS
 62
7
100
AcDbLine
 10
307.2946736892961
 20
139.9299159018256
 30
0.000000000000000
 11
307.7946736892961
 21
139.9299159018256
 31
0.000000000000000
  0
LINE
  5
19C
100
AcDbEntity
  8
A1
  6
CONTINUOUS
 62
7
100
AcDbLine
 10
307.7946736892961
 20
157.9299159018256
 30
0.000000000000000
 11
307.2946736892961
 21
157.9299159018256
 31
0.000000000000000
  0
LINE
  5
19D
100
AcDbEntity
  8
A1
  6
CONTINUOUS
 62
7
100
AcDbLine
 10
293.7946736892965
 20
131.5983229928137
 30
0.000000000000000
 11
303.2946736892964
 21
133.6904314918576
 31
0.000000000000000
  0
LINE
  5
19E
100
AcDbEntity
  8
A1
  6
CONTINUOUS
 62
7
100
AcDbLine
 10
292.7946736892958
 20
117.1109528348907
 30
0.000000000000000
 11
292.7946736892964
 21
148.3834881811233
 31
0.000000000000000
  0
LINE
  5
19F
100
AcDbEntity
  8
A1
  6
CONTINUOUS
 62
7
100
AcDbLine
 10
306.2946736892961
 20
135.2443801623094
 30
0.000000000000000
 11
306.2946736892961
 21
165.8715706377562
 31
0.000000000000000
  0
LINE
  5
1A0
100
AcDbEntity
  8
A1
  6
CONTINUOUS
 62
7
100
AcDbLine
 10
307.7946736892961
 20
155.7340294489412
 30
0.000000000000000
 11
307.7946736892961
 21
178.9299107101641
 31
0.000000000000000
  0
LINE
  5
1A1
100
AcDbEntity
  8
A1
  6
CONTINUOUS
 62
7
100
AcDbLine
 10
312.7946736892961
 20
116.9299124106062
 30
0.000000000000000
 11
312.7946736892961
 21
180.9299107101641
 31
0.000000000000000
  0
LINE
  5
1A2
100
AcDbEntity
  8
A1
  6
CONTINUOUS
 62
7
100
AcDbLine
 10
312.2946736892958
 20
118.7839107524370
 30
0.000000000000000
 11
312.2946736892958
 21
122.0529209078691
 31
0.000000000000000
  0
LINE
  5
1A3
100
AcDbEntity
  8
A1
  6
CONTINUOUS
 62
7
100
AcDbLine
 10
307.7946736892961
 20
123.0413145224311
 30
0.000000000000000
 11
307.7946736892961
 21
142.1258034882738
 31
0.000000000000000
  0
SPLINE
  5
1A4
100
AcDbEntity
  8
A1
  6
CONTINUOUS
 62
7
100
AcDbSpline
210
0.000000000000000
220
0.000000000000000
230
1.000000000000000
 70
     8
 71
     3
 72
    17
 73
    13
 74
     0
 42
1.000000000000000e-07
 43
1.000000000000000e-07
 12
0.3101748153394510
 22
0.9506795379775212
 32
0.000000000000000
 13
0.9904459297340509
 23
0.2242229844770236
 33
0.000000000000000
 40
0.000000000000000
 40
0.000000000000000
 40
0.000000000000000
 40
0.000000000000000
 40
0.3436692642553604
 40
0.7241617490218588
 40
1.104706127343516
 40
1.475299031773940
 40
1.848018484707552
 40
2.219958307430711
 40
2.583521436741304
 40
2.947490730440146
 40
3.309047883539896
 40
3.617285706774512
 40
3.619676459581536
 40
3.619676459581536
 40
3.619676459581536
 10
232.4382308679774
 20
63.85405540224781
 30
0.000000000000000
 10
232.4737633848368
 20
63.96296184803427
 30
0.000000000000000
 10
232.5603798701933
 20
64.18880427968293
 30
0.000000000000000
 10
232.7292165112558
 20
64.51691218543962
 30
0.000000000000000
 10
232.9388773159214
 20
64.83150693260022
 30
0.000000000000000
 10
233.1817583316727
 20
65.11774694394053
 30
0.000000000000000
 10
233.4520117904957
 20
65.37403798368484
 30
0.000000000000000
 10
233.7462623877016
 20
65.59857827026119
 30
0.000000000000000
 10
234.0605154787140
 20
65.78847887729975
 30
0.000000000000000
 10
234.3891188338804
 20
65.94405868809410
 30
0.000000000000000
 10
234.7138602176332
 20
66.06126309217792
 30
0.000000000000000
 10
234.9314620439403
 20
66.11566666159317
 30
0.000000000000000
 10
235.0332263430779
 20
66.13870466314462
 30
0.000000000000000
  0
SPLINE
  5
1A5
100
AcDbEntity
  8
A1
  6
CONTINUOUS
 62
7
100
AcDbSpline
210
0.000000000000000
220
0.000000000000000
230
1.000000000000000
 70
     8
 71
     3
 72
    17
 73
    13
 74
     0
 42
1.000000000000000e-07
 43
1.000000000000000e-07
 12
-0.9644592800439113
 22
-0.2642315218448630
 32
0.000000000000000
 13
-0.2898794027651093
 23
-0.9570631807000609
 33
0.000000000000000
 40
0.000000000000000
 40
0.000000000000000
 40
0.000000000000000
 40
0.000000000000000
 40
0.3534892069521331
 40
0.7358017062338728
 40
1.121221597510166
 40
1.508811661719189
 40
1.895021658623673
 40
2.260452435661742
 40
2.626104409924343
 40
2.989372170882216
 40
3.348399229877788
 40
3.512198477114649
 40
3.512198477114649
 40
3.512198477114649
 40
3.512198477114649
 10
235.1738104361538
 20
66.17231981572237
 30
0.000000000000000
 10
235.0601684541404
 20
66.14118548535281
 30
0.000000000000000
 10
234.8265423950218
 20
66.06523804483548
 30
0.000000000000000
 10
234.4831195141550
 20
65.91612063955746
 30
0.000000000000000
 10
234.1480294803637
 20
65.72475577079183
 30
0.000000000000000
 10
233.8342859690649
 20
65.49794994529725
 30
0.000000000000000
 10
233.5521073718843
 20
65.24258085373286
 30
0.000000000000000
 10
233.3056126910018
 20
64.96240551419940
 30
0.000000000000000
 10
233.0949360949712
 20
64.66376920557167
 30
0.000000000000000
 10
232.9185736618926
 20
64.34604298112176
 30
0.000000000000000
 10
232.8050565189320
 20
64.07267738848340
 30
0.000000000000000
 10
232.7504812608438
 20
63.90711214371252
 30
0.000000000000000
 10
232.7346539181897
 20
63.85485673419358
 30
0.000000000000000
  0
SPLINE
  5
1A6
100
AcDbEntity
  8
A1
  6
CONTINUOUS
 62
7
100
AcDbSpline
210
0.000000000000000
220
0.000000000000000
230
1.000000000000000
 70
     8
 71
     3
 72
    10
 73
     6
 74
     0
 42
1.000000000000000e-07
 43
1.000000000000000e-07
 12
-0.9777514162278749
 22
-0.2097669374913949
 32
0.000000000000000
 13
-0.9869102363049933
 23
-0.1612705350542001
 33
0.000000000000000
 40
0.000000000000000
 40
0.000000000000000
 40
0.000000000000000
 40
0.000000000000000
 40
0.6055325474373578
 40
1.787367678212272
 40
2.383816619475548
 40
2.383816619475548
 40
2.383816619475548
 40
2.383816619475548
 10
237.9108276629390
 20
66.70125403812875
 30
0.000000000000000
 10
237.7134742276627
 20
66.65891380211964
 30
0.000000000000000
 10
237.1301639494639
 20
66.53755489758686
 30
0.000000000000000
 10
236.3493757825130
 20
66.38951471722443
 30
0.000000000000000
 10
235.7649658420153
 20
66.29027431621068
 30
0.000000000000000
 10
235.5687519868267
 20
66.25821110291400
 30
0.000000000000000
  0
SPLINE
  5
1A7
100
AcDbEntity
  8
A1
  6
CONTINUOUS
 62
7
100
AcDbSpline
210
0.000000000000000
220
0.000000000000000
230
1.000000000000000
 70
     8
 71
     3
 72
     9
 73
     5
 74
     0
 42
1.000000000000000e-07
 43
1.000000000000000e-07
 12
-0.9853146588948221
 22
-0.1707484201017451
 32
0.000000000000000
 13
-0.9672164786024950
 23
-0.2539533097324238
 33
0.000000000000000
 40
0.000000000000000
 40
0.000000000000000
 40
0.000000000000000
 40
0.000000000000000
 40
0.3766351102046520
 40
0.4041967222028671
 40
0.4041967222028671
 40
0.4041967222028671
 40
0.4041967222028671
 10
235.5687519868267
 20
66.25821110291400
 30
0.000000000000000
 10
235.4450506217803
 20
66.23677448623990
 30
0.000000000000000
 10
235.3131081217248
 20
66.20848842673601
 30
0.000000000000000
 10
235.1826964512543
 20
66.17465293658522
 30
0.000000000000000
 10
235.1738104361538
 20
66.17231981572237
 30
0.000000000000000
  0
SPLINE
  5
1A8
100
AcDbEntity
  8
A1
  6
CONTINUOUS
 62
7
100
AcDbSpline
210
0.000000000000000
220
0.000000000000000
230
1.000000000000000
 70
     8
 71
     3
 72
    12
 73
     8
 74
     0
 42
1.000000000000000e-07
 43
1.000000000000000e-07
 12
-0.9987226131916032
 22
-0.05052862459183416
 32
0.000000000000000
 13
-0.06256261424823606
 23
0.9980410408888929
 33
0.000000000000000
 40
0.000000000000000
 40
0.000000000000000
 40
0.000000000000000
 40
0.000000000000000
 40
0.1200899693470202
 40
0.2326468628683416
 40
0.3620357287050376
 40
0.5367349300948943
 40
0.6059277961215863
 40
0.6059277961215863
 40
0.6059277961215863
 40
0.6059277961215863
 10
238.0018788848904
 20
59.35354906504149
 30
0.000000000000000
 10
237.9619000288890
 20
59.35152640471537
 30
0.000000000000000
 10
237.8821040680587
 20
59.36356783132543
 30
0.000000000000000
 10
237.7810288564609
 20
59.43865146723311
 30
0.000000000000000
 10
237.7236207626744
 20
59.56945925110638
 30
0.000000000000000
 10
237.7035709746692
 20
59.69238069153354
 30
0.000000000000000
 10
237.6956610946884
 20
59.77333398846778
 30
0.000000000000000
 10
237.6942181324931
 20
59.79635309514491
 30
0.000000000000000
  0
SPLINE
  5
1A9
100
AcDbEntity
  8
A1
  6
CONTINUOUS
 62
7
100
AcDbSpline
210
0.000000000000000
220
0.000000000000000
230
1.000000000000000
 70
     8
 71
     3
 72
     9
 73
     5
 74
     0
 42
1.000000000000000e-07
 43
1.000000000000000e-07
 12
0.03456755124716437
 22
0.9994023636159000
 32
0.000000000000000
 13
0.1867242504361002
 23
0.9824123646915837
 33
0.000000000000000
 40
0.000000000000000
 40
0.000000000000000
 40
0.000000000000000
 40
0.000000000000000
 40
0.1036071373495252
 40
0.6303926187230185
 40
0.6303926187230185
 40
0.6303926187230185
 40
0.6303926187230185
 10
237.6864179334984
 20
60.20830057526602
 30
0.000000000000000
 10
237.6876117485084
 20
60.24281564791755
 30
0.000000000000000
 10
237.6975103801947
 20
60.45270508259561
 30
0.000000000000000
 10
237.7236520094316
 20
60.66202861399435
 30
0.000000000000000
 10
237.7564398841484
 20
60.83453547080813
 30
0.000000000000000
  0
ELLIPSE
  5
1AA
100
AcDbEntity
  8
A1
  6
CONTINUOUS
 62
7
100
AcDbEllipse
 10
241.8596154003259
 20
59.35354906504172
 30
0.000000000000000
 11
0.000000000000000
 21
-6.000000000000000
 31
0.000000000000000
210
0.000000000000000
220
0.000000000000000
230
1.000000000000000
 40
0.1519146558322425
 41
0.000000000000000
 42
1.570796326794897
  0
ELLIPSE
  5
1AB
100
AcDbEntity
  8
A1
  6
CONTINUOUS
 62
7
100
AcDbEllipse
 10
239.4270835835927
 20
54.35354906504172
 30
0.000000000000000
 11
0.000000000000000
 21
1.000000000000000
 31
0.000000000000000
210
0.000000000000000
220
0.000000000000000
230
1.000000000000000
 40
0.1519146558322425
 41
1.570796326794897
 42
3.141592653589793
  0
ELLIPSE
  5
1AC
100
AcDbEntity
  8
A1
  6
CONTINUOUS
 62
7
100
AcDbEllipse
 10
239.8828275510934
 20
59.35354906504172
 30
0.000000000000000
 11
0.000000000000000
 21
6.000000000000000
 31
0.000000000000000
210
0.000000000000000
220
0.000000000000000
230
1.000000000000000
 40
0.1519146558322425
 41
3.141592653589793
 42
4.712388980384690
  0
ELLIPSE
  5
1AD
100
AcDbEntity
  8
A1
  6
CONTINUOUS
 62
7
100
AcDbEllipse
 10
237.9614643541662
 20
59.35354906504152
 30
0.000000000000000
 11
0.000000000000000
 21
-2.000000000000000
 31
0.000000000000000
210
0.000000000000000
220
0.000000000000000
230
1.000000000000000
 40
0.1519146558322425
 41
3.141592653589793
 42
3.819960475205340
  0
ELLIPSE
  5
1AE
100
AcDbEntity
  8
A1
  6
CONTINUOUS
 62
7
100
AcDbEllipse
 10
238.9713396161000
 20
59.35354906504145
 30
0.000000000000000
 11
0.000000000000000
 21
-2.000000000000000
 31
0.000000000000000
210
0.000000000000000
220
0.000000000000000
230
1.000000000000000
 40
0.1519146558322425
 41
1.570796326794897
 42
3.141592653589793
  0
ELLIPSE
  5
1AF
100
AcDbEntity
  8
A1
  6
CONTINUOUS
 62
7
100
AcDbEllipse
 10
242.1634447119981
 20
68.85354906504121
 30
0.000000000000000
 11
0.000000000000000
 21
-4.000000000000000
 31
0.000000000000000
210
0.000000000000000
220
0.000000000000000
230
1.000000000000000
 40
0.1519146558322425
 41
1.570796326794897
 42
3.141592653589793
  0
ELLIPSE
  5
1B0
100
AcDbEntity
  8
A1
  6
CONTINUOUS
 62
7
100
AcDbEllipse
 10
240.1866568627656
 20
68.85354906504121
 30
0.000000000000000
 11
0.000000000000000
 21
4.000000000000000
 31
0.000000000000000
210
0.000000000000000
220
0.000000000000000
230
1.000000000000000
 40
0.1519146558322425
 41
4.712388980384690
 42
0.000000000000000
  0
ARC
  5
1B1
100
AcDbEntity
  8
A1
  6
CONTINUOUS
 62
7
100
AcDbCircle
 10
234.4937073669366
 20
68.69686215136340
 30
0.000000000000000
 40
2.614609788967322
100
AcDbArc
 50
281.9602800742429
 51
285.0836750147856
  0
ARC
  5
1B2
100
AcDbEntity
  8
A1
  6
CONTINUOUS
 62
7
100
AcDbCircle
 10
248.2494305482115
 20
61.35354906504149
 30
0.000000000000000
 40
2.000000000000000
100
AcDbArc
 50
270.0000000000000
 51
347.7352262721070
  0
LINE
  5
1B3
100
AcDbEntity
  8
A1
  6
CONTINUOUS
 62
7
100
AcDbLine
 10
226.7494305482116
 20
61.35354906504143
 30
0.000000000000000
 11
226.7494305482116
 21
59.35354906504143
 31
0.000000000000000
  0
LINE
  5
1B4
100
AcDbEntity
  8
A1
  6
CONTINUOUS
 62
7
100
AcDbLine
 10
248.2494305482115
 20
59.35354906504149
 30
0.000000000000000
 11
242.7711033353194
 21
59.35354906504149
 31
0.000000000000000
  0
LINE
  5
1B5
100
AcDbEntity
  8
A1
  6
CONTINUOUS
 62
7
100
AcDbLine
 10
250.2037832760570
 20
60.92868977637931
 30
0.000000000000000
 11
252.7946736894908
 21
72.84678567817394
 31
0.000000000000000
  0
LINE
  5
1B6
100
AcDbEntity
  8
A1
  6
CONTINUOUS
 62
7
100
AcDbLine
 10
252.7946736890063
 20
72.84678567863942
 30
0.000000000000000
 11
252.7876336884655
 21
72.85354906504119
 31
0.000000000000000
  0
LINE
  5
1B7
100
AcDbEntity
  8
A1
  6
CONTINUOUS
 62
7
100
AcDbLine
 10
237.6942181324932
 20
59.79635309514491
 30
0.000000000000000
 11
237.6864179334985
 21
60.20830057526604
 31
0.000000000000000
  0
LINE
  5
1B8
100
AcDbEntity
  8
A1
  6
CONTINUOUS
 62
7
100
AcDbLine
 10
238.1145711701310
 20
72.85354906504121
 30
0.000000000000000
 11
238.1632723611244
 21
72.85354906504121
 31
0.000000000000000
  0
LINE
  5
1B9
100
AcDbEntity
  8
A1
  6
CONTINUOUS
 62
7
100
AcDbLine
 10
241.8596154003259
 20
53.35354906504176
 30
0.000000000000000
 11
239.8828281711651
 21
53.35354906504176
 31
0.000000000000000
  0
LINE
  5
1BA
100
AcDbEntity
  8
A1
  6
CONTINUOUS
 62
7
100
AcDbLine
 10
242.7711033353194
 20
59.35354906500977
 30
0.000000000000000
 11
242.7711033353270
 21
68.85354906501991
 31
0.000000000000000
  0
LINE
  5
1BB
100
AcDbEntity
  8
A1
  6
CONTINUOUS
 62
7
100
AcDbLine
 10
239.2751695478333
 20
55.85354906504145
 30
0.000000000000000
 11
239.2751695478320
 21
54.35354906504703
 31
0.000000000000000
  0
LINE
  5
1BC
100
AcDbEntity
  8
A1
  6
CONTINUOUS
 62
7
100
AcDbLine
 10
239.2751695478361
 20
59.35354906503085
 30
0.000000000000000
 11
239.2751695478333
 21
55.85354906504148
 31
0.000000000000000
  0
LINE
  5
1BD
100
AcDbEntity
  8
A1
  6
CONTINUOUS
 62
7
100
AcDbLine
 10
239.8828281711651
 20
53.35354906504176
 30
0.000000000000000
 11
239.4270842036643
 21
53.35354906504176
 31
0.000000000000000
  0
LINE
  5
1BE
100
AcDbEntity
  8
A1
  6
CONTINUOUS
 62
7
100
AcDbLine
 10
240.7943161061586
 20
59.35354906500974
 30
0.000000000000000
 11
240.7943161061663
 21
68.85354906501988
 31
0.000000000000000
  0
LINE
  5
1BF
100
AcDbEntity
  8
A1
  6
CONTINUOUS
 62
7
100
AcDbLine
 10
237.7564398841484
 20
60.83453547080813
 30
0.000000000000000
 11
237.7708044579393
 21
60.91074503493807
 31
0.000000000000000
  0
LINE
  5
1C0
100
AcDbEntity
  8
A1
  6
CONTINUOUS
 62
7
100
AcDbLine
 10
238.9713402361717
 20
61.35354906504146
 30
0.000000000000000
 11
237.9614649742379
 21
61.35354906504153
 31
0.000000000000000
  0
SPLINE
  5
1C1
100
AcDbEntity
  8
A1
  6
CONTINUOUS
 62
7
100
AcDbSpline
210
0.000000000000000
220
0.000000000000000
230
1.000000000000000
 70
     8
 71
     3
 72
    15
 73
    11
 74
     0
 42
1.000000000000000e-07
 43
1.000000000000000e-07
 12
0.8683420218660558
 22
-0.4959658587650324
 32
0.000000000000000
 13
0.3508502426266205
 23
-0.9364315817183524
 33
0.000000000000000
 40
0.000000000000000
 40
0.000000000000000
 40
0.000000000000000
 40
0.000000000000000
 40
0.3740837632560485
 40
0.7680918907280556
 40
1.142428512551310
 40
1.399861486870202
 40
1.648272932835040
 40
1.890133600597429
 40
2.123620355765310
 40
2.132264769846354
 40
2.132264769846354
 40
2.132264769846354
 40
2.132264769846354
 10
242.7231283712998
 20
57.42136916314911
 30
0.000000000000000
 10
242.8314059217441
 20
57.35952490485133
 30
0.000000000000000
 10
243.0469198630701
 20
57.22018741870230
 30
0.000000000000000
 10
243.3419286621709
 20
56.97805796592532
 30
0.000000000000000
 10
243.5797819399804
 20
56.73129054220796
 30
0.000000000000000
 10
243.7615218789607
 20
56.50056358990348
 30
0.000000000000000
 10
243.8989759796499
 20
56.29229220201954
 30
0.000000000000000
 10
244.0142785850915
 20
56.08004836672369
 30
0.000000000000000
 10
244.0785322566904
 20
55.93178036793753
 30
0.000000000000000
 10
244.1069723789640
 20
55.85624736582510
 30
0.000000000000000
 10
244.1079833438899
 20
55.85354906504145
 30
0.000000000000000
  0
ARC
  5
1C2
100
AcDbEntity
  8
A1
  6
CONTINUOUS
 62
7
100
AcDbCircle
 10
243.2494305482116
 20
58.35354906504151
 30
0.000000000000000
 40
1.000000000000000
100
AcDbArc
 50
0.000000000000000
 51
90.00000000000000
  0
ARC
  5
1C3
100
AcDbEntity
  8
A1
  6
CONTINUOUS
 62
7
100
AcDbCircle
 10
227.2494305482116
 20
58.35354906504151
 30
0.000000000000000
 40
1.000000000000000
100
AcDbArc
 50
90.00000000000000
 51
180.0000000000000
  0
ARC
  5
1C4
100
AcDbEntity
  8
A1
  6
CONTINUOUS
 62
7
100
AcDbCircle
 10
226.2494305482049
 20
55.85354906504145
 30
0.000000000000000
 40
2.000000000000000
100
AcDbArc
 50
89.99999999948062
 51
180.0000000000000
  0
LINE
  5
1C5
100
AcDbEntity
  8
A1
  6
CONTINUOUS
 62
7
100
AcDbLine
 10
226.2494305482116
 20
58.35354906504151
 30
0.000000000000000
 11
226.2494305482116
 21
57.85354906504145
 31
0.000000000000000
  0
LINE
  5
1C6
100
AcDbEntity
  8
A1
  6
CONTINUOUS
 62
7
100
AcDbLine
 10
244.2494305482116
 20
52.85354906504145
 30
0.000000000000000
 11
244.2494305482116
 21
58.35354906504151
 31
0.000000000000000
  0
LINE
  5
1C7
100
AcDbEntity
  8
A1
  6
CONTINUOUS
 62
7
100
AcDbLine
 10
224.2494305482116
 20
55.85354906504145
 30
0.000000000000000
 11
224.2494305482116
 21
52.85354906504145
 31
0.000000000000000
  0
LINE
  5
1C8
100
AcDbEntity
  8
A1
  6
CONTINUOUS
 62
7
100
AcDbLine
 10
229.7494305482808
 20
63.85354906504141
 30
0.000000000000000
 11
228.7494305482808
 21
62.85354906504141
 31
0.000000000000000
  0
LINE
  5
1C9
100
AcDbEntity
  8
A1
  6
CONTINUOUS
 62
7
100
AcDbLine
 10
229.7494305482809
 20
63.85354906504143
 30
0.000000000000000
 11
237.8128422089475
 21
63.85354906504143
 31
0.000000000000000
  0
LINE
  5
1CA
100
AcDbEntity
  8
A1
  6
CONTINUOUS
 62
7
100
AcDbLine
 10
228.7494305482809
 20
62.85354906504143
 30
0.000000000000000
 11
228.7494305482809
 21
61.35354906504149
 31
0.000000000000000
  0
LINE
  5
1CB
100
AcDbEntity
  8
A1
  6
CONTINUOUS
 62
7
100
AcDbLine
 10
238.1145711701309
 20
72.85354906504119
 30
0.000000000000000
 11
237.6877785177924
 21
60.24332525411118
 31
0.000000000000000
  0
SPLINE
  5
1CC
100
AcDbEntity
  8
A1
  6
CONTINUOUS
 62
7
100
AcDbSpline
210
0.000000000000000
220
0.000000000000000
230
1.000000000000000
 70
     8
 71
     3
 72
     9
 73
     5
 74
     0
 42
1.000000000000000e-07
 43
1.000000000000000e-07
 12
0.03383125897869377
 22
-0.9994275591136557
 32
0.000000000000000
 13
0.03372028414599981
 23
-0.9994313095141649
 33
0.000000000000000
 40
0.000000000000000
 40
0.000000000000000
 40
0.000000000000000
 40
0.000000000000000
 40
2.368002533064208
 40
6.152490219277976
 40
6.152490219277976
 40
6.152490219277976
 40
6.152490219277976
 10
237.9067840392448
 20
231.1006743054522
 30
0.000000000000000
 10
237.9334882082309
 20
230.3117919749204
 30
0.000000000000000
 10
238.0028265735262
 20
228.2621343981272
 30
0.000000000000000
 10
238.0720511436331
 20
226.2124729734352
 30
0.000000000000000
 10
238.1145891436751
 20
224.9516944787442
 30
0.000000000000000
  0
SPLINE
  5
1CD
100
AcDbEntity
  8
A1
  6
CONTINUOUS
 62
7
100
AcDbSpline
210
0.000000000000000
220
0.000000000000000
230
1.000000000000000
 70
     8
 71
     3
 72
    10
 73
     6
 74
     0
 42
1.000000000000000e-07
 43
1.000000000000000e-07
 12
-0.3720993204333354
 22
0.9281929194548866
 32
0.000000000000000
 13
-0.7620025391597665
 23
0.6475740346204475
 33
0.000000000000000
 40
0.000000000000000
 40
0.000000000000000
 40
0.000000000000000
 40
0.000000000000000
 40
0.04054492587978480
 40
0.1630470579153336
 40
0.3591788820139699
 40
0.3591788820139699
 40
0.3591788820139699
 40
0.3591788820139699
 10
250.7421302795630
 20
224.9851772819105
 30
0.000000000000000
 10
250.7371013664408
 20
224.9977217862843
 30
0.000000000000000
 10
250.7142994234435
 20
225.0474961512749
 30
0.000000000000000
 10
250.6276776895689
 20
225.1331536309612
 30
0.000000000000000
 10
250.5548089272777
 20
225.2096310248783
 30
0.000000000000000
 10
250.5049912779533
 20
225.2519676504280
 30
0.000000000000000
  0
SPLINE
  5
1CE
100
AcDbEntity
  8
A1
  6
CONTINUOUS
 62
7
100
AcDbSpline
210
0.000000000000000
220
0.000000000000000
230
1.000000000000000
 70
     8
 71
     3
 72
    11
 73
     7
 74
     0
 42
1.000000000000000e-07
 43
1.000000000000000e-07
 12
-0.7374406471158181
 22
0.6754119424335840
 32
0.000000000000000
 13
-0.7321050381169698
 23
0.6811917594650367
 33
0.000000000000000
 40
0.000000000000000
 40
0.000000000000000
 40
0.000000000000000
 40
0.000000000000000
 40
0.2354848762940182
 40
0.5227643071349479
 40
0.8637739414525236
 40
1.254687208086528
 40
1.254687208086528
 40
1.254687208086528
 40
1.254687208086528
 10
250.5049912779533
 20
225.2519676504280
 30
0.000000000000000
 10
250.4471059047666
 20
225.3049840829984
 30
0.000000000000000
 10
250.3186135817782
 20
225.4226890096042
 30
0.000000000000000
 10
250.1061015448749
 20
225.6169550305383
 30
0.000000000000000
 10
249.8559997641718
 20
225.8468872645228
 30
0.000000000000000
 10
249.6770499280581
 20
226.0127210181784
 30
0.000000000000000
 10
249.5816534040683
 20
226.1014833168106
 30
0.000000000000000
  0
SPLINE
  5
1CF
100
AcDbEntity
  8
A1
  6
CONTINUOUS
 62
7
100
AcDbSpline
210
0.000000000000000
220
0.000000000000000
230
1.000000000000000
 70
     8
 71
     3
 72
     9
 73
     5
 74
     0
 42
1.000000000000000e-07
 43
1.000000000000000e-07
 12
0.9985036471007334
 22
-0.05468516007204016
 32
0.000000000000000
 13
-0.1803205609830911
 23
0.9836078971420648
 33
0.000000000000000
 40
0.000000000000000
 40
0.000000000000000
 40
0.000000000000000
 40
0.000000000000000
 40
0.04556960600451860
 40
0.06217804954953760
 40
0.06217804954953760
 40
0.06217804954953760
 40
0.06217804954953760
 10
250.6993964861400
 20
224.9515960591983
 30
0.000000000000000
 10
250.7145636254041
 20
224.9507653987987
 30
0.000000000000000
 10
250.7446467538625
 20
224.9565140762820
 30
0.000000000000000
 10
250.7431285608487
 20
224.9797318831672
 30
0.000000000000000
 10
250.7421302795630
 20
224.9851772819105
 30
0.000000000000000
  0
SPLINE
  5
1D0
100
AcDbEntity
  8
A1
  6
CONTINUOUS
 62
7
100
AcDbSpline
210
0.000000000000000
220
0.000000000000000
230
1.000000000000000
 70
     8
 71
     3
 72
    11
 73
     7
 74
     0
 42
1.000000000000000e-07
 43
1.000000000000000e-07
 12
0.7685998018287137
 22
-0.6397298997449070
 32
0.000000000000000
 13
0.3869719813810661
 23
-0.9220914735778933
 33
0.000000000000000
 40
0.000000000000000
 40
0.000000000000000
 40
0.000000000000000
 40
0.000000000000000
 40
0.1663588417071240
 40
0.2806252378008064
 40
0.3427513335889350
 40
0.3520617220794879
 40
0.3520617220794879
 40
0.3520617220794879
 40
0.3520617220794879
 10
252.5392967798189
 20
225.1991585080118
 30
0.000000000000000
 10
252.5819179040752
 20
225.1636835996362
 30
0.000000000000000
 10
252.6535429477493
 20
225.1027453345651
 30
0.000000000000000
 10
252.7353586376268
 20
225.0248348961331
 30
0.000000000000000
 10
252.7836004155557
 20
224.9830087098311
 30
0.000000000000000
 10
252.7934727358458
 20
224.9612211222143
 30
0.000000000000000
 10
252.7946736890063
 20
224.9583594456001
 30
0.000000000000000
  0
SPLINE
  5
1D1
100
AcDbEntity
  8
A1
  6
CONTINUOUS
 62
7
100
AcDbSpline
210
0.000000000000000
220
0.000000000000000
230
1.000000000000000
 70
     8
 71
     3
 72
     9
 73
     5
 74
     0
 42
1.000000000000000e-07
 43
1.000000000000000e-07
 12
-0.9853928999111758
 22
0.1702963088416709
 32
0.000000000000000
 13
-0.9670026776584564
 23
0.2547662093056715
 33
0.000000000000000
 40
0.000000000000000
 40
0.000000000000000
 40
0.000000000000000
 40
0.000000000000000
 40
0.3766351106669363
 40
0.4056579724811010
 40
0.4056579724811010
 40
0.4056579724811010
 40
0.4056579724811010
 10
235.5687519868266
 20
231.5469340213255
 30
0.000000000000000
 10
235.4450407988572
 20
231.5683138777010
 30
0.000000000000000
 10
235.3126166644701
 20
231.5967028241461
 30
0.000000000000000
 10
235.1817558311564
 20
231.6307458956882
 30
0.000000000000000
 10
235.1724007694606
 20
231.6332105771841
 30
0.000000000000000
  0
SPLINE
  5
1D2
100
AcDbEntity
  8
A1
  6
CONTINUOUS
 62
7
100
AcDbSpline
210
0.000000000000000
220
0.000000000000000
230
1.000000000000000
 70
     8
 71
     3
 72
    15
 73
    11
 74
     0
 42
1.000000000000000e-07
 43
1.000000000000000e-07
 12
0.03236860445349521
 22
0.9994759994347078
 32
0.000000000000000
 13
0.9383403583851759
 23
0.3457128459158412
 33
0.000000000000000
 40
0.000000000000000
 40
0.000000000000000
 40
0.000000000000000
 40
0.000000000000000
 40
0.3136251702124466
 40
0.6152619343692038
 40
0.8798240155919683
 40
1.115987610924027
 40
1.309116273292717
 40
1.461577332104838
 40
1.573245978454725
 40
1.640509492828027
 40
1.640509492828027
 40
1.640509492828027
 40
1.640509492828027
 10
232.3383935227841
 20
236.8764553478606
 30
0.000000000000000
 10
232.3417773924778
 20
236.9809422913426
 30
0.000000000000000
 10
232.3516682563151
 20
237.1858367681733
 30
0.000000000000000
 10
232.3740515662055
 20
237.4782531564246
 30
0.000000000000000
 10
232.4036133419397
 20
237.7442777243813
 30
0.000000000000000
 10
232.4393814319523
 20
237.9724438113994
 30
0.000000000000000
 10
232.4791393800390
 20
238.1635469294241
 30
0.000000000000000
 10
232.5267337315900
 20
238.3059256306876
 30
0.000000000000000
 10
232.5693040205646
 20
238.4142097900230
 30
0.000000000000000
 10
232.6244842544677
 20
238.4438447722046
 30
0.000000000000000
 10
232.6455229445288
 20
238.4515960591980
 30
0.000000000000000
  0
SPLINE
  5
1D3
100
AcDbEntity
  8
A1
  6
CONTINUOUS
 62
7
100
AcDbSpline
210
0.000000000000000
220
0.000000000000000
230
1.000000000000000
 70
     8
 71
     3
 72
    24
 73
    20
 74
     0
 42
1.000000000000000e-07
 43
1.000000000000000e-07
 12
-0.7343980213836403
 22
0.6787190480513345
 32
0.000000000000000
 13
-0.9869102363047659
 23
0.1612705350539727
 33
0.000000000000000
 40
0.000000000000000
 40
0.000000000000000
 40
0.000000000000000
 40
0.000000000000000
 40
0.5337873286347435
 40
1.101424105671179
 40
1.702565171226307
 40
2.336646303219077
 40
3.145913845696384
 40
4.006232443698297
 40
4.914643275308340
 40
5.868014621584084
 40
6.863103272250665
 40
7.896599169846620
 40
8.936503910121676
 40
10.01492353032393
 40
11.12680034423342
 40
12.26705810085083
 40
13.43062623940833
 40
14.61246147939971
 40
15.20891098446904
 40
15.20891098446904
 40
15.20891098446904
 40
15.20891098446904
 10
249.5816534040683
 20
226.1014833168106
 30
0.000000000000000
 10
249.4509826180720
 20
226.2222471926616
 30
0.000000000000000
 10
249.1748734860674
 20
226.4645656202484
 30
0.000000000000000
 10
248.7272869536028
 20
226.8139150999828
 30
0.000000000000000
 10
248.2363641489603
 20
227.1608735023836
 30
0.000000000000000
 10
247.6629756308869
 20
227.5295651557138
 30
0.000000000000000
 10
246.9990249312999
 20
227.9158923032239
 30
0.000000000000000
 10
246.2381904714891
 20
228.3158695005332
 30
0.000000000000000
 10
245.4191762228549
 20
228.7068988125270
 30
0.000000000000000
 10
244.5456625175797
 20
229.0866113017707
 30
0.000000000000000
 10
243.6213522390900
 20
229.4526618483700
 30
0.000000000000000
 10
242.6589569583986
 20
229.7995122830492
 30
0.000000000000000
 10
241.6603173886102
 20
230.1262974954383
 30
0.000000000000000
 10
240.6280421584614
 20
230.4329569749769
 30
0.000000000000000
 10
239.5557920196175
 20
230.7211619948351
 30
0.000000000000000
 10
238.4489712472374
 20
230.9886669906897
 30
0.000000000000000
 10
237.3130069083717
 20
231.2332974521806
 30
0.000000000000000
 10
236.3493677952575
 20
231.4155837303376
 30
0.000000000000000
 10
235.7649660274906
 20
231.5148707777204
 30
0.000000000000000
 10
235.5687519868266
 20
231.5469340213255
 30
0.000000000000000
  0
SPLINE
  5
1D4
100
AcDbEntity
  8
A1
  6
CONTINUOUS
 62
7
100
AcDbSpline
210
0.000000000000000
220
0.000000000000000
230
1.000000000000000
 70
     8
 71
     3
 72
    27
 73
    23
 74
     0
 42
1.000000000000000e-07
 43
1.000000000000000e-07
 12
-0.7399826479268086
 22
0.6726259590338941
 32
0.000000000000000
 13
-0.9912863775300593
 23
0.1317244006384044
 33
0.000000000000000
 40
0.000000000000000
 40
0.000000000000000
 40
0.000000000000000
 40
0.000000000000000
 40
0.6033715855778546
 40
1.254762097117751
 40
1.953809812757246
 40
2.699727961604833
 40
3.540446107822072
 40
4.434064174907054
 40
5.377911339103068
 40
6.141488881470265
 40
6.934504127030919
 40
7.755138739420551
 40
8.601547328226353
 40
9.701052920399452
 40
10.83897315330258
 40
12.01060389427030
 40
12.93958447492006
 40
13.88702288283307
 40
14.85027093892722
 40
15.82668161183211
 40
16.69909242245033
 40
17.57993114869600
 40
17.57993114869600
 40
17.57993114869600
 40
17.57993114869600
 10
251.7422078817060
 20
225.9085037364636
 30
0.000000000000000
 10
251.5933797138460
 20
226.0437848669313
 30
0.000000000000000
 10
251.2753100448699
 20
226.3159322332702
 30
0.000000000000000
 10
250.7520803948389
 20
226.7044308538066
 30
0.000000000000000
 10
250.1690630063371
 20
227.0901761556457
 30
0.000000000000000
 10
249.5134744849476
 20
227.4789061961234
 30
0.000000000000000
 10
248.7839144383798
 20
227.8683767419445
 30
0.000000000000000
 10
247.9797255367113
 20
228.2564916707486
 30
0.000000000000000
 10
247.1854199188192
 20
228.6045015309647
 30
0.000000000000000
 10
246.4123203649055
 20
228.9161767210139
 30
0.000000000000000
 10
245.6703370210130
 20
229.1945492857537
 30
0.000000000000000
 10
244.8961213492345
 20
229.4649812010864
 30
0.000000000000000
 10
244.0190449804447
 20
229.7500827085109
 30
0.000000000000000
 10
243.0340947614014
 20
230.0446728169073
 30
0.000000000000000
 10
241.9375639365679
 20
230.3432728581204
 30
0.000000000000000
 10
240.8894367453303
 20
230.6021072347499
 30
0.000000000000000
 10
239.8982113605999
 20
230.8254082726189
 30
0.000000000000000
 10
238.9712567610259
 20
231.0172771075049
 30
0.000000000000000
 10
238.0256210612400
 20
231.1961877994465
 30
0.000000000000000
 10
237.1017357511474
 20
231.3548072747761
 30
0.000000000000000
 10
236.2026061270034
 20
231.4945042624055
 30
0.000000000000000
 10
235.6238438153375
 20
231.5757826718026
 30
0.000000000000000
 10
235.3327893386281
 20
231.6144586562272
 30
0.000000000000000
  0
SPLINE
  5
1D5
100
AcDbEntity
  8
A1
  6
CONTINUOUS
 62
7
100
AcDbSpline
210
0.000000000000000
220
0.000000000000000
230
1.000000000000000
 70
     8
 71
     3
 72
    11
 73
     7
 74
     0
 42
1.000000000000000e-07
 43
1.000000000000000e-07
 12
0.7360278436476619
 22
-0.6769512636637955
 32
0.000000000000000
 13
0.7609457382959590
 23
-0.6488155233728321
 33
0.000000000000000
 40
0.000000000000000
 40
0.000000000000000
 40
0.000000000000000
 40
0.000000000000000
 40
0.3241641238743188
 40
0.6107986513316669
 40
0.8595940131727338
 40
1.067071922085655
 40
1.067071922085655
 40
1.067071922085655
 40
1.067071922085655
 10
251.7422078817060
 20
225.9085037364636
 30
0.000000000000000
 10
251.8217391554003
 20
225.8353559653665
 30
0.000000000000000
 10
251.9722294414683
 20
225.6982183474230
 30
0.000000000000000
 10
252.1855551944848
 20
225.5069231069456
 30
0.000000000000000
 10
252.3713909368143
 20
225.3432436312366
 30
0.000000000000000
 10
252.4866703029597
 20
225.2440301373650
 30
0.000000000000000
 10
252.5392967798189
 20
225.1991585080118
 30
0.000000000000000
  0
SPLINE
  5
1D6
100
AcDbEntity
  8
A1
  6
CONTINUOUS
 62
7
100
AcDbSpline
210
0.000000000000000
220
0.000000000000000
230
1.000000000000000
 70
     8
 71
     3
 72
    21
 73
    17
 74
     0
 42
1.000000000000000e-07
 43
1.000000000000000e-07
 12
-0.03287297371775821
 22
-0.9994595377497717
 32
0.000000000000000
 13
0.9762169451860245
 23
-0.2167959312791936
 33
0.000000000000000
 40
0.000000000000000
 40
0.000000000000000
 40
0.000000000000000
 40
0.000000000000000
 40
0.3740311464199894
 40
0.7500902508960300
 40
1.126034219168207
 40
1.503906008927348
 40
1.884398478759508
 40
2.264942846817224
 40
2.635535756328302
 40
3.008255205516031
 40
3.380195018275422
 40
3.743758140619139
 40
4.107727417003822
 40
4.469284523656891
 40
4.777522280701204
 40
4.781055762398393
 40
4.781055762398393
 40
4.781055762398393
 40
4.781055762398393
 10
232.2777795970307
 20
235.0949892384709
 30
0.000000000000000
 10
232.2736810916820
 20
234.9703795729026
 30
0.000000000000000
 10
232.2792050700755
 20
234.7198026877520
 30
0.000000000000000
 10
232.3293874326487
 20
234.3470852378706
 30
0.000000000000000
 10
232.4210023012286
 20
233.9809161062588
 30
0.000000000000000
 10
232.5552221846576
 20
233.6265351256534
 30
0.000000000000000
 10
232.7291980050643
 20
233.2882231232401
 30
0.000000000000000
 10
232.9388823681165
 20
232.9736406632542
 30
0.000000000000000
 10
233.1817571597209
 20
232.6873971254358
 30
0.000000000000000
 10
233.4520125601375
 20
232.4311082592202
 30
0.000000000000000
 10
233.7462616199918
 20
232.2065628820050
 30
0.000000000000000
 10
234.0605188247904
 20
232.0166801331782
 30
0.000000000000000
 10
234.3891072737799
 20
231.8610343365170
 30
0.000000000000000
 10
234.7139010393598
 20
231.7440627431125
 30
0.000000000000000
 10
234.9317571658024
 20
231.6890533109586
 30
0.000000000000000
 10
235.0331939111136
 20
231.6664558555966
 30
0.000000000000000
 10
235.0343437260164
 20
231.6662005074448
 30
0.000000000000000
  0
ARC
  5
1D7
100
AcDbEntity
  8
A1
  6
CONTINUOUS
 62
7
100
AcDbCircle
 10
248.2494305482115
 20
236.4515960591980
 30
0.000000000000000
 40
2.000000000000000
100
AcDbArc
 50
12.26477372789306
 51
90.00000000000000
  0
ARC
  5
1D8
100
AcDbEntity
  8
A1
  6
CONTINUOUS
 62
7
100
AcDbCircle
 10
234.5116538407504
 20
229.1829032826714
 30
0.000000000000000
 40
2.537891076944801
100
AcDbArc
 50
74.86940600453833
 51
78.08661692129661
  0
LINE
  5
1D9
100
AcDbEntity
  8
A1
  6
CONTINUOUS
 62
7
100
AcDbLine
 10
248.0985475377479
 20
238.4515960591980
 30
0.000000000000000
 11
248.2494305482115
 21
238.4515960591980
 31
0.000000000000000
  0
LINE
  5
1DA
100
AcDbEntity
  8
A1
  6
CONTINUOUS
 62
7
100
AcDbLine
 10
226.7494305482116
 20
238.4515960591980
 30
0.000000000000000
 11
226.7494305482116
 21
236.4515960591980
 31
0.000000000000000
  0
LINE
  5
1DB
100
AcDbEntity
  8
A1
  6
CONTINUOUS
 62
7
100
AcDbLine
 10
235.0343437260164
 20
231.6662005074449
 30
0.000000000000000
 11
235.3327893386281
 21
231.6144586562272
 31
0.000000000000000
  0
LINE
  5
1DC
100
AcDbEntity
  8
A1
  6
CONTINUOUS
 62
7
100
AcDbLine
 10
232.3383935227842
 20
236.8764553478606
 30
0.000000000000000
 11
232.2777795970308
 21
235.0949892384709
 31
0.000000000000000
  0
SPLINE
  5
1DD
100
AcDbEntity
  8
A1
  6
CONTINUOUS
 62
7
100
AcDbSpline
210
0.000000000000000
220
0.000000000000000
230
1.000000000000000
 70
     8
 71
     3
 72
    20
 73
    16
 74
     0
 42
1.000000000000000e-07
 43
1.000000000000000e-07
 12
-0.3508502204931574
 22
-0.9364315900311340
 32
0.000000000000000
 13
-0.9999982660006026
 23
-0.001862255381638533
 33
0.000000000000000
 40
0.000000000000000
 40
0.000000000000000
 40
0.000000000000000
 40
0.000000000000000
 40
0.008644327974662500
 40
0.2400716430540700
 40
0.4797246595497225
 40
0.7301925204629802
 40
0.9898366581609502
 40
1.354647316542767
 40
1.738132975850041
 40
2.152063252381887
 40
2.589145064433001
 40
2.869453435332845
 40
3.160118621900811
 40
3.469025583001586
 40
3.790481388253570
 40
3.790481388253570
 40
3.790481388253570
 40
3.790481388253570
 10
244.1079830380623
 20
241.9515960591980
 30
0.000000000000000
 10
244.1069720832704
 20
241.9488977852681
 30
0.000000000000000
 10
244.0787786208846
 20
241.8740054595870
 30
0.000000000000000
 10
244.0151469651821
 20
241.7270249087301
 30
0.000000000000000
 10
243.9004462963026
 20
241.5153004459607
 30
0.000000000000000
 10
243.7628378929429
 20
241.3063001220501
 30
0.000000000000000
 10
243.5822576943299
 20
241.0768827598581
 30
0.000000000000000
 10
243.3489405715081
 20
240.8340853911542
 30
0.000000000000000
 10
243.0499104120944
 20
240.5864717411109
 30
0.000000000000000
 10
242.7035869088275
 20
240.3623798678969
 30
0.000000000000000
 10
242.3627374602544
 20
240.1984005494878
 30
0.000000000000000
 10
242.0457792794596
 20
240.0857568906354
 30
0.000000000000000
 10
241.7614745149704
 20
240.0120622123466
 30
0.000000000000000
 10
241.4578883914331
 20
239.9631638850085
 30
0.000000000000000
 10
241.2475956940124
 20
239.9517956034658
 30
0.000000000000000
 10
241.1404439447297
 20
239.9515960591980
 30
0.000000000000000
  0
ARC
  5
1DE
100
AcDbEntity
  8
A1
  6
CONTINUOUS
 62
7
100
AcDbCircle
 10
227.2494305482115
 20
239.4515960591980
 30
0.000000000000000
 40
1.000000000000000
100
AcDbArc
 50
180.0000000000000
 51
270.0000000000000
  0
ARC
  5
1DF
100
AcDbEntity
  8
A1
  6
CONTINUOUS
 62
7
100
AcDbCircle
 10
243.2494305482115
 20
239.4515960591980
 30
0.000000000000000
 40
1.000000000000000
100
AcDbArc
 50
270.0000000000000
 51
360.0000000000000
  0
ARC
  5
1E0
100
AcDbEntity
  8
A1
  6
CONTINUOUS
 62
7
100
AcDbCircle
 10
226.2494305482115
 20
241.9515960591980
 30
0.000000000000000
 40
2.000000000000000
100
AcDbArc
 50
179.9999999999986
 51
270.0000000000000
  0
LINE
  5
1E1
100
AcDbEntity
  8
A1
  6
CONTINUOUS
 62
7
100
AcDbLine
 10
244.2494305482115
 20
239.4515960591980
 30
0.000000000000000
 11
244.2494305482115
 21
244.9515960591980
 31
0.000000000000000
  0
LINE
  5
1E2
100
AcDbEntity
  8
A1
  6
CONTINUOUS
 62
7
100
AcDbLine
 10
226.2494305482115
 20
239.9515960591980
 30
0.000000000000000
 11
226.2494305482115
 21
239.4515960591980
 31
0.000000000000000
  0
LINE
  5
1E3
100
AcDbEntity
  8
A1
  6
CONTINUOUS
 62
7
100
AcDbLine
 10
224.2494305482115
 20
241.9515960591980
 30
0.000000000000000
 11
224.2494305482115
 21
244.9515960591980
 31
0.000000000000000
  0
LINE
  5
1E4
100
AcDbEntity
  8
A1
  6
CONTINUOUS
 62
7
100
AcDbLine
 10
228.7494305482808
 20
236.4515960591980
 30
0.000000000000000
 11
228.7494305482808
 21
234.9515960591980
 31
0.000000000000000
  0
LINE
  5
1E5
100
AcDbEntity
  8
A1
  6
CONTINUOUS
 62
7
100
AcDbLine
 10
232.4367412359955
 20
233.9515960591980
 30
0.000000000000000
 11
229.7494305482808
 21
233.9515960591980
 31
0.000000000000000
  0
LINE
  5
1E6
100
AcDbEntity
  8
A1
  6
CONTINUOUS
 62
7
100
AcDbLine
 10
228.7494305482809
 20
234.9515960591981
 30
0.000000000000000
 11
229.7494305482809
 21
233.9515960591981
 31
0.000000000000000
  0
LINE
  5
1E7
100
AcDbEntity
  8
A1
  6
CONTINUOUS
 62
7
100
AcDbLine
 10
228.7494305482808
 20
234.9515960591980
 30
0.000000000000000
 11
232.2766223971984
 21
234.9515960591980
 31
0.000000000000000
  0
LINE
  5
1E8
100
AcDbEntity
  8
A1
  6
CONTINUOUS
 62
7
100
AcDbLine
 10
224.2494305482115
 20
244.9515960591980
 30
0.000000000000000
 11
244.2494305482115
 21
244.9515960591980
 31
0.000000000000000
  0
LINE
  5
1E9
100
AcDbEntity
  8
A1
  6
CONTINUOUS
 62
7
100
AcDbLine
 10
226.2494305482116
 20
239.9515960591980
 30
0.000000000000000
 11
241.1404439447298
 21
239.9515960591980
 31
0.000000000000000
  0
LINE
  5
1EA
100
AcDbEntity
  8
A1
  6
CONTINUOUS
 62
7
100
AcDbLine
 10
226.7494305482116
 20
238.4515960591980
 30
0.000000000000000
 11
248.0985475377479
 21
238.4515960591980
 31
0.000000000000000
  0
LINE
  5
1EB
100
AcDbEntity
  8
A1
  6
CONTINUOUS
 62
7
100
AcDbLine
 10
226.7494305482116
 20
236.4515960591980
 30
0.000000000000000
 11
232.3314437918003
 21
236.4515960591980
 31
0.000000000000000
  0
LINE
  5
1EC
100
AcDbEntity
  8
A1
  6
CONTINUOUS
 62
7
100
AcDbLine
 10
238.1145713369414
 20
224.9515960591983
 30
0.000000000000000
 11
252.7876336884653
 21
224.9515960591983
 31
0.000000000000000
  0
LINE
  5
1ED
100
AcDbEntity
  8
A1
  6
CONTINUOUS
 62
7
100
AcDbLine
 10
238.1632723611244
 20
72.85354906504121
 30
0.000000000000000
 11
252.7876336884654
 21
72.85354906504121
 31
0.000000000000000
  0
LINE
  5
1EE
100
AcDbEntity
  8
A1
  6
CONTINUOUS
 62
7
100
AcDbLine
 10
228.7494305482809
 20
62.85354906504143
 30
0.000000000000000
 11
237.7798086282316
 21
62.85354906504143
 31
0.000000000000000
  0
LINE
  5
1EF
100
AcDbEntity
  8
A1
  6
CONTINUOUS
 62
7
100
AcDbLine
 10
226.7494305482116
 20
61.35354906504143
 30
0.000000000000000
 11
237.7253540098742
 21
61.35354906504143
 31
0.000000000000000
  0
LINE
  5
1F0
100
AcDbEntity
  8
A1
  6
CONTINUOUS
 62
7
100
AcDbLine
 10
226.7494305482116
 20
59.35354906504143
 30
0.000000000000000
 11
239.2751695478361
 21
59.35354906504148
 31
0.000000000000000
  0
LINE
  5
1F1
100
AcDbEntity
  8
A1
  6
CONTINUOUS
 62
7
100
AcDbLine
 10
226.2494305482229
 20
57.85354906504147
 30
0.000000000000000
 11
239.2751695478349
 21
57.85354906504146
 31
0.000000000000000
  0
LINE
  5
1F2
100
AcDbEntity
  8
A1
  6
CONTINUOUS
 62
7
100
AcDbLine
 10
224.2494305482116
 20
52.85354906504145
 30
0.000000000000000
 11
244.2494305482116
 21
52.85354906504145
 31
0.000000000000000
  0
LINE
  5
1F3
100
AcDbEntity
  8
A1
  6
CONTINUOUS
 62
7
100
AcDbLine
 10
250.2037832760570
 20
236.8764553478600
 30
0.000000000000000
 11
252.7946736895655
 21
224.9583594457216
 31
0.000000000000000
  0
LINE
  5
1F4
100
AcDbEntity
  8
A1
  6
CONTINUOUS
 62
7
100
AcDbLine
 10
252.7946736890063
 20
224.9583594456002
 30
0.000000000000000
 11
252.7876336884655
 21
224.9515960591984
 31
0.000000000000000
  0
LINE
  5
1F5
100
AcDbEntity
  8
A4
  6
CENTER
 62
1
100
AcDbLine
 10
306.2946736892962
 20
171.9299159971673
 30
0.000000000000000
 11
314.2946736892962
 21
171.9299159971673
 31
0.000000000000000
  0
LINE
  5
1F6
100
AcDbEntity
  8
A4
  6
CENTER
 62
1
100
AcDbLine
 10
314.2946736892962
 20
148.9299159970981
 30
0.000000000000000
 11
300.2946736892962
 21
148.9299159970981
 31
0.000000000000000
  0
LINE
  5
1F7
100
AcDbEntity
  8
A4
  6
CENTER
 62
1
100
AcDbLine
 10
306.2946736892962
 20
125.9299159971673
 30
0.000000000000000
 11
314.2946736892962
 21
125.9299159971673
 31
0.000000000000000
  0
LINE
  5
1F8
100
AcDbEntity
  8
A4
  6
CENTER
 62
1
100
AcDbLine
 10
232.2494305482116
 20
59.35354906504146
 30
0.000000000000000
 11
232.2494305482116
 21
51.35354906504145
 31
0.000000000000000
  0
LINE
  5
1F9
100
AcDbEntity
  8
A4
  6
CENTER
 62
1
100
AcDbLine
 10
235.2494305482809
 20
65.35354906504143
 30
0.000000000000000
 11
235.2494305482809
 21
51.35354906504145
 31
0.000000000000000
  0
LINE
  5
1FA
100
AcDbEntity
  8
A4
  6
CENTER
 62
1
100
AcDbLine
 10
235.2494305489069
 20
232.5062829294126
 30
0.000000000000000
 11
235.2494305490118
 21
246.5062829294126
 31
0.000000000000000
  0
LINE
  5
1FB
100
AcDbEntity
  8
A4
  6
CENTER
 62
1
100
AcDbLine
 10
232.2494305488827
 20
238.5062829294351
 30
0.000000000000000
 11
232.2494305489426
 21
246.5062829294351
 31
0.000000000000000
  0
ENDSEC
  0
SECTION
  2
OBJECTS
  0
DICTIONARY
  5
22F
100
AcDbDictionary
  3
ACAD_GROUP
350
230
  3
ACAD_LAYOUT
350
231
  3
ACAD_MLINESTYLE
350
232
  0
DICTIONARY
  5
230
102
{ACAD_REACTORS
330
22F
102
}
330
22F
100
AcDbDictionary
  0
DICTIONARY
  5
231
102
{ACAD_REACTORS
330
22F
102
}
330
22F
100
AcDbDictionary
  3
Model
350
233
  3
ﾚｲｱｳﾄ1
350
234
  3
ﾚｲｱｳﾄ2
350
235
  0
DICTIONARY
  5
232
102
{ACAD_REACTORS
330
22F
102
}
330
22F
100
AcDbDictionary
  3
STANDARD
350
236
  0
LAYOUT
  5
233
102
{ACAD_REACTORS
330
231
102
}
330
231
100
AcDbPlotSettings
 70
11952
  4
A3
 44
297.000000
 45
420.000000
 73
  1
 72
  1
100
AcDbLayout
  1
Model
 71
0
330
226
  0
LAYOUT
  5
234
102
{ACAD_REACTORS
330
231
102
}
330
231
100
AcDbPlotSettings
100
AcDbLayout
  1
ﾚｲｱｳﾄ1
 71
1
330
227
  0
LAYOUT
  5
235
102
{ACAD_REACTORS
330
231
102
}
330
231
100
AcDbPlotSettings
100
AcDbLayout
  1
ﾚｲｱｳﾄ2
 71
2
330
228
  0
MLINESTYLE
  5
236
102
{ACAD_REACTORS
330
232
102
}
330
232
100
AcDbMlineStyle
  2
STANDARD
 70
     0
  3

 62
   256
 51
90.00
 52
90.00
 71
     2
 49
0.50
 62
   256
  6
BYLAYER
 49
-0.50
 62
   256
  6
BYLAYER
  0
ENDSEC
  0
EOF
