  0
SECTION
  2
HEADER
  9
$ACADVER
  1
AC1024
  9
$DWGCODEPAGE
  3
ANSI_932
  9
$LTSCALE
 40
20.0
  9
$FILLMODE
 70
     1
  9
$CLAYER
  8
0
  9
$PDMODE
 70
     0
  9
$SPLFRAME
 70
     0
  9
$SPLINETYPE
 70
     6
  9
$SPLINESEGS
 70
     8
  9
$DIMASZ
 40
2.000000
  9
$DIMEXE
 40
1.500000
  9
$DIMEXO
 40
0.800000
  9
$DIMTAD
 70
     1
  9
$DIMTIH
 70
     0
  9
$DIMTOH
 70
     0
  9
$DIMTVP
 40
0.500000
  9
$DIMTXT
 40
3.100000
  9
$EXTMIN
 10
0.000000
 20
0.000000
 30
0.000000
  9
$EXTMAX
 10
297.000000
 20
420.000000
 30
0.000000
  9
$MEASUREMENT
 70
  1
  9
$LIMMIN
 10
0.000000
 20
0.000000
  9
$LIMMAX
 10
297.000000
 20
420.000000
  9
$HANDSEED
  5
38E
  9
$LWDISPLAY
290
     0
  9
$DIMBLK
  1
_OPEN
  9
$DIMDEC
 70
     2
  9
$DIMADEC
 70
     2
  9
$DIMAUNIT
 70
     0
  9
$DIMZIN
 70
     8
  9
$DIMAZIN
 70
     2
  9
$DIMTOFL
 70
     1
  0
ENDSEC
  0
SECTION
  2
CLASSES
  0
ENDSEC
  0
SECTION
  2
TABLES
  0
TABLE
  2
VPORT
  5
358
100
AcDbSymbolTable
 70
     1
  0
VPORT
  5
359
100
AcDbSymbolTableRecord
100
AcDbViewportTableRecord
  2
*ACTIVE
 70
     0
 12
199.305447
 22
125.017105
 40
214.034208
 41
1.768927
  0
ENDTAB
  0
TABLE
  2
LTYPE
  5
35A
100
AcDbSymbolTable
 70
     3
  0
LTYPE
  5
35B
100
AcDbSymbolTableRecord
100
AcDbLinetypeTableRecord
  2
BYBLOCK
 70
     0
  3

 72
    65
 73
     0
 40
0.0
  0
LTYPE
  5
35C
100
AcDbSymbolTableRecord
100
AcDbLinetypeTableRecord
  2
BYLAYER
 70
     0
  3

 72
    65
 73
     0
 40
0.0
  0
LTYPE
  5
35D
100
AcDbSymbolTableRecord
100
AcDbLinetypeTableRecord
  2
CONTINUOUS
 70
     0
  3
Solid line (NEC CAE2D for Win R18.0 : 2024.08.26)
 72
    65
 73
     0
 40
0.0
  0
LTYPE
  5
35E
100
AcDbSymbolTableRecord
100
AcDbLinetypeTableRecord
  2
DASHED
 70
     0
  3
__ __ __ __ __ __ __ __ __ __ __ __ __ _
 72
    65
 73
     2
 40
0.75
 49
0.5
 74
     0
 49
-0.25
 74
     0
  0
LTYPE
  5
35F
100
AcDbSymbolTableRecord
100
AcDbLinetypeTableRecord
  2
CENTER
 70
     0
  3
____ _ ____ _ ____ _ ____ _ ____ _ ____
 72
    65
 73
     4
 40
2.0
 49
1.25
 74
     0
 49
-0.25
 74
     0
 49
0.25
 74
     0
 49
-0.25
 74
     0
  0
ENDTAB
  0
TABLE
  2
LAYER
  5
360
100
AcDbSymbolTable
 70
    15
  0
LAYER
  5
361
100
AcDbSymbolTableRecord
100
AcDbLayerTableRecord
  2
0
 70
     0
 62
     7
  6
CONTINUOUS
370
    -3
390

  0
LAYER
  5
362
100
AcDbSymbolTableRecord
100
AcDbLayerTableRecord
  2
A0
 70
     0
 62
     9
  6
CONTINUOUS
370
    -3
390

  0
LAYER
  5
363
100
AcDbSymbolTableRecord
100
AcDbLayerTableRecord
  2
A2
 70
     0
 62
     9
  6
CONTINUOUS
370
    -3
390

  0
LAYER
  5
364
100
AcDbSymbolTableRecord
100
AcDbLayerTableRecord
  2
A4
 70
     0
 62
     9
  6
CONTINUOUS
370
    -3
390

  0
LAYER
  5
365
100
AcDbSymbolTableRecord
100
AcDbLayerTableRecord
  2
A5
 70
     0
 62
     8
  6
CONTINUOUS
370
    -3
390

  0
LAYER
  5
366
100
AcDbSymbolTableRecord
100
AcDbLayerTableRecord
  2
A6
 70
     0
 62
    12
  6
CONTINUOUS
370
    -3
390

  0
LAYER
  5
367
100
AcDbSymbolTableRecord
100
AcDbLayerTableRecord
  2
A8
 70
     0
 62
    10
  6
CONTINUOUS
370
    -3
390

  0
LAYER
  5
368
100
AcDbSymbolTableRecord
100
AcDbLayerTableRecord
  2
A9
 70
     0
 62
     9
  6
CONTINUOUS
370
    -3
390

  0
LAYER
  5
369
100
AcDbSymbolTableRecord
100
AcDbLayerTableRecord
  2
A10
 70
     0
 62
     6
  6
CONTINUOUS
370
    -3
390

  0
LAYER
  5
36A
100
AcDbSymbolTableRecord
100
AcDbLayerTableRecord
  2
A15
 70
     0
 62
    14
  6
CONTINUOUS
370
    -3
390

  0
LAYER
  5
36B
100
AcDbSymbolTableRecord
100
AcDbLayerTableRecord
  2
A20
 70
     0
 62
     1
  6
CONTINUOUS
370
    -3
390

  0
LAYER
  5
36C
100
AcDbSymbolTableRecord
100
AcDbLayerTableRecord
  2
A30
 70
     0
 62
     1
  6
CONTINUOUS
370
    -3
390

  0
LAYER
  5
36D
100
AcDbSymbolTableRecord
100
AcDbLayerTableRecord
  2
A40
 70
     0
 62
     9
  6
CONTINUOUS
370
    -3
390

  0
LAYER
  5
36E
100
AcDbSymbolTableRecord
100
AcDbLayerTableRecord
  2
A50
 70
     0
 62
    12
  6
CONTINUOUS
370
    -3
390

  0
LAYER
  5
36F
100
AcDbSymbolTableRecord
100
AcDbLayerTableRecord
  2
A1023
 70
     0
 62
    16
  6
CONTINUOUS
370
    -3
390

  0
ENDTAB
  0
TABLE
  2
STYLE
  5
370
100
AcDbSymbolTable
 70
     4
  0
STYLE
  5
371
100
AcDbSymbolTableRecord
100
AcDbTextStyleTableRecord
  2
STANDARD
 70
    64
 40
0.0
 41
1.0
 50
0.0
 71
     0
 42
3.000000000000000
  3
TXT
  4

  0
STYLE
  5
372
100
AcDbSymbolTableRecord
100
AcDbTextStyleTableRecord
  2
ANKTATE
 70
    68
 40
0.0
 41
1.0
 50
0.0
 71
     0
 42
3.000000000000000
  3
TXT
  4

  0
STYLE
  5
373
100
AcDbSymbolTableRecord
100
AcDbTextStyleTableRecord
  2
KNJYOKO
 70
    64
 40
0.0
 41
1.0
 50
0.0
 71
     0
 42
3.000000000000000
  3
TXT
  4
BIGFONT
  0
STYLE
  5
374
100
AcDbSymbolTableRecord
100
AcDbTextStyleTableRecord
  2
KNJTATE
 70
    68
 40
0.0
 41
1.0
 50
0.0
 71
     0
 42
3.000000000000000
  3
TXT
  4
BIGFONT
  0
ENDTAB
  0
TABLE
  2
VIEW
  5
375
100
AcDbSymbolTable
 70
     0
  0
ENDTAB
  0
TABLE
  2
UCS
  5
376
100
AcDbSymbolTable
 70
     0
  0
ENDTAB
  0
TABLE
  2
APPID
  5
377
100
AcDbSymbolTable
 70
     1
  0
APPID
  5
378
100
AcDbSymbolTableRecord
100
AcDbRegAppTableRecord
  2
ACAD
 70
     0
  0
ENDTAB
  0
TABLE
  2
DIMSTYLE
  5
379
100
AcDbSymbolTable
 70
     2
100
AcDbDimStyleTable
  0
DIMSTYLE
105
37A
100
AcDbSymbolTableRecord
100
AcDbDimStyleTableRecord
  2
STANDARD
 70
     0
 41
2.000000
 44
1.500000
 42
0.800000
145
0.661290
140
3.100000
144
1.000000
146
0.645161
340
371
  0
DIMSTYLE
105
37B
100
AcDbSymbolTableRecord
100
AcDbDimStyleTableRecord
  2
A001
 70
     0
 41
2.000000
 44
1.500000
 42
0.800000
145
0.661290
140
3.100000
144
1.000000
146
0.645161
 77
     1
 73
     0
 74
     0
271
     2
179
     2
275
     0
 78
     8
 79
     2
172
     1
340
371
  0
ENDTAB
  0
TABLE
  2
BLOCK_RECORD
  5
37C
100
AcDbSymbolTable
 70
    12
  0
BLOCK_RECORD
  5
37D
100
AcDbSymbolTableRecord
100
AcDbBlockTableRecord
  2
*MODEL_SPACE
  0
BLOCK_RECORD
  5
37E
100
AcDbSymbolTableRecord
100
AcDbBlockTableRecord
  2
*PAPER_SPACE
  0
BLOCK_RECORD
  5
37F
100
AcDbSymbolTableRecord
100
AcDbBlockTableRecord
  2
*PAPER_SPACE0
  0
BLOCK_RECORD
  5
1
100
AcDbSymbolTableRecord
100
AcDbBlockTableRecord
  2
_NONE
  0
BLOCK_RECORD
  5
4
100
AcDbSymbolTableRecord
100
AcDbBlockTableRecord
  2
_CLOSED
  0
BLOCK_RECORD
  5
B
100
AcDbSymbolTableRecord
100
AcDbBlockTableRecord
  2
_DOT
  0
BLOCK_RECORD
  5
13
100
AcDbSymbolTableRecord
100
AcDbBlockTableRecord
  2
_OPEN
  0
BLOCK_RECORD
  5
19
100
AcDbSymbolTableRecord
100
AcDbBlockTableRecord
  2
_ORIGIN
  0
BLOCK_RECORD
  5
1E
100
AcDbSymbolTableRecord
100
AcDbBlockTableRecord
  2
_OPEN30
  0
BLOCK_RECORD
  5
24
100
AcDbSymbolTableRecord
100
AcDbBlockTableRecord
  2
_BOXFILLED
  0
BLOCK_RECORD
  5
29
100
AcDbSymbolTableRecord
100
AcDbBlockTableRecord
  2
_BOXBLANK
  0
BLOCK_RECORD
  5
31
100
AcDbSymbolTableRecord
100
AcDbBlockTableRecord
  2
_OBLIQUE
  0
BLOCK_RECORD
  5
35
100
AcDbSymbolTableRecord
100
AcDbBlockTableRecord
  2
_OPEN90
  0
BLOCK_RECORD
  5
3B
100
AcDbSymbolTableRecord
100
AcDbBlockTableRecord
  2
_CLOSEDBLANK
  0
BLOCK_RECORD
  5
41
100
AcDbSymbolTableRecord
100
AcDbBlockTableRecord
  2
_DOTBLANK
  0
ENDTAB
  0
ENDSEC
  0
SECTION
  2
BLOCKS
  0
BLOCK
  5
380
100
AcDbEntity
  8
0
100
AcDbBlockBegin
  2
*MODEL_SPACE
 70
     0
 10
0.0
 20
0.0
 30
0.0
  3
*MODEL_SPACE
  1

  0
ENDBLK
  5
381
100
AcDbEntity
  8
0
100
AcDbBlockEnd
  0
BLOCK
  5
382
100
AcDbEntity
  8
0
100
AcDbBlockBegin
  2
*PAPER_SPACE
 70
     0
 10
0.0
 20
0.0
 30
0.0
  3
*PAPER_SPACE
  1

  0
ENDBLK
  5
383
100
AcDbEntity
  8
0
100
AcDbBlockEnd
  0
BLOCK
  5
384
100
AcDbEntity
  8
0
100
AcDbBlockBegin
  2
*PAPER_SPACE0
 70
     0
 10
0.0
 20
0.0
 30
0.0
  3
*PAPER_SPACE0
  1

  0
ENDBLK
  5
385
100
AcDbEntity
  8
0
100
AcDbBlockEnd
  0
BLOCK
  5
2
330
1
100
AcDbEntity
  8
0
100
AcDbBlockBegin
  2
_NONE
 70
     0
 10
0.0
 20
0.0
 30
0.0
  3
_NONE
  1

  0
ENDBLK
  5
3
330
1
100
AcDbEntity
  8
0
100
AcDbBlockEnd
  0
BLOCK
  5
5
330
4
100
AcDbEntity
  8
0
100
AcDbBlockBegin
  2
_CLOSED
 70
     0
 10
0.0
 20
0.0
 30
0.0
  3
_CLOSED
  1

  0
LINE
  5
6
330
4
100
AcDbEntity
  8
0
  6
BYBLOCK
 62
     0
370
    -2
100
AcDbLine
 10
-1.0
 20
0.166667
 30
0.0
 11
0.0
 21
0.0
 31
0.0
  0
LINE
  5
7
330
4
100
AcDbEntity
  8
0
  6
BYBLOCK
 62
     0
370
    -2
100
AcDbLine
 10
0.0
 20
0.0
 30
0.0
 11
-1.0
 21
-0.166667
 31
0.0
  0
LINE
  5
8
330
4
100
AcDbEntity
  8
0
  6
BYBLOCK
 62
     0
370
    -2
100
AcDbLine
 10
-1.0
 20
0.166667
 30
0.0
 11
-1.0
 21
-0.166667
 31
0.0
  0
LINE
  5
9
330
4
100
AcDbEntity
  8
0
  6
BYBLOCK
 62
     0
370
    -2
100
AcDbLine
 10
0.0
 20
0.0
 30
0.0
 11
-1.0
 21
0.0
 31
0.0
  0
ENDBLK
  5
A
330
4
100
AcDbEntity
  8
0
100
AcDbBlockEnd
  0
BLOCK
  5
C
330
B
100
AcDbEntity
  8
0
100
AcDbBlockBegin
  2
_DOT
 70
     0
 10
0.0
 20
0.0
 30
0.0
  3
_DOT
  1

  0
POLYLINE
  5
D
330
B
100
AcDbEntity
  8
0
  6
BYBLOCK
 62
     0
370
    -2
100
AcDb2dPolyline
 66
     1
 10
0.0
 20
0.0
 30
0.0
 70
     1
 40
0.5
 41
0.5
  0
VERTEX
  5
E
330
B
100
AcDbEntity
  8
0
  6
BYBLOCK
 62
     0
370
    -2
100
AcDbVertex
100
AcDb2dVertex
 10
-0.25
 20
0.0
 30
0.0
 42
1.0
  0
VERTEX
  5
F
330
B
100
AcDbEntity
  8
0
  6
BYBLOCK
 62
     0
370
    -2
100
AcDbVertex
100
AcDb2dVertex
 10
0.25
 20
0.0
 30
0.0
 42
1.0
  0
SEQEND
  5
10
330
B
100
AcDbEntity
  8
0
  6
BYBLOCK
 62
     0
370
    -2
  0
LINE
  5
11
330
B
100
AcDbEntity
  8
0
  6
BYBLOCK
 62
     0
370
    -2
100
AcDbLine
 10
-0.5
 20
0.0
 30
0.0
 11
-1.0
 21
0.0
 31
0.0
  0
ENDBLK
  5
12
330
B
100
AcDbEntity
  8
0
100
AcDbBlockEnd
  0
BLOCK
  5
14
330
13
100
AcDbEntity
  8
0
100
AcDbBlockBegin
  2
_OPEN
 70
     0
 10
0.0
 20
0.0
 30
0.0
  3
_OPEN
  1

  0
LINE
  5
15
330
13
100
AcDbEntity
  8
0
  6
BYBLOCK
 62
     0
370
    -2
100
AcDbLine
 10
-1.0
 20
0.166667
 30
0.0
 11
0.0
 21
0.0
 31
0.0
  0
LINE
  5
16
330
13
100
AcDbEntity
  8
0
  6
BYBLOCK
 62
     0
370
    -2
100
AcDbLine
 10
0.0
 20
0.0
 30
0.0
 11
-1.0
 21
-0.166667
 31
0.0
  0
LINE
  5
17
330
13
100
AcDbEntity
  8
0
  6
BYBLOCK
 62
     0
370
    -2
100
AcDbLine
 10
0.0
 20
0.0
 30
0.0
 11
-1.0
 21
0.0
 31
0.0
  0
ENDBLK
  5
18
330
13
100
AcDbEntity
  8
0
100
AcDbBlockEnd
  0
BLOCK
  5
1A
330
19
100
AcDbEntity
  8
0
100
AcDbBlockBegin
  2
_ORIGIN
 70
     0
 10
0.0
 20
0.0
 30
0.0
  3
_ORIGIN
  1

  0
CIRCLE
  5
1B
330
19
100
AcDbEntity
  8
0
  6
BYBLOCK
 62
     0
370
    -2
100
AcDbCircle
 10
0.0
 20
0.0
 30
0.0
 40
0.5
  0
LINE
  5
1C
330
19
100
AcDbEntity
  8
0
  6
BYBLOCK
 62
     0
370
    -2
100
AcDbLine
 10
0.0
 20
0.0
 30
0.0
 11
-1.0
 21
0.0
 31
0.0
  0
ENDBLK
  5
1D
330
19
100
AcDbEntity
  8
0
100
AcDbBlockEnd
  0
BLOCK
  5
1F
330
1E
100
AcDbEntity
  8
0
100
AcDbBlockBegin
  2
_OPEN30
 70
     0
 10
0.0
 20
0.0
 30
0.0
  3
_OPEN30
  1

  0
LINE
  5
20
330
1E
100
AcDbEntity
  8
0
  6
BYBLOCK
 62
     0
370
    -2
100
AcDbLine
 10
-1.0
 20
0.267949
 30
0.0
 11
0.0
 21
0.0
 31
0.0
  0
LINE
  5
21
330
1E
100
AcDbEntity
  8
0
  6
BYBLOCK
 62
     0
370
    -2
100
AcDbLine
 10
0.0
 20
0.0
 30
0.0
 11
-1.0
 21
-0.267949
 31
0.0
  0
LINE
  5
22
330
1E
100
AcDbEntity
  8
0
  6
BYBLOCK
 62
     0
370
    -2
100
AcDbLine
 10
0.0
 20
0.0
 30
0.0
 11
-1.0
 21
0.0
 31
0.0
  0
ENDBLK
  5
23
330
1E
100
AcDbEntity
  8
0
100
AcDbBlockEnd
  0
BLOCK
  5
25
330
24
100
AcDbEntity
  8
0
100
AcDbBlockBegin
  2
_BOXFILLED
 70
     0
 10
0.0
 20
0.0
 30
0.0
  3
_BOXFILLED
  1

  0
SOLID
  5
26
330
24
100
AcDbEntity
  8
0
  6
BYBLOCK
 62
     0
370
    -2
100
AcDbTrace
 10
-0.5
 20
0.5
 30
0.0
 11
0.5
 21
0.5
 31
0.0
 12
-0.5
 22
-0.5
 32
0.0
 13
0.5
 23
-0.5
 33
0.0
  0
LINE
  5
27
330
24
100
AcDbEntity
  8
0
  6
BYBLOCK
 62
     0
370
    -2
100
AcDbLine
 10
-0.5
 20
0.0
 30
0.0
 11
-1.0
 21
0.0
 31
0.0
  0
ENDBLK
  5
28
330
24
100
AcDbEntity
  8
0
100
AcDbBlockEnd
  0
BLOCK
  5
2A
330
29
100
AcDbEntity
  8
0
100
AcDbBlockBegin
  2
_BOXBLANK
 70
     0
 10
0.0
 20
0.0
 30
0.0
  3
_BOXBLANK
  1

  0
LINE
  5
2B
330
29
100
AcDbEntity
  8
0
  6
BYBLOCK
 62
     0
370
    -2
100
AcDbLine
 10
-0.5
 20
-0.5
 30
0.0
 11
0.5
 21
-0.5
 31
0.0
  0
LINE
  5
2C
330
29
100
AcDbEntity
  8
0
  6
BYBLOCK
 62
     0
370
    -2
100
AcDbLine
 10
0.5
 20
-0.5
 30
0.0
 11
0.5
 21
0.5
 31
0.0
  0
LINE
  5
2D
330
29
100
AcDbEntity
  8
0
  6
BYBLOCK
 62
     0
370
    -2
100
AcDbLine
 10
0.5
 20
0.5
 30
0.0
 11
-0.5
 21
0.5
 31
0.0
  0
LINE
  5
2E
330
29
100
AcDbEntity
  8
0
  6
BYBLOCK
 62
     0
370
    -2
100
AcDbLine
 10
-0.5
 20
0.5
 30
0.0
 11
-0.5
 21
-0.5
 31
0.0
  0
LINE
  5
2F
330
29
100
AcDbEntity
  8
0
  6
BYBLOCK
 62
     0
370
    -2
100
AcDbLine
 10
-0.5
 20
0.0
 30
0.0
 11
-1.0
 21
0.0
 31
0.0
  0
ENDBLK
  5
30
330
29
100
AcDbEntity
  8
0
100
AcDbBlockEnd
  0
BLOCK
  5
32
330
31
100
AcDbEntity
  8
0
100
AcDbBlockBegin
  2
_OBLIQUE
 70
     0
 10
0.0
 20
0.0
 30
0.0
  3
_OBLIQUE
  1

  0
LINE
  5
33
330
31
100
AcDbEntity
  8
0
  6
BYBLOCK
 62
     0
370
    -2
100
AcDbLine
 10
-0.5
 20
-0.5
 30
0.0
 11
0.5
 21
0.5
 31
0.0
  0
ENDBLK
  5
34
330
31
100
AcDbEntity
  8
0
100
AcDbBlockEnd
  0
BLOCK
  5
36
330
35
100
AcDbEntity
  8
0
100
AcDbBlockBegin
  2
_OPEN90
 70
     0
 10
0.0
 20
0.0
 30
0.0
  3
_OPEN90
  1

  0
LINE
  5
37
330
35
100
AcDbEntity
  8
0
  6
BYBLOCK
 62
     0
370
    -2
100
AcDbLine
 10
-0.5
 20
0.5
 30
0.0
 11
0.0
 21
0.0
 31
0.0
  0
LINE
  5
38
330
35
100
AcDbEntity
  8
0
  6
BYBLOCK
 62
     0
370
    -2
100
AcDbLine
 10
0.0
 20
0.0
 30
0.0
 11
-0.5
 21
-0.5
 31
0.0
  0
LINE
  5
39
330
35
100
AcDbEntity
  8
0
  6
BYBLOCK
 62
     0
370
    -2
100
AcDbLine
 10
0.0
 20
0.0
 30
0.0
 11
-1.0
 21
0.0
 31
0.0
  0
ENDBLK
  5
3A
330
35
100
AcDbEntity
  8
0
100
AcDbBlockEnd
  0
BLOCK
  5
3C
330
3B
100
AcDbEntity
  8
0
100
AcDbBlockBegin
  2
_CLOSEDBLANK
 70
     0
 10
0.0
 20
0.0
 30
0.0
  3
_CLOSEDBLANK
  1

  0
LINE
  5
3D
330
3B
100
AcDbEntity
  8
0
  6
BYBLOCK
 62
     0
370
    -2
100
AcDbLine
 10
-1.0
 20
0.1666666666666666
 30
0.0
 11
0.0
 21
0.0
 31
0.0
  0
LINE
  5
3E
330
3B
100
AcDbEntity
  8
0
  6
BYBLOCK
 62
     0
370
    -2
100
AcDbLine
 10
0.0
 20
0.0
 30
0.0
 11
-1.0
 21
-0.1666666666666666
 31
0.0
  0
LINE
  5
3F
330
3B
100
AcDbEntity
  8
0
  6
BYBLOCK
 62
     0
370
    -2
100
AcDbLine
 10
-1.0
 20
0.1666666666666666
 30
0.0
 11
-1.0
 21
-0.1666666666666666
 31
0.0
  0
ENDBLK
  5
40
330
3B
100
AcDbEntity
  8
0
100
AcDbBlockEnd
  0
BLOCK
  5
42
330
41
100
AcDbEntity
  8
0
100
AcDbBlockBegin
  2
_DOTBLANK
 70
     0
 10
0.0
 20
0.0
 30
0.0
  3
_DOTBLANK
  1

  0
CIRCLE
  5
43
330
41
100
AcDbEntity
  8
0
  6
BYBLOCK
 62
     0
370
    -2
100
AcDbCircle
 10
0.0
 20
0.0
 30
0.0
 40
0.5
  0
LINE
  5
44
330
41
100
AcDbEntity
  8
0
  6
BYBLOCK
 62
     0
370
    -2
100
AcDbLine
 10
-0.5
 20
0.0
 30
0.0
 11
-1.0
 21
0.0
 31
0.0
  0
ENDBLK
  5
45
330
41
100
AcDbEntity
  8
0
100
AcDbBlockEnd
  0
ENDSEC
  0
SECTION
  2
ENTITIES
  0
MTEXT
  5
46
100
AcDbEntity
  8
A8
  6
CONTINUOUS
 62
3
100
AcDbMText
 10
9.999997526638502
 20
18.00000076076889
 30
0.000000000000000
 40
3.000000000000000
 41
0.000000000000000
 44
0.6739999771118164
 71
     7
 72
     1
  1
{\H0.94x;{TYPE No.TL-445-001}}
 11
1.000000000000000
 21
0.000000000000000
 31
0.000000000000000
  7
STANDARD
  0
POINT
  5
47
100
AcDbEntity
  8
A0
  6
CONTINUOUS
 62
3
100
AcDbPoint
 10
9.999997526638502
 20
18.00000076076889
 30
0.000000000000000
  0
POINT
  5
48
100
AcDbEntity
  8
A10
  6
CONTINUOUS
 62
3
100
AcDbPoint
 10
50.00000000000000
 20
50.00000000000000
 30
0.000000000000000
  0
LINE
  5
49
100
AcDbEntity
  8
A2
  6
CENTER
 62
1
100
AcDbLine
 10
41.84075638450919
 20
160.9033761626182
 30
0.000000000000000
 11
41.84075638450919
 21
109.3742999788140
 31
0.000000000000000
  0
LINE
  5
4A
100
AcDbEntity
  8
A4
  6
CONTINUOUS
 62
7
100
AcDbLine
 10
46.34075638450919
 20
143.1913761626183
 30
0.000000000000000
 11
37.34075638450919
 21
143.1913761626183
 31
0.000000000000000
  0
LINE
  5
4B
100
AcDbEntity
  8
A4
  6
CONTINUOUS
 62
7
100
AcDbLine
 10
50.84075638450919
 20
129.0067181626182
 30
0.000000000000000
 11
50.84075638450919
 21
119.4913769600055
 31
0.000000000000000
  0
LINE
  5
4C
100
AcDbEntity
  8
A4
  6
CONTINUOUS
 62
7
100
AcDbLine
 10
46.34075638450919
 20
143.1913761626183
 30
0.000000000000000
 11
46.34075638450919
 21
135.1913761626181
 31
0.000000000000000
  0
LINE
  5
4D
100
AcDbEntity
  8
A4
  6
CONTINUOUS
 62
7
100
AcDbLine
 10
32.69075638450919
 20
137.9471261626181
 30
0.000000000000000
 11
32.69075638450919
 21
122.6913761626182
 31
0.000000000000000
  0
LINE
  5
4E
100
AcDbEntity
  8
A4
  6
CONTINUOUS
 62
7
100
AcDbLine
 10
37.34075638450919
 20
143.1913761626183
 30
0.000000000000000
 11
37.34075638450919
 21
135.1913761626181
 31
0.000000000000000
  0
LINE
  5
4F
100
AcDbEntity
  8
A2
  6
CENTER
 62
1
100
AcDbLine
 10
48.84075638450919
 20
140.1913761626183
 30
0.000000000000000
 11
34.84075638450919
 21
140.1913761626183
 31
0.000000000000000
  0
LINE
  5
50
100
AcDbEntity
  8
A2
  6
CENTER
 62
1
100
AcDbLine
 10
55.49075638450919
 20
126.1913761626181
 30
0.000000000000000
 11
28.19075638450917
 21
126.1913761626181
 31
0.000000000000000
  0
LINE
  5
51
100
AcDbEntity
  8
A4
  6
CONTINUOUS
 62
7
100
AcDbLine
 10
165.7387173845091
 20
143.1913761626183
 30
0.000000000000000
 11
167.7599953845091
 21
143.1913761626183
 31
0.000000000000000
  0
LINE
  5
52
100
AcDbEntity
  8
A4
  6
CONTINUOUS
 62
7
100
AcDbLine
 10
165.7387173845091
 20
143.1913761626183
 30
0.000000000000000
 11
165.7387173845091
 21
118.6055897250854
 31
0.000000000000000
  0
LINE
  5
53
100
AcDbEntity
  8
A4
  6
CONTINUOUS
 62
7
100
AcDbLine
 10
167.2387173845092
 20
130.1913761626183
 30
0.000000000000000
 11
169.2387173845092
 21
130.1913761626183
 31
0.000000000000000
  0
LINE
  5
54
100
AcDbEntity
  8
A4
  6
CONTINUOUS
 62
7
100
AcDbLine
 10
174.7387173845092
 20
112.1913761626182
 30
0.000000000000000
 11
177.7387173845091
 21
112.1913761626182
 31
0.000000000000000
  0
LINE
  5
55
100
AcDbEntity
  8
A2
  6
CENTER
 62
1
100
AcDbLine
 10
41.84075638450919
 20
232.0342082811805
 30
0.000000000000000
 11
41.84075638450919
 21
210.0342082811806
 31
0.000000000000000
  0
LINE
  5
56
100
AcDbEntity
  8
A4
  6
CONTINUOUS
 62
7
100
AcDbLine
 10
33.84075638450919
 20
215.0342082811806
 30
0.000000000000000
 11
49.84075638450919
 21
215.0342082811806
 31
0.000000000000000
  0
LINE
  5
57
100
AcDbEntity
  8
A4
  6
CONTINUOUS
 62
7
100
AcDbLine
 10
37.34075638450919
 20
225.5342082811806
 30
0.000000000000000
 11
37.34075638450919
 21
224.0342082811805
 31
0.000000000000000
  0
LINE
  5
58
100
AcDbEntity
  8
A4
  6
CONTINUOUS
 62
7
100
AcDbLine
 10
46.34075638450919
 20
225.5342082811806
 30
0.000000000000000
 11
46.34075638450919
 21
224.0342082811805
 31
0.000000000000000
  0
LINE
  5
59
100
AcDbEntity
  8
A4
  6
CONTINUOUS
 62
7
100
AcDbLine
 10
45.34075638450919
 20
225.5342082811806
 30
0.000000000000000
 11
45.34075638450919
 21
224.0342082811805
 31
0.000000000000000
  0
LINE
  5
5A
100
AcDbEntity
  8
A4
  6
CONTINUOUS
 62
7
100
AcDbLine
 10
38.34075638450919
 20
225.5342082811806
 30
0.000000000000000
 11
38.34075638450919
 21
224.0342082811805
 31
0.000000000000000
  0
LINE
  5
5B
100
AcDbEntity
  8
A4
  6
CONTINUOUS
 62
7
100
AcDbLine
 10
38.34075638450919
 20
216.0342082811804
 30
0.000000000000000
 11
45.34075638450919
 21
216.0342082811804
 31
0.000000000000000
  0
LINE
  5
5C
100
AcDbEntity
  8
A4
  6
CONTINUOUS
 62
7
100
AcDbLine
 10
35.59075638450919
 20
227.0342082811806
 30
0.000000000000000
 11
48.09075638450919
 21
227.0342082811806
 31
0.000000000000000
  0
LINE
  5
5D
100
AcDbEntity
  8
A4
  6
CONTINUOUS
 62
7
100
AcDbLine
 10
38.44075638450919
 20
217.0342082811806
 30
0.000000000000000
 11
39.94075638450919
 21
217.0342082811806
 31
0.000000000000000
  0
LINE
  5
5E
100
AcDbEntity
  8
A4
  6
CONTINUOUS
 62
7
100
AcDbLine
 10
43.74075638450919
 20
217.0342082811806
 30
0.000000000000000
 11
45.24075638450919
 21
217.0342082811806
 31
0.000000000000000
  0
LINE
  5
5F
100
AcDbEntity
  8
A4
  6
CONTINUOUS
 62
7
100
AcDbLine
 10
177.7387173845091
 20
143.1913761626183
 30
0.000000000000000
 11
177.7387173845091
 21
112.1913761626182
 31
0.000000000000000
  0
LINE
  5
60
100
AcDbEntity
  8
A4
  6
CONTINUOUS
 62
7
100
AcDbLine
 10
176.2387173845092
 20
128.1913761626183
 30
0.000000000000000
 11
176.2387173845092
 21
121.4913769600908
 31
0.000000000000000
  0
LINE
  5
61
100
AcDbEntity
  8
A4
  6
CONTINUOUS
 62
7
100
AcDbLine
 10
167.2387173845092
 20
150.1913761626183
 30
0.000000000000000
 11
169.2387173845092
 21
150.1913761626183
 31
0.000000000000000
  0
LINE
  5
62
100
AcDbEntity
  8
A4
  6
CONTINUOUS
 62
7
100
AcDbLine
 10
167.2387173845092
 20
147.1913761626183
 30
0.000000000000000
 11
169.2387173845092
 21
147.1913761626183
 31
0.000000000000000
  0
LINE
  5
63
100
AcDbEntity
  8
A4
  6
CONTINUOUS
 62
7
100
AcDbLine
 10
176.2387173845092
 20
150.1913761626183
 30
0.000000000000000
 11
176.2387173845092
 21
147.1913761626183
 31
0.000000000000000
  0
LINE
  5
64
100
AcDbEntity
  8
A4
  6
CONTINUOUS
 62
7
100
AcDbLine
 10
167.2387173845092
 20
150.1913761626183
 30
0.000000000000000
 11
167.2387173845092
 21
147.1913761626183
 31
0.000000000000000
  0
LINE
  5
65
100
AcDbEntity
  8
A4
  6
CONTINUOUS
 62
7
100
AcDbLine
 10
174.2387173845092
 20
147.1913761626183
 30
0.000000000000000
 11
176.2387173845092
 21
147.1913761626183
 31
0.000000000000000
  0
LINE
  5
66
100
AcDbEntity
  8
A4
  6
CONTINUOUS
 62
7
100
AcDbLine
 10
50.99075638450918
 20
150.1913761626183
 30
0.000000000000000
 11
50.99075638450918
 21
146.4359591626183
 31
0.000000000000000
  0
LINE
  5
67
100
AcDbEntity
  8
A4
  6
CONTINUOUS
 62
7
100
AcDbLine
 10
52.49075638450919
 20
153.1913761626183
 30
0.000000000000000
 11
50.84075638450919
 21
153.1913761626183
 31
0.000000000000000
  0
LINE
  5
68
100
AcDbEntity
  8
A4
  6
CONTINUOUS
 62
7
100
AcDbLine
 10
52.49075638450919
 20
122.6913761626182
 30
0.000000000000000
 11
50.99075638450918
 21
122.6913761626182
 31
0.000000000000000
  0
LINE
  5
69
100
AcDbEntity
  8
A4
  6
CONTINUOUS
 62
7
100
AcDbLine
 10
30.19075638450918
 20
125.0663761626182
 30
0.000000000000000
 11
30.19075638450918
 21
127.3163761626183
 31
0.000000000000000
  0
LINE
  5
6A
100
AcDbEntity
  8
A4
  6
CONTINUOUS
 62
7
100
AcDbLine
 10
53.49075638450918
 20
125.0663761626182
 30
0.000000000000000
 11
53.49075638450918
 21
127.3163761626183
 31
0.000000000000000
  0
LINE
  5
6B
100
AcDbEntity
  8
A4
  6
CONTINUOUS
 62
7
100
AcDbLine
 10
53.49075638450918
 20
127.3163761626183
 30
0.000000000000000
 11
52.49075638450919
 21
127.3163761626183
 31
0.000000000000000
  0
LINE
  5
6C
100
AcDbEntity
  8
A4
  6
CONTINUOUS
 62
7
100
AcDbLine
 10
53.49075638450918
 20
125.0663761626182
 30
0.000000000000000
 11
52.49075638450919
 21
125.0663761626182
 31
0.000000000000000
  0
LINE
  5
6D
100
AcDbEntity
  8
A4
  6
CONTINUOUS
 62
7
100
AcDbLine
 10
31.19075638450918
 20
125.0663761626182
 30
0.000000000000000
 11
30.19075638450918
 21
125.0663761626182
 31
0.000000000000000
  0
LINE
  5
6E
100
AcDbEntity
  8
A4
  6
CONTINUOUS
 62
7
100
AcDbLine
 10
31.19075638450918
 20
127.3163761626183
 30
0.000000000000000
 11
30.19075638450918
 21
127.3163761626183
 31
0.000000000000000
  0
LINE
  5
6F
100
AcDbEntity
  8
A4
  6
CONTINUOUS
 62
7
100
AcDbLine
 10
46.84075638450919
 20
141.6913761626183
 30
0.000000000000000
 11
46.84075638450919
 21
138.6913761626183
 31
0.000000000000000
  0
LINE
  5
70
100
AcDbEntity
  8
A4
  6
CONTINUOUS
 62
7
100
AcDbLine
 10
36.84075638450919
 20
141.6913761626183
 30
0.000000000000000
 11
36.84075638450919
 21
138.6913761626183
 31
0.000000000000000
  0
LINE
  5
71
100
AcDbEntity
  8
A4
  6
CONTINUOUS
 62
7
100
AcDbLine
 10
36.84075638450919
 20
141.6913761626183
 30
0.000000000000000
 11
37.34075638450919
 21
141.6913761626183
 31
0.000000000000000
  0
LINE
  5
72
100
AcDbEntity
  8
A4
  6
CONTINUOUS
 62
7
100
AcDbLine
 10
36.84075638450919
 20
138.6913761626183
 30
0.000000000000000
 11
37.34075638450919
 21
138.6913761626183
 31
0.000000000000000
  0
LINE
  5
73
100
AcDbEntity
  8
A4
  6
CONTINUOUS
 62
7
100
AcDbLine
 10
52.34075638450919
 20
157.0663761626181
 30
0.000000000000000
 11
52.34075638450919
 21
159.3163761626183
 31
0.000000000000000
  0
LINE
  5
74
100
AcDbEntity
  8
A4
  6
CONTINUOUS
 62
7
100
AcDbLine
 10
31.34075638450919
 20
157.0663761626181
 30
0.000000000000000
 11
31.34075638450919
 21
159.3163761626183
 31
0.000000000000000
  0
LINE
  5
75
100
AcDbEntity
  8
A4
  6
CONTINUOUS
 62
7
100
AcDbLine
 10
52.34075638450919
 20
157.0663761626181
 30
0.000000000000000
 11
51.34075638450919
 21
157.0663761626181
 31
0.000000000000000
  0
LINE
  5
76
100
AcDbEntity
  8
A4
  6
CONTINUOUS
 62
7
100
AcDbLine
 10
52.34075638450919
 20
159.3163761626183
 30
0.000000000000000
 11
51.34075638450919
 21
159.3163761626183
 31
0.000000000000000
  0
LINE
  5
77
100
AcDbEntity
  8
A4
  6
CONTINUOUS
 62
7
100
AcDbLine
 10
49.84075638450919
 20
154.1913761626183
 30
0.000000000000000
 11
49.84075638450919
 21
160.6913761626183
 31
0.000000000000000
  0
LINE
  5
78
100
AcDbEntity
  8
A4
  6
CONTINUOUS
 62
7
100
AcDbLine
 10
33.84075638450919
 20
154.1913761626183
 30
0.000000000000000
 11
33.84075638450919
 21
160.6913761626183
 31
0.000000000000000
  0
LINE
  5
79
100
AcDbEntity
  8
A4
  6
CONTINUOUS
 62
7
100
AcDbLine
 10
32.34075638450919
 20
157.0663761626181
 30
0.000000000000000
 11
31.34075638450919
 21
157.0663761626181
 31
0.000000000000000
  0
LINE
  5
7A
100
AcDbEntity
  8
A4
  6
CONTINUOUS
 62
7
100
AcDbLine
 10
32.34075638450919
 20
159.3163761626183
 30
0.000000000000000
 11
31.34075638450919
 21
159.3163761626183
 31
0.000000000000000
  0
LINE
  5
7B
100
AcDbEntity
  8
A4
  6
CONTINUOUS
 62
7
100
AcDbLine
 10
46.34075638450919
 20
141.6913761626183
 30
0.000000000000000
 11
46.84075638450919
 21
141.6913761626183
 31
0.000000000000000
  0
LINE
  5
7C
100
AcDbEntity
  8
A4
  6
CONTINUOUS
 62
7
100
AcDbLine
 10
46.34075638450919
 20
138.6913761626183
 30
0.000000000000000
 11
46.84075638450919
 21
138.6913761626183
 31
0.000000000000000
  0
LINE
  5
7D
100
AcDbEntity
  8
A4
  6
CONTINUOUS
 62
7
100
AcDbLine
 10
167.2387173845092
 20
134.1913761626181
 30
0.000000000000000
 11
176.2387173845092
 21
134.1913761626181
 31
0.000000000000000
  0
LINE
  5
7E
100
AcDbEntity
  8
A4
  6
CONTINUOUS
 62
7
100
AcDbLine
 10
176.2387173845092
 20
137.1913761626181
 30
0.000000000000000
 11
176.2387173845092
 21
134.1913761626181
 31
0.000000000000000
  0
LINE
  5
7F
100
AcDbEntity
  8
A4
  6
CONTINUOUS
 62
7
100
AcDbLine
 10
167.2387173845092
 20
137.1913761626181
 30
0.000000000000000
 11
167.2387173845092
 21
134.1913761626181
 31
0.000000000000000
  0
LINE
  5
80
100
AcDbEntity
  8
A4
  6
CONTINUOUS
 62
7
100
AcDbLine
 10
174.2387173845092
 20
154.6913761626181
 30
0.000000000000000
 11
174.2387173845092
 21
147.0117491626182
 31
0.000000000000000
  0
LINE
  5
81
100
AcDbEntity
  8
A4
  6
CONTINUOUS
 62
7
100
AcDbLine
 10
167.2387173845092
 20
137.1913761626181
 30
0.000000000000000
 11
169.2387173845092
 21
137.1913761626181
 31
0.000000000000000
  0
LINE
  5
82
100
AcDbEntity
  8
A4
  6
CONTINUOUS
 62
7
100
AcDbLine
 10
174.2387173845092
 20
154.6913761626181
 30
0.000000000000000
 11
175.4427173845092
 21
157.0103761626181
 31
0.000000000000000
  0
LINE
  5
83
100
AcDbEntity
  8
A4
  6
CONTINUOUS
 62
7
100
AcDbLine
 10
169.2387173845092
 20
154.6913761626181
 30
0.000000000000000
 11
170.9017173845092
 21
159.0773761626184
 31
0.000000000000000
  0
LINE
  5
84
100
AcDbEntity
  8
A4
  6
CONTINUOUS
 62
7
100
AcDbLine
 10
169.2387173845092
 20
154.6913761626181
 30
0.000000000000000
 11
174.2387173845092
 21
154.6913761626181
 31
0.000000000000000
  0
LINE
  5
85
100
AcDbEntity
  8
A4
  6
CONTINUOUS
 62
7
100
AcDbLine
 10
32.69075638450919
 20
150.1913761626183
 30
0.000000000000000
 11
32.69075638450919
 21
146.8678011626183
 31
0.000000000000000
  0
LINE
  5
86
100
AcDbEntity
  8
A4
  6
CONTINUOUS
 62
7
100
AcDbLine
 10
31.19075638450918
 20
122.6913761626182
 30
0.000000000000000
 11
32.69075638450919
 21
122.6913761626182
 31
0.000000000000000
  0
LINE
  5
87
100
AcDbEntity
  8
A4
  6
CONTINUOUS
 62
7
100
AcDbLine
 10
31.19075638450918
 20
134.1913761626181
 30
0.000000000000000
 11
29.69075638450919
 21
134.1913761626181
 31
0.000000000000000
  0
LINE
  5
88
100
AcDbEntity
  8
A4
  6
CONTINUOUS
 62
7
100
AcDbLine
 10
32.34075638450919
 20
160.6913761626183
 30
0.000000000000000
 11
32.34075638450919
 21
154.6913761626181
 31
0.000000000000000
  0
LINE
  5
89
100
AcDbEntity
  8
A4
  6
CONTINUOUS
 62
7
100
AcDbLine
 10
31.19075638450918
 20
153.1913761626183
 30
0.000000000000000
 11
31.19075638450918
 21
146.6302881626182
 31
0.000000000000000
  0
LINE
  5
8A
100
AcDbEntity
  8
A4
  6
CONTINUOUS
 62
7
100
AcDbLine
 10
29.69075638450919
 20
153.6913761626183
 30
0.000000000000000
 11
29.69075638450919
 21
146.4143671626183
 31
0.000000000000000
  0
LINE
  5
8B
100
AcDbEntity
  8
A4
  6
CONTINUOUS
 62
7
100
AcDbLine
 10
33.84075638450919
 20
160.6913761626183
 30
0.000000000000000
 11
32.34075638450919
 21
160.6913761626183
 31
0.000000000000000
  0
LINE
  5
8C
100
AcDbEntity
  8
A4
  6
CONTINUOUS
 62
7
100
AcDbLine
 10
32.84075638450918
 20
153.1913761626183
 30
0.000000000000000
 11
31.19075638450918
 21
153.1913761626183
 31
0.000000000000000
  0
LINE
  5
8D
100
AcDbEntity
  8
A4
  6
CONTINUOUS
 62
7
100
AcDbLine
 10
32.34075638450919
 20
154.6913761626181
 30
0.000000000000000
 11
30.69075638450919
 21
154.6913761626181
 31
0.000000000000000
  0
LINE
  5
8E
100
AcDbEntity
  8
A4
  6
CONTINUOUS
 62
7
100
AcDbLine
 10
52.49075638450919
 20
134.1913761626181
 30
0.000000000000000
 11
53.99075638450918
 21
134.1913761626181
 31
0.000000000000000
  0
LINE
  5
8F
100
AcDbEntity
  8
A4
  6
CONTINUOUS
 62
7
100
AcDbLine
 10
51.34075638450919
 20
160.6913761626183
 30
0.000000000000000
 11
51.34075638450919
 21
154.6913761626181
 31
0.000000000000000
  0
LINE
  5
90
100
AcDbEntity
  8
A4
  6
CONTINUOUS
 62
7
100
AcDbLine
 10
52.49075638450919
 20
153.1913761626183
 30
0.000000000000000
 11
52.49075638450919
 21
146.6734721626181
 31
0.000000000000000
  0
LINE
  5
91
100
AcDbEntity
  8
A4
  6
CONTINUOUS
 62
7
100
AcDbLine
 10
53.99075638450918
 20
153.6913761626183
 30
0.000000000000000
 11
53.99075638450918
 21
146.8234621626182
 31
0.000000000000000
  0
LINE
  5
92
100
AcDbEntity
  8
A4
  6
CONTINUOUS
 62
7
100
AcDbLine
 10
49.84075638450919
 20
160.6913761626183
 30
0.000000000000000
 11
51.34075638450919
 21
160.6913761626183
 31
0.000000000000000
  0
LINE
  5
93
100
AcDbEntity
  8
A4
  6
CONTINUOUS
 62
7
100
AcDbLine
 10
51.34075638450919
 20
154.6913761626181
 30
0.000000000000000
 11
52.99075638450919
 21
154.6913761626181
 31
0.000000000000000
  0
LINE
  5
94
100
AcDbEntity
  8
A2
  6
CENTER
 62
1
100
AcDbLine
 10
29.34075638450919
 20
158.1913761626181
 30
0.000000000000000
 11
54.34075638450918
 21
158.1913761626181
 31
0.000000000000000
  0
LINE
  5
95
100
AcDbEntity
  8
A4
  6
CONTINUOUS
 62
7
100
AcDbLine
 10
174.2387173845092
 20
150.1913761626183
 30
0.000000000000000
 11
176.2387173845092
 21
150.1913761626183
 31
0.000000000000000
  0
LINE
  5
96
100
AcDbEntity
  8
A4
  6
CONTINUOUS
 62
7
100
AcDbLine
 10
169.2387173845092
 20
134.1913761626181
 30
0.000000000000000
 11
169.2387173845092
 21
125.1913761626181
 31
0.000000000000000
  0
LINE
  5
97
100
AcDbEntity
  8
A4
  6
CONTINUOUS
 62
7
100
AcDbLine
 10
174.2387173845092
 20
134.1913761626181
 30
0.000000000000000
 11
174.2387173845092
 21
125.1913761626181
 31
0.000000000000000
  0
LINE
  5
98
100
AcDbEntity
  8
A4
  6
CONTINUOUS
 62
7
100
AcDbLine
 10
176.1891193845091
 20
143.1913761626183
 30
0.000000000000000
 11
177.7387173845091
 21
143.1913761626183
 31
0.000000000000000
  0
LINE
  5
99
100
AcDbEntity
  8
A4
  6
CONTINUOUS
 62
7
100
AcDbLine
 10
33.84075638450919
 20
221.0342082811806
 30
0.000000000000000
 11
49.84075638450919
 21
221.0342082811806
 31
0.000000000000000
  0
LINE
  5
9A
100
AcDbEntity
  8
A4
  6
CONTINUOUS
 62
7
100
AcDbLine
 10
33.84075638450919
 20
224.0342082811805
 30
0.000000000000000
 11
49.84075638450919
 21
224.0342082811805
 31
0.000000000000000
  0
LINE
  5
9B
100
AcDbEntity
  8
A4
  6
CONTINUOUS
 62
7
100
AcDbLine
 10
32.69075638450919
 20
225.5342082811806
 30
0.000000000000000
 11
32.69075638450919
 21
225.0342082811806
 31
0.000000000000000
  0
LINE
  5
9C
100
AcDbEntity
  8
A4
  6
CONTINUOUS
 62
7
100
AcDbLine
 10
33.84075638450919
 20
225.5342082811806
 30
0.000000000000000
 11
33.84075638450919
 21
218.5342082811806
 31
0.000000000000000
  0
LINE
  5
9D
100
AcDbEntity
  8
A4
  6
CONTINUOUS
 62
7
100
AcDbLine
 10
33.84075638450919
 20
225.0342082811806
 30
0.000000000000000
 11
32.34075638450919
 21
225.0342082811806
 31
0.000000000000000
  0
LINE
  5
9E
100
AcDbEntity
  8
A4
  6
CONTINUOUS
 62
7
100
AcDbLine
 10
32.34075638450919
 20
225.0342082811806
 30
0.000000000000000
 11
32.34075638450919
 21
218.5342082811806
 31
0.000000000000000
  0
LINE
  5
9F
100
AcDbEntity
  8
A4
  6
CONTINUOUS
 62
7
100
AcDbLine
 10
29.69075638450919
 20
225.5342082811806
 30
0.000000000000000
 11
29.69075638450919
 21
225.2768492811806
 31
0.000000000000000
  0
LINE
  5
A0
100
AcDbEntity
  8
A4
  6
CONTINUOUS
 62
7
100
AcDbLine
 10
33.84075638450919
 20
218.5342082811806
 30
0.000000000000000
 11
29.69075638450919
 21
218.5342082811806
 31
0.000000000000000
  0
LINE
  5
A1
100
AcDbEntity
  8
A4
  6
CONTINUOUS
 62
7
100
AcDbLine
 10
32.69075638450919
 20
216.5342082811806
 30
0.000000000000000
 11
31.19075638450918
 21
216.5342082811806
 31
0.000000000000000
  0
LINE
  5
A2
100
AcDbEntity
  8
A4
  6
CONTINUOUS
 62
7
100
AcDbLine
 10
31.19075638450918
 20
216.5342082811806
 30
0.000000000000000
 11
29.69075638450919
 21
216.5342082811806
 31
0.000000000000000
  0
LINE
  5
A3
100
AcDbEntity
  8
A4
  6
CONTINUOUS
 62
7
100
AcDbLine
 10
31.34075638450919
 20
223.6592082811806
 30
0.000000000000000
 11
31.34075638450919
 21
221.4092082811806
 31
0.000000000000000
  0
LINE
  5
A4
100
AcDbEntity
  8
A4
  6
CONTINUOUS
 62
7
100
AcDbLine
 10
32.34075638450919
 20
223.6592082811806
 30
0.000000000000000
 11
31.34075638450919
 21
223.6592082811806
 31
0.000000000000000
  0
LINE
  5
A5
100
AcDbEntity
  8
A4
  6
CONTINUOUS
 62
7
100
AcDbLine
 10
32.34075638450919
 20
221.4092082811806
 30
0.000000000000000
 11
31.34075638450919
 21
221.4092082811806
 31
0.000000000000000
  0
LINE
  5
A6
100
AcDbEntity
  8
A2
  6
CENTER
 62
1
100
AcDbLine
 10
296.6108963845092
 20
140.1913761626183
 30
0.000000000000000
 11
309.2108963845091
 21
140.1913761626183
 31
0.000000000000000
  0
LINE
  5
A7
100
AcDbEntity
  8
A2
  6
CENTER
 62
1
100
AcDbLine
 10
292.6108963845092
 20
117.1913761626182
 30
0.000000000000000
 11
296.6108963845092
 21
117.1913761626182
 31
0.000000000000000
  0
LINE
  5
A8
100
AcDbEntity
  8
A4
  6
CONTINUOUS
 62
7
100
AcDbLine
 10
299.1108963845092
 20
138.6913761626183
 30
0.000000000000000
 11
298.6108963845092
 21
138.6913761626183
 31
0.000000000000000
  0
LINE
  5
A9
100
AcDbEntity
  8
A4
  6
CONTINUOUS
 62
7
100
AcDbLine
 10
298.6108963845092
 20
141.6913761626183
 30
0.000000000000000
 11
298.6108963845092
 21
138.6913761626183
 31
0.000000000000000
  0
LINE
  5
AA
100
AcDbEntity
  8
A4
  6
CONTINUOUS
 62
7
100
AcDbLine
 10
308.6108963845092
 20
141.6913761626183
 30
0.000000000000000
 11
308.6108963845092
 21
138.6913761626183
 31
0.000000000000000
  0
LINE
  5
AB
100
AcDbEntity
  8
A4
  6
CONTINUOUS
 62
7
100
AcDbLine
 10
308.6108963845092
 20
141.6913761626183
 30
0.000000000000000
 11
308.1108963845091
 21
141.6913761626183
 31
0.000000000000000
  0
LINE
  5
AC
100
AcDbEntity
  8
A4
  6
CONTINUOUS
 62
7
100
AcDbLine
 10
308.6108963845092
 20
138.6913761626183
 30
0.000000000000000
 11
308.1108963845091
 21
138.6913761626183
 31
0.000000000000000
  0
LINE
  5
AD
100
AcDbEntity
  8
A4
  6
CONTINUOUS
 62
7
100
AcDbLine
 10
299.1108963845092
 20
141.6913761626183
 30
0.000000000000000
 11
298.6108963845092
 21
141.6913761626183
 31
0.000000000000000
  0
LINE
  5
AE
100
AcDbEntity
  8
A4
  6
CONTINUOUS
 62
7
100
AcDbLine
 10
311.3608963845092
 20
112.1913761626182
 30
0.000000000000000
 11
295.8608963845092
 21
112.1913761626182
 31
0.000000000000000
  0
LINE
  5
AF
100
AcDbEntity
  8
A4
  6
CONTINUOUS
 62
7
100
AcDbLine
 10
311.3608963845092
 20
128.8483761626181
 30
0.000000000000000
 11
311.3608963845092
 21
112.1913761626182
 31
0.000000000000000
  0
LINE
  5
B0
100
AcDbEntity
  8
A4
  6
CONTINUOUS
 62
7
100
AcDbLine
 10
295.8608963845092
 20
128.8483761626181
 30
0.000000000000000
 11
295.8608963845092
 21
112.1913761626182
 31
0.000000000000000
  0
LINE
  5
B1
100
AcDbEntity
  8
A4
  6
CONTINUOUS
 62
7
100
AcDbLine
 10
307.0108963845090
 20
143.1913761626183
 30
0.000000000000000
 11
307.0108963845090
 21
134.6913761626183
 31
0.000000000000000
  0
LINE
  5
B2
100
AcDbEntity
  8
A4
  6
CONTINUOUS
 62
7
100
AcDbLine
 10
300.2108963845091
 20
143.1913761626183
 30
0.000000000000000
 11
300.2108963845091
 21
134.6913761626183
 31
0.000000000000000
  0
LINE
  5
B3
100
AcDbEntity
  8
A2
  6
CENTER
 62
1
100
AcDbLine
 10
303.6108963845092
 20
161.1913761626183
 30
0.000000000000000
 11
303.6108963845092
 21
107.3970418099496
 31
0.000000000000000
  0
LINE
  5
B4
100
AcDbEntity
  8
A4
  6
CONTINUOUS
 62
7
100
AcDbLine
 10
308.1108963845091
 20
143.1913761626183
 30
0.000000000000000
 11
299.1108963845092
 21
143.1913761626183
 31
0.000000000000000
  0
LINE
  5
B5
100
AcDbEntity
  8
A4
  6
CONTINUOUS
 62
7
100
AcDbLine
 10
308.1108963845091
 20
143.1913761626183
 30
0.000000000000000
 11
308.1108963845091
 21
135.1913761626181
 31
0.000000000000000
  0
LINE
  5
B6
100
AcDbEntity
  8
A4
  6
CONTINUOUS
 62
7
100
AcDbLine
 10
299.1108963845092
 20
143.1913761626183
 30
0.000000000000000
 11
299.1108963845092
 21
135.1913761626181
 31
0.000000000000000
  0
LINE
  5
B7
100
AcDbEntity
  8
A4
  6
CONTINUOUS
 62
7
100
AcDbLine
 10
307.1108963845092
 20
143.1913761626183
 30
0.000000000000000
 11
307.1108963845092
 21
135.1913761626181
 31
0.000000000000000
  0
LINE
  5
B8
100
AcDbEntity
  8
A4
  6
CONTINUOUS
 62
7
100
AcDbLine
 10
311.6108963845092
 20
129.3823761626180
 30
0.000000000000000
 11
311.6108963845092
 21
118.3498595832895
 31
0.000000000000000
  0
LINE
  5
B9
100
AcDbEntity
  8
A4
  6
CONTINUOUS
 62
7
100
AcDbLine
 10
300.1108963845092
 20
143.1913761626183
 30
0.000000000000000
 11
300.1108963845092
 21
135.1913761626181
 31
0.000000000000000
  0
LINE
  5
BA
100
AcDbEntity
  8
A4
  6
CONTINUOUS
 62
7
100
AcDbLine
 10
295.6108963845091
 20
129.3823761626180
 30
0.000000000000000
 11
295.6108963845091
 21
119.4913769599945
 31
0.000000000000000
  0
LINE
  5
BB
100
AcDbEntity
  8
A2
  6
CENTER
 62
1
100
AcDbLine
 10
317.2608963845091
 20
126.1913761626181
 30
0.000000000000000
 11
289.9608963845091
 21
126.1913761626181
 31
0.000000000000000
  0
LINE
  5
BC
100
AcDbEntity
  8
A4
  6
CONTINUOUS
 62
7
100
AcDbLine
 10
169.2387173845092
 20
154.6913761626181
 30
0.000000000000000
 11
169.2387173845092
 21
146.2920121626183
 31
0.000000000000000
  0
LINE
  5
BD
100
AcDbEntity
  8
A4
  6
CONTINUOUS
 62
7
100
AcDbLine
 10
27.29041038450919
 20
138.5834361626182
 30
0.000000000000000
 11
34.89126938450919
 21
139.6775591626183
 31
0.000000000000000
  0
LINE
  5
BE
100
AcDbEntity
  8
A4
  6
CONTINUOUS
 62
7
100
AcDbLine
 10
27.48958838450919
 20
137.1991161626183
 30
0.000000000000000
 11
35.09058838450920
 21
138.2922601626183
 31
0.000000000000000
  0
LINE
  5
BF
100
AcDbEntity
  8
A4
  6
CONTINUOUS
 62
7
100
AcDbLine
 10
27.48958838450918
 20
138.6941161626182
 30
0.000000000000000
 11
35.09058838450918
 21
139.7872601626183
 31
0.000000000000000
  0
LINE
  5
C0
100
AcDbEntity
  8
A4
  6
CONTINUOUS
 62
7
100
AcDbLine
 10
27.29041038450918
 20
140.0784361626183
 30
0.000000000000000
 11
34.89126938450919
 21
141.1725591626181
 31
0.000000000000000
  0
LINE
  5
C1
100
AcDbEntity
  8
A4
  6
CONTINUOUS
 62
7
100
AcDbLine
 10
27.29041038450919
 20
141.5734361626183
 30
0.000000000000000
 11
34.89126938450919
 21
142.6675591626183
 31
0.000000000000000
  0
LINE
  5
C2
100
AcDbEntity
  8
A4
  6
CONTINUOUS
 62
7
100
AcDbLine
 10
27.48958838450919
 20
140.1891161626182
 30
0.000000000000000
 11
35.09058838450919
 21
141.2822601626182
 31
0.000000000000000
  0
LINE
  5
C3
100
AcDbEntity
  8
A4
  6
CONTINUOUS
 62
7
100
AcDbLine
 10
27.48777838450919
 20
141.6838561626181
 30
0.000000000000000
 11
35.09194638450918
 21
142.7774551626181
 31
0.000000000000000
  0
LINE
  5
C4
100
AcDbEntity
  8
A4
  6
CONTINUOUS
 62
7
100
AcDbLine
 10
27.28905138450918
 20
143.0650401626183
 30
0.000000000000000
 11
34.89307838450918
 21
144.1596201626183
 31
0.000000000000000
  0
LINE
  5
C5
100
AcDbEntity
  8
A4
  6
CONTINUOUS
 62
7
100
AcDbLine
 10
27.30534938450918
 20
144.5975861626182
 30
0.000000000000000
 11
34.87136838450918
 21
145.6866951626183
 31
0.000000000000000
  0
LINE
  5
C6
100
AcDbEntity
  8
A4
  6
CONTINUOUS
 62
7
100
AcDbLine
 10
27.50948938450919
 20
143.1787781626183
 30
0.000000000000000
 11
35.07564838450917
 21
144.2669111626181
 31
0.000000000000000
  0
LINE
  5
C7
100
AcDbEntity
  8
A4
  6
CONTINUOUS
 62
7
100
AcDbLine
 10
27.51225638450918
 20
144.7093761626183
 30
0.000000000000000
 11
35.11225638450919
 21
145.8023761626181
 31
0.000000000000000
  0
LINE
  5
C8
100
AcDbEntity
  8
A4
  6
CONTINUOUS
 62
7
100
AcDbLine
 10
27.26915638450918
 20
146.0873761626182
 30
0.000000000000000
 11
34.86915638450918
 21
147.1813761626181
 31
0.000000000000000
  0
LINE
  5
C9
100
AcDbEntity
  8
A4
  6
CONTINUOUS
 62
7
100
AcDbLine
 10
27.39075638450917
 20
147.1913761626183
 30
0.000000000000000
 11
29.69075638450919
 21
147.1913761626183
 31
0.000000000000000
  0
LINE
  5
CA
100
AcDbEntity
  8
A4
  6
CONTINUOUS
 62
7
100
AcDbLine
 10
27.45405638450917
 20
137.1913761626181
 30
0.000000000000000
 11
31.19075638450918
 21
137.1913761626181
 31
0.000000000000000
  0
LINE
  5
CB
100
AcDbEntity
  8
A4
  6
CONTINUOUS
 62
7
100
AcDbLine
 10
31.19075638450918
 20
137.7314031626182
 30
0.000000000000000
 11
31.19075638450918
 21
122.6913761626182
 31
0.000000000000000
  0
LINE
  5
CC
100
AcDbEntity
  8
A4
  6
CONTINUOUS
 62
7
100
AcDbLine
 10
29.69075638450919
 20
137.4941071626182
 30
0.000000000000000
 11
29.69075638450919
 21
134.1913761626181
 31
0.000000000000000
  0
LINE
  5
CD
100
AcDbEntity
  8
A4
  6
CONTINUOUS
 62
7
100
AcDbLine
 10
53.99075638450918
 20
137.9471261626181
 30
0.000000000000000
 11
53.99075638450918
 21
134.1913761626181
 31
0.000000000000000
  0
LINE
  5
CE
100
AcDbEntity
  8
A4
  6
CONTINUOUS
 62
7
100
AcDbLine
 10
52.49075638450919
 20
137.7314031626182
 30
0.000000000000000
 11
52.49075638450919
 21
122.6913761626182
 31
0.000000000000000
  0
LINE
  5
CF
100
AcDbEntity
  8
A4
  6
CONTINUOUS
 62
7
100
AcDbLine
 10
29.69075638450919
 20
216.7915682811806
 30
0.000000000000000
 11
29.69075638450919
 21
216.5342082811806
 31
0.000000000000000
  0
LINE
  5
D0
100
AcDbEntity
  8
A4
  6
CONTINUOUS
 62
7
100
AcDbLine
 10
31.19075638450918
 20
225.5342082811806
 30
0.000000000000000
 11
31.19075638450918
 21
223.5342082811806
 31
0.000000000000000
  0
LINE
  5
D1
100
AcDbEntity
  8
A2
  6
CENTER
 62
1
100
AcDbLine
 10
358.6108963845092
 20
158.1913761626181
 30
0.000000000000000
 11
388.6108963845092
 21
158.1913761626181
 31
0.000000000000000
  0
LINE
  5
D2
100
AcDbEntity
  8
A4
  6
CONTINUOUS
 62
7
100
AcDbLine
 10
106.8403563845092
 20
154.6913761626181
 30
0.000000000000000
 11
96.84035638450919
 21
154.6913761626181
 31
0.000000000000000
  0
LINE
  5
D3
100
AcDbEntity
  8
A4
  6
CONTINUOUS
 62
7
100
AcDbLine
 10
110.8403563845092
 20
162.1913761626181
 30
0.000000000000000
 11
92.84035638450919
 21
162.1913761626181
 31
0.000000000000000
  0
LINE
  5
D4
100
AcDbEntity
  8
A4
  6
CONTINUOUS
 62
7
100
AcDbLine
 10
106.8403563845092
 20
161.4103761626182
 30
0.000000000000000
 11
106.8403563845092
 21
154.6913761626181
 31
0.000000000000000
  0
LINE
  5
D5
100
AcDbEntity
  8
A4
  6
CONTINUOUS
 62
7
100
AcDbLine
 10
96.84035638450919
 20
161.4103761626182
 30
0.000000000000000
 11
96.84035638450919
 21
154.6913761626181
 31
0.000000000000000
  0
LINE
  5
D6
100
AcDbEntity
  8
A4
  6
CONTINUOUS
 62
7
100
AcDbLine
 10
95.13335638450916
 20
156.3983761626182
 30
0.000000000000000
 11
92.92735638450920
 21
154.1923761626183
 31
0.000000000000000
  0
LINE
  5
D7
100
AcDbEntity
  8
A4
  6
CONTINUOUS
 62
7
100
AcDbLine
 10
108.5473563845092
 20
156.3983761626182
 30
0.000000000000000
 11
110.7543563845091
 21
154.1923761626183
 31
0.000000000000000
  0
LINE
  5
D8
100
AcDbEntity
  8
A4
  6
CONTINUOUS
 62
7
100
AcDbLine
 10
105.8403563845092
 20
161.4103761626182
 30
0.000000000000000
 11
97.84035638450919
 21
161.4103761626182
 31
0.000000000000000
  0
LINE
  5
D9
100
AcDbEntity
  8
A4
  6
CONTINUOUS
 62
7
100
AcDbLine
 10
229.5498963845092
 20
156.6913761626183
 30
0.000000000000000
 11
231.5498963845092
 21
156.6913761626183
 31
0.000000000000000
  0
LINE
  5
DA
100
AcDbEntity
  8
A4
  6
CONTINUOUS
 62
7
100
AcDbLine
 10
232.0498963845092
 20
154.1923761626183
 30
0.000000000000000
 11
234.0498963845092
 21
154.1923761626183
 31
0.000000000000000
  0
LINE
  5
DB
100
AcDbEntity
  8
A4
  6
CONTINUOUS
 62
7
100
AcDbLine
 10
232.0498963845092
 20
162.1913761626181
 30
0.000000000000000
 11
234.0498963845092
 21
162.1913761626181
 31
0.000000000000000
  0
LINE
  5
DC
100
AcDbEntity
  8
A4
  6
CONTINUOUS
 62
7
100
AcDbLine
 10
224.0498963845092
 20
161.4103761626182
 30
0.000000000000000
 11
225.8908963845092
 21
162.1913761626181
 31
0.000000000000000
  0
LINE
  5
DD
100
AcDbEntity
  8
A4
  6
CONTINUOUS
 62
7
100
AcDbLine
 10
232.0498963845092
 20
162.1913761626181
 30
0.000000000000000
 11
232.0498963845092
 21
154.1923761626183
 31
0.000000000000000
  0
LINE
  5
DE
100
AcDbEntity
  8
A4
  6
CONTINUOUS
 62
7
100
AcDbLine
 10
234.0498963845092
 20
162.1913761626181
 30
0.000000000000000
 11
234.0498963845092
 21
154.1923761626183
 31
0.000000000000000
  0
LINE
  5
DF
100
AcDbEntity
  8
A4
  6
CONTINUOUS
 62
7
100
AcDbLine
 10
225.8908963845093
 20
162.1913761626182
 30
0.000000000000000
 11
228.2068963845092
 21
157.5253761626183
 31
0.000000000000000
  0
LINE
  5
E0
100
AcDbEntity
  8
A4
  6
CONTINUOUS
 62
7
100
AcDbLine
 10
224.0498963845093
 20
161.4103761626183
 30
0.000000000000000
 11
226.4138963845093
 21
156.6383761626184
 31
0.000000000000000
  0
LINE
  5
E1
100
AcDbEntity
  8
A4
  6
CONTINUOUS
 62
7
100
AcDbLine
 10
49.84075638450919
 20
156.6913761626183
 30
0.000000000000000
 11
33.84075638450919
 21
156.6913761626183
 31
0.000000000000000
  0
LINE
  5
E2
100
AcDbEntity
  8
A4
  6
CONTINUOUS
 62
7
100
AcDbLine
 10
49.84075638450919
 20
159.6913761626183
 30
0.000000000000000
 11
33.84075638450919
 21
159.6913761626183
 31
0.000000000000000
  0
LINE
  5
E3
100
AcDbEntity
  8
A4
  6
CONTINUOUS
 62
7
100
AcDbLine
 10
378.6108963845092
 20
154.6913761626181
 30
0.000000000000000
 11
368.6108963845092
 21
154.6913761626181
 31
0.000000000000000
  0
LINE
  5
E4
100
AcDbEntity
  8
A4
  6
CONTINUOUS
 62
7
100
AcDbLine
 10
382.6108963845092
 20
162.1913761626181
 30
0.000000000000000
 11
364.6108963845092
 21
162.1913761626181
 31
0.000000000000000
  0
LINE
  5
E5
100
AcDbEntity
  8
A4
  6
CONTINUOUS
 62
7
100
AcDbLine
 10
366.9038963845092
 20
156.3983761626182
 30
0.000000000000000
 11
364.6978963845092
 21
154.1923761626183
 31
0.000000000000000
  0
LINE
  5
E6
100
AcDbEntity
  8
A4
  6
CONTINUOUS
 62
7
100
AcDbLine
 10
380.3178963845091
 20
156.3983761626183
 30
0.000000000000000
 11
382.5238963845092
 21
154.1923761626184
 31
0.000000000000000
  0
LINE
  5
E7
100
AcDbEntity
  8
A4
  6
CONTINUOUS
 62
7
100
AcDbLine
 10
88.84035638450919
 20
227.0342082811806
 30
0.000000000000000
 11
114.8403563845092
 21
227.0342082811806
 31
0.000000000000000
  0
LINE
  5
E8
100
AcDbEntity
  8
A4
  6
CONTINUOUS
 62
7
100
AcDbLine
 10
88.84035638450919
 20
225.0342082811806
 30
0.000000000000000
 11
114.8403563845092
 21
225.0342082811806
 31
0.000000000000000
  0
LINE
  5
E9
100
AcDbEntity
  8
A4
  6
CONTINUOUS
 62
7
100
AcDbLine
 10
97.84035638450919
 20
218.8752082811805
 30
0.000000000000000
 11
105.8403563845092
 21
218.8752082811805
 31
0.000000000000000
  0
LINE
  5
EA
100
AcDbEntity
  8
A4
  6
CONTINUOUS
 62
7
100
AcDbLine
 10
97.84035638450919
 20
217.0342082811806
 30
0.000000000000000
 11
105.8403563845092
 21
217.0342082811806
 31
0.000000000000000
  0
LINE
  5
EB
100
AcDbEntity
  8
A4
  6
CONTINUOUS
 62
7
100
AcDbLine
 10
114.8403563845092
 20
225.0342082811806
 30
0.000000000000000
 11
114.8403563845092
 21
227.0342082811806
 31
0.000000000000000
  0
LINE
  5
EC
100
AcDbEntity
  8
A4
  6
CONTINUOUS
 62
7
100
AcDbLine
 10
88.84035638450919
 20
225.0342082811806
 30
0.000000000000000
 11
88.84035638450919
 21
227.0342082811806
 31
0.000000000000000
  0
LINE
  5
ED
100
AcDbEntity
  8
A4
  6
CONTINUOUS
 62
7
100
AcDbLine
 10
106.8403563845092
 20
218.0342082811804
 30
0.000000000000000
 11
106.8403563845092
 21
225.0342082811806
 31
0.000000000000000
  0
LINE
  5
EE
100
AcDbEntity
  8
A4
  6
CONTINUOUS
 62
7
100
AcDbLine
 10
96.84035638450919
 20
218.0342082811804
 30
0.000000000000000
 11
96.84035638450919
 21
225.0342082811806
 31
0.000000000000000
  0
LINE
  5
EF
100
AcDbEntity
  8
A2
  6
CENTER
 62
1
100
AcDbLine
 10
170.7387173845090
 20
158.1913761626181
 30
0.000000000000000
 11
175.7387173845091
 21
158.1913761626181
 31
0.000000000000000
  0
LINE
  5
F0
100
AcDbEntity
  8
A2
  6
CENTER
 62
1
100
AcDbLine
 10
173.2387173845092
 20
160.6913761626183
 30
0.000000000000000
 11
173.2387173845092
 21
155.6913761626183
 31
0.000000000000000
  0
LINE
  5
F1
100
AcDbEntity
  8
A2
  6
CENTER
 62
1
100
AcDbLine
 10
171.7387173845091
 20
128.6913761626183
 30
0.000000000000000
 11
171.7387173845091
 21
123.6913761626182
 31
0.000000000000000
  0
LINE
  5
F2
100
AcDbEntity
  8
A2
  6
CENTER
 62
1
100
AcDbLine
 10
169.2387173845092
 20
126.1913761626181
 30
0.000000000000000
 11
174.2387173845092
 21
126.1913761626181
 31
0.000000000000000
  0
LINE
  5
F3
100
AcDbEntity
  8
A2
  6
CENTER
 62
1
100
AcDbLine
 10
30.34075638450917
 20
222.5342082811806
 30
0.000000000000000
 11
53.34075638450919
 21
222.5342082811806
 31
0.000000000000000
  0
LINE
  5
F4
100
AcDbEntity
  8
A2
  6
CENTER
 62
1
100
AcDbLine
 10
110.8403563845092
 20
162.1913761626181
 30
0.000000000000000
 11
110.8403563845092
 21
154.1913761626183
 31
0.000000000000000
  0
LINE
  5
F5
100
AcDbEntity
  8
A2
  6
CENTER
 62
1
100
AcDbLine
 10
86.84035638450919
 20
158.1913761626181
 30
0.000000000000000
 11
116.8403563845092
 21
158.1913761626181
 31
0.000000000000000
  0
LINE
  5
F6
100
AcDbEntity
  8
A2
  6
CENTER
 62
1
100
AcDbLine
 10
92.84035638450919
 20
162.1913761626181
 30
0.000000000000000
 11
92.84035638450919
 21
154.1913761626183
 31
0.000000000000000
  0
LINE
  5
F7
100
AcDbEntity
  8
A2
  6
CENTER
 62
1
100
AcDbLine
 10
101.8403563845092
 20
164.1913761626181
 30
0.000000000000000
 11
101.8403563845092
 21
152.6913761626183
 31
0.000000000000000
  0
LINE
  5
F8
100
AcDbEntity
  8
A4
  6
CONTINUOUS
 62
7
100
AcDbLine
 10
229.5498963845092
 20
154.6913761626181
 30
0.000000000000000
 11
231.5498963845092
 21
154.6913761626181
 31
0.000000000000000
  0
LINE
  5
F9
100
AcDbEntity
  8
A4
  6
CONTINUOUS
 62
7
100
AcDbLine
 10
368.6108963845092
 20
155.6913761626183
 30
0.000000000000000
 11
368.6108963845092
 21
154.6913761626181
 31
0.000000000000000
  0
LINE
  5
FA
100
AcDbEntity
  8
A4
  6
CONTINUOUS
 62
7
100
AcDbLine
 10
378.6108963845092
 20
155.6913761626183
 30
0.000000000000000
 11
378.6108963845092
 21
154.6913761626181
 31
0.000000000000000
  0
LINE
  5
FB
100
AcDbEntity
  8
A2
  6
CENTER
 62
1
100
AcDbLine
 10
373.6108963845092
 20
164.1913761626181
 30
0.000000000000000
 11
373.6108963845092
 21
152.6913761626183
 31
0.000000000000000
  0
LINE
  5
FC
100
AcDbEntity
  8
A2
  6
CENTER
 62
1
100
AcDbLine
 10
364.6108963845092
 20
160.6913761626183
 30
0.000000000000000
 11
364.6108963845092
 21
155.6913761626183
 31
0.000000000000000
  0
LINE
  5
FD
100
AcDbEntity
  8
A2
  6
CENTER
 62
1
100
AcDbLine
 10
382.6108963845092
 20
160.6913761626183
 30
0.000000000000000
 11
382.6108963845092
 21
155.6913761626183
 31
0.000000000000000
  0
LINE
  5
FE
100
AcDbEntity
  8
A4
  6
CONTINUOUS
 62
7
100
AcDbLine
 10
50.09075638450919
 20
154.6913761626181
 30
0.000000000000000
 11
51.09075638450919
 21
154.6913761626181
 31
0.000000000000000
  0
LINE
  5
FF
100
AcDbEntity
  8
A4
  6
CONTINUOUS
 62
7
100
AcDbLine
 10
32.59075638450919
 20
154.6913761626181
 30
0.000000000000000
 11
33.59075638450919
 21
154.6913761626181
 31
0.000000000000000
  0
LINE
  5
100
100
AcDbEntity
  8
A4
  6
CONTINUOUS
 62
7
100
AcDbLine
 10
97.84035638450919
 20
222.5342082811806
 30
0.000000000000000
 11
105.8403563845092
 21
222.5342082811806
 31
0.000000000000000
  0
LINE
  5
101
100
AcDbEntity
  8
A2
  6
CENTER
 62
1
100
AcDbLine
 10
101.8403563845092
 20
215.0342082811806
 30
0.000000000000000
 11
101.8403563845092
 21
229.0342082811806
 31
0.000000000000000
  0
LINE
  5
102
100
AcDbEntity
  8
A2
  6
CENTER
 62
1
100
AcDbLine
 10
110.8403563845092
 20
223.0342082811806
 30
0.000000000000000
 11
110.8403563845092
 21
229.0342082811806
 31
0.000000000000000
  0
LINE
  5
103
100
AcDbEntity
  8
A2
  6
CENTER
 62
1
100
AcDbLine
 10
92.84035638450919
 20
223.0342082811806
 30
0.000000000000000
 11
92.84035638450919
 21
229.0342082811806
 31
0.000000000000000
  0
LINE
  5
104
100
AcDbEntity
  8
A4
  6
CONTINUOUS
 62
7
100
AcDbLine
 10
39.94075638450919
 20
225.5342082811806
 30
0.000000000000000
 11
43.74075638450919
 21
225.5342082811806
 31
0.000000000000000
  0
LINE
  5
105
100
AcDbEntity
  8
A4
  6
CONTINUOUS
 62
7
100
AcDbLine
 10
32.69075638450919
 20
137.1913761626181
 30
0.000000000000000
 11
34.99075638450919
 21
137.1913761626181
 31
0.000000000000000
  0
LINE
  5
106
100
AcDbEntity
  8
A4
  6
CONTINUOUS
 62
7
100
AcDbLine
 10
31.19075638450918
 20
147.1913761626183
 30
0.000000000000000
 11
34.99075638450919
 21
147.1913761626183
 31
0.000000000000000
  0
LINE
  5
107
100
AcDbEntity
  8
A4
  6
CONTINUOUS
 62
7
100
AcDbLine
 10
174.2387173845092
 20
138.0909421626183
 30
0.000000000000000
 11
174.2387173845092
 21
137.1913761626181
 31
0.000000000000000
  0
LINE
  5
108
100
AcDbEntity
  8
A4
  6
CONTINUOUS
 62
7
100
AcDbLine
 10
31.19075638450918
 20
225.5342082811806
 30
0.000000000000000
 11
33.84075638450919
 21
225.5342082811806
 31
0.000000000000000
  0
LINE
  5
109
100
AcDbEntity
  8
A4
  6
CONTINUOUS
 62
7
100
AcDbLine
 10
31.19075638450918
 20
218.5342082811806
 30
0.000000000000000
 11
31.19075638450918
 21
216.5342082811806
 31
0.000000000000000
  0
LINE
  5
10A
100
AcDbEntity
  8
A4
  6
CONTINUOUS
 62
7
100
AcDbLine
 10
32.84075638450918
 20
218.5342082811806
 30
0.000000000000000
 11
32.84075638450918
 21
218.4098042811804
 31
0.000000000000000
  0
LINE
  5
10B
100
AcDbEntity
  8
A4
  6
CONTINUOUS
 62
7
100
AcDbLine
 10
29.69075638450919
 20
225.5342082811806
 30
0.000000000000000
 11
31.19075638450918
 21
225.5342082811806
 31
0.000000000000000
  0
LINE
  5
10C
100
AcDbEntity
  8
A2
  6
CENTER
 62
1
100
AcDbLine
 10
34.84075638450919
 20
220.0342082811805
 30
0.000000000000000
 11
48.84075638450919
 21
220.0342082811805
 31
0.000000000000000
  0
LINE
  5
10D
100
AcDbEntity
  8
A4
  6
CONTINUOUS
 62
7
100
AcDbLine
 10
36.84075638450919
 20
218.5342082811806
 30
0.000000000000000
 11
37.34075638450919
 21
218.5342082811806
 31
0.000000000000000
  0
LINE
  5
10E
100
AcDbEntity
  8
A4
  6
CONTINUOUS
 62
7
100
AcDbLine
 10
36.84075638450919
 20
221.0342082811806
 30
0.000000000000000
 11
36.84075638450919
 21
218.5342082811806
 31
0.000000000000000
  0
LINE
  5
10F
100
AcDbEntity
  8
A4
  6
CONTINUOUS
 62
7
100
AcDbLine
 10
46.84075638450919
 20
218.5342082811806
 30
0.000000000000000
 11
46.34075638450919
 21
218.5342082811806
 31
0.000000000000000
  0
LINE
  5
110
100
AcDbEntity
  8
A4
  6
CONTINUOUS
 62
7
100
AcDbLine
 10
46.84075638450919
 20
221.0342082811806
 30
0.000000000000000
 11
46.84075638450919
 21
218.5342082811806
 31
0.000000000000000
  0
LINE
  5
111
100
AcDbEntity
  8
A4
  6
CONTINUOUS
 62
7
100
AcDbLine
 10
38.34075638450919
 20
218.5342082811806
 30
0.000000000000000
 11
38.44075638450919
 21
218.5342082811806
 31
0.000000000000000
  0
LINE
  5
112
100
AcDbEntity
  8
A4
  6
CONTINUOUS
 62
7
100
AcDbLine
 10
38.44075638450919
 20
217.0342082811806
 30
0.000000000000000
 11
38.44075638450919
 21
221.0342082811806
 31
0.000000000000000
  0
LINE
  5
113
100
AcDbEntity
  8
A4
  6
CONTINUOUS
 62
7
100
AcDbLine
 10
39.94075638450919
 20
217.0342082811806
 30
0.000000000000000
 11
39.94075638450919
 21
221.0342082811806
 31
0.000000000000000
  0
LINE
  5
114
100
AcDbEntity
  8
A4
  6
CONTINUOUS
 62
7
100
AcDbLine
 10
45.24075638450919
 20
217.0342082811806
 30
0.000000000000000
 11
45.24075638450919
 21
221.0342082811806
 31
0.000000000000000
  0
LINE
  5
115
100
AcDbEntity
  8
A4
  6
CONTINUOUS
 62
7
100
AcDbLine
 10
43.74075638450919
 20
217.0342082811806
 30
0.000000000000000
 11
43.74075638450919
 21
221.0342082811806
 31
0.000000000000000
  0
LINE
  5
116
100
AcDbEntity
  8
A4
  6
CONTINUOUS
 62
7
100
AcDbLine
 10
37.34075638450919
 20
225.5342082811806
 30
0.000000000000000
 11
38.34075638450919
 21
225.5342082811806
 31
0.000000000000000
  0
LINE
  5
117
100
AcDbEntity
  8
A4
  6
CONTINUOUS
 62
7
100
AcDbLine
 10
45.34075638450919
 20
225.5342082811806
 30
0.000000000000000
 11
46.34075638450919
 21
225.5342082811806
 31
0.000000000000000
  0
LINE
  5
118
100
AcDbEntity
  8
A4
  6
CONTINUOUS
 62
7
100
AcDbLine
 10
34.09075638450919
 20
225.5342082811806
 30
0.000000000000000
 11
34.09075638450919
 21
224.4751382811806
 31
0.000000000000000
  0
LINE
  5
119
100
AcDbEntity
  8
A4
  6
CONTINUOUS
 62
7
100
AcDbLine
 10
49.59075638450919
 20
225.5342082811806
 30
0.000000000000000
 11
49.59075638450919
 21
224.4751382811806
 31
0.000000000000000
  0
LINE
  5
11A
100
AcDbEntity
  8
A4
  6
CONTINUOUS
 62
7
100
AcDbLine
 10
39.94075638450919
 20
218.5342082811806
 30
0.000000000000000
 11
43.74075638450919
 21
218.5342082811806
 31
0.000000000000000
  0
LINE
  5
11B
100
AcDbEntity
  8
A4
  6
CONTINUOUS
 62
7
100
AcDbLine
 10
45.24075638450919
 20
218.5342082811806
 30
0.000000000000000
 11
45.34075638450919
 21
218.5342082811806
 31
0.000000000000000
  0
LINE
  5
11C
100
AcDbEntity
  8
A4
  6
CONTINUOUS
 62
7
100
AcDbLine
 10
37.34075638450919
 20
221.0342082811806
 30
0.000000000000000
 11
37.34075638450919
 21
215.7842082811805
 31
0.000000000000000
  0
LINE
  5
11D
100
AcDbEntity
  8
A4
  6
CONTINUOUS
 62
7
100
AcDbLine
 10
38.34075638450919
 20
221.0342082811806
 30
0.000000000000000
 11
38.34075638450919
 21
216.0342082811804
 31
0.000000000000000
  0
LINE
  5
11E
100
AcDbEntity
  8
A4
  6
CONTINUOUS
 62
7
100
AcDbLine
 10
38.44075638450919
 20
224.0342082811805
 30
0.000000000000000
 11
38.44075638450919
 21
225.5342082811806
 31
0.000000000000000
  0
LINE
  5
11F
100
AcDbEntity
  8
A4
  6
CONTINUOUS
 62
7
100
AcDbLine
 10
39.94075638450919
 20
224.0342082811805
 30
0.000000000000000
 11
39.94075638450919
 21
225.5342082811806
 31
0.000000000000000
  0
LINE
  5
120
100
AcDbEntity
  8
A4
  6
CONTINUOUS
 62
7
100
AcDbLine
 10
43.74075638450919
 20
224.0342082811805
 30
0.000000000000000
 11
43.74075638450919
 21
225.5342082811806
 31
0.000000000000000
  0
LINE
  5
121
100
AcDbEntity
  8
A4
  6
CONTINUOUS
 62
7
100
AcDbLine
 10
45.24075638450919
 20
224.0342082811805
 30
0.000000000000000
 11
45.24075638450919
 21
225.5342082811806
 31
0.000000000000000
  0
LINE
  5
122
100
AcDbEntity
  8
A4
  6
CONTINUOUS
 62
7
100
AcDbLine
 10
45.34075638450919
 20
221.0342082811806
 30
0.000000000000000
 11
45.34075638450919
 21
216.0342082811804
 31
0.000000000000000
  0
LINE
  5
123
100
AcDbEntity
  8
A4
  6
CONTINUOUS
 62
7
100
AcDbLine
 10
46.34075638450919
 20
221.0342082811806
 30
0.000000000000000
 11
46.34075638450919
 21
215.7842082811805
 31
0.000000000000000
  0
LINE
  5
124
100
AcDbEntity
  8
A2
  6
CENTER
 62
1
100
AcDbLine
 10
229.5498963845092
 20
160.6913761626183
 30
0.000000000000000
 11
229.5498963845092
 21
155.6913761626183
 31
0.000000000000000
  0
LINE
  5
125
100
AcDbEntity
  8
A2
  6
CENTER
 62
1
100
AcDbLine
 10
227.0498963845091
 20
158.1913761626181
 30
0.000000000000000
 11
236.0498963845092
 21
158.1913761626181
 31
0.000000000000000
  0
ARC
  5
126
100
AcDbEntity
  8
A4
  6
CONTINUOUS
 62
7
100
AcDbCircle
 10
51.34075638450919
 20
135.1913761626181
 30
0.000000000000000
 40
5.000000000000000
100
AcDbArc
 50
180.0000000000000
 51
252.0797869999999
  0
ARC
  5
127
100
AcDbEntity
  8
A4
  6
CONTINUOUS
 62
7
100
AcDbCircle
 10
32.34075638450919
 20
135.1913761626181
 30
0.000000000000000
 40
5.000000000000000
100
AcDbArc
 50
287.9202129999999
 51
360.0000000000000
  0
ARC
  5
128
100
AcDbEntity
  8
A4
  6
CONTINUOUS
 62
7
100
AcDbCircle
 10
174.2387173845092
 20
128.1913761626183
 30
0.000000000000000
 40
2.000000000000000
100
AcDbArc
 50
0.000000000000000
 51
90.00000000000000
  0
ARC
  5
129
100
AcDbEntity
  8
A4
  6
CONTINUOUS
 62
7
100
AcDbCircle
 10
173.2387173845092
 20
140.1913761626183
 30
0.000000000000000
 40
3.000000000000000
100
AcDbArc
 50
344.0854840000000
 51
384.2907600000000
  0
ARC
  5
12A
100
AcDbEntity
  8
A4
  6
CONTINUOUS
 62
7
100
AcDbCircle
 10
167.2387173845092
 20
128.6913761626183
 30
0.000000000000000
 40
1.500000000000000
100
AcDbArc
 50
90.00000000000000
 51
180.0000000000000
  0
ARC
  5
12B
100
AcDbEntity
  8
A4
  6
CONTINUOUS
 62
7
100
AcDbCircle
 10
33.84075638450919
 20
216.0342082811804
 30
0.000000000000000
 40
1.000000000000000
100
AcDbArc
 50
180.0000000000000
 51
270.0000000000000
  0
ARC
  5
12C
100
AcDbEntity
  8
A4
  6
CONTINUOUS
 62
7
100
AcDbCircle
 10
49.84075638450919
 20
216.0342082811804
 30
0.000000000000000
 40
1.000000000000000
100
AcDbArc
 50
270.0000000000000
 51
360.0000000000000
  0
ARC
  5
12D
100
AcDbEntity
  8
A4
  6
CONTINUOUS
 62
7
100
AcDbCircle
 10
38.09075638450919
 20
215.7842082811805
 30
0.000000000000000
 40
0.7500000000000000
100
AcDbArc
 50
180.0000000000000
 51
270.0000000000000
  0
ARC
  5
12E
100
AcDbEntity
  8
A4
  6
CONTINUOUS
 62
7
100
AcDbCircle
 10
45.59075638450919
 20
215.7842082811805
 30
0.000000000000000
 40
0.7500000000000000
100
AcDbArc
 50
270.0000000000000
 51
360.0000000000000
  0
ARC
  5
12F
100
AcDbEntity
  8
A4
  6
CONTINUOUS
 62
7
100
AcDbCircle
 10
37.34075638450919
 20
225.5342082811806
 30
0.000000000000000
 40
6.000000000000000
100
AcDbArc
 50
234.3146649999998
 51
238.7307309999998
  0
ARC
  5
130
100
AcDbEntity
  8
A4
  6
CONTINUOUS
 62
7
100
AcDbCircle
 10
171.7387173845091
 20
125.1913761626181
 30
0.000000000000000
 40
2.500000000000000
100
AcDbArc
 50
180.0000000000000
 51
360.0000000000000
  0
CIRCLE
  5
131
100
AcDbEntity
  8
A4
  6
CONTINUOUS
 62
7
100
AcDbCircle
 10
173.2387173845092
 20
158.1913761626181
 30
0.000000000000000
 40
1.149999999999999
  0
ARC
  5
132
100
AcDbEntity
  8
A4
  6
CONTINUOUS
 62
7
100
AcDbCircle
 10
173.2387173845092
 20
158.1913761626181
 30
0.000000000000000
 40
2.500000000000000
100
AcDbArc
 50
332.5679999999999
 51
519.2440000000000
  0
ARC
  5
133
100
AcDbEntity
  8
A4
  6
CONTINUOUS
 62
7
100
AcDbCircle
 10
30.69075638450919
 20
153.6913761626183
 30
0.000000000000000
 40
1.000000000000000
100
AcDbArc
 50
90.00000000000000
 51
180.0000000000000
  0
ARC
  5
134
100
AcDbEntity
  8
A4
  6
CONTINUOUS
 62
7
100
AcDbCircle
 10
32.84075638450918
 20
154.1913761626183
 30
0.000000000000000
 40
1.000000000000000
100
AcDbArc
 50
270.0000000000000
 51
360.0000000000000
  0
ARC
  5
135
100
AcDbEntity
  8
A4
  6
CONTINUOUS
 62
7
100
AcDbCircle
 10
52.99075638450919
 20
153.6913761626183
 30
0.000000000000000
 40
1.000000000000000
100
AcDbArc
 50
0.000000000000000
 51
90.00000000000000
  0
ARC
  5
136
100
AcDbEntity
  8
A4
  6
CONTINUOUS
 62
7
100
AcDbCircle
 10
50.84075638450919
 20
154.1913761626183
 30
0.000000000000000
 40
1.000000000000000
100
AcDbArc
 50
180.0000000000000
 51
270.0000000000000
  0
CIRCLE
  5
137
100
AcDbEntity
  8
A4
  6
CONTINUOUS
 62
7
100
AcDbCircle
 10
171.7387173845091
 20
126.1913761626181
 30
0.000000000000000
 40
1.125000000000000
  0
CIRCLE
  5
138
100
AcDbEntity
  8
A4
  6
CONTINUOUS
 62
7
100
AcDbCircle
 10
171.7387173845091
 20
126.1913761626181
 30
0.000000000000000
 40
1.149999999999999
  0
CIRCLE
  5
139
100
AcDbEntity
  8
A4
  6
CONTINUOUS
 62
7
100
AcDbCircle
 10
173.2387173845092
 20
158.1913761626181
 30
0.000000000000000
 40
1.125000000000000
  0
ARC
  5
13A
100
AcDbEntity
  8
A4
  6
CONTINUOUS
 62
7
100
AcDbCircle
 10
313.1108963845092
 20
134.6913761626183
 30
0.000000000000000
 40
6.099999999999997
100
AcDbArc
 50
180.0000000000000
 51
253.3279999999999
  0
ARC
  5
13B
100
AcDbEntity
  8
A4
  6
CONTINUOUS
 62
7
100
AcDbCircle
 10
294.1108963845092
 20
134.6913761626183
 30
0.000000000000000
 40
6.099999999999997
100
AcDbArc
 50
286.6720000000000
 51
360.0000000000000
  0
CIRCLE
  5
13C
100
AcDbEntity
  8
A4
  6
CONTINUOUS
 62
7
100
AcDbCircle
 10
303.6108963845092
 20
128.1913761626183
 30
0.000000000000000
 40
1.600000000000000
  0
CIRCLE
  5
13D
100
AcDbEntity
  8
A4
  6
CONTINUOUS
 62
7
100
AcDbCircle
 10
303.6108963845092
 20
116.1913761626182
 30
0.000000000000000
 40
1.600000000000000
  0
ARC
  5
13E
100
AcDbEntity
  8
A4
  6
CONTINUOUS
 62
7
100
AcDbCircle
 10
313.1108963845092
 20
135.1913761626181
 30
0.000000000000000
 40
5.000000000000000
100
AcDbArc
 50
180.0000000000000
 51
252.0797869999999
  0
ARC
  5
13F
100
AcDbEntity
  8
A4
  6
CONTINUOUS
 62
7
100
AcDbCircle
 10
294.1108963845092
 20
135.1913761626181
 30
0.000000000000000
 40
5.000000000000000
100
AcDbArc
 50
287.9202129999999
 51
360.0000000000000
  0
ARC
  5
140
100
AcDbEntity
  8
A4
  6
CONTINUOUS
 62
7
100
AcDbCircle
 10
313.1108963845092
 20
135.1913761626181
 30
0.000000000000000
 40
6.000000000000000
100
AcDbArc
 50
180.0000000000000
 51
255.5220000000000
  0
ARC
  5
141
100
AcDbEntity
  8
A4
  6
CONTINUOUS
 62
7
100
AcDbCircle
 10
294.1108963845092
 20
135.1913761626181
 30
0.000000000000000
 40
6.000000000000000
100
AcDbArc
 50
284.4780000000000
 51
360.0000000000000
  0
ARC
  5
142
100
AcDbEntity
  8
A4
  6
CONTINUOUS
 62
7
100
AcDbCircle
 10
34.99075638450919
 20
146.4913761626182
 30
0.000000000000000
 40
0.7000000000000000
100
AcDbArc
 50
280.0000000000000
 51
459.9999999999999
  0
ARC
  5
143
100
AcDbEntity
  8
A4
  6
CONTINUOUS
 62
7
100
AcDbCircle
 10
27.39075638450917
 20
145.3983761626183
 30
0.000000000000000
 40
0.7000000000000000
100
AcDbArc
 50
95.62170000000000
 51
280.7845669999999
  0
ARC
  5
144
100
AcDbEntity
  8
A4
  6
CONTINUOUS
 62
7
100
AcDbCircle
 10
34.99075638450919
 20
146.4913761626182
 30
0.000000000000000
 40
0.7000000000000000
100
AcDbArc
 50
280.0000000000000
 51
459.9999999999999
  0
ARC
  5
145
100
AcDbEntity
  8
A4
  6
CONTINUOUS
 62
7
100
AcDbCircle
 10
95.84035638450919
 20
155.6913761626183
 30
0.000000000000000
 40
1.000000000000000
100
AcDbArc
 50
0.000000000000000
 51
135.0000000000000
  0
ARC
  5
146
100
AcDbEntity
  8
A4
  6
CONTINUOUS
 62
7
100
AcDbCircle
 10
105.8403563845092
 20
160.4103761626183
 30
0.000000000000000
 40
1.000000000000000
100
AcDbArc
 50
0.000000000000000
 51
90.00000000000000
  0
ARC
  5
147
100
AcDbEntity
  8
A4
  6
CONTINUOUS
 62
7
100
AcDbCircle
 10
110.8403563845092
 20
158.1913761626181
 30
0.000000000000000
 40
4.000000000000000
100
AcDbArc
 50
268.7580000000000
 51
450.0000000000000
  0
ARC
  5
148
100
AcDbEntity
  8
A4
  6
CONTINUOUS
 62
7
100
AcDbCircle
 10
107.8403563845092
 20
155.6913761626183
 30
0.000000000000000
 40
1.000000000000000
100
AcDbArc
 50
45.00000000000000
 51
180.0000000000000
  0
ARC
  5
149
100
AcDbEntity
  8
A4
  6
CONTINUOUS
 62
7
100
AcDbCircle
 10
105.8403563845092
 20
161.1913761626183
 30
0.000000000000000
 40
1.000000000000000
100
AcDbArc
 50
0.000000000000000
 51
90.00000000000000
  0
ARC
  5
14A
100
AcDbEntity
  8
A4
  6
CONTINUOUS
 62
7
100
AcDbCircle
 10
92.84035638450919
 20
158.1913761626181
 30
0.000000000000000
 40
4.000000000000000
100
AcDbArc
 50
90.00000000000000
 51
271.2420000000000
  0
ARC
  5
14B
100
AcDbEntity
  8
A4
  6
CONTINUOUS
 62
7
100
AcDbCircle
 10
97.84035638450919
 20
161.1913761626183
 30
0.000000000000000
 40
1.000000000000000
100
AcDbArc
 50
90.00000000000000
 51
180.0000000000000
  0
ARC
  5
14C
100
AcDbEntity
  8
A4
  6
CONTINUOUS
 62
7
100
AcDbCircle
 10
97.84035638450919
 20
160.4103761626183
 30
0.000000000000000
 40
1.000000000000000
100
AcDbArc
 50
90.00000000000000
 51
180.0000000000000
  0
ARC
  5
14D
100
AcDbEntity
  8
A4
  6
CONTINUOUS
 62
7
100
AcDbCircle
 10
92.84035638450919
 20
158.1913761626181
 30
0.000000000000000
 40
3.000000000000000
100
AcDbArc
 50
327.3159999999998
 51
659.3720000000001
  0
ARC
  5
14E
100
AcDbEntity
  8
A4
  6
CONTINUOUS
 62
7
100
AcDbCircle
 10
110.8403563845092
 20
158.1913761626181
 30
0.000000000000000
 40
3.000000000000000
100
AcDbArc
 50
240.6279999999999
 51
572.6839999999999
  0
ARC
  5
14F
100
AcDbEntity
  8
A4
  6
CONTINUOUS
 62
7
100
AcDbCircle
 10
367.6108963845092
 20
155.6913761626183
 30
0.000000000000000
 40
1.000000000000000
100
AcDbArc
 50
0.000000000000000
 51
135.0000000000000
  0
ARC
  5
150
100
AcDbEntity
  8
A4
  6
CONTINUOUS
 62
7
100
AcDbCircle
 10
382.6108963845092
 20
158.1913761626181
 30
0.000000000000000
 40
4.000000000000000
100
AcDbArc
 50
268.7580000000000
 51
450.0000000000000
  0
CIRCLE
  5
151
100
AcDbEntity
  8
A4
  6
CONTINUOUS
 62
7
100
AcDbCircle
 10
382.6108963845092
 20
158.1913761626181
 30
0.000000000000000
 40
1.600000000000000
  0
ARC
  5
152
100
AcDbEntity
  8
A4
  6
CONTINUOUS
 62
7
100
AcDbCircle
 10
379.6108963845092
 20
155.6913761626183
 30
0.000000000000000
 40
1.000000000000000
100
AcDbArc
 50
45.00000000000000
 51
180.0000000000000
  0
ARC
  5
153
100
AcDbEntity
  8
A4
  6
CONTINUOUS
 62
7
100
AcDbCircle
 10
364.6108963845092
 20
158.1913761626181
 30
0.000000000000000
 40
4.000000000000000
100
AcDbArc
 50
90.00000000000000
 51
271.2420000000000
  0
CIRCLE
  5
154
100
AcDbEntity
  8
A4
  6
CONTINUOUS
 62
7
100
AcDbCircle
 10
364.6108963845092
 20
158.1913761626181
 30
0.000000000000000
 40
1.600000000000000
  0
CIRCLE
  5
155
100
AcDbEntity
  8
A4
  6
CONTINUOUS
 62
7
100
AcDbCircle
 10
110.8403563845092
 20
158.1913761626181
 30
0.000000000000000
 40
1.600000000000000
  0
CIRCLE
  5
156
100
AcDbEntity
  8
A4
  6
CONTINUOUS
 62
7
100
AcDbCircle
 10
92.84035638450919
 20
158.1913761626181
 30
0.000000000000000
 40
1.600000000000000
  0
ARC
  5
157
100
AcDbEntity
  8
A4
  6
CONTINUOUS
 62
7
100
AcDbCircle
 10
229.5498963845092
 20
158.1913761626181
 30
0.000000000000000
 40
1.500000000000000
100
AcDbArc
 50
206.3870000000000
 51
270.0000000000000
  0
ARC
  5
158
100
AcDbEntity
  8
A4
  6
CONTINUOUS
 62
7
100
AcDbCircle
 10
229.5498963845092
 20
158.1913761626181
 30
0.000000000000000
 40
3.500000000000000
100
AcDbArc
 50
206.3870000000000
 51
270.0000000000000
  0
ARC
  5
159
100
AcDbEntity
  8
A4
  6
CONTINUOUS
 62
7
100
AcDbCircle
 10
231.5498963845092
 20
157.1913761626183
 30
0.000000000000000
 40
0.5000000000000000
100
AcDbArc
 50
270.0000000000000
 51
360.0000000000000
  0
ARC
  5
15A
100
AcDbEntity
  8
A4
  6
CONTINUOUS
 62
7
100
AcDbCircle
 10
231.5498963845092
 20
157.1913761626183
 30
0.000000000000000
 40
2.500000000000000
100
AcDbArc
 50
270.0000000000000
 51
281.5369999999999
  0
ARC
  5
15B
100
AcDbEntity
  8
A4
  6
CONTINUOUS
 62
7
100
AcDbCircle
 10
97.84035638450919
 20
218.0342082811804
 30
0.000000000000000
 40
1.000000000000000
100
AcDbArc
 50
180.0000000000000
 51
270.0000000000000
  0
ARC
  5
15C
100
AcDbEntity
  8
A4
  6
CONTINUOUS
 62
7
100
AcDbCircle
 10
97.84035638450919
 20
219.8752082811805
 30
0.000000000000000
 40
1.000000000000000
100
AcDbArc
 50
180.0000000000000
 51
270.0000000000000
  0
ARC
  5
15D
100
AcDbEntity
  8
A4
  6
CONTINUOUS
 62
7
100
AcDbCircle
 10
105.8403563845092
 20
218.0342082811804
 30
0.000000000000000
 40
1.000000000000000
100
AcDbArc
 50
270.0000000000000
 51
360.0000000000000
  0
ARC
  5
15E
100
AcDbEntity
  8
A4
  6
CONTINUOUS
 62
7
100
AcDbCircle
 10
105.8403563845092
 20
219.8752082811805
 30
0.000000000000000
 40
1.000000000000000
100
AcDbArc
 50
270.0000000000000
 51
360.0000000000000
  0
ARC
  5
15F
100
AcDbEntity
  8
A4
  6
CONTINUOUS
 62
7
100
AcDbCircle
 10
34.99075638450919
 20
137.8913761626182
 30
0.000000000000000
 40
0.7000000000000000
100
AcDbArc
 50
157.4859999999999
 51
411.3165000000000
  0
ARC
  5
160
100
AcDbEntity
  8
A4
  6
CONTINUOUS
 62
7
100
AcDbCircle
 10
27.39075638450917
 20
146.4913761626182
 30
0.000000000000000
 40
0.7000000000000000
100
AcDbArc
 50
337.4509999999999
 51
591.3410000000001
  0
ARC
  5
161
100
AcDbEntity
  8
A4
  6
CONTINUOUS
 62
7
100
AcDbCircle
 10
39.94075638450919
 20
225.5342082811806
 30
0.000000000000000
 40
1.500000000000000
100
AcDbArc
 50
90.00000000000000
 51
180.0000000000000
  0
ARC
  5
162
100
AcDbEntity
  8
A4
  6
CONTINUOUS
 62
7
100
AcDbCircle
 10
43.74075638450919
 20
225.5342082811806
 30
0.000000000000000
 40
1.500000000000000
100
AcDbArc
 50
0.000000000000000
 51
90.00000000000000
  0
ARC
  5
163
100
AcDbEntity
  8
A4
  6
CONTINUOUS
 62
7
100
AcDbCircle
 10
35.59075638450919
 20
225.5342082811806
 30
0.000000000000000
 40
1.500000000000000
100
AcDbArc
 50
90.00000000000000
 51
180.0000000000000
  0
ARC
  5
164
100
AcDbEntity
  8
A4
  6
CONTINUOUS
 62
7
100
AcDbCircle
 10
48.09075638450919
 20
225.5342082811806
 30
0.000000000000000
 40
1.500000000000000
100
AcDbArc
 50
0.000000000000000
 51
90.00000000000000
  0
ARC
  5
165
100
AcDbEntity
  8
A4
  6
CONTINUOUS
 62
7
100
AcDbCircle
 10
34.34075638450919
 20
129.0067181626182
 30
0.000000000000000
 40
1.500000000000000
100
AcDbArc
 50
107.9202129999998
 51
180.0000000000000
  0
ARC
  5
166
100
AcDbEntity
  8
A4
  6
CONTINUOUS
 62
7
100
AcDbCircle
 10
49.34075638450919
 20
129.0067181626182
 30
0.000000000000000
 40
1.500000000000000
100
AcDbArc
 50
0.000000000000000
 51
72.07978699999998
  0
ARC
  5
167
100
AcDbEntity
  8
A4
  6
CONTINUOUS
 62
7
100
AcDbCircle
 10
296.1108963845092
 20
129.0067181626182
 30
0.000000000000000
 40
1.500000000000000
100
AcDbArc
 50
107.9202129999998
 51
180.0000000000000
  0
ARC
  5
168
100
AcDbEntity
  8
A4
  6
CONTINUOUS
 62
7
100
AcDbCircle
 10
311.1108963845092
 20
129.0067181626182
 30
0.000000000000000
 40
1.500000000000000
100
AcDbArc
 50
0.000000000000000
 51
72.07978699999998
  0
LINE
  5
169
100
AcDbEntity
  8
A4
  6
CONTINUOUS
 62
7
100
AcDbLine
 10
174.2387173845092
 20
137.1913761626181
 30
0.000000000000000
 11
176.2387173845092
 21
137.1913761626181
 31
0.000000000000000
  0
LINE
  5
16A
100
AcDbEntity
  8
A2
  6
CENTER
 62
1
100
AcDbLine
 10
299.6108963845092
 20
116.1913761626182
 30
0.000000000000000
 11
307.6108963845092
 21
116.1913761626182
 31
0.000000000000000
  0
LINE
  5
16B
100
AcDbEntity
  8
A2
  6
CENTER
 62
1
100
AcDbLine
 10
299.6108963845092
 20
128.1913761626183
 30
0.000000000000000
 11
307.6108963845092
 21
128.1913761626183
 31
0.000000000000000
  0
CIRCLE
  5
16C
100
AcDbEntity
  8
A6
  6
DASHED
 62
2
100
AcDbCircle
 10
303.6108963845092
 20
128.1913761626183
 30
0.000000000000000
 40
3.000000000000000
  0
CIRCLE
  5
16D
100
AcDbEntity
  8
A6
  6
DASHED
 62
2
100
AcDbCircle
 10
303.6108963845092
 20
116.1913761626182
 30
0.000000000000000
 40
3.000000000000000
  0
LINE
  5
16E
100
AcDbEntity
  8
A2
  6
CENTER
 62
1
100
AcDbLine
 10
174.9114063845092
 20
128.1913761626183
 30
0.000000000000000
 11
180.7767483845092
 21
128.1913761626183
 31
0.000000000000000
  0
LINE
  5
16F
100
AcDbEntity
  8
A2
  6
CENTER
 62
1
100
AcDbLine
 10
174.9114063845092
 20
116.1913761626182
 30
0.000000000000000
 11
180.7767483845092
 21
116.1913761626182
 31
0.000000000000000
  0
LINE
  5
170
100
AcDbEntity
  8
A2
  6
CENTER
 62
1
100
AcDbLine
 10
37.84075638450919
 20
128.1913761626183
 30
0.000000000000000
 11
45.84075638450919
 21
128.1913761626183
 31
0.000000000000000
  0
LINE
  5
171
100
AcDbEntity
  8
A2
  6
CENTER
 62
1
100
AcDbLine
 10
37.74075638445679
 20
116.1913761626184
 30
0.000000000000000
 11
45.74075638445679
 21
116.1913761626184
 31
0.000000000000000
  0
LINE
  5
172
100
AcDbEntity
  8
A4
  6
CONTINUOUS
 62
7
100
AcDbLine
 10
31.19075638450918
 20
150.1913761626183
 30
0.000000000000000
 11
32.69075638450919
 21
150.1913761626183
 31
0.000000000000000
  0
LINE
  5
173
100
AcDbEntity
  8
A4
  6
CONTINUOUS
 62
7
100
AcDbLine
 10
50.99075638450918
 20
150.1913761626183
 30
0.000000000000000
 11
52.49075638450919
 21
150.1913761626183
 31
0.000000000000000
  0
LINE
  5
174
100
AcDbEntity
  8
A4
  6
CONTINUOUS
 62
7
100
AcDbLine
 10
52.49075638450919
 20
137.1913761626181
 30
0.000000000000000
 11
56.29075638450919
 21
137.1913761626181
 31
0.000000000000000
  0
LINE
  5
175
100
AcDbEntity
  8
A4
  6
CONTINUOUS
 62
7
100
AcDbLine
 10
312.6108963845092
 20
129.0067181626182
 30
0.000000000000000
 11
312.6108963845092
 21
119.4913769599940
 31
0.000000000000000
  0
LINE
  5
176
100
AcDbEntity
  8
A4
  6
CONTINUOUS
 62
7
100
AcDbLine
 10
294.6108963845092
 20
129.0067181626182
 30
0.000000000000000
 11
294.6108963845092
 21
119.4913769599940
 31
0.000000000000000
  0
LINE
  5
177
100
AcDbEntity
  8
A4
  6
CONTINUOUS
 62
7
100
AcDbLine
 10
168.0574513845091
 20
143.1787781626182
 30
0.000000000000000
 11
175.6236103845092
 21
144.2669111626180
 31
0.000000000000000
  0
LINE
  5
178
100
AcDbEntity
  8
A4
  6
CONTINUOUS
 62
7
100
AcDbLine
 10
167.8370133845092
 20
143.0650401626183
 30
0.000000000000000
 11
175.4410403845092
 21
144.1596201626183
 31
0.000000000000000
  0
LINE
  5
179
100
AcDbEntity
  8
A4
  6
CONTINUOUS
 62
7
100
AcDbLine
 10
168.0357403845092
 20
141.6838561626181
 30
0.000000000000000
 11
175.6399083845090
 21
142.7774551626181
 31
0.000000000000000
  0
LINE
  5
17A
100
AcDbEntity
  8
A4
  6
CONTINUOUS
 62
7
100
AcDbLine
 10
167.8383713845092
 20
141.5734361626183
 30
0.000000000000000
 11
175.4392303845092
 21
142.6675591626182
 31
0.000000000000000
  0
LINE
  5
17B
100
AcDbEntity
  8
A4
  6
CONTINUOUS
 62
7
100
AcDbLine
 10
168.0375493845090
 20
140.1891161626182
 30
0.000000000000000
 11
175.6385493845092
 21
141.2822601626182
 31
0.000000000000000
  0
LINE
  5
17C
100
AcDbEntity
  8
A4
  6
CONTINUOUS
 62
7
100
AcDbLine
 10
168.0375493845090
 20
138.6941161626183
 30
0.000000000000000
 11
175.6207053845092
 21
139.7846941626184
 31
0.000000000000000
  0
LINE
  5
17D
100
AcDbEntity
  8
A4
  6
CONTINUOUS
 62
7
100
AcDbLine
 10
167.8383713845092
 20
140.0784361626183
 30
0.000000000000000
 11
175.4213863845092
 21
141.1699911626183
 31
0.000000000000000
  0
LINE
  5
17E
100
AcDbEntity
  8
A4
  6
CONTINUOUS
 62
7
100
AcDbLine
 10
167.8383713845092
 20
138.5834361626182
 30
0.000000000000000
 11
175.4392303845092
 21
139.6775591626183
 31
0.000000000000000
  0
LINE
  5
17F
100
AcDbEntity
  8
A4
  6
CONTINUOUS
 62
7
100
AcDbLine
 10
168.0375493845089
 20
137.1991161626183
 30
0.000000000000000
 11
175.6385493845092
 21
138.2922601626183
 31
0.000000000000000
  0
ARC
  5
180
100
AcDbEntity
  8
A4
  6
CONTINUOUS
 62
7
100
AcDbCircle
 10
175.5387173845092
 20
137.8913761626182
 30
0.000000000000000
 40
0.7000000000000000
100
AcDbArc
 50
155.0527779999999
 51
411.3165000000000
  0
LINE
  5
181
100
AcDbEntity
  8
A4
  6
CONTINUOUS
 62
7
100
AcDbLine
 10
167.8533113845092
 20
144.5975861626182
 30
0.000000000000000
 11
175.4193293845091
 21
145.6866951626183
 31
0.000000000000000
  0
LINE
  5
182
100
AcDbEntity
  8
A4
  6
CONTINUOUS
 62
7
100
AcDbLine
 10
168.0602173845092
 20
144.7093761626183
 30
0.000000000000000
 11
175.6602173845092
 21
145.8023761626181
 31
0.000000000000000
  0
ARC
  5
183
100
AcDbEntity
  8
A4
  6
CONTINUOUS
 62
7
100
AcDbCircle
 10
167.9387173845091
 20
145.3983761626183
 30
0.000000000000000
 40
0.7000000000000000
100
AcDbArc
 50
95.62170000000000
 51
280.7845669999999
  0
LINE
  5
184
100
AcDbEntity
  8
A4
  6
CONTINUOUS
 62
7
100
AcDbLine
 10
167.8171173845092
 20
146.0873761626182
 30
0.000000000000000
 11
175.4171173845092
 21
147.1813761626181
 31
0.000000000000000
  0
ARC
  5
185
100
AcDbEntity
  8
A4
  6
CONTINUOUS
 62
7
100
AcDbCircle
 10
167.9387173845091
 20
146.4913761626182
 30
0.000000000000000
 40
0.7000000000000000
100
AcDbArc
 50
335.0637959999999
 51
591.3410000000001
  0
ARC
  5
186
100
AcDbEntity
  8
A4
  6
CONTINUOUS
 62
7
100
AcDbCircle
 10
175.5387173845092
 20
146.4913761626182
 30
0.000000000000000
 40
0.7000000000000000
100
AcDbArc
 50
280.0000000000000
 51
459.9999999999999
  0
LINE
  5
187
100
AcDbEntity
  8
A4
  6
CONTINUOUS
 62
7
100
AcDbLine
 10
169.2387173845092
 20
137.1913761626181
 30
0.000000000000000
 11
169.2387173845092
 21
137.3718631626181
 31
0.000000000000000
  0
LINE
  5
188
100
AcDbEntity
  8
A4
  6
CONTINUOUS
 62
7
100
AcDbLine
 10
31.34075638450919
 20
223.5342082811806
 30
0.000000000000000
 11
29.69075638450919
 21
223.5342082811806
 31
0.000000000000000
  0
LINE
  5
189
100
AcDbEntity
  8
A4
  6
CONTINUOUS
 62
7
100
AcDbLine
 10
29.69075638450919
 20
223.7471402811806
 30
0.000000000000000
 11
29.69075638450919
 21
218.3212762811806
 31
0.000000000000000
  0
ARC
  5
18A
100
AcDbEntity
  8
A4
  6
CONTINUOUS
 62
7
100
AcDbCircle
 10
31.19075638450918
 20
221.0342082811806
 30
0.000000000000000
 40
4.500000000000000
100
AcDbArc
 50
90.00000000000000
 51
270.0000000000000
  0
ARC
  5
18B
100
AcDbEntity
  8
A4
  6
CONTINUOUS
 62
7
100
AcDbCircle
 10
31.19075638450918
 20
221.0342082811806
 30
0.000000000000000
 40
3.100000000000000
100
AcDbArc
 50
90.00000000000000
 51
270.0000000000000
  0
ARC
  5
18C
100
AcDbEntity
  8
A4
  6
CONTINUOUS
 62
7
100
AcDbCircle
 10
31.19075638450918
 20
221.0342082811806
 30
0.000000000000000
 40
4.500000000000000
100
AcDbArc
 50
289.4712210000000
 51
360.0000000000000
  0
ARC
  5
18D
100
AcDbEntity
  8
A4
  6
CONTINUOUS
 62
7
100
AcDbCircle
 10
31.19075638450918
 20
221.0342082811806
 30
0.000000000000000
 40
3.100000000000000
100
AcDbArc
 50
298.9385279999999
 51
306.2493209999999
  0
ARC
  5
18E
100
AcDbEntity
  8
A4
  6
CONTINUOUS
 62
7
100
AcDbCircle
 10
31.19075638450918
 20
221.0342082811806
 30
0.000000000000000
 40
4.500000000000000
100
AcDbArc
 50
62.73395600000001
 51
70.52877899999999
  0
ARC
  5
18F
100
AcDbEntity
  8
A4
  6
CONTINUOUS
 62
7
100
AcDbCircle
 10
31.19075638450918
 20
221.0342082811806
 30
0.000000000000000
 40
4.500000000000000
100
AcDbArc
 50
41.81031500000000
 51
53.92179999999998
  0
ARC
  5
190
100
AcDbEntity
  8
A4
  6
CONTINUOUS
 62
7
100
AcDbCircle
 10
37.34075638450919
 20
225.5342082811806
 30
0.000000000000000
 40
6.000000000000000
100
AcDbArc
 50
252.3625350000000
 51
265.2200000000000
  0
ARC
  5
191
100
AcDbEntity
  8
A4
  6
CONTINUOUS
 62
7
100
AcDbCircle
 10
31.19075638450918
 20
221.0342082811806
 30
0.000000000000000
 40
3.100000000000000
100
AcDbArc
 50
328.7419209999999
 51
360.0000000000000
  0
ARC
  5
192
100
AcDbEntity
  8
A4
  6
CONTINUOUS
 62
7
100
AcDbCircle
 10
46.34075638450919
 20
225.5342082811806
 30
0.000000000000000
 40
6.000000000000000
100
AcDbArc
 50
274.7799999999999
 51
287.6374649999998
  0
LINE
  5
193
100
AcDbEntity
  8
A4
  6
CONTINUOUS
 62
7
100
AcDbLine
 10
49.84075638450919
 20
225.5342082811806
 30
0.000000000000000
 11
49.84075638450919
 21
218.5342082811806
 31
0.000000000000000
  0
ARC
  5
194
100
AcDbEntity
  8
A4
  6
CONTINUOUS
 62
7
100
AcDbCircle
 10
52.49075638450919
 20
221.0342082811806
 30
0.000000000000000
 40
4.500000000000000
100
AcDbArc
 50
180.0000000000000
 51
250.5287789999999
  0
ARC
  5
195
100
AcDbEntity
  8
A4
  6
CONTINUOUS
 62
7
100
AcDbCircle
 10
52.49075638450919
 20
221.0342082811806
 30
0.000000000000000
 40
3.100000000000000
100
AcDbArc
 50
180.0000000000000
 51
211.2580789999999
  0
ARC
  5
196
100
AcDbEntity
  8
A4
  6
CONTINUOUS
 62
7
100
AcDbCircle
 10
52.49075638450919
 20
221.0342082811806
 30
0.000000000000000
 40
3.100000000000000
100
AcDbArc
 50
270.0000000000000
 51
450.0000000000000
  0
ARC
  5
197
100
AcDbEntity
  8
A4
  6
CONTINUOUS
 62
7
100
AcDbCircle
 10
52.49075638450919
 20
221.0342082811806
 30
0.000000000000000
 40
4.500000000000000
100
AcDbArc
 50
270.0000000000000
 51
450.0000000000000
  0
LINE
  5
198
100
AcDbEntity
  8
A4
  6
CONTINUOUS
 62
7
100
AcDbLine
 10
53.99075638450918
 20
223.7471402811806
 30
0.000000000000000
 11
53.99075638450918
 21
218.3212762811806
 31
0.000000000000000
  0
LINE
  5
199
100
AcDbEntity
  8
A4
  6
CONTINUOUS
 62
7
100
AcDbLine
 10
51.34075638450919
 20
225.0342082811806
 30
0.000000000000000
 11
51.34075638450919
 21
218.5342082811806
 31
0.000000000000000
  0
LINE
  5
19A
100
AcDbEntity
  8
A4
  6
CONTINUOUS
 62
7
100
AcDbLine
 10
52.49075638450919
 20
216.5342082811806
 30
0.000000000000000
 11
53.99075638450918
 21
216.5342082811806
 31
0.000000000000000
  0
LINE
  5
19B
100
AcDbEntity
  8
A4
  6
CONTINUOUS
 62
7
100
AcDbLine
 10
49.84075638450919
 20
218.5342082811806
 30
0.000000000000000
 11
53.99075638450918
 21
218.5342082811806
 31
0.000000000000000
  0
LINE
  5
19C
100
AcDbEntity
  8
A4
  6
CONTINUOUS
 62
7
100
AcDbLine
 10
53.99075638450918
 20
216.7915682811806
 30
0.000000000000000
 11
53.99075638450918
 21
216.5342082811806
 31
0.000000000000000
  0
ARC
  5
19D
100
AcDbEntity
  8
A4
  6
CONTINUOUS
 62
7
100
AcDbCircle
 10
52.34075638450919
 20
221.0342082811806
 30
0.000000000000000
 40
3.100000000000000
100
AcDbArc
 50
233.7506789999999
 51
244.1839129999999
  0
ARC
  5
19E
100
AcDbEntity
  8
A4
  6
CONTINUOUS
 62
7
100
AcDbCircle
 10
46.34075638450919
 20
225.5342082811806
 30
0.000000000000000
 40
6.000000000000000
100
AcDbArc
 50
301.2692690000000
 51
305.6853350000000
  0
LINE
  5
19F
100
AcDbEntity
  8
A4
  6
CONTINUOUS
 62
7
100
AcDbLine
 10
52.49075638450919
 20
218.5342082811806
 30
0.000000000000000
 11
52.49075638450919
 21
216.5342082811806
 31
0.000000000000000
  0
LINE
  5
1A0
100
AcDbEntity
  8
A4
  6
CONTINUOUS
 62
7
100
AcDbLine
 10
50.99075638450918
 20
216.5342082811806
 30
0.000000000000000
 11
52.49075638450919
 21
216.5342082811806
 31
0.000000000000000
  0
LINE
  5
1A1
100
AcDbEntity
  8
A4
  6
CONTINUOUS
 62
7
100
AcDbLine
 10
52.34075638450919
 20
223.5342082811806
 30
0.000000000000000
 11
53.99075638450918
 21
223.5342082811806
 31
0.000000000000000
  0
LINE
  5
1A2
100
AcDbEntity
  8
A4
  6
CONTINUOUS
 62
7
100
AcDbLine
 10
53.99075638450918
 20
225.5342082811806
 30
0.000000000000000
 11
52.49075638450919
 21
225.5342082811806
 31
0.000000000000000
  0
LINE
  5
1A3
100
AcDbEntity
  8
A4
  6
CONTINUOUS
 62
7
100
AcDbLine
 10
53.99075638450918
 20
225.5342082811806
 30
0.000000000000000
 11
53.99075638450918
 21
225.2768492811806
 31
0.000000000000000
  0
ARC
  5
1A4
100
AcDbEntity
  8
A4
  6
CONTINUOUS
 62
7
100
AcDbCircle
 10
52.49075638450919
 20
221.0342082811806
 30
0.000000000000000
 40
4.500000000000000
100
AcDbArc
 50
109.4712209999999
 51
117.2660440000000
  0
ARC
  5
1A5
100
AcDbEntity
  8
A4
  6
CONTINUOUS
 62
7
100
AcDbCircle
 10
52.49075638450919
 20
221.0342082811806
 30
0.000000000000000
 40
4.500000000000000
100
AcDbArc
 50
126.0782000000000
 51
138.1896849999999
  0
LINE
  5
1A6
100
AcDbEntity
  8
A4
  6
CONTINUOUS
 62
7
100
AcDbLine
 10
52.49075638450919
 20
225.5342082811806
 30
0.000000000000000
 11
52.49075638450919
 21
223.5342082811806
 31
0.000000000000000
  0
LINE
  5
1A7
100
AcDbEntity
  8
A4
  6
CONTINUOUS
 62
7
100
AcDbLine
 10
49.84075638450919
 20
225.0342082811806
 30
0.000000000000000
 11
51.34075638450919
 21
225.0342082811806
 31
0.000000000000000
  0
LINE
  5
1A8
100
AcDbEntity
  8
A4
  6
CONTINUOUS
 62
7
100
AcDbLine
 10
52.49075638450919
 20
225.5342082811806
 30
0.000000000000000
 11
49.84075638450919
 21
225.5342082811806
 31
0.000000000000000
  0
LINE
  5
1A9
100
AcDbEntity
  8
A4
  6
CONTINUOUS
 62
7
100
AcDbLine
 10
51.34075638450919
 20
221.4092082811806
 30
0.000000000000000
 11
52.34075638450919
 21
221.4092082811806
 31
0.000000000000000
  0
LINE
  5
1AA
100
AcDbEntity
  8
A4
  6
CONTINUOUS
 62
7
100
AcDbLine
 10
51.34075638450919
 20
223.6592082811806
 30
0.000000000000000
 11
52.34075638450919
 21
223.6592082811806
 31
0.000000000000000
  0
LINE
  5
1AB
100
AcDbEntity
  8
A4
  6
CONTINUOUS
 62
7
100
AcDbLine
 10
52.34075638450919
 20
223.6592082811806
 30
0.000000000000000
 11
52.34075638450919
 21
221.4092082811806
 31
0.000000000000000
  0
LINE
  5
1AC
100
AcDbEntity
  8
A4
  6
CONTINUOUS
 62
7
100
AcDbLine
 10
50.99075638450918
 20
225.5342082811806
 30
0.000000000000000
 11
50.99075638450918
 21
225.0342082811806
 31
0.000000000000000
  0
LINE
  5
1AD
100
AcDbEntity
  8
A4
  6
CONTINUOUS
 62
7
100
AcDbLine
 10
50.84075638450919
 20
218.5342082811806
 30
0.000000000000000
 11
50.84075638450919
 21
218.3212762811806
 31
0.000000000000000
  0
LINE
  5
1AE
100
AcDbEntity
  8
A4
  6
CONTINUOUS
 62
7
100
AcDbLine
 10
167.9002753845092
 20
143.1692331626181
 30
0.000000000000000
 11
168.3782213845092
 21
143.1429461626183
 31
0.000000000000000
  0
LINE
  5
1AF
100
AcDbEntity
  8
A4
  6
CONTINUOUS
 62
7
100
AcDbLine
 10
175.0182943845092
 20
144.1798571626183
 30
0.000000000000000
 11
175.5771593845091
 21
144.1491201626182
 31
0.000000000000000
  0
ARC
  5
1B0
100
AcDbEntity
  8
A4
  6
CONTINUOUS
 62
7
100
AcDbCircle
 10
167.9554263845092
 20
143.8881891626183
 30
0.000000000000000
 40
0.7167090000000000
100
AcDbArc
 50
98.19130900000000
 51
278.1839230000000
  0
ARC
  5
1B1
100
AcDbEntity
  8
A4
  6
CONTINUOUS
 62
7
100
AcDbCircle
 10
167.9364213845092
 20
142.3744541626182
 30
0.000000000000000
 40
0.6977040000000000
100
AcDbArc
 50
98.19130900000000
 51
278.1839230000000
  0
ARC
  5
1B2
100
AcDbEntity
  8
A4
  6
CONTINUOUS
 62
7
100
AcDbCircle
 10
167.9380053845091
 20
140.8812821626183
 30
0.000000000000000
 40
0.6992880000000004
100
AcDbArc
 50
98.19130900000000
 51
278.1839230000000
  0
ARC
  5
1B3
100
AcDbEntity
  8
A4
  6
CONTINUOUS
 62
7
100
AcDbCircle
 10
167.9380053845091
 20
139.3862821626183
 30
0.000000000000000
 40
0.6992880000000004
100
AcDbArc
 50
98.19130900000000
 51
278.1839230000000
  0
ARC
  5
1B4
100
AcDbEntity
  8
A4
  6
CONTINUOUS
 62
7
100
AcDbCircle
 10
167.9380053845091
 20
137.8912821626183
 30
0.000000000000000
 40
0.6992880000000004
100
AcDbArc
 50
98.19130900000000
 51
278.1839230000000
  0
ARC
  5
1B5
100
AcDbEntity
  8
A4
  6
CONTINUOUS
 62
7
100
AcDbCircle
 10
175.5215153845090
 20
144.9768101626183
 30
0.000000000000000
 40
0.7172020000000000
100
AcDbArc
 50
278.1839230000000
 51
458.1913090000000
  0
ARC
  5
1B6
100
AcDbEntity
  8
A4
  6
CONTINUOUS
 62
7
100
AcDbCircle
 10
175.5405183845092
 20
143.4685441626182
 30
0.000000000000000
 40
0.6981990000000000
100
AcDbArc
 50
278.1839230000000
 51
458.1913090000000
  0
ARC
  5
1B7
100
AcDbEntity
  8
A4
  6
CONTINUOUS
 62
7
100
AcDbCircle
 10
175.5389353845092
 20
141.9749161626182
 30
0.000000000000000
 40
0.6997830000000002
100
AcDbArc
 50
278.1839230000000
 51
458.1913090000000
  0
ARC
  5
1B8
100
AcDbEntity
  8
A4
  6
CONTINUOUS
 62
7
100
AcDbCircle
 10
175.5210903845092
 20
140.4773491626183
 30
0.000000000000000
 40
0.6997810000000000
100
AcDbArc
 50
278.1839230000000
 51
458.1913090000000
  0
ARC
  5
1B9
100
AcDbEntity
  8
A4
  6
CONTINUOUS
 62
7
100
AcDbCircle
 10
175.5389353845092
 20
138.9849161626183
 30
0.000000000000000
 40
0.6997830000000002
100
AcDbArc
 50
278.1839230000000
 51
458.1913090000000
  0
LINE
  5
1BA
100
AcDbEntity
  8
A4
  6
CONTINUOUS
 62
7
100
AcDbLine
 10
175.0781833845091
 20
145.7186701626183
 30
0.000000000000000
 11
175.5597043845092
 21
145.6929941626183
 31
0.000000000000000
  0
LINE
  5
1BB
100
AcDbEntity
  8
A4
  6
CONTINUOUS
 62
7
100
AcDbLine
 10
167.8982783845092
 20
144.6995451626183
 30
0.000000000000000
 11
168.3714153845092
 21
144.6721661626182
 31
0.000000000000000
  0
LINE
  5
1BC
100
AcDbEntity
  8
A4
  6
CONTINUOUS
 62
7
100
AcDbLine
 10
175.0938473845092
 20
142.6989231626183
 30
0.000000000000000
 11
175.5754693845092
 21
142.6737441626183
 31
0.000000000000000
  0
LINE
  5
1BD
100
AcDbEntity
  8
A4
  6
CONTINUOUS
 62
7
100
AcDbLine
 10
168.3847933845089
 20
141.6520921626182
 30
0.000000000000000
 11
167.8996143845092
 21
141.6777221626182
 31
0.000000000000000
  0
LINE
  5
1BE
100
AcDbEntity
  8
A4
  6
CONTINUOUS
 62
7
100
AcDbLine
 10
175.0782483845091
 20
141.2016801626183
 30
0.000000000000000
 11
175.5582673845091
 21
141.1761421626184
 31
0.000000000000000
  0
LINE
  5
1BF
100
AcDbEntity
  8
A4
  6
CONTINUOUS
 62
7
100
AcDbLine
 10
168.3852023845092
 20
140.1571511626182
 30
0.000000000000000
 11
167.9007633845091
 21
140.1829871626183
 31
0.000000000000000
  0
LINE
  5
1C0
100
AcDbEntity
  8
A4
  6
CONTINUOUS
 62
7
100
AcDbLine
 10
175.0949753845092
 20
139.7090851626183
 30
0.000000000000000
 11
175.5757903845090
 21
139.6837271626182
 31
0.000000000000000
  0
LINE
  5
1C1
100
AcDbEntity
  8
A4
  6
CONTINUOUS
 62
7
100
AcDbLine
 10
167.9010853845091
 20
138.6879701626182
 30
0.000000000000000
 11
168.3863413845092
 21
138.6623151626182
 31
0.000000000000000
  0
LINE
  5
1C2
100
AcDbEntity
  8
A4
  6
CONTINUOUS
 62
7
100
AcDbLine
 10
174.2387173845092
 20
139.5047491626181
 30
0.000000000000000
 11
174.2387173845092
 21
139.5859421626183
 31
0.000000000000000
  0
LINE
  5
1C3
100
AcDbEntity
  8
A4
  6
CONTINUOUS
 62
7
100
AcDbLine
 10
169.2387173845092
 20
144.8788631626183
 30
0.000000000000000
 11
169.2387173845092
 21
144.7970121626183
 31
0.000000000000000
  0
LINE
  5
1C4
100
AcDbEntity
  8
A4
  6
CONTINUOUS
 62
7
100
AcDbLine
 10
174.2387173845092
 20
145.5167491626182
 30
0.000000000000000
 11
174.2387173845092
 21
145.5979421626183
 31
0.000000000000000
  0
LINE
  5
1C5
100
AcDbEntity
  8
A4
  6
CONTINUOUS
 62
7
100
AcDbLine
 10
169.2387173845092
 20
143.3486631626182
 30
0.000000000000000
 11
169.2387173845092
 21
143.2668121626182
 31
0.000000000000000
  0
LINE
  5
1C6
100
AcDbEntity
  8
A4
  6
CONTINUOUS
 62
7
100
AcDbLine
 10
169.2387173845092
 20
141.8568631626183
 30
0.000000000000000
 11
169.2387173845092
 21
141.7750121626182
 31
0.000000000000000
  0
LINE
  5
1C7
100
AcDbEntity
  8
A4
  6
CONTINUOUS
 62
7
100
AcDbLine
 10
169.2387173845092
 20
140.3618631626183
 30
0.000000000000000
 11
169.2387173845092
 21
140.2800121626183
 31
0.000000000000000
  0
LINE
  5
1C8
100
AcDbEntity
  8
A4
  6
CONTINUOUS
 62
7
100
AcDbLine
 10
169.2387173845092
 20
138.8668631626183
 30
0.000000000000000
 11
169.2387173845092
 21
138.7850121626183
 31
0.000000000000000
  0
LINE
  5
1C9
100
AcDbEntity
  8
A4
  6
CONTINUOUS
 62
7
100
AcDbLine
 10
174.2387173845092
 20
140.9997491626182
 30
0.000000000000000
 11
174.2387173845092
 21
141.0809421626183
 31
0.000000000000000
  0
LINE
  5
1CA
100
AcDbEntity
  8
A4
  6
CONTINUOUS
 62
7
100
AcDbLine
 10
174.2387173845092
 20
142.4947491626182
 30
0.000000000000000
 11
174.2387173845092
 21
142.5759421626183
 31
0.000000000000000
  0
LINE
  5
1CB
100
AcDbEntity
  8
A4
  6
CONTINUOUS
 62
7
100
AcDbLine
 10
174.2387173845092
 20
143.9865491626181
 30
0.000000000000000
 11
174.2387173845092
 21
144.0677421626182
 31
0.000000000000000
  0
LINE
  5
1CC
100
AcDbEntity
  8
A4
  6
CONTINUOUS
 62
7
100
AcDbLine
 10
32.69075638450919
 20
145.4541261626181
 30
0.000000000000000
 11
32.69075638450919
 21
145.3728011626182
 31
0.000000000000000
  0
LINE
  5
1CD
100
AcDbEntity
  8
A4
  6
CONTINUOUS
 62
7
100
AcDbLine
 10
31.19075638450918
 20
145.2384031626182
 30
0.000000000000000
 11
31.19075638450918
 21
145.1568801626182
 31
0.000000000000000
  0
LINE
  5
1CE
100
AcDbEntity
  8
A4
  6
CONTINUOUS
 62
7
100
AcDbLine
 10
29.69075638450919
 20
145.0011071626181
 30
0.000000000000000
 11
29.69075638450919
 21
144.9193671626183
 31
0.000000000000000
  0
LINE
  5
1CF
100
AcDbEntity
  8
A4
  6
CONTINUOUS
 62
7
100
AcDbLine
 10
32.69075638450919
 20
139.4421261626181
 30
0.000000000000000
 11
32.69075638450919
 21
139.3608011626182
 31
0.000000000000000
  0
LINE
  5
1D0
100
AcDbEntity
  8
A4
  6
CONTINUOUS
 62
7
100
AcDbLine
 10
31.19075638450918
 20
139.2264031626182
 30
0.000000000000000
 11
31.19075638450918
 21
139.1448801626181
 31
0.000000000000000
  0
LINE
  5
1D1
100
AcDbEntity
  8
A4
  6
CONTINUOUS
 62
7
100
AcDbLine
 10
29.69075638450919
 20
138.9891071626183
 30
0.000000000000000
 11
29.69075638450919
 21
138.9073671626183
 31
0.000000000000000
  0
LINE
  5
1D2
100
AcDbEntity
  8
A4
  6
CONTINUOUS
 62
7
100
AcDbLine
 10
29.69075638450919
 20
140.4841071626181
 30
0.000000000000000
 11
29.69075638450919
 21
140.4023671626183
 31
0.000000000000000
  0
LINE
  5
1D3
100
AcDbEntity
  8
A4
  6
CONTINUOUS
 62
7
100
AcDbLine
 10
31.19075638450918
 20
140.7214031626183
 30
0.000000000000000
 11
31.19075638450918
 21
140.6398801626181
 31
0.000000000000000
  0
LINE
  5
1D4
100
AcDbEntity
  8
A4
  6
CONTINUOUS
 62
7
100
AcDbLine
 10
32.69075638450919
 20
140.9371261626182
 30
0.000000000000000
 11
32.69075638450919
 21
140.8558011626182
 31
0.000000000000000
  0
LINE
  5
1D5
100
AcDbEntity
  8
A4
  6
CONTINUOUS
 62
7
100
AcDbLine
 10
32.69075638450919
 20
142.4321261626182
 30
0.000000000000000
 11
32.69075638450919
 21
142.3508011626181
 31
0.000000000000000
  0
LINE
  5
1D6
100
AcDbEntity
  8
A4
  6
CONTINUOUS
 62
7
100
AcDbLine
 10
32.69075638450919
 20
143.9239261626183
 30
0.000000000000000
 11
32.69075638450919
 21
143.8426011626181
 31
0.000000000000000
  0
LINE
  5
1D7
100
AcDbEntity
  8
A4
  6
CONTINUOUS
 62
7
100
AcDbLine
 10
31.19075638450918
 20
143.7082031626183
 30
0.000000000000000
 11
31.19075638450918
 21
143.6266801626183
 31
0.000000000000000
  0
LINE
  5
1D8
100
AcDbEntity
  8
A4
  6
CONTINUOUS
 62
7
100
AcDbLine
 10
31.19075638450918
 20
142.2164031626183
 30
0.000000000000000
 11
31.19075638450918
 21
142.1348801626182
 31
0.000000000000000
  0
LINE
  5
1D9
100
AcDbEntity
  8
A4
  6
CONTINUOUS
 62
7
100
AcDbLine
 10
29.69075638450919
 20
141.9791071626183
 30
0.000000000000000
 11
29.69075638450919
 21
141.8973671626183
 31
0.000000000000000
  0
LINE
  5
1DA
100
AcDbEntity
  8
A4
  6
CONTINUOUS
 62
7
100
AcDbLine
 10
29.69075638450919
 20
143.4709071626183
 30
0.000000000000000
 11
29.69075638450919
 21
143.3891671626182
 31
0.000000000000000
  0
ARC
  5
1DB
100
AcDbEntity
  8
A4
  6
CONTINUOUS
 62
7
100
AcDbCircle
 10
27.40746538450919
 20
143.8881891626183
 30
0.000000000000000
 40
0.7167090000000000
100
AcDbArc
 50
98.19130900000000
 51
278.1839230000000
  0
ARC
  5
1DC
100
AcDbEntity
  8
A4
  6
CONTINUOUS
 62
7
100
AcDbCircle
 10
27.38845938450919
 20
142.3744541626182
 30
0.000000000000000
 40
0.6977040000000000
100
AcDbArc
 50
98.19130900000000
 51
278.1839230000000
  0
ARC
  5
1DD
100
AcDbEntity
  8
A4
  6
CONTINUOUS
 62
7
100
AcDbCircle
 10
27.39004338450919
 20
140.8812821626183
 30
0.000000000000000
 40
0.6992880000000004
100
AcDbArc
 50
98.19130900000000
 51
278.1839230000000
  0
ARC
  5
1DE
100
AcDbEntity
  8
A4
  6
CONTINUOUS
 62
7
100
AcDbCircle
 10
27.39004338450919
 20
139.3862821626183
 30
0.000000000000000
 40
0.6992880000000004
100
AcDbArc
 50
98.19130900000000
 51
278.1839230000000
  0
ARC
  5
1DF
100
AcDbEntity
  8
A4
  6
CONTINUOUS
 62
7
100
AcDbCircle
 10
27.39004338450919
 20
137.8912821626183
 30
0.000000000000000
 40
0.6992880000000004
100
AcDbArc
 50
98.19130900000000
 51
278.1839230000000
  0
ARC
  5
1E0
100
AcDbEntity
  8
A4
  6
CONTINUOUS
 62
7
100
AcDbCircle
 10
34.99097338450918
 20
138.9849161626183
 30
0.000000000000000
 40
0.6997830000000002
100
AcDbArc
 50
278.1839230000000
 51
458.1913090000000
  0
ARC
  5
1E1
100
AcDbEntity
  8
A4
  6
CONTINUOUS
 62
7
100
AcDbCircle
 10
34.99097338450918
 20
140.4799161626183
 30
0.000000000000000
 40
0.6997830000000002
100
AcDbArc
 50
278.1839230000000
 51
458.1913090000000
  0
ARC
  5
1E2
100
AcDbEntity
  8
A4
  6
CONTINUOUS
 62
7
100
AcDbCircle
 10
34.99097338450918
 20
141.9749161626182
 30
0.000000000000000
 40
0.6997830000000002
100
AcDbArc
 50
278.1839230000000
 51
458.1913090000000
  0
ARC
  5
1E3
100
AcDbEntity
  8
A4
  6
CONTINUOUS
 62
7
100
AcDbCircle
 10
34.99255738450918
 20
143.4685441626182
 30
0.000000000000000
 40
0.6981990000000000
100
AcDbArc
 50
278.1839230000000
 51
458.1913090000000
  0
ARC
  5
1E4
100
AcDbEntity
  8
A4
  6
CONTINUOUS
 62
7
100
AcDbCircle
 10
34.97355438450919
 20
144.9768101626183
 30
0.000000000000000
 40
0.7172020000000000
100
AcDbArc
 50
278.1839230000000
 51
458.1913090000000
  0
LINE
  5
1E5
100
AcDbEntity
  8
A4
  6
CONTINUOUS
 62
7
100
AcDbLine
 10
34.53022138450919
 20
145.7186701626183
 30
0.000000000000000
 11
35.01174338450917
 21
145.6929941626182
 31
0.000000000000000
  0
LINE
  5
1E6
100
AcDbEntity
  8
A4
  6
CONTINUOUS
 62
7
100
AcDbLine
 10
27.35031638450920
 20
144.6995451626184
 30
0.000000000000000
 11
27.82345438450918
 21
144.6721661626183
 31
0.000000000000000
  0
LINE
  5
1E7
100
AcDbEntity
  8
A4
  6
CONTINUOUS
 62
7
100
AcDbLine
 10
34.56070738450919
 20
144.1928551626182
 30
0.000000000000000
 11
35.03282438450919
 21
144.1655811626181
 31
0.000000000000000
  0
LINE
  5
1E8
100
AcDbEntity
  8
A4
  6
CONTINUOUS
 62
7
100
AcDbLine
 10
27.36961738450919
 20
143.1724801626183
 30
0.000000000000000
 11
27.85655038450918
 21
143.1467301626181
 31
0.000000000000000
  0
LINE
  5
1E9
100
AcDbEntity
  8
A4
  6
CONTINUOUS
 62
7
100
AcDbLine
 10
34.54588638450920
 20
142.6989231626183
 30
0.000000000000000
 11
35.02750838450920
 21
142.6737441626183
 31
0.000000000000000
  0
LINE
  5
1EA
100
AcDbEntity
  8
A4
  6
CONTINUOUS
 62
7
100
AcDbLine
 10
27.35165338450919
 20
141.6777221626182
 30
0.000000000000000
 11
27.83683138450919
 21
141.6520921626182
 31
0.000000000000000
  0
LINE
  5
1EB
100
AcDbEntity
  8
A4
  6
CONTINUOUS
 62
7
100
AcDbLine
 10
34.54701438450919
 20
141.2040851626183
 30
0.000000000000000
 11
35.02782838450920
 21
141.1787271626183
 31
0.000000000000000
  0
LINE
  5
1EC
100
AcDbEntity
  8
A4
  6
CONTINUOUS
 62
7
100
AcDbLine
 10
27.35312338450919
 20
140.1829701626182
 30
0.000000000000000
 11
27.83838038450919
 21
140.1573151626182
 31
0.000000000000000
  0
LINE
  5
1ED
100
AcDbEntity
  8
A4
  6
CONTINUOUS
 62
7
100
AcDbLine
 10
34.54701438450919
 20
139.7090851626183
 30
0.000000000000000
 11
35.02782838450919
 21
139.6837271626182
 31
0.000000000000000
  0
LINE
  5
1EE
100
AcDbEntity
  8
A4
  6
CONTINUOUS
 62
7
100
AcDbLine
 10
27.35312338450919
 20
138.6879701626182
 30
0.000000000000000
 11
27.83838038450919
 21
138.6623151626182
 31
0.000000000000000
  0
ARC
  5
1EF
100
AcDbEntity
  8
A4
  6
CONTINUOUS
 62
7
100
AcDbCircle
 10
56.29255738450917
 20
143.4685441626182
 30
0.000000000000000
 40
0.6981990000000000
100
AcDbArc
 50
278.1839230000000
 51
458.1913090000000
  0
LINE
  5
1F0
100
AcDbEntity
  8
A4
  6
CONTINUOUS
 62
7
100
AcDbLine
 10
55.84588638450919
 20
142.6989231626183
 30
0.000000000000000
 11
56.32750838450919
 21
142.6737441626183
 31
0.000000000000000
  0
ARC
  5
1F1
100
AcDbEntity
  8
A4
  6
CONTINUOUS
 62
7
100
AcDbCircle
 10
56.29097338450916
 20
141.9749161626182
 30
0.000000000000000
 40
0.6997830000000002
100
AcDbArc
 50
278.1839230000000
 51
458.1913090000000
  0
LINE
  5
1F2
100
AcDbEntity
  8
A4
  6
CONTINUOUS
 62
7
100
AcDbLine
 10
55.84701438450919
 20
141.2040851626183
 30
0.000000000000000
 11
56.32782838450920
 21
141.1787271626183
 31
0.000000000000000
  0
ARC
  5
1F3
100
AcDbEntity
  8
A4
  6
CONTINUOUS
 62
7
100
AcDbCircle
 10
56.29097338450916
 20
138.9849161626183
 30
0.000000000000000
 40
0.6997830000000002
100
AcDbArc
 50
278.1839230000000
 51
458.1913090000000
  0
ARC
  5
1F4
100
AcDbEntity
  8
A4
  6
CONTINUOUS
 62
7
100
AcDbCircle
 10
56.29097338450916
 20
140.4799161626183
 30
0.000000000000000
 40
0.6997830000000002
100
AcDbArc
 50
278.1839230000000
 51
458.1913090000000
  0
LINE
  5
1F5
100
AcDbEntity
  8
A4
  6
CONTINUOUS
 62
7
100
AcDbLine
 10
55.84701438450919
 20
139.7090851626183
 30
0.000000000000000
 11
56.32782838450920
 21
139.6837271626182
 31
0.000000000000000
  0
LINE
  5
1F6
100
AcDbEntity
  8
A4
  6
CONTINUOUS
 62
7
100
AcDbLine
 10
55.86070738450918
 20
144.1928551626182
 30
0.000000000000000
 11
56.33282438450917
 21
144.1655811626181
 31
0.000000000000000
  0
ARC
  5
1F7
100
AcDbEntity
  8
A4
  6
CONTINUOUS
 62
7
100
AcDbCircle
 10
56.27355438450918
 20
144.9768101626183
 30
0.000000000000000
 40
0.7172020000000000
100
AcDbArc
 50
278.1839230000000
 51
458.1913090000000
  0
LINE
  5
1F8
100
AcDbEntity
  8
A4
  6
CONTINUOUS
 62
7
100
AcDbLine
 10
55.83022138450919
 20
145.7186701626183
 30
0.000000000000000
 11
56.31174338450919
 21
145.6929941626183
 31
0.000000000000000
  0
ARC
  5
1F9
100
AcDbEntity
  8
A4
  6
CONTINUOUS
 62
7
100
AcDbCircle
 10
56.29075638450919
 20
137.8913761626182
 30
0.000000000000000
 40
0.7000000000000000
100
AcDbArc
 50
157.4859999999999
 51
411.3165000000000
  0
ARC
  5
1FA
100
AcDbEntity
  8
A4
  6
CONTINUOUS
 62
7
100
AcDbCircle
 10
56.29075638450919
 20
146.4913761626182
 30
0.000000000000000
 40
0.7000000000000000
100
AcDbArc
 50
280.0000000000000
 51
459.9999999999999
  0
ARC
  5
1FB
100
AcDbEntity
  8
A4
  6
CONTINUOUS
 62
7
100
AcDbCircle
 10
56.29075638450919
 20
146.4913761626182
 30
0.000000000000000
 40
0.7000000000000000
100
AcDbArc
 50
280.0000000000000
 51
459.9999999999999
  0
ARC
  5
1FC
100
AcDbEntity
  8
A4
  6
CONTINUOUS
 62
7
100
AcDbCircle
 10
48.68845938450920
 20
142.3744541626182
 30
0.000000000000000
 40
0.6977040000000000
100
AcDbArc
 50
98.19130900000000
 51
278.1839230000000
  0
LINE
  5
1FD
100
AcDbEntity
  8
A4
  6
CONTINUOUS
 62
7
100
AcDbLine
 10
48.66961738450919
 20
143.1724801626183
 30
0.000000000000000
 11
49.15655038450919
 21
143.1467301626181
 31
0.000000000000000
  0
ARC
  5
1FE
100
AcDbEntity
  8
A4
  6
CONTINUOUS
 62
7
100
AcDbCircle
 10
48.69004338450918
 20
140.8812821626183
 30
0.000000000000000
 40
0.6992880000000004
100
AcDbArc
 50
98.19130900000000
 51
278.1839230000000
  0
LINE
  5
1FF
100
AcDbEntity
  8
A4
  6
CONTINUOUS
 62
7
100
AcDbLine
 10
48.65165338450920
 20
141.6777221626182
 30
0.000000000000000
 11
49.13683138450919
 21
141.6520921626182
 31
0.000000000000000
  0
ARC
  5
200
100
AcDbEntity
  8
A4
  6
CONTINUOUS
 62
7
100
AcDbCircle
 10
48.69004338450918
 20
137.8912821626183
 30
0.000000000000000
 40
0.6992880000000004
100
AcDbArc
 50
98.19130900000000
 51
278.1839230000000
  0
ARC
  5
201
100
AcDbEntity
  8
A4
  6
CONTINUOUS
 62
7
100
AcDbCircle
 10
48.69004338450918
 20
139.3862821626183
 30
0.000000000000000
 40
0.6992880000000004
100
AcDbArc
 50
98.19130900000000
 51
278.1839230000000
  0
LINE
  5
202
100
AcDbEntity
  8
A4
  6
CONTINUOUS
 62
7
100
AcDbLine
 10
48.65312338450917
 20
140.1829701626182
 30
0.000000000000000
 11
49.13838038450918
 21
140.1573151626182
 31
0.000000000000000
  0
LINE
  5
203
100
AcDbEntity
  8
A4
  6
CONTINUOUS
 62
7
100
AcDbLine
 10
48.65312338450917
 20
138.6879701626182
 30
0.000000000000000
 11
49.13838038450919
 21
138.6623151626182
 31
0.000000000000000
  0
ARC
  5
204
100
AcDbEntity
  8
A4
  6
CONTINUOUS
 62
7
100
AcDbCircle
 10
48.70746538450919
 20
143.8881891626183
 30
0.000000000000000
 40
0.7167090000000000
100
AcDbArc
 50
98.19130900000000
 51
278.1839230000000
  0
LINE
  5
205
100
AcDbEntity
  8
A4
  6
CONTINUOUS
 62
7
100
AcDbLine
 10
48.65031638450920
 20
144.6995451626183
 30
0.000000000000000
 11
49.12345438450920
 21
144.6721661626182
 31
0.000000000000000
  0
ARC
  5
206
100
AcDbEntity
  8
A4
  6
CONTINUOUS
 62
7
100
AcDbCircle
 10
48.69075638450919
 20
145.3983761626183
 30
0.000000000000000
 40
0.7000000000000000
100
AcDbArc
 50
95.62170000000000
 51
280.7845669999999
  0
ARC
  5
207
100
AcDbEntity
  8
A4
  6
CONTINUOUS
 62
7
100
AcDbCircle
 10
48.69075638450919
 20
146.4913761626182
 30
0.000000000000000
 40
0.7000000000000000
100
AcDbArc
 50
337.4509999999999
 51
591.3410000000001
  0
LINE
  5
208
100
AcDbEntity
  8
A4
  6
CONTINUOUS
 62
7
100
AcDbLine
 10
48.78958838450919
 20
138.6941161626182
 30
0.000000000000000
 11
56.39058838450918
 21
139.7872601626183
 31
0.000000000000000
  0
LINE
  5
209
100
AcDbEntity
  8
A4
  6
CONTINUOUS
 62
7
100
AcDbLine
 10
48.59041038450921
 20
140.0784361626183
 30
0.000000000000000
 11
56.19126938450919
 21
141.1725591626181
 31
0.000000000000000
  0
LINE
  5
20A
100
AcDbEntity
  8
A4
  6
CONTINUOUS
 62
7
100
AcDbLine
 10
48.78958838450919
 20
140.1891161626182
 30
0.000000000000000
 11
56.39058838450920
 21
141.2822601626182
 31
0.000000000000000
  0
LINE
  5
20B
100
AcDbEntity
  8
A4
  6
CONTINUOUS
 62
7
100
AcDbLine
 10
48.59041038450918
 20
141.5734361626183
 30
0.000000000000000
 11
56.19126938450918
 21
142.6675591626182
 31
0.000000000000000
  0
LINE
  5
20C
100
AcDbEntity
  8
A4
  6
CONTINUOUS
 62
7
100
AcDbLine
 10
48.78777838450920
 20
141.6838561626181
 30
0.000000000000000
 11
56.39194638450921
 21
142.7774551626181
 31
0.000000000000000
  0
LINE
  5
20D
100
AcDbEntity
  8
A4
  6
CONTINUOUS
 62
7
100
AcDbLine
 10
48.58905138450919
 20
143.0650401626183
 30
0.000000000000000
 11
56.19307838450921
 21
144.1596201626183
 31
0.000000000000000
  0
LINE
  5
20E
100
AcDbEntity
  8
A4
  6
CONTINUOUS
 62
7
100
AcDbLine
 10
48.80948938450918
 20
143.1787781626182
 30
0.000000000000000
 11
56.37564838450918
 21
144.2669111626180
 31
0.000000000000000
  0
LINE
  5
20F
100
AcDbEntity
  8
A4
  6
CONTINUOUS
 62
7
100
AcDbLine
 10
48.60534938450918
 20
144.5975861626182
 30
0.000000000000000
 11
56.17136838450919
 21
145.6866951626183
 31
0.000000000000000
  0
LINE
  5
210
100
AcDbEntity
  8
A4
  6
CONTINUOUS
 62
7
100
AcDbLine
 10
48.78958838450917
 20
137.1991161626183
 30
0.000000000000000
 11
56.39058838450919
 21
138.2922601626183
 31
0.000000000000000
  0
LINE
  5
211
100
AcDbEntity
  8
A4
  6
CONTINUOUS
 62
7
100
AcDbLine
 10
48.59041038450918
 20
138.5834361626182
 30
0.000000000000000
 11
56.19126938450918
 21
139.6775591626183
 31
0.000000000000000
  0
LINE
  5
212
100
AcDbEntity
  8
A4
  6
CONTINUOUS
 62
7
100
AcDbLine
 10
48.75405638450919
 20
137.1913761626181
 30
0.000000000000000
 11
50.99075638450918
 21
137.1913761626181
 31
0.000000000000000
  0
LINE
  5
213
100
AcDbEntity
  8
A4
  6
CONTINUOUS
 62
7
100
AcDbLine
 10
48.69075638450919
 20
147.1913761626183
 30
0.000000000000000
 11
52.49075638450919
 21
147.1913761626183
 31
0.000000000000000
  0
LINE
  5
214
100
AcDbEntity
  8
A4
  6
CONTINUOUS
 62
7
100
AcDbLine
 10
48.56915638450918
 20
146.0873761626182
 30
0.000000000000000
 11
56.16915638450919
 21
147.1813761626181
 31
0.000000000000000
  0
LINE
  5
215
100
AcDbEntity
  8
A4
  6
CONTINUOUS
 62
7
100
AcDbLine
 10
48.81225638450918
 20
144.7093761626183
 30
0.000000000000000
 11
56.41225638450917
 21
145.8023761626181
 31
0.000000000000000
  0
LINE
  5
216
100
AcDbEntity
  8
A4
  6
CONTINUOUS
 62
7
100
AcDbLine
 10
53.99075638450918
 20
147.1913761626183
 30
0.000000000000000
 11
56.29075638450919
 21
147.1913761626183
 31
0.000000000000000
  0
LINE
  5
217
100
AcDbEntity
  8
A4
  6
CONTINUOUS
 62
7
100
AcDbLine
 10
53.99075638450918
 20
145.4541261626181
 30
0.000000000000000
 11
53.99075638450918
 21
145.3728011626182
 31
0.000000000000000
  0
LINE
  5
218
100
AcDbEntity
  8
A4
  6
CONTINUOUS
 62
7
100
AcDbLine
 10
52.49075638450919
 20
145.2384031626182
 30
0.000000000000000
 11
52.49075638450919
 21
145.1568801626182
 31
0.000000000000000
  0
LINE
  5
219
100
AcDbEntity
  8
A4
  6
CONTINUOUS
 62
7
100
AcDbLine
 10
50.99075638450918
 20
145.0011071626181
 30
0.000000000000000
 11
50.99075638450918
 21
144.9193671626183
 31
0.000000000000000
  0
LINE
  5
21A
100
AcDbEntity
  8
A4
  6
CONTINUOUS
 62
7
100
AcDbLine
 10
53.99075638450918
 20
143.9239261626183
 30
0.000000000000000
 11
53.99075638450918
 21
143.8426011626181
 31
0.000000000000000
  0
LINE
  5
21B
100
AcDbEntity
  8
A4
  6
CONTINUOUS
 62
7
100
AcDbLine
 10
52.49075638450919
 20
143.7082031626183
 30
0.000000000000000
 11
52.49075638450919
 21
143.6266801626183
 31
0.000000000000000
  0
LINE
  5
21C
100
AcDbEntity
  8
A4
  6
CONTINUOUS
 62
7
100
AcDbLine
 10
50.99075638450918
 20
143.4709071626183
 30
0.000000000000000
 11
50.99075638450918
 21
143.3891671626182
 31
0.000000000000000
  0
LINE
  5
21D
100
AcDbEntity
  8
A4
  6
CONTINUOUS
 62
7
100
AcDbLine
 10
53.99075638450918
 20
142.4321261626182
 30
0.000000000000000
 11
53.99075638450918
 21
142.3508011626181
 31
0.000000000000000
  0
LINE
  5
21E
100
AcDbEntity
  8
A4
  6
CONTINUOUS
 62
7
100
AcDbLine
 10
52.49075638450919
 20
142.2164031626183
 30
0.000000000000000
 11
52.49075638450919
 21
142.1348801626182
 31
0.000000000000000
  0
LINE
  5
21F
100
AcDbEntity
  8
A4
  6
CONTINUOUS
 62
7
100
AcDbLine
 10
50.99075638450918
 20
141.9791071626183
 30
0.000000000000000
 11
50.99075638450918
 21
141.8973671626183
 31
0.000000000000000
  0
LINE
  5
220
100
AcDbEntity
  8
A4
  6
CONTINUOUS
 62
7
100
AcDbLine
 10
53.99075638450918
 20
140.9371261626182
 30
0.000000000000000
 11
53.99075638450918
 21
140.8558011626182
 31
0.000000000000000
  0
LINE
  5
221
100
AcDbEntity
  8
A4
  6
CONTINUOUS
 62
7
100
AcDbLine
 10
52.49075638450919
 20
140.7214031626183
 30
0.000000000000000
 11
52.49075638450919
 21
140.6398801626181
 31
0.000000000000000
  0
LINE
  5
222
100
AcDbEntity
  8
A4
  6
CONTINUOUS
 62
7
100
AcDbLine
 10
50.99075638450918
 20
140.4841071626181
 30
0.000000000000000
 11
50.99075638450918
 21
140.4023671626183
 31
0.000000000000000
  0
LINE
  5
223
100
AcDbEntity
  8
A4
  6
CONTINUOUS
 62
7
100
AcDbLine
 10
52.49075638450919
 20
139.2264031626182
 30
0.000000000000000
 11
52.49075638450919
 21
139.1448801626181
 31
0.000000000000000
  0
LINE
  5
224
100
AcDbEntity
  8
A4
  6
CONTINUOUS
 62
7
100
AcDbLine
 10
53.99075638450918
 20
139.4421261626181
 30
0.000000000000000
 11
53.99075638450918
 21
139.3608011626182
 31
0.000000000000000
  0
LINE
  5
225
100
AcDbEntity
  8
A4
  6
CONTINUOUS
 62
7
100
AcDbLine
 10
50.99075638450918
 20
138.9891071626183
 30
0.000000000000000
 11
50.99075638450918
 21
138.9073671626183
 31
0.000000000000000
  0
LINE
  5
226
100
AcDbEntity
  8
A4
  6
CONTINUOUS
 62
7
100
AcDbLine
 10
50.99075638450918
 20
137.5156791626182
 30
0.000000000000000
 11
50.99075638450918
 21
122.6913761626182
 31
0.000000000000000
  0
LINE
  5
227
100
AcDbEntity
  8
A4
  6
CONTINUOUS
 62
7
100
AcDbLine
 10
32.84075638450918
 20
129.0067181626182
 30
0.000000000000000
 11
32.84075638450918
 21
119.4913769600053
 31
0.000000000000000
  0
LINE
  5
228
100
AcDbEntity
  8
A2
  6
CENTER
 62
1
100
AcDbLine
 10
291.1108963845092
 20
158.1913761626181
 30
0.000000000000000
 11
316.1108963845092
 21
158.1913761626181
 31
0.000000000000000
  0
LINE
  5
229
100
AcDbEntity
  8
A4
  6
CONTINUOUS
 62
7
100
AcDbLine
 10
311.6108963845092
 20
156.6913761626183
 30
0.000000000000000
 11
295.6108963845091
 21
156.6913761626183
 31
0.000000000000000
  0
LINE
  5
22A
100
AcDbEntity
  8
A4
  6
CONTINUOUS
 62
7
100
AcDbLine
 10
311.6108963845092
 20
159.6913761626183
 30
0.000000000000000
 11
295.6108963845091
 21
159.6913761626183
 31
0.000000000000000
  0
LINE
  5
22B
100
AcDbEntity
  8
A4
  6
CONTINUOUS
 62
7
100
AcDbLine
 10
291.4608963845091
 20
153.6913761626183
 30
0.000000000000000
 11
291.4608963845091
 21
146.4143671626183
 31
0.000000000000000
  0
ARC
  5
22C
100
AcDbEntity
  8
A4
  6
CONTINUOUS
 62
7
100
AcDbCircle
 10
294.6108963845092
 20
154.1913761626183
 30
0.000000000000000
 40
1.000000000000000
100
AcDbArc
 50
270.0000000000000
 51
360.0000000000000
  0
LINE
  5
22D
100
AcDbEntity
  8
A4
  6
CONTINUOUS
 62
7
100
AcDbLine
 10
292.9608963845091
 20
134.1913761626181
 30
0.000000000000000
 11
291.4608963845091
 21
134.1913761626181
 31
0.000000000000000
  0
LINE
  5
22E
100
AcDbEntity
  8
A4
  6
CONTINUOUS
 62
7
100
AcDbLine
 10
292.9608963845091
 20
153.1913761626183
 30
0.000000000000000
 11
292.9608963845091
 21
146.6302881626182
 31
0.000000000000000
  0
LINE
  5
22F
100
AcDbEntity
  8
A4
  6
CONTINUOUS
 62
7
100
AcDbLine
 10
294.6108963845092
 20
153.1913761626183
 30
0.000000000000000
 11
292.9608963845091
 21
153.1913761626183
 31
0.000000000000000
  0
LINE
  5
230
100
AcDbEntity
  8
A4
  6
CONTINUOUS
 62
7
100
AcDbLine
 10
291.4608963845091
 20
137.4941071626182
 30
0.000000000000000
 11
291.4608963845091
 21
134.1913761626181
 31
0.000000000000000
  0
LINE
  5
231
100
AcDbEntity
  8
A4
  6
CONTINUOUS
 62
7
100
AcDbLine
 10
291.4608963845091
 20
145.0011071626181
 30
0.000000000000000
 11
291.4608963845091
 21
144.9193671626183
 31
0.000000000000000
  0
LINE
  5
232
100
AcDbEntity
  8
A4
  6
CONTINUOUS
 62
7
100
AcDbLine
 10
291.4608963845091
 20
138.9891071626183
 30
0.000000000000000
 11
291.4608963845091
 21
138.9073671626183
 31
0.000000000000000
  0
LINE
  5
233
100
AcDbEntity
  8
A4
  6
CONTINUOUS
 62
7
100
AcDbLine
 10
291.4608963845091
 20
140.4841071626181
 30
0.000000000000000
 11
291.4608963845091
 21
140.4023671626183
 31
0.000000000000000
  0
LINE
  5
234
100
AcDbEntity
  8
A4
  6
CONTINUOUS
 62
7
100
AcDbLine
 10
291.4608963845091
 20
141.9791071626183
 30
0.000000000000000
 11
291.4608963845091
 21
141.8973671626183
 31
0.000000000000000
  0
LINE
  5
235
100
AcDbEntity
  8
A4
  6
CONTINUOUS
 62
7
100
AcDbLine
 10
291.4608963845091
 20
143.4709071626183
 30
0.000000000000000
 11
291.4608963845091
 21
143.3891671626182
 31
0.000000000000000
  0
LINE
  5
236
100
AcDbEntity
  8
A4
  6
CONTINUOUS
 62
7
100
AcDbLine
 10
292.9608963845091
 20
150.1913761626183
 30
0.000000000000000
 11
294.4608963845091
 21
150.1913761626183
 31
0.000000000000000
  0
LINE
  5
237
100
AcDbEntity
  8
A4
  6
CONTINUOUS
 62
7
100
AcDbLine
 10
294.4608963845091
 20
150.1913761626183
 30
0.000000000000000
 11
294.4608963845091
 21
146.8678011626183
 31
0.000000000000000
  0
LINE
  5
238
100
AcDbEntity
  8
A4
  6
CONTINUOUS
 62
7
100
AcDbLine
 10
289.1232643845090
 20
138.6879701626182
 30
0.000000000000000
 11
289.6085203845092
 21
138.6623151626182
 31
0.000000000000000
  0
LINE
  5
239
100
AcDbEntity
  8
A4
  6
CONTINUOUS
 62
7
100
AcDbLine
 10
296.3171543845090
 20
139.7090851626183
 30
0.000000000000000
 11
296.7979693845091
 21
139.6837271626182
 31
0.000000000000000
  0
LINE
  5
23A
100
AcDbEntity
  8
A4
  6
CONTINUOUS
 62
7
100
AcDbLine
 10
289.1232643845091
 20
140.1829701626182
 30
0.000000000000000
 11
289.6085203845092
 21
140.1573151626182
 31
0.000000000000000
  0
LINE
  5
23B
100
AcDbEntity
  8
A4
  6
CONTINUOUS
 62
7
100
AcDbLine
 10
296.3171543845090
 20
141.2040851626183
 30
0.000000000000000
 11
296.7979693845092
 21
141.1787271626183
 31
0.000000000000000
  0
LINE
  5
23C
100
AcDbEntity
  8
A4
  6
CONTINUOUS
 62
7
100
AcDbLine
 10
289.1217943845092
 20
141.6777221626182
 30
0.000000000000000
 11
289.6069723845092
 21
141.6520921626182
 31
0.000000000000000
  0
LINE
  5
23D
100
AcDbEntity
  8
A4
  6
CONTINUOUS
 62
7
100
AcDbLine
 10
296.3160273845090
 20
142.6989231626183
 30
0.000000000000000
 11
296.7976483845092
 21
142.6737441626183
 31
0.000000000000000
  0
LINE
  5
23E
100
AcDbEntity
  8
A4
  6
CONTINUOUS
 62
7
100
AcDbLine
 10
289.1397583845092
 20
143.1724801626183
 30
0.000000000000000
 11
289.6266903845091
 21
143.1467301626181
 31
0.000000000000000
  0
LINE
  5
23F
100
AcDbEntity
  8
A4
  6
CONTINUOUS
 62
7
100
AcDbLine
 10
296.3308473845091
 20
144.1928551626182
 30
0.000000000000000
 11
296.8029653845092
 21
144.1655811626181
 31
0.000000000000000
  0
LINE
  5
240
100
AcDbEntity
  8
A4
  6
CONTINUOUS
 62
7
100
AcDbLine
 10
289.1204573845091
 20
144.6995451626183
 30
0.000000000000000
 11
289.5935953845092
 21
144.6721661626182
 31
0.000000000000000
  0
LINE
  5
241
100
AcDbEntity
  8
A4
  6
CONTINUOUS
 62
7
100
AcDbLine
 10
296.3003623845092
 20
145.7186701626183
 30
0.000000000000000
 11
296.7818843845091
 21
145.6929941626183
 31
0.000000000000000
  0
ARC
  5
242
100
AcDbEntity
  8
A4
  6
CONTINUOUS
 62
7
100
AcDbCircle
 10
296.7436943845091
 20
144.9768101626183
 30
0.000000000000000
 40
0.7172020000000000
100
AcDbArc
 50
278.1839230000000
 51
458.1913090000000
  0
ARC
  5
243
100
AcDbEntity
  8
A4
  6
CONTINUOUS
 62
7
100
AcDbCircle
 10
296.7626973845090
 20
143.4685441626182
 30
0.000000000000000
 40
0.6981990000000000
100
AcDbArc
 50
278.1839230000000
 51
458.1913090000000
  0
ARC
  5
244
100
AcDbEntity
  8
A4
  6
CONTINUOUS
 62
7
100
AcDbCircle
 10
296.7611143845092
 20
141.9749161626182
 30
0.000000000000000
 40
0.6997830000000002
100
AcDbArc
 50
278.1839230000000
 51
458.1913090000000
  0
ARC
  5
245
100
AcDbEntity
  8
A4
  6
CONTINUOUS
 62
7
100
AcDbCircle
 10
296.7611143845092
 20
140.4799161626183
 30
0.000000000000000
 40
0.6997830000000002
100
AcDbArc
 50
278.1839230000000
 51
458.1913090000000
  0
ARC
  5
246
100
AcDbEntity
  8
A4
  6
CONTINUOUS
 62
7
100
AcDbCircle
 10
296.7611143845092
 20
138.9849161626183
 30
0.000000000000000
 40
0.6997830000000002
100
AcDbArc
 50
278.1839230000000
 51
458.1913090000000
  0
ARC
  5
247
100
AcDbEntity
  8
A4
  6
CONTINUOUS
 62
7
100
AcDbCircle
 10
289.1601843845091
 20
137.8912821626183
 30
0.000000000000000
 40
0.6992880000000004
100
AcDbArc
 50
98.19130900000000
 51
278.1839230000000
  0
ARC
  5
248
100
AcDbEntity
  8
A4
  6
CONTINUOUS
 62
7
100
AcDbCircle
 10
289.1601843845091
 20
139.3862821626183
 30
0.000000000000000
 40
0.6992880000000004
100
AcDbArc
 50
98.19130900000000
 51
278.1839230000000
  0
ARC
  5
249
100
AcDbEntity
  8
A4
  6
CONTINUOUS
 62
7
100
AcDbCircle
 10
289.1601843845091
 20
140.8812821626183
 30
0.000000000000000
 40
0.6992880000000004
100
AcDbArc
 50
98.19130900000000
 51
278.1839230000000
  0
ARC
  5
24A
100
AcDbEntity
  8
A4
  6
CONTINUOUS
 62
7
100
AcDbCircle
 10
289.1586003845092
 20
142.3744541626182
 30
0.000000000000000
 40
0.6977040000000000
100
AcDbArc
 50
98.19130900000000
 51
278.1839230000000
  0
ARC
  5
24B
100
AcDbEntity
  8
A4
  6
CONTINUOUS
 62
7
100
AcDbCircle
 10
289.1776063845092
 20
143.8881891626183
 30
0.000000000000000
 40
0.7167090000000000
100
AcDbArc
 50
98.19130900000000
 51
278.1839230000000
  0
LINE
  5
24C
100
AcDbEntity
  8
A4
  6
CONTINUOUS
 62
7
100
AcDbLine
 10
292.9608963845091
 20
142.2164031626183
 30
0.000000000000000
 11
292.9608963845091
 21
142.1348801626182
 31
0.000000000000000
  0
LINE
  5
24D
100
AcDbEntity
  8
A4
  6
CONTINUOUS
 62
7
100
AcDbLine
 10
292.9608963845091
 20
143.7082031626183
 30
0.000000000000000
 11
292.9608963845091
 21
143.6266801626183
 31
0.000000000000000
  0
LINE
  5
24E
100
AcDbEntity
  8
A4
  6
CONTINUOUS
 62
7
100
AcDbLine
 10
294.4608963845091
 20
143.9239261626183
 30
0.000000000000000
 11
294.4608963845091
 21
143.8426011626181
 31
0.000000000000000
  0
LINE
  5
24F
100
AcDbEntity
  8
A4
  6
CONTINUOUS
 62
7
100
AcDbLine
 10
294.4608963845091
 20
142.4321261626182
 30
0.000000000000000
 11
294.4608963845091
 21
142.3508011626181
 31
0.000000000000000
  0
LINE
  5
250
100
AcDbEntity
  8
A4
  6
CONTINUOUS
 62
7
100
AcDbLine
 10
294.4608963845091
 20
140.9371261626182
 30
0.000000000000000
 11
294.4608963845091
 21
140.8558011626182
 31
0.000000000000000
  0
LINE
  5
251
100
AcDbEntity
  8
A4
  6
CONTINUOUS
 62
7
100
AcDbLine
 10
292.9608963845091
 20
140.7214031626183
 30
0.000000000000000
 11
292.9608963845091
 21
140.6398801626181
 31
0.000000000000000
  0
LINE
  5
252
100
AcDbEntity
  8
A4
  6
CONTINUOUS
 62
7
100
AcDbLine
 10
292.9608963845091
 20
139.2264031626182
 30
0.000000000000000
 11
292.9608963845091
 21
139.1448801626181
 31
0.000000000000000
  0
LINE
  5
253
100
AcDbEntity
  8
A4
  6
CONTINUOUS
 62
7
100
AcDbLine
 10
294.4608963845091
 20
139.4421261626181
 30
0.000000000000000
 11
294.4608963845091
 21
139.3608011626182
 31
0.000000000000000
  0
LINE
  5
254
100
AcDbEntity
  8
A4
  6
CONTINUOUS
 62
7
100
AcDbLine
 10
292.9608963845091
 20
145.2384031626182
 30
0.000000000000000
 11
292.9608963845091
 21
145.1568801626182
 31
0.000000000000000
  0
LINE
  5
255
100
AcDbEntity
  8
A4
  6
CONTINUOUS
 62
7
100
AcDbLine
 10
294.4608963845091
 20
145.4541261626181
 30
0.000000000000000
 11
294.4608963845091
 21
145.3728011626182
 31
0.000000000000000
  0
ARC
  5
256
100
AcDbEntity
  8
A4
  6
CONTINUOUS
 62
7
100
AcDbCircle
 10
289.1608963845092
 20
146.4913761626182
 30
0.000000000000000
 40
0.7000000000000000
100
AcDbArc
 50
337.4509999999999
 51
591.3410000000001
  0
ARC
  5
257
100
AcDbEntity
  8
A4
  6
CONTINUOUS
 62
7
100
AcDbCircle
 10
296.7608963845090
 20
137.8913761626182
 30
0.000000000000000
 40
0.7000000000000000
100
AcDbArc
 50
157.4859999999999
 51
411.3165000000000
  0
ARC
  5
258
100
AcDbEntity
  8
A4
  6
CONTINUOUS
 62
7
100
AcDbCircle
 10
296.7608963845090
 20
146.4913761626182
 30
0.000000000000000
 40
0.7000000000000000
100
AcDbArc
 50
280.0000000000000
 51
459.9999999999999
  0
ARC
  5
259
100
AcDbEntity
  8
A4
  6
CONTINUOUS
 62
7
100
AcDbCircle
 10
289.1608963845092
 20
145.3983761626183
 30
0.000000000000000
 40
0.7000000000000000
100
AcDbArc
 50
95.62170000000000
 51
280.7845669999999
  0
ARC
  5
25A
100
AcDbEntity
  8
A4
  6
CONTINUOUS
 62
7
100
AcDbCircle
 10
296.7608963845090
 20
146.4913761626182
 30
0.000000000000000
 40
0.7000000000000000
100
AcDbArc
 50
280.0000000000000
 51
459.9999999999999
  0
LINE
  5
25B
100
AcDbEntity
  8
A4
  6
CONTINUOUS
 62
7
100
AcDbLine
 10
294.4608963845091
 20
137.1913761626181
 30
0.000000000000000
 11
296.7608963845090
 21
137.1913761626181
 31
0.000000000000000
  0
LINE
  5
25C
100
AcDbEntity
  8
A4
  6
CONTINUOUS
 62
7
100
AcDbLine
 10
289.2241963845090
 20
137.1913761626181
 30
0.000000000000000
 11
292.9608963845091
 21
137.1913761626181
 31
0.000000000000000
  0
LINE
  5
25D
100
AcDbEntity
  8
A4
  6
CONTINUOUS
 62
7
100
AcDbLine
 10
289.0392963845092
 20
146.0873761626182
 30
0.000000000000000
 11
296.6392963845092
 21
147.1813761626181
 31
0.000000000000000
  0
LINE
  5
25E
100
AcDbEntity
  8
A4
  6
CONTINUOUS
 62
7
100
AcDbLine
 10
289.2823963845090
 20
144.7093761626183
 30
0.000000000000000
 11
296.8823963845092
 21
145.8023761626181
 31
0.000000000000000
  0
LINE
  5
25F
100
AcDbEntity
  8
A4
  6
CONTINUOUS
 62
7
100
AcDbLine
 10
289.2796303845091
 20
143.1787781626183
 30
0.000000000000000
 11
296.8457893845092
 21
144.2669111626181
 31
0.000000000000000
  0
LINE
  5
260
100
AcDbEntity
  8
A4
  6
CONTINUOUS
 62
7
100
AcDbLine
 10
289.0754903845090
 20
144.5975861626182
 30
0.000000000000000
 11
296.6415083845091
 21
145.6866951626183
 31
0.000000000000000
  0
LINE
  5
261
100
AcDbEntity
  8
A4
  6
CONTINUOUS
 62
7
100
AcDbLine
 10
289.0591923845092
 20
143.0650401626183
 30
0.000000000000000
 11
296.6632193845092
 21
144.1596201626183
 31
0.000000000000000
  0
LINE
  5
262
100
AcDbEntity
  8
A4
  6
CONTINUOUS
 62
7
100
AcDbLine
 10
289.2579193845092
 20
141.6838561626181
 30
0.000000000000000
 11
296.8620873845092
 21
142.7774551626181
 31
0.000000000000000
  0
LINE
  5
263
100
AcDbEntity
  8
A4
  6
CONTINUOUS
 62
7
100
AcDbLine
 10
289.2597283845092
 20
140.1891161626182
 30
0.000000000000000
 11
296.8607293845092
 21
141.2822601626182
 31
0.000000000000000
  0
LINE
  5
264
100
AcDbEntity
  8
A4
  6
CONTINUOUS
 62
7
100
AcDbLine
 10
289.0605503845092
 20
141.5734361626183
 30
0.000000000000000
 11
296.6614103845092
 21
142.6675591626183
 31
0.000000000000000
  0
LINE
  5
265
100
AcDbEntity
  8
A4
  6
CONTINUOUS
 62
7
100
AcDbLine
 10
289.0605503845092
 20
140.0784361626183
 30
0.000000000000000
 11
296.6614103845091
 21
141.1725591626181
 31
0.000000000000000
  0
LINE
  5
266
100
AcDbEntity
  8
A4
  6
CONTINUOUS
 62
7
100
AcDbLine
 10
289.2597283845092
 20
138.6941161626182
 30
0.000000000000000
 11
296.8607293845092
 21
139.7872601626183
 31
0.000000000000000
  0
LINE
  5
267
100
AcDbEntity
  8
A4
  6
CONTINUOUS
 62
7
100
AcDbLine
 10
289.2597283845092
 20
137.1991161626183
 30
0.000000000000000
 11
296.8607293845091
 21
138.2922601626183
 31
0.000000000000000
  0
LINE
  5
268
100
AcDbEntity
  8
A4
  6
CONTINUOUS
 62
7
100
AcDbLine
 10
289.0605503845092
 20
138.5834361626182
 30
0.000000000000000
 11
296.6614103845091
 21
139.6775591626183
 31
0.000000000000000
  0
LINE
  5
269
100
AcDbEntity
  8
A4
  6
CONTINUOUS
 62
7
100
AcDbLine
 10
292.9608963845091
 20
147.1913761626183
 30
0.000000000000000
 11
296.7608963845090
 21
147.1913761626183
 31
0.000000000000000
  0
LINE
  5
26A
100
AcDbEntity
  8
A4
  6
CONTINUOUS
 62
7
100
AcDbLine
 10
289.1608963845092
 20
147.1913761626183
 30
0.000000000000000
 11
291.4608963845091
 21
147.1913761626183
 31
0.000000000000000
  0
LINE
  5
26B
100
AcDbEntity
  8
A4
  6
CONTINUOUS
 62
7
100
AcDbLine
 10
293.1108963845091
 20
157.0663761626181
 30
0.000000000000000
 11
293.1108963845091
 21
159.3163761626183
 31
0.000000000000000
  0
LINE
  5
26C
100
AcDbEntity
  8
A4
  6
CONTINUOUS
 62
7
100
AcDbLine
 10
295.6108963845091
 20
154.1913761626183
 30
0.000000000000000
 11
295.6108963845091
 21
160.6913761626183
 31
0.000000000000000
  0
LINE
  5
26D
100
AcDbEntity
  8
A4
  6
CONTINUOUS
 62
7
100
AcDbLine
 10
294.1108963845092
 20
157.0663761626181
 30
0.000000000000000
 11
293.1108963845091
 21
157.0663761626181
 31
0.000000000000000
  0
LINE
  5
26E
100
AcDbEntity
  8
A4
  6
CONTINUOUS
 62
7
100
AcDbLine
 10
294.1108963845092
 20
159.3163761626183
 30
0.000000000000000
 11
293.1108963845091
 21
159.3163761626183
 31
0.000000000000000
  0
LINE
  5
26F
100
AcDbEntity
  8
A4
  6
CONTINUOUS
 62
7
100
AcDbLine
 10
294.1108963845092
 20
160.6913761626183
 30
0.000000000000000
 11
294.1108963845092
 21
154.6913761626181
 31
0.000000000000000
  0
LINE
  5
270
100
AcDbEntity
  8
A4
  6
CONTINUOUS
 62
7
100
AcDbLine
 10
295.6108963845091
 20
160.6913761626183
 30
0.000000000000000
 11
294.1108963845092
 21
160.6913761626183
 31
0.000000000000000
  0
LINE
  5
271
100
AcDbEntity
  8
A4
  6
CONTINUOUS
 62
7
100
AcDbLine
 10
294.1108963845092
 20
154.6913761626181
 30
0.000000000000000
 11
292.4608963845091
 21
154.6913761626181
 31
0.000000000000000
  0
LINE
  5
272
100
AcDbEntity
  8
A4
  6
CONTINUOUS
 62
7
100
AcDbLine
 10
294.3608963845092
 20
154.6913761626181
 30
0.000000000000000
 11
295.3608963845092
 21
154.6913761626181
 31
0.000000000000000
  0
ARC
  5
273
100
AcDbEntity
  8
A4
  6
CONTINUOUS
 62
7
100
AcDbCircle
 10
292.4608963845091
 20
153.6913761626183
 30
0.000000000000000
 40
1.000000000000000
100
AcDbArc
 50
90.00000000000000
 51
180.0000000000000
  0
LINE
  5
274
100
AcDbEntity
  8
A4
  6
CONTINUOUS
 62
7
100
AcDbLine
 10
315.7608963845090
 20
153.6913761626183
 30
0.000000000000000
 11
315.7608963845090
 21
146.8234621626182
 31
0.000000000000000
  0
ARC
  5
275
100
AcDbEntity
  8
A4
  6
CONTINUOUS
 62
7
100
AcDbCircle
 10
312.6108963845092
 20
154.1913761626183
 30
0.000000000000000
 40
1.000000000000000
100
AcDbArc
 50
180.0000000000000
 51
270.0000000000000
  0
LINE
  5
276
100
AcDbEntity
  8
A4
  6
CONTINUOUS
 62
7
100
AcDbLine
 10
310.5823963845093
 20
144.7093761626183
 30
0.000000000000000
 11
318.1823963845093
 21
145.8023761626181
 31
0.000000000000000
  0
LINE
  5
277
100
AcDbEntity
  8
A4
  6
CONTINUOUS
 62
7
100
AcDbLine
 10
310.3392963845090
 20
146.0873761626181
 30
0.000000000000000
 11
317.9392963845091
 21
147.1813761626181
 31
0.000000000000000
  0
LINE
  5
278
100
AcDbEntity
  8
A4
  6
CONTINUOUS
 62
7
100
AcDbLine
 10
310.3605503845091
 20
138.5834361626182
 30
0.000000000000000
 11
317.9614103845090
 21
139.6775591626183
 31
0.000000000000000
  0
LINE
  5
279
100
AcDbEntity
  8
A4
  6
CONTINUOUS
 62
7
100
AcDbLine
 10
310.5597283845092
 20
137.1991161626183
 30
0.000000000000000
 11
318.1607293845092
 21
138.2922601626183
 31
0.000000000000000
  0
LINE
  5
27A
100
AcDbEntity
  8
A4
  6
CONTINUOUS
 62
7
100
AcDbLine
 10
310.3754903845092
 20
144.5975861626182
 30
0.000000000000000
 11
317.9415083845092
 21
145.6866951626183
 31
0.000000000000000
  0
LINE
  5
27B
100
AcDbEntity
  8
A4
  6
CONTINUOUS
 62
7
100
AcDbLine
 10
310.5796303845090
 20
143.1787781626183
 30
0.000000000000000
 11
318.1457893845092
 21
144.2669111626181
 31
0.000000000000000
  0
LINE
  5
27C
100
AcDbEntity
  8
A4
  6
CONTINUOUS
 62
7
100
AcDbLine
 10
310.3591923845092
 20
143.0650401626183
 30
0.000000000000000
 11
317.9632193845093
 21
144.1596201626183
 31
0.000000000000000
  0
LINE
  5
27D
100
AcDbEntity
  8
A4
  6
CONTINUOUS
 62
7
100
AcDbLine
 10
310.5579193845092
 20
141.6838561626181
 30
0.000000000000000
 11
318.1620873845089
 21
142.7774551626181
 31
0.000000000000000
  0
LINE
  5
27E
100
AcDbEntity
  8
A4
  6
CONTINUOUS
 62
7
100
AcDbLine
 10
310.3605503845091
 20
141.5734361626183
 30
0.000000000000000
 11
317.9614103845091
 21
142.6675591626182
 31
0.000000000000000
  0
LINE
  5
27F
100
AcDbEntity
  8
A4
  6
CONTINUOUS
 62
7
100
AcDbLine
 10
310.5597283845092
 20
140.1891161626182
 30
0.000000000000000
 11
318.1607293845092
 21
141.2822601626182
 31
0.000000000000000
  0
LINE
  5
280
100
AcDbEntity
  8
A4
  6
CONTINUOUS
 62
7
100
AcDbLine
 10
310.3605503845091
 20
140.0784361626183
 30
0.000000000000000
 11
317.9614103845089
 21
141.1725591626181
 31
0.000000000000000
  0
LINE
  5
281
100
AcDbEntity
  8
A4
  6
CONTINUOUS
 62
7
100
AcDbLine
 10
310.5597283845092
 20
138.6941161626182
 30
0.000000000000000
 11
318.1607293845092
 21
139.7872601626183
 31
0.000000000000000
  0
LINE
  5
282
100
AcDbEntity
  8
A4
  6
CONTINUOUS
 62
7
100
AcDbLine
 10
314.2608963845092
 20
137.1913761626181
 30
0.000000000000000
 11
318.0608963845091
 21
137.1913761626181
 31
0.000000000000000
  0
LINE
  5
283
100
AcDbEntity
  8
A4
  6
CONTINUOUS
 62
7
100
AcDbLine
 10
315.7608963845090
 20
147.1913761626183
 30
0.000000000000000
 11
318.0608963845091
 21
147.1913761626183
 31
0.000000000000000
  0
LINE
  5
284
100
AcDbEntity
  8
A4
  6
CONTINUOUS
 62
7
100
AcDbLine
 10
314.2608963845092
 20
153.1913761626183
 30
0.000000000000000
 11
312.6108963845092
 21
153.1913761626183
 31
0.000000000000000
  0
LINE
  5
285
100
AcDbEntity
  8
A4
  6
CONTINUOUS
 62
7
100
AcDbLine
 10
314.2608963845092
 20
134.1913761626181
 30
0.000000000000000
 11
315.7608963845090
 21
134.1913761626181
 31
0.000000000000000
  0
LINE
  5
286
100
AcDbEntity
  8
A4
  6
CONTINUOUS
 62
7
100
AcDbLine
 10
314.2608963845092
 20
153.1913761626183
 30
0.000000000000000
 11
314.2608963845092
 21
146.6734721626181
 31
0.000000000000000
  0
LINE
  5
287
100
AcDbEntity
  8
A4
  6
CONTINUOUS
 62
7
100
AcDbLine
 10
315.7608963845090
 20
139.4421261626181
 30
0.000000000000000
 11
315.7608963845090
 21
139.3608011626182
 31
0.000000000000000
  0
LINE
  5
288
100
AcDbEntity
  8
A4
  6
CONTINUOUS
 62
7
100
AcDbLine
 10
314.2608963845092
 20
139.2264031626182
 30
0.000000000000000
 11
314.2608963845092
 21
139.1448801626181
 31
0.000000000000000
  0
LINE
  5
289
100
AcDbEntity
  8
A4
  6
CONTINUOUS
 62
7
100
AcDbLine
 10
314.2608963845092
 20
140.7214031626183
 30
0.000000000000000
 11
314.2608963845092
 21
140.6398801626181
 31
0.000000000000000
  0
LINE
  5
28A
100
AcDbEntity
  8
A4
  6
CONTINUOUS
 62
7
100
AcDbLine
 10
315.7608963845090
 20
140.9371261626182
 30
0.000000000000000
 11
315.7608963845090
 21
140.8558011626182
 31
0.000000000000000
  0
LINE
  5
28B
100
AcDbEntity
  8
A4
  6
CONTINUOUS
 62
7
100
AcDbLine
 10
314.2608963845092
 20
142.2164031626183
 30
0.000000000000000
 11
314.2608963845092
 21
142.1348801626182
 31
0.000000000000000
  0
LINE
  5
28C
100
AcDbEntity
  8
A4
  6
CONTINUOUS
 62
7
100
AcDbLine
 10
315.7608963845090
 20
142.4321261626182
 30
0.000000000000000
 11
315.7608963845090
 21
142.3508011626181
 31
0.000000000000000
  0
LINE
  5
28D
100
AcDbEntity
  8
A4
  6
CONTINUOUS
 62
7
100
AcDbLine
 10
314.2608963845092
 20
143.7082031626183
 30
0.000000000000000
 11
314.2608963845092
 21
143.6266801626183
 31
0.000000000000000
  0
LINE
  5
28E
100
AcDbEntity
  8
A4
  6
CONTINUOUS
 62
7
100
AcDbLine
 10
315.7608963845090
 20
143.9239261626183
 30
0.000000000000000
 11
315.7608963845090
 21
143.8426011626181
 31
0.000000000000000
  0
LINE
  5
28F
100
AcDbEntity
  8
A4
  6
CONTINUOUS
 62
7
100
AcDbLine
 10
314.2608963845092
 20
145.2384031626182
 30
0.000000000000000
 11
314.2608963845092
 21
145.1568801626182
 31
0.000000000000000
  0
LINE
  5
290
100
AcDbEntity
  8
A4
  6
CONTINUOUS
 62
7
100
AcDbLine
 10
315.7608963845090
 20
145.4541261626181
 30
0.000000000000000
 11
315.7608963845090
 21
145.3728011626182
 31
0.000000000000000
  0
LINE
  5
291
100
AcDbEntity
  8
A4
  6
CONTINUOUS
 62
7
100
AcDbLine
 10
310.5241963845091
 20
137.1913761626181
 30
0.000000000000000
 11
312.7608963845090
 21
137.1913761626181
 31
0.000000000000000
  0
ARC
  5
292
100
AcDbEntity
  8
A4
  6
CONTINUOUS
 62
7
100
AcDbCircle
 10
310.4608963845090
 20
146.4913761626182
 30
0.000000000000000
 40
0.7000000000000000
100
AcDbArc
 50
337.4509999999999
 51
591.3410000000001
  0
ARC
  5
293
100
AcDbEntity
  8
A4
  6
CONTINUOUS
 62
7
100
AcDbCircle
 10
310.4608963845090
 20
145.3983761626183
 30
0.000000000000000
 40
0.7000000000000000
100
AcDbArc
 50
95.62170000000000
 51
280.7845669999999
  0
LINE
  5
294
100
AcDbEntity
  8
A4
  6
CONTINUOUS
 62
7
100
AcDbLine
 10
310.4204573845091
 20
144.6995451626184
 30
0.000000000000000
 11
310.8935953845091
 21
144.6721661626183
 31
0.000000000000000
  0
ARC
  5
295
100
AcDbEntity
  8
A4
  6
CONTINUOUS
 62
7
100
AcDbCircle
 10
310.4776063845092
 20
143.8881891626183
 30
0.000000000000000
 40
0.7167090000000000
100
AcDbArc
 50
98.19130900000000
 51
278.1839230000000
  0
LINE
  5
296
100
AcDbEntity
  8
A4
  6
CONTINUOUS
 62
7
100
AcDbLine
 10
310.4232643845093
 20
138.6879701626182
 30
0.000000000000000
 11
310.9085203845092
 21
138.6623151626182
 31
0.000000000000000
  0
LINE
  5
297
100
AcDbEntity
  8
A4
  6
CONTINUOUS
 62
7
100
AcDbLine
 10
310.4232643845092
 20
140.1829701626182
 30
0.000000000000000
 11
310.9085203845092
 21
140.1573151626182
 31
0.000000000000000
  0
ARC
  5
298
100
AcDbEntity
  8
A4
  6
CONTINUOUS
 62
7
100
AcDbCircle
 10
310.4601843845092
 20
139.3862821626183
 30
0.000000000000000
 40
0.6992880000000004
100
AcDbArc
 50
98.19130900000000
 51
278.1839230000000
  0
ARC
  5
299
100
AcDbEntity
  8
A4
  6
CONTINUOUS
 62
7
100
AcDbCircle
 10
310.4601843845092
 20
137.8912821626183
 30
0.000000000000000
 40
0.6992880000000004
100
AcDbArc
 50
98.19130900000000
 51
278.1839230000000
  0
LINE
  5
29A
100
AcDbEntity
  8
A4
  6
CONTINUOUS
 62
7
100
AcDbLine
 10
310.4217943845092
 20
141.6777221626182
 30
0.000000000000000
 11
310.9069723845091
 21
141.6520921626182
 31
0.000000000000000
  0
ARC
  5
29B
100
AcDbEntity
  8
A4
  6
CONTINUOUS
 62
7
100
AcDbCircle
 10
310.4601843845092
 20
140.8812821626183
 30
0.000000000000000
 40
0.6992880000000004
100
AcDbArc
 50
98.19130900000000
 51
278.1839230000000
  0
LINE
  5
29C
100
AcDbEntity
  8
A4
  6
CONTINUOUS
 62
7
100
AcDbLine
 10
310.4397583845092
 20
143.1724801626182
 30
0.000000000000000
 11
310.9266903845090
 21
143.1467301626180
 31
0.000000000000000
  0
ARC
  5
29D
100
AcDbEntity
  8
A4
  6
CONTINUOUS
 62
7
100
AcDbCircle
 10
310.4586003845091
 20
142.3744541626182
 30
0.000000000000000
 40
0.6977040000000000
100
AcDbArc
 50
98.19130900000000
 51
278.1839230000000
  0
LINE
  5
29E
100
AcDbEntity
  8
A4
  6
CONTINUOUS
 62
7
100
AcDbLine
 10
312.7608963845090
 20
150.1913761626183
 30
0.000000000000000
 11
312.7608963845090
 21
146.4359591626183
 31
0.000000000000000
  0
LINE
  5
29F
100
AcDbEntity
  8
A4
  6
CONTINUOUS
 62
7
100
AcDbLine
 10
312.7608963845090
 20
150.1913761626183
 30
0.000000000000000
 11
314.2608963845092
 21
150.1913761626183
 31
0.000000000000000
  0
LINE
  5
2A0
100
AcDbEntity
  8
A4
  6
CONTINUOUS
 62
7
100
AcDbLine
 10
310.4608963845090
 20
147.1913761626183
 30
0.000000000000000
 11
314.2608963845092
 21
147.1913761626183
 31
0.000000000000000
  0
LINE
  5
2A1
100
AcDbEntity
  8
A4
  6
CONTINUOUS
 62
7
100
AcDbLine
 10
315.7608963845090
 20
137.9471261626181
 30
0.000000000000000
 11
315.7608963845090
 21
134.1913761626181
 31
0.000000000000000
  0
LINE
  5
2A2
100
AcDbEntity
  8
A4
  6
CONTINUOUS
 62
7
100
AcDbLine
 10
312.7608963845090
 20
145.0011071626181
 30
0.000000000000000
 11
312.7608963845090
 21
144.9193671626183
 31
0.000000000000000
  0
LINE
  5
2A3
100
AcDbEntity
  8
A4
  6
CONTINUOUS
 62
7
100
AcDbLine
 10
312.7608963845090
 20
143.4709071626183
 30
0.000000000000000
 11
312.7608963845090
 21
143.3891671626182
 31
0.000000000000000
  0
LINE
  5
2A4
100
AcDbEntity
  8
A4
  6
CONTINUOUS
 62
7
100
AcDbLine
 10
312.7608963845090
 20
141.9791071626183
 30
0.000000000000000
 11
312.7608963845090
 21
141.8973671626183
 31
0.000000000000000
  0
LINE
  5
2A5
100
AcDbEntity
  8
A4
  6
CONTINUOUS
 62
7
100
AcDbLine
 10
312.7608963845090
 20
140.4841071626181
 30
0.000000000000000
 11
312.7608963845090
 21
140.4023671626183
 31
0.000000000000000
  0
LINE
  5
2A6
100
AcDbEntity
  8
A4
  6
CONTINUOUS
 62
7
100
AcDbLine
 10
312.7608963845090
 20
138.9891071626183
 30
0.000000000000000
 11
312.7608963845090
 21
138.9073671626183
 31
0.000000000000000
  0
ARC
  5
2A7
100
AcDbEntity
  8
A4
  6
CONTINUOUS
 62
7
100
AcDbCircle
 10
318.0608963845091
 20
146.4913761626182
 30
0.000000000000000
 40
0.7000000000000000
100
AcDbArc
 50
280.0000000000000
 51
459.9999999999999
  0
ARC
  5
2A8
100
AcDbEntity
  8
A4
  6
CONTINUOUS
 62
7
100
AcDbCircle
 10
318.0608963845091
 20
146.4913761626182
 30
0.000000000000000
 40
0.7000000000000000
100
AcDbArc
 50
280.0000000000000
 51
459.9999999999999
  0
ARC
  5
2A9
100
AcDbEntity
  8
A4
  6
CONTINUOUS
 62
7
100
AcDbCircle
 10
318.0608963845091
 20
137.8913761626182
 30
0.000000000000000
 40
0.7000000000000000
100
AcDbArc
 50
157.4859999999999
 51
411.3165000000000
  0
LINE
  5
2AA
100
AcDbEntity
  8
A4
  6
CONTINUOUS
 62
7
100
AcDbLine
 10
317.6003623845092
 20
145.7186701626183
 30
0.000000000000000
 11
318.0818843845090
 21
145.6929941626183
 31
0.000000000000000
  0
ARC
  5
2AB
100
AcDbEntity
  8
A4
  6
CONTINUOUS
 62
7
100
AcDbCircle
 10
318.0436943845091
 20
144.9768101626183
 30
0.000000000000000
 40
0.7172020000000000
100
AcDbArc
 50
278.1839230000000
 51
458.1913090000000
  0
LINE
  5
2AC
100
AcDbEntity
  8
A4
  6
CONTINUOUS
 62
7
100
AcDbLine
 10
317.6308473845091
 20
144.1928551626182
 30
0.000000000000000
 11
318.1029653845090
 21
144.1655811626181
 31
0.000000000000000
  0
LINE
  5
2AD
100
AcDbEntity
  8
A4
  6
CONTINUOUS
 62
7
100
AcDbLine
 10
317.6171543845092
 20
139.7090851626183
 30
0.000000000000000
 11
318.0979693845092
 21
139.6837271626182
 31
0.000000000000000
  0
ARC
  5
2AE
100
AcDbEntity
  8
A4
  6
CONTINUOUS
 62
7
100
AcDbCircle
 10
318.0611143845092
 20
140.4799161626183
 30
0.000000000000000
 40
0.6997830000000002
100
AcDbArc
 50
278.1839230000000
 51
458.1913090000000
  0
ARC
  5
2AF
100
AcDbEntity
  8
A4
  6
CONTINUOUS
 62
7
100
AcDbCircle
 10
318.0611143845092
 20
138.9849161626183
 30
0.000000000000000
 40
0.6997830000000002
100
AcDbArc
 50
278.1839230000000
 51
458.1913090000000
  0
LINE
  5
2B0
100
AcDbEntity
  8
A4
  6
CONTINUOUS
 62
7
100
AcDbLine
 10
317.6171543845092
 20
141.2040851626183
 30
0.000000000000000
 11
318.0979693845092
 21
141.1787271626183
 31
0.000000000000000
  0
ARC
  5
2B1
100
AcDbEntity
  8
A4
  6
CONTINUOUS
 62
7
100
AcDbCircle
 10
318.0611143845092
 20
141.9749161626182
 30
0.000000000000000
 40
0.6997830000000002
100
AcDbArc
 50
278.1839230000000
 51
458.1913090000000
  0
LINE
  5
2B2
100
AcDbEntity
  8
A4
  6
CONTINUOUS
 62
7
100
AcDbLine
 10
317.6160273845092
 20
142.6989231626183
 30
0.000000000000000
 11
318.0976483845091
 21
142.6737441626183
 31
0.000000000000000
  0
ARC
  5
2B3
100
AcDbEntity
  8
A4
  6
CONTINUOUS
 62
7
100
AcDbCircle
 10
318.0626973845092
 20
143.4685441626182
 30
0.000000000000000
 40
0.6981990000000000
100
AcDbArc
 50
278.1839230000000
 51
458.1913090000000
  0
LINE
  5
2B4
100
AcDbEntity
  8
A4
  6
CONTINUOUS
 62
7
100
AcDbLine
 10
314.1108963845092
 20
157.0663761626181
 30
0.000000000000000
 11
314.1108963845092
 21
159.3163761626183
 31
0.000000000000000
  0
LINE
  5
2B5
100
AcDbEntity
  8
A4
  6
CONTINUOUS
 62
7
100
AcDbLine
 10
314.1108963845092
 20
157.0663761626181
 30
0.000000000000000
 11
313.1108963845092
 21
157.0663761626181
 31
0.000000000000000
  0
LINE
  5
2B6
100
AcDbEntity
  8
A4
  6
CONTINUOUS
 62
7
100
AcDbLine
 10
314.1108963845092
 20
159.3163761626183
 30
0.000000000000000
 11
313.1108963845092
 21
159.3163761626183
 31
0.000000000000000
  0
LINE
  5
2B7
100
AcDbEntity
  8
A4
  6
CONTINUOUS
 62
7
100
AcDbLine
 10
311.6108963845092
 20
154.1913761626183
 30
0.000000000000000
 11
311.6108963845092
 21
160.6913761626183
 31
0.000000000000000
  0
LINE
  5
2B8
100
AcDbEntity
  8
A4
  6
CONTINUOUS
 62
7
100
AcDbLine
 10
313.1108963845092
 20
160.6913761626183
 30
0.000000000000000
 11
313.1108963845092
 21
154.6913761626181
 31
0.000000000000000
  0
LINE
  5
2B9
100
AcDbEntity
  8
A4
  6
CONTINUOUS
 62
7
100
AcDbLine
 10
311.6108963845092
 20
160.6913761626183
 30
0.000000000000000
 11
313.1108963845092
 21
160.6913761626183
 31
0.000000000000000
  0
LINE
  5
2BA
100
AcDbEntity
  8
A4
  6
CONTINUOUS
 62
7
100
AcDbLine
 10
313.1108963845092
 20
154.6913761626181
 30
0.000000000000000
 11
314.7608963845090
 21
154.6913761626181
 31
0.000000000000000
  0
LINE
  5
2BB
100
AcDbEntity
  8
A4
  6
CONTINUOUS
 62
7
100
AcDbLine
 10
311.8608963845092
 20
154.6913761626181
 30
0.000000000000000
 11
312.8608963845092
 21
154.6913761626181
 31
0.000000000000000
  0
ARC
  5
2BC
100
AcDbEntity
  8
A4
  6
CONTINUOUS
 62
7
100
AcDbCircle
 10
314.7608963845090
 20
153.6913761626183
 30
0.000000000000000
 40
1.000000000000000
100
AcDbArc
 50
0.000000000000000
 51
90.00000000000000
  0
LINE
  5
2BD
100
AcDbEntity
  8
A4
  6
CONTINUOUS
 62
7
100
AcDbLine
 10
292.9608963845091
 20
137.7314031626182
 30
0.000000000000000
 11
292.9608963845091
 21
122.6913761626182
 31
0.000000000000000
  0
LINE
  5
2BE
100
AcDbEntity
  8
A4
  6
CONTINUOUS
 62
7
100
AcDbLine
 10
314.2608963845092
 20
137.7314031626182
 30
0.000000000000000
 11
314.2608963845092
 21
122.6913761626182
 31
0.000000000000000
  0
LINE
  5
2BF
100
AcDbEntity
  8
A4
  6
CONTINUOUS
 62
7
100
AcDbLine
 10
312.7608963845090
 20
137.5156791626182
 30
0.000000000000000
 11
312.7608963845090
 21
122.6913761626182
 31
0.000000000000000
  0
LINE
  5
2C0
100
AcDbEntity
  8
A4
  6
CONTINUOUS
 62
7
100
AcDbLine
 10
294.4608963845091
 20
137.9471261626181
 30
0.000000000000000
 11
294.4608963845091
 21
122.6913761626182
 31
0.000000000000000
  0
LINE
  5
2C1
100
AcDbEntity
  8
A4
  6
CONTINUOUS
 62
7
100
AcDbLine
 10
291.9608963845091
 20
125.0663761626182
 30
0.000000000000000
 11
291.9608963845091
 21
127.3163761626183
 31
0.000000000000000
  0
LINE
  5
2C2
100
AcDbEntity
  8
A4
  6
CONTINUOUS
 62
7
100
AcDbLine
 10
292.9608963845091
 20
127.3163761626183
 30
0.000000000000000
 11
291.9608963845091
 21
127.3163761626183
 31
0.000000000000000
  0
LINE
  5
2C3
100
AcDbEntity
  8
A4
  6
CONTINUOUS
 62
7
100
AcDbLine
 10
292.9608963845091
 20
125.0663761626182
 30
0.000000000000000
 11
291.9608963845091
 21
125.0663761626182
 31
0.000000000000000
  0
LINE
  5
2C4
100
AcDbEntity
  8
A4
  6
CONTINUOUS
 62
7
100
AcDbLine
 10
315.2608963845090
 20
125.0663761626182
 30
0.000000000000000
 11
315.2608963845090
 21
127.3163761626183
 31
0.000000000000000
  0
LINE
  5
2C5
100
AcDbEntity
  8
A4
  6
CONTINUOUS
 62
7
100
AcDbLine
 10
315.2608963845090
 20
127.3163761626183
 30
0.000000000000000
 11
314.2608963845092
 21
127.3163761626183
 31
0.000000000000000
  0
LINE
  5
2C6
100
AcDbEntity
  8
A4
  6
CONTINUOUS
 62
7
100
AcDbLine
 10
315.2608963845090
 20
125.0663761626182
 30
0.000000000000000
 11
314.2608963845092
 21
125.0663761626182
 31
0.000000000000000
  0
LINE
  5
2C7
100
AcDbEntity
  8
A4
  6
CONTINUOUS
 62
7
100
AcDbLine
 10
314.2608963845092
 20
122.6913761626182
 30
0.000000000000000
 11
312.7608963845090
 21
122.6913761626182
 31
0.000000000000000
  0
LINE
  5
2C8
100
AcDbEntity
  8
A4
  6
CONTINUOUS
 62
7
100
AcDbLine
 10
312.7608963845090
 20
123.6913761626182
 30
0.000000000000000
 11
312.6108963845092
 21
123.6913761626182
 31
0.000000000000000
  0
LINE
  5
2C9
100
AcDbEntity
  8
A2
  6
CENTER
 62
1
100
AcDbLine
 10
310.6108963845092
 20
123.6913761626182
 30
0.000000000000000
 11
314.6108963845092
 21
123.6913761626182
 31
0.000000000000000
  0
ARC
  5
2CA
100
AcDbEntity
  8
A4
  6
CONTINUOUS
 62
7
100
AcDbCircle
 10
264.2113963845092
 20
142.0013761626181
 30
0.000000000000000
 40
52.68350000000000
100
AcDbArc
 50
336.7340000000000
 51
338.4983250000000
  0
LINE
  5
2CB
100
AcDbEntity
  8
A4
  6
CONTINUOUS
 62
7
100
AcDbLine
 10
294.4608963845091
 20
123.6913761626182
 30
0.000000000000000
 11
294.6108963845092
 21
123.6913761626182
 31
0.000000000000000
  0
LINE
  5
2CC
100
AcDbEntity
  8
A2
  6
CENTER
 62
1
100
AcDbLine
 10
296.6108963845092
 20
123.6913761626182
 30
0.000000000000000
 11
292.6108963845092
 21
123.6913761626182
 31
0.000000000000000
  0
ARC
  5
2CD
100
AcDbEntity
  8
A4
  6
CONTINUOUS
 62
7
100
AcDbCircle
 10
343.0104963845091
 20
142.0013761626181
 30
0.000000000000000
 40
52.68350000000000
100
AcDbArc
 50
201.5016750000000
 51
203.2659999999999
  0
LINE
  5
2CE
100
AcDbEntity
  8
A4
  6
CONTINUOUS
 62
7
100
AcDbLine
 10
292.9608963845091
 20
122.6913761626182
 30
0.000000000000000
 11
294.4608963845091
 21
122.6913761626182
 31
0.000000000000000
  0
LINE
  5
2CF
100
AcDbEntity
  8
A4
  6
CONTINUOUS
 62
7
100
AcDbLine
 10
50.99075638450918
 20
218.5342082811806
 30
0.000000000000000
 11
50.99075638450918
 21
216.5342082811806
 31
0.000000000000000
  0
LINE
  5
2D0
100
AcDbEntity
  8
A4
  6
CONTINUOUS
 62
7
100
AcDbLine
 10
50.84075638450919
 20
216.8476222811805
 30
0.000000000000000
 11
50.84075638450919
 21
216.0342082811804
 31
0.000000000000000
  0
LINE
  5
2D1
100
AcDbEntity
  8
A4
  6
CONTINUOUS
 62
7
100
AcDbLine
 10
32.69075638450919
 20
218.5342082811806
 30
0.000000000000000
 11
32.69075638450919
 21
216.5342082811806
 31
0.000000000000000
  0
LINE
  5
2D2
100
AcDbEntity
  8
A4
  6
CONTINUOUS
 62
7
100
AcDbLine
 10
32.84075638450918
 20
216.8476222811805
 30
0.000000000000000
 11
32.84075638450918
 21
216.0342082811804
 31
0.000000000000000
  0
SPLINE
  5
2D3
100
AcDbEntity
  8
A4
  6
CONTINUOUS
 62
3
100
AcDbSpline
210
0.000000000000000
220
0.000000000000000
230
1.000000000000000
 70
     8
 71
     3
 72
    10
 73
     6
 74
     0
 42
1.000000000000000e-07
 43
1.000000000000000e-07
 12
-0.01881019848519827
 22
-0.9998230725645953
 32
0.000000000000000
 13
-0.9291037464511192
 23
-0.3698191832904740
 33
0.000000000000000
 40
0.000000000000000
 40
0.000000000000000
 40
0.000000000000000
 40
0.000000000000000
 40
0.1336268606875438
 40
0.2710661473248362
 40
0.4329196953575333
 40
0.4329196953575333
 40
0.4329196953575333
 40
0.4329196953575333
 10
33.84075638444639
 20
117.6685868437724
 30
0.000000000000000
 10
33.83991853518889
 20
117.6240524376291
 30
0.000000000000000
 10
33.82218305782038
 20
117.5322218467988
 30
0.000000000000000
 10
33.73311883063649
 20
117.4139553609506
 30
0.000000000000000
 10
33.64664543270109
 20
117.3590703905723
 30
0.000000000000000
 10
33.59651918674989
 20
117.3391182082569
 30
0.000000000000000
  0
SPLINE
  5
2D4
100
AcDbEntity
  8
A4
  6
CONTINUOUS
 62
3
100
AcDbSpline
210
0.000000000000000
220
0.000000000000000
230
1.000000000000000
 70
     8
 71
     3
 72
    10
 73
     6
 74
     0
 42
1.000000000000000e-07
 43
1.000000000000000e-07
 12
-0.9285810501625065
 22
0.3711296717824553
 32
0.000000000000000
 13
-0.02409672425801546
 23
0.9997096317833893
 33
0.000000000000000
 40
0.000000000000000
 40
0.000000000000000
 40
0.000000000000000
 40
0.000000000000000
 40
0.1496730793896633
 40
0.2875869501512530
 40
0.4328503334696815
 40
0.4328503334696815
 40
0.4328503334696815
 40
0.4328503334696815
 10
50.08499358216078
 20
117.3391182082569
 30
0.000000000000000
 10
50.03866572041388
 20
117.3576342485331
 30
0.000000000000000
 10
49.95542022598860
 20
117.4091285937159
 30
0.000000000000000
 10
49.86208410648450
 20
117.5239906196619
 30
0.000000000000000
 10
49.84192317502859
 20
117.6201797759561
 30
0.000000000000000
 10
49.84075638446438
 20
117.6685868437724
 30
0.000000000000000
  0
ELLIPSE
  5
2D5
100
AcDbEntity
  8
A4
  6
CONTINUOUS
 62
3
100
AcDbEllipse
 10
51.59075638445540
 20
111.8274151320331
 30
0.000000000000000
 11
-4.500000000000001
 21
0.000000000000000
 31
0.000000000000000
210
0.000000000000000
220
0.000000000000000
230
1.000000000000000
 40
0.7071067811865448
 41
3.141592638688632
 42
3.647486674175773
  0
ELLIPSE
  5
2D6
100
AcDbEntity
  8
A4
  6
CONTINUOUS
 62
3
100
AcDbEllipse
 10
51.59075638445540
 20
112.5345219132183
 30
0.000000000000000
 11
-4.500000000000001
 21
0.000000000000000
 31
0.000000000000000
210
0.000000000000000
220
0.000000000000000
230
1.000000000000000
 40
0.7071067811865448
 41
3.141592638688632
 42
3.647486674175773
  0
ELLIPSE
  5
2D7
100
AcDbEntity
  8
A4
  6
CONTINUOUS
 62
3
100
AcDbEllipse
 10
32.09075638445540
 20
111.8274151320331
 30
0.000000000000000
 11
4.500000000000001
 21
0.000000000000000
 31
0.000000000000000
210
0.000000000000000
220
0.000000000000000
230
1.000000000000000
 40
0.7071067811865448
 41
2.635698633003813
 42
3.141592638688632
  0
ELLIPSE
  5
2D8
100
AcDbEntity
  8
A4
  6
CONTINUOUS
 62
3
100
AcDbEllipse
 10
32.09075638445540
 20
112.5345219132183
 30
0.000000000000000
 11
4.500000000000001
 21
0.000000000000000
 31
0.000000000000000
210
0.000000000000000
220
0.000000000000000
230
1.000000000000000
 40
0.7071067811865448
 41
2.635698633003813
 42
3.141592638688632
  0
ELLIPSE
  5
2D9
100
AcDbEntity
  8
A4
  6
CONTINUOUS
 62
3
100
AcDbEllipse
 10
42.42075638445538
 20
108.9424194647975
 30
0.000000000000000
 11
-14.98309591675576
 21
0.000000000000000
 31
0.000000000000000
210
0.000000000000000
220
0.000000000000000
230
1.000000000000000
 40
0.7071067811865447
 41
3.647486674175771
 42
4.175429656487012
  0
ELLIPSE
  5
2DA
100
AcDbEntity
  8
A4
  6
CONTINUOUS
 62
3
100
AcDbEllipse
 10
41.26075638445538
 20
108.9424194647975
 30
0.000000000000000
 11
14.98309591675576
 21
0.000000000000000
 31
0.000000000000000
210
0.000000000000000
220
0.000000000000000
230
1.000000000000000
 40
0.7071067811865447
 41
2.107755650692574
 42
2.635698633003815
  0
ELLIPSE
  5
2DB
100
AcDbEntity
  8
A4
  6
CONTINUOUS
 62
3
100
AcDbEllipse
 10
41.26075638445538
 20
108.2353126836123
 30
0.000000000000000
 11
14.98309591675576
 21
0.000000000000000
 31
0.000000000000000
210
0.000000000000000
220
0.000000000000000
230
1.000000000000000
 40
0.7071067811865447
 41
2.107212117694456
 42
2.635698633003815
  0
ELLIPSE
  5
2DC
100
AcDbEntity
  8
A4
  6
CONTINUOUS
 62
3
100
AcDbEllipse
 10
32.09075638445540
 20
111.8274151320331
 30
0.000000000000000
 11
4.500000000000001
 21
0.000000000000000
 31
0.000000000000000
210
0.000000000000000
220
0.000000000000000
230
1.000000000000000
 40
0.7071067811865448
 41
3.141592638688632
 42
5.451365750020173
  0
ELLIPSE
  5
2DD
100
AcDbEntity
  8
A4
  6
CONTINUOUS
 62
3
100
AcDbEllipse
 10
41.84075638445540
 20
104.2613725733440
 30
0.000000000000000
 11
-9.975928294924367
 21
0.000000000000000
 31
0.000000000000000
210
0.000000000000000
220
0.000000000000000
230
1.000000000000000
 40
0.7071067811865448
 41
3.973412210749201
 42
5.451365750020186
  0
ELLIPSE
  5
2DE
100
AcDbEntity
  8
A4
  6
CONTINUOUS
 62
3
100
AcDbEllipse
 10
51.59075638445540
 20
111.8274151320331
 30
0.000000000000000
 11
-4.500000000000001
 21
0.000000000000000
 31
0.000000000000000
210
0.000000000000000
220
0.000000000000000
230
1.000000000000000
 40
0.7071067811865448
 41
0.8318195571594109
 42
3.141592638688632
  0
ELLIPSE
  5
2DF
100
AcDbEntity
  8
A4
  6
CONTINUOUS
 62
3
100
AcDbEllipse
 10
42.42075638445538
 20
108.2353126836123
 30
0.000000000000000
 11
-14.98309591675576
 21
0.000000000000000
 31
0.000000000000000
210
0.000000000000000
220
0.000000000000000
230
1.000000000000000
 40
0.7071067811865447
 41
3.647486674175771
 42
4.176615174874232
  0
ELLIPSE
  5
2E0
100
AcDbEntity
  8
A4
  6
CONTINUOUS
 62
3
100
AcDbEllipse
 10
33.34075638444627
 20
118.3498595833253
 30
0.000000000000000
 11
-0.5000000000000000
 21
0.000000000000000
 31
0.000000000000000
210
0.000000000000000
220
0.000000000000000
230
1.000000000000000
 40
0.7071067811871468
 41
2.107755650692548
 42
3.141592653589793
  0
ELLIPSE
  5
2E1
100
AcDbEntity
  8
A4
  6
CONTINUOUS
 62
3
100
AcDbEllipse
 10
50.34075638446438
 20
118.3498595833253
 30
0.000000000000000
 11
-0.5000000000000000
 21
0.000000000000000
 31
0.000000000000000
210
0.000000000000000
220
0.000000000000000
230
1.000000000000000
 40
0.7071067811871468
 41
0.000000000000000
 42
1.033837002897245
  0
LINE
  5
2E2
100
AcDbEntity
  8
A4
  6
CONTINUOUS
 62
3
100
AcDbLine
 10
56.09075638445540
 20
111.8274151320331
 30
0.000000000000000
 11
56.09075638445540
 21
112.5345219132183
 31
0.000000000000000
  0
LINE
  5
2E3
100
AcDbEntity
  8
A4
  6
CONTINUOUS
 62
3
100
AcDbLine
 10
27.59075638445540
 20
112.5345219132183
 30
0.000000000000000
 11
27.59075638445540
 21
111.8274151320331
 31
0.000000000000000
  0
LINE
  5
2E4
100
AcDbEntity
  8
A4
  6
CONTINUOUS
 62
3
100
AcDbLine
 10
50.84075638450919
 20
119.4913769600055
 30
0.000000000000000
 11
49.84075638446437
 21
119.4913769600075
 31
0.000000000000000
  0
LINE
  5
2E5
100
AcDbEntity
  8
A4
  6
CONTINUOUS
 62
3
100
AcDbLine
 10
32.84075638440150
 20
119.4913769600055
 30
0.000000000000000
 11
33.84075638444629
 21
119.4913769600076
 31
0.000000000000000
  0
LINE
  5
2E6
100
AcDbEntity
  8
A4
  6
CONTINUOUS
 62
3
100
AcDbLine
 10
33.84075638444639
 20
117.6685868437724
 30
0.000000000000000
 11
33.84075638444639
 21
119.4340168498314
 31
0.000000000000000
  0
LINE
  5
2E7
100
AcDbEntity
  8
A4
  6
CONTINUOUS
 62
3
100
AcDbLine
 10
49.84075638446438
 20
117.6685868437724
 30
0.000000000000000
 11
49.84075638446438
 21
119.4340168498314
 31
0.000000000000000
  0
LINE
  5
2E8
100
AcDbEntity
  8
A4
  6
CONTINUOUS
 62
3
100
AcDbLine
 10
33.84075638444639
 20
119.4340168498314
 30
0.000000000000000
 11
33.84075638444627
 21
119.4913769600055
 31
0.000000000000000
  0
LINE
  5
2E9
100
AcDbEntity
  8
A4
  6
CONTINUOUS
 62
3
100
AcDbLine
 10
49.84075638446438
 20
119.4340168498314
 30
0.000000000000000
 11
49.84075638446438
 21
119.4913769600055
 31
0.000000000000000
  0
LINE
  5
2EA
100
AcDbEntity
  8
A10
  6
CONTINUOUS
 62
3
100
AcDbLine
 10
36.09576151405316
 20
118.1913761627121
 30
0.000000000000000
 11
47.92838633716859
 21
118.1913761627121
 31
0.000000000000000
  0
LINE
  5
2EB
100
AcDbEntity
  8
A2
  6
CONTINUOUS
 62
7
100
AcDbLine
 10
175.9917657117142
 20
109.3525413978801
 30
0.000000000000000
 11
166.7387173845092
 21
118.6055897250855
 31
0.000000000000000
  0
LINE
  5
2EC
100
AcDbEntity
  8
A0
  6
CONTINUOUS
 62
3
100
AcDbLine
 10
166.0316106033226
 20
117.8984829438989
 30
0.000000000000000
 11
175.2846589305277
 21
108.6454346166936
 31
0.000000000000000
  0
LINE
  5
2ED
100
AcDbEntity
  8
A10
  6
CONTINUOUS
 62
3
100
AcDbLine
 10
175.2846589305285
 20
108.6454346166943
 30
0.000000000000000
 11
175.9917657117062
 21
109.3525413978721
 31
0.000000000000000
  0
LINE
  5
2EE
100
AcDbEntity
  8
A10
  6
CONTINUOUS
 62
3
100
AcDbLine
 10
166.6173970410001
 20
117.3126965062213
 30
0.000000000000000
 11
167.3650629812247
 21
117.9792441283700
 31
0.000000000000000
  0
ARC
  5
2EF
100
AcDbEntity
  8
A0
  6
CONTINUOUS
 62
3
100
AcDbCircle
 10
166.7387173845091
 20
118.6055897250854
 30
0.000000000000000
 40
1.000000000000000
100
AcDbArc
 50
180.0000000000000
 51
224.9999999999988
  0
ARC
  5
2F0
100
AcDbEntity
  8
A4
  6
CONTINUOUS
 62
7
100
AcDbCircle
 10
174.7387173845092
 20
113.1913761626182
 30
0.000000000000000
 40
1.000000000000000
100
AcDbArc
 50
180.0000000000000
 51
270.0000000000000
  0
LINE
  5
2F1
100
AcDbEntity
  8
A0
  6
CONTINUOUS
 62
3
100
AcDbLine
 10
174.2387173845091
 20
119.4913769600909
 30
0.000000000000000
 11
166.7387173845091
 21
119.4913769600909
 31
0.000000000000000
  0
ARC
  5
2F2
100
AcDbEntity
  8
A10
  6
CONTINUOUS
 62
3
100
AcDbCircle
 10
174.2387173845091
 20
121.4913769600908
 30
0.000000000000000
 40
2.000000000000000
100
AcDbArc
 50
270.0000000000000
 51
360.0000000000000
  0
LINE
  5
2F3
100
AcDbEntity
  8
A0
  6
CONTINUOUS
 62
3
100
AcDbLine
 10
173.7387173845092
 20
113.1913761626182
 30
0.000000000000000
 11
173.7387173845052
 21
119.4913769600818
 31
0.000000000000000
  0
LINE
  5
2F4
100
AcDbEntity
  8
A0
  6
CONTINUOUS
 62
3
100
AcDbLine
 10
166.7387173845092
 20
118.6055897250855
 30
0.000000000000000
 11
166.7387173845088
 21
119.4913769600909
 31
0.000000000000000
  0
SPLINE
  5
2F5
100
AcDbEntity
  8
A8
  6
CONTINUOUS
 62
3
100
AcDbSpline
210
0.000000000000000
220
0.000000000000000
230
1.000000000000000
 70
     8
 71
     3
 72
    10
 73
     6
 74
     0
 42
1.000000000000000e-07
 43
1.000000000000000e-07
 12
-0.08594636417205948
 22
-0.9962997653747152
 32
0.000000000000000
 13
-0.9343614844998456
 23
-0.3563265584882629
 33
0.000000000000000
 40
0.000000000000000
 40
0.000000000000000
 40
0.000000000000000
 40
0.000000000000000
 40
0.1044878517831507
 40
0.2293531206625739
 40
0.3883354048038765
 40
0.3883354048038765
 40
0.3883354048038765
 40
0.3883354048038765
 10
33.84075638449873
 20
85.24225736433799
 30
0.000000000000000
 10
33.83776293417843
 20
85.20755695693263
 30
0.000000000000000
 10
33.81863953097964
 20
85.13059042539059
 30
0.000000000000000
 10
33.72794738804113
 20
85.03325141939612
 30
0.000000000000000
 10
33.64603482780872
 20
84.98301494889583
 30
0.000000000000000
 10
33.59651918680224
 20
84.96413174550628
 30
0.000000000000000
  0
SPLINE
  5
2F6
100
AcDbEntity
  8
A8
  6
CONTINUOUS
 62
3
100
AcDbSpline
210
0.000000000000000
220
0.000000000000000
230
1.000000000000000
 70
     8
 71
     3
 72
    10
 73
     6
 74
     0
 42
1.000000000000000e-07
 43
1.000000000000000e-07
 12
-0.9330812947272307
 22
0.3596655355045186
 32
0.000000000000000
 13
-0.09754050443007145
 23
0.9952315559685303
 33
0.000000000000000
 40
0.000000000000000
 40
0.000000000000000
 40
0.000000000000000
 40
0.000000000000000
 40
0.1472743931405239
 40
0.2738290833716539
 40
0.3882158906024158
 40
0.3882158906024158
 40
0.3882158906024158
 40
0.3882158906024158
 10
50.08499358221313
 20
84.96413174550628
 30
0.000000000000000
 10
50.03918725506922
 20
84.98178825333127
 30
0.000000000000000
 10
49.95995442450912
 20
85.02919144144026
 30
0.000000000000000
 10
49.86628366433995
 20
85.12352752543670
 30
0.000000000000000
 10
49.84447550014254
 20
85.20431024429047
 30
0.000000000000000
 10
49.84075638451672
 20
85.24225736433799
 30
0.000000000000000
  0
ELLIPSE
  5
2F7
100
AcDbEntity
  8
A8
  6
CONTINUOUS
 62
3
100
AcDbEllipse
 10
41.84075638450774
 20
71.17960439599184
 30
0.000000000000000
 11
9.975928294924367
 21
0.000000000000000
 31
0.000000000000000
210
0.000000000000000
220
0.000000000000000
230
1.000000000000000
 40
0.7071067811865503
 41
0.8318195571594077
 42
2.309773096430392
  0
ELLIPSE
  5
2F8
100
AcDbEntity
  8
A8
  6
CONTINUOUS
 62
3
100
AcDbEllipse
 10
51.59075638450774
 20
78.74564695468102
 30
0.000000000000000
 11
4.500000000000000
 21
0.000000000000000
 31
0.000000000000000
210
0.000000000000000
220
0.000000000000000
230
1.000000000000000
 40
0.7071067811865502
 41
3.973412210749204
 42
0.000000000000000
  0
ELLIPSE
  5
2F9
100
AcDbEntity
  8
A8
  6
CONTINUOUS
 62
3
100
AcDbEllipse
 10
51.59075638450774
 20
79.45275373586628
 30
0.000000000000000
 11
4.500000000000000
 21
0.000000000000000
 31
0.000000000000000
210
0.000000000000000
220
0.000000000000000
230
1.000000000000000
 40
0.7071067811865502
 41
0.000000000000000
 42
0.5058940205859794
  0
ELLIPSE
  5
2FA
100
AcDbEntity
  8
A8
  6
CONTINUOUS
 62
3
100
AcDbEllipse
 10
32.09075638450774
 20
78.74564695468104
 30
0.000000000000000
 11
-4.500000000000000
 21
0.000000000000000
 31
0.000000000000000
210
0.000000000000000
220
0.000000000000000
230
1.000000000000000
 40
0.7071067811865502
 41
0.000000000000000
 42
2.309773096430381
  0
ELLIPSE
  5
2FB
100
AcDbEntity
  8
A8
  6
CONTINUOUS
 62
3
100
AcDbEllipse
 10
32.09075638450774
 20
79.45275373586628
 30
0.000000000000000
 11
-4.500000000000000
 21
0.000000000000000
 31
0.000000000000000
210
0.000000000000000
220
0.000000000000000
230
1.000000000000000
 40
0.7071067811865502
 41
5.777291286593605
 42
0.000000000000000
  0
ELLIPSE
  5
2FC
100
AcDbEntity
  8
A8
  6
CONTINUOUS
 62
3
100
AcDbEllipse
 10
41.26075638450773
 20
75.86065128744548
 30
0.000000000000000
 11
-14.98309591675576
 21
0.000000000000000
 31
0.000000000000000
210
0.000000000000000
220
0.000000000000000
230
1.000000000000000
 40
0.7071067811865501
 41
5.230482498956477
 42
5.244747004660235
  0
ELLIPSE
  5
2FD
100
AcDbEntity
  8
A8
  6
CONTINUOUS
 62
3
100
AcDbEllipse
 10
41.26075638450773
 20
75.86065128744548
 30
0.000000000000000
 11
-14.98309591675576
 21
0.000000000000000
 31
0.000000000000000
210
0.000000000000000
220
0.000000000000000
230
1.000000000000000
 40
0.7071067811865501
 41
5.244747004660235
 42
5.777291286593607
  0
ELLIPSE
  5
2FE
100
AcDbEntity
  8
A8
  6
CONTINUOUS
 62
3
100
AcDbEllipse
 10
32.09075638450774
 20
79.45275373586628
 30
0.000000000000000
 11
-4.500000000000000
 21
0.000000000000000
 31
0.000000000000000
210
0.000000000000000
220
0.000000000000000
230
1.000000000000000
 40
0.7071067811865502
 41
0.000000000000000
 42
2.309773096430381
  0
ELLIPSE
  5
2FF
100
AcDbEntity
  8
A8
  6
CONTINUOUS
 62
3
100
AcDbEllipse
 10
41.84075638450774
 20
71.88671117717706
 30
0.000000000000000
 11
9.975928294924367
 21
0.000000000000000
 31
0.000000000000000
210
0.000000000000000
220
0.000000000000000
230
1.000000000000000
 40
0.7071067811865503
 41
0.8318195571594077
 42
2.309773096430392
  0
ELLIPSE
  5
300
100
AcDbEntity
  8
A8
  6
CONTINUOUS
 62
3
100
AcDbEllipse
 10
51.59075638450774
 20
79.45275373586628
 30
0.000000000000000
 11
4.500000000000000
 21
0.000000000000000
 31
0.000000000000000
210
0.000000000000000
220
0.000000000000000
230
1.000000000000000
 40
0.7071067811865502
 41
3.973412210749197
 42
0.000000000000000
  0
ELLIPSE
  5
301
100
AcDbEntity
  8
A8
  6
CONTINUOUS
 62
3
100
AcDbEllipse
 10
42.42075638450773
 20
75.86065128744548
 30
0.000000000000000
 11
14.98309591675576
 21
0.000000000000000
 31
0.000000000000000
210
0.000000000000000
220
0.000000000000000
230
1.000000000000000
 40
0.7071067811865501
 41
1.038860495861702
 42
1.052702808223108
  0
ELLIPSE
  5
302
100
AcDbEntity
  8
A8
  6
CONTINUOUS
 62
3
100
AcDbEllipse
 10
42.42075638450773
 20
75.86065128744548
 30
0.000000000000000
 11
14.98309591675576
 21
0.000000000000000
 31
0.000000000000000
210
0.000000000000000
220
0.000000000000000
230
1.000000000000000
 40
0.7071067811865501
 41
0.5058940205859774
 42
1.038860495861702
  0
ARC
  5
303
100
AcDbEntity
  8
A8
  6
CONTINUOUS
 62
3
100
AcDbCircle
 10
33.84075638445383
 20
84.81671476654543
 30
0.000000000000000
 40
1.000000000000000
100
AcDbArc
 50
89.99999999743062
 51
180.0000000000000
  0
ARC
  5
304
100
AcDbEntity
  8
A8
  6
CONTINUOUS
 62
3
100
AcDbCircle
 10
49.84075638456154
 20
84.81671476654543
 30
0.000000000000000
 40
1.000000000000000
100
AcDbArc
 50
359.9999999999999
 51
450.0000000025693
  0
LINE
  5
305
100
AcDbEntity
  8
A8
  6
CONTINUOUS
 62
3
100
AcDbLine
 10
32.84075638445394
 20
84.62411987156783
 30
0.000000000000000
 11
32.84075638445394
 21
84.81671476654543
 31
0.000000000000000
  0
LINE
  5
306
100
AcDbEntity
  8
A8
  6
CONTINUOUS
 62
3
100
AcDbLine
 10
50.84075638446105
 20
75.60817185516868
 30
0.000000000000000
 11
50.84075638446105
 21
75.31671476654543
 31
0.000000000000000
  0
LINE
  5
307
100
AcDbEntity
  8
A8
  6
CONTINUOUS
 62
3
100
AcDbLine
 10
49.84075638454284
 20
75.31671476654543
 30
0.000000000000000
 11
49.84075638454284
 21
75.81634674577967
 31
0.000000000000000
  0
LINE
  5
308
100
AcDbEntity
  8
A8
  6
CONTINUOUS
 62
3
100
AcDbLine
 10
50.84075638455634
 20
75.31671476654547
 30
0.000000000000000
 11
49.84075638450965
 21
75.31671476654547
 31
0.000000000000000
  0
LINE
  5
309
100
AcDbEntity
  8
A8
  6
CONTINUOUS
 62
3
100
AcDbLine
 10
50.84075638456154
 20
84.62411987156783
 30
0.000000000000000
 11
50.84075638456154
 21
84.81671476654543
 31
0.000000000000000
  0
LINE
  5
30A
100
AcDbEntity
  8
A8
  6
CONTINUOUS
 62
3
100
AcDbLine
 10
32.84075638455444
 20
75.60817185516868
 30
0.000000000000000
 11
32.84075638455444
 21
75.31671476654543
 31
0.000000000000000
  0
LINE
  5
30B
100
AcDbEntity
  8
A8
  6
CONTINUOUS
 62
3
100
AcDbLine
 10
32.84075638445914
 20
75.31671476654549
 30
0.000000000000000
 11
33.84075638450584
 21
75.31671476654549
 31
0.000000000000000
  0
LINE
  5
30C
100
AcDbEntity
  8
A8
  6
CONTINUOUS
 62
3
100
AcDbLine
 10
33.84075638447264
 20
75.31671476654543
 30
0.000000000000000
 11
33.84075638447264
 21
75.81413710479404
 31
0.000000000000000
  0
LINE
  5
30D
100
AcDbEntity
  8
A8
  6
CONTINUOUS
 62
3
100
AcDbLine
 10
49.84075638451673
 20
85.81671476654542
 30
0.000000000000000
 11
33.84075638449874
 21
85.81671476654542
 31
0.000000000000000
  0
LINE
  5
30E
100
AcDbEntity
  8
A8
  6
CONTINUOUS
 62
3
100
AcDbLine
 10
33.84075638449873
 20
85.24225736433799
 30
0.000000000000000
 11
33.84075638449873
 21
85.81671476654543
 31
0.000000000000000
  0
LINE
  5
30F
100
AcDbEntity
  8
A8
  6
CONTINUOUS
 62
3
100
AcDbLine
 10
49.84075638451672
 20
85.24225736433799
 30
0.000000000000000
 11
49.84075638451672
 21
85.81671476654543
 31
0.000000000000000
  0
LINE
  5
310
100
AcDbEntity
  8
A8
  6
CONTINUOUS
 62
3
100
AcDbLine
 10
56.09075638450774
 20
78.74564695468102
 30
0.000000000000000
 11
56.09075638450774
 21
79.45275373586628
 31
0.000000000000000
  0
LINE
  5
311
100
AcDbEntity
  8
A8
  6
CONTINUOUS
 62
3
100
AcDbLine
 10
27.59075638450774
 20
79.45275373586628
 30
0.000000000000000
 11
27.59075638450774
 21
78.74564695468102
 31
0.000000000000000
  0
LINE
  5
312
100
AcDbEntity
  8
A8
  6
CONTINUOUS
 62
3
100
AcDbLine
 10
49.84075638451672
 20
85.06491017261844
 30
0.000000000000000
 11
33.84075638449873
 21
85.06491017261844
 31
0.000000000000000
  0
LINE
  5
313
100
AcDbEntity
  8
A8
  6
CONTINUOUS
 62
3
100
AcDbLine
 10
52.39075638450915
 20
84.31671476662839
 30
0.000000000000000
 11
51.44755781816973
 21
84.31671476662839
 31
0.000000000000000
  0
LINE
  5
314
100
AcDbEntity
  8
A8
  6
CONTINUOUS
 62
3
100
AcDbLine
 10
50.89075638450915
 20
75.57406531347233
 30
0.000000000000000
 11
50.89075638450915
 21
75.31671476662839
 31
0.000000000000000
  0
LINE
  5
315
100
AcDbEntity
  8
A8
  6
CONTINUOUS
 62
3
100
AcDbLine
 10
52.36080713621273
 20
75.31671476662839
 30
0.000000000000000
 11
50.89075638450915
 21
75.31671476662839
 31
0.000000000000000
  0
LINE
  5
316
100
AcDbEntity
  8
A8
  6
CONTINUOUS
 62
3
100
AcDbLine
 10
31.11837667583934
 20
84.31671476662839
 30
0.000000000000000
 11
32.23395495084573
 21
84.31671476662839
 31
0.000000000000000
  0
LINE
  5
317
100
AcDbEntity
  8
A8
  6
CONTINUOUS
 62
3
100
AcDbLine
 10
31.09075638450913
 20
84.31671476662839
 30
0.000000000000000
 11
31.11326821809904
 21
84.31671476662839
 31
0.000000000000000
  0
LINE
  5
318
100
AcDbEntity
  8
A8
  6
CONTINUOUS
 62
3
100
AcDbLine
 10
32.59075638450913
 20
75.57511977342047
 30
0.000000000000000
 11
32.59075638450913
 21
75.31671476662839
 31
0.000000000000000
  0
LINE
  5
319
100
AcDbEntity
  8
A8
  6
CONTINUOUS
 62
3
100
AcDbLine
 10
31.09075638450913
 20
75.31671476662839
 30
0.000000000000000
 11
32.59075638450913
 21
75.31671476662839
 31
0.000000000000000
  0
LINE
  5
31A
100
AcDbEntity
  8
A8
  6
CONTINUOUS
 62
3
100
AcDbLine
 10
31.09075638450913
 20
75.31671476662839
 30
0.000000000000000
 11
29.59075638450913
 21
75.31671476662839
 31
0.000000000000000
  0
LINE
  5
31B
100
AcDbEntity
  8
A8
  6
CONTINUOUS
 62
3
100
AcDbLine
 10
29.59075638450913
 20
82.50535832578574
 30
0.000000000000000
 11
29.59075638450913
 21
84.31671476662839
 31
0.000000000000000
  0
LINE
  5
31C
100
AcDbEntity
  8
A8
  6
CONTINUOUS
 62
3
100
AcDbLine
 10
29.59075638450913
 20
75.31671476662839
 30
0.000000000000000
 11
29.59075638450913
 21
76.09989564361577
 31
0.000000000000000
  0
LINE
  5
31D
100
AcDbEntity
  8
A8
  6
CONTINUOUS
 62
3
100
AcDbLine
 10
31.09075638450913
 20
83.64089110543095
 30
0.000000000000000
 11
31.09075638450913
 21
84.31671476662839
 31
0.000000000000000
  0
LINE
  5
31E
100
AcDbEntity
  8
A8
  6
CONTINUOUS
 62
3
100
AcDbLine
 10
31.09075638450913
 20
75.31671476662839
 30
0.000000000000000
 11
31.09075638450913
 21
75.64322854318308
 31
0.000000000000000
  0
LINE
  5
31F
100
AcDbEntity
  8
A8
  6
CONTINUOUS
 62
3
100
AcDbLine
 10
31.09075638450913
 20
84.31671476662839
 30
0.000000000000000
 11
29.59075638450913
 21
84.31671476662839
 31
0.000000000000000
  0
LINE
  5
320
100
AcDbEntity
  8
A8
  6
CONTINUOUS
 62
3
100
AcDbLine
 10
49.74075638450914
 20
75.84500047501439
 30
0.000000000000000
 11
49.74075638450914
 21
75.81634674577967
 31
0.000000000000000
  0
LINE
  5
321
100
AcDbEntity
  8
A8
  6
CONTINUOUS
 62
3
100
AcDbLine
 10
49.74075638450914
 20
75.81634674577967
 30
0.000000000000000
 11
49.83337180159454
 21
75.81634674577967
 31
0.000000000000000
  0
LINE
  5
322
100
AcDbEntity
  8
A8
  6
CONTINUOUS
 62
3
100
AcDbLine
 10
53.89075638450915
 20
76.01068808844613
 30
0.000000000000000
 11
53.89075638450915
 21
75.31671476662839
 31
0.000000000000000
  0
LINE
  5
323
100
AcDbEntity
  8
A8
  6
CONTINUOUS
 62
3
100
AcDbLine
 10
53.89075638450915
 20
84.31671476662839
 30
0.000000000000000
 11
53.89075638450915
 21
82.67725833386791
 31
0.000000000000000
  0
LINE
  5
324
100
AcDbEntity
  8
A8
  6
CONTINUOUS
 62
3
100
AcDbLine
 10
52.39075638450915
 20
84.31671476662839
 30
0.000000000000000
 11
53.89075638450915
 21
84.31671476662839
 31
0.000000000000000
  0
LINE
  5
325
100
AcDbEntity
  8
A8
  6
CONTINUOUS
 62
3
100
AcDbLine
 10
52.39075638450915
 20
75.61435329231095
 30
0.000000000000000
 11
52.39075638450915
 21
75.31671476662839
 31
0.000000000000000
  0
LINE
  5
326
100
AcDbEntity
  8
A8
  6
CONTINUOUS
 62
3
100
AcDbLine
 10
52.39075638450915
 20
84.31671476662839
 30
0.000000000000000
 11
52.39075638450915
 21
83.76926251985148
 31
0.000000000000000
  0
LINE
  5
327
100
AcDbEntity
  8
A8
  6
CONTINUOUS
 62
3
100
AcDbLine
 10
52.39075638450915
 20
75.31671476662839
 30
0.000000000000000
 11
53.89075638450915
 21
75.31671476662839
 31
0.000000000000000
  0
SPLINE
  5
328
100
AcDbEntity
  8
A8
  6
CONTINUOUS
 62
3
100
AcDbSpline
210
0.000000000000000
220
0.000000000000000
230
1.000000000000000
 70
     8
 71
     3
 72
     9
 73
     5
 74
     0
 42
1.000000000000000e-07
 43
1.000000000000000e-07
 12
0.8493662755799960
 22
0.5278038744509104
 32
0.000000000000000
 13
-0.2143044120521154
 23
0.9767669215170827
 33
0.000000000000000
 40
0.000000000000000
 40
0.000000000000000
 40
0.000000000000000
 40
0.000000000000000
 40
0.01870219549066480
 40
0.04768876431332750
 40
0.04768876431332750
 40
0.04768876431332750
 40
0.04768876431332750
 10
39.92429118036794
 20
77.81671476662848
 30
0.000000000000000
 10
39.92958618507764
 20
77.82000513037538
 30
0.000000000000000
 10
39.94210927327585
 20
77.83124897377337
 30
0.000000000000000
 10
39.94282703437223
 20
77.84923716788057
 30
0.000000000000000
 10
39.94075638450924
 20
77.85867487507866
 30
0.000000000000000
  0
SPLINE
  5
329
100
AcDbEntity
  8
A8
  6
CONTINUOUS
 62
3
100
AcDbSpline
210
0.000000000000000
220
0.000000000000000
230
1.000000000000000
 70
     8
 71
     3
 72
     9
 73
     5
 74
     0
 42
1.000000000000000e-07
 43
1.000000000000000e-07
 12
-0.2439659094711715
 22
-0.9697838083920942
 32
0.000000000000000
 13
0.9077539970094222
 23
-0.4195028973554145
 33
0.000000000000000
 40
0.000000000000000
 40
0.000000000000000
 40
0.000000000000000
 40
0.000000000000000
 40
0.03423282223400060
 40
0.04817102565309310
 40
0.04817102565309310
 40
0.04817102565309310
 40
0.04817102565309310
 10
43.74075638450914
 20
77.85867487507863
 30
0.000000000000000
 10
43.73797250397244
 20
77.84760872950594
 30
0.000000000000000
 10
43.73876254322774
 20
77.82776244511453
 30
0.000000000000000
 10
43.75300410202873
 20
77.81866380553456
 30
0.000000000000000
 10
43.75722158865032
 20
77.81671476662848
 30
0.000000000000000
  0
ARC
  5
32A
100
AcDbEntity
  8
A8
  6
CONTINUOUS
 62
3
100
AcDbCircle
 10
35.59075638450913
 20
75.31671476662848
 30
0.000000000000000
 40
1.500000000000000
100
AcDbArc
 50
180.0000000000000
 51
270.0000000000000
  0
ARC
  5
32B
100
AcDbEntity
  8
A8
  6
CONTINUOUS
 62
3
100
AcDbCircle
 10
48.09075638450913
 20
75.31671476662848
 30
0.000000000000000
 40
1.500000000000001
100
AcDbArc
 50
270.0000000000000
 51
360.0000000000000
  0
LINE
  5
32C
100
AcDbEntity
  8
A8
  6
CONTINUOUS
 62
3
100
AcDbLine
 10
39.94075638450924
 20
77.85867487507866
 30
0.000000000000000
 11
39.94075638450924
 21
78.10452841526738
 31
0.000000000000000
  0
LINE
  5
32D
100
AcDbEntity
  8
A8
  6
CONTINUOUS
 62
3
100
AcDbLine
 10
43.74075638451022
 20
78.10452841526714
 30
0.000000000000000
 11
43.74075638451022
 21
77.85867487507863
 31
0.000000000000000
  0
LINE
  5
32E
100
AcDbEntity
  8
A8
  6
CONTINUOUS
 62
3
100
AcDbLine
 10
38.46189900346174
 20
77.81671476662845
 30
0.000000000000000
 11
39.92429118036783
 21
77.81671476662845
 31
0.000000000000000
  0
LINE
  5
32F
100
AcDbEntity
  8
A8
  6
CONTINUOUS
 62
3
100
AcDbLine
 10
39.94075638450926
 20
77.85867487507866
 30
0.000000000000000
 11
39.94075638450914
 21
75.31671476662851
 31
0.000000000000000
  0
LINE
  5
330
100
AcDbEntity
  8
A8
  6
CONTINUOUS
 62
3
100
AcDbLine
 10
43.75722158865032
 20
77.81671476662845
 30
0.000000000000000
 11
45.21961376555375
 21
77.81671476662845
 31
0.000000000000000
  0
LINE
  5
331
100
AcDbEntity
  8
A8
  6
CONTINUOUS
 62
3
100
AcDbLine
 10
43.74075638450914
 20
77.85867487507863
 30
0.000000000000000
 11
43.74075638450923
 21
75.31671476662849
 31
0.000000000000000
  0
LINE
  5
332
100
AcDbEntity
  8
A8
  6
CONTINUOUS
 62
3
100
AcDbLine
 10
35.59075638450913
 20
76.67763337670348
 30
0.000000000000000
 11
35.59075638450913
 21
75.31671476662848
 31
0.000000000000000
  0
LINE
  5
333
100
AcDbEntity
  8
A8
  6
CONTINUOUS
 62
3
100
AcDbLine
 10
34.09075638450913
 20
75.89520839193369
 30
0.000000000000000
 11
34.09075638450913
 21
75.31671476662851
 31
0.000000000000000
  0
LINE
  5
334
100
AcDbEntity
  8
A8
  6
CONTINUOUS
 62
3
100
AcDbLine
 10
48.09075638450913
 20
73.81671476662848
 30
0.000000000000000
 11
35.59075638450913
 21
73.81671476662848
 31
0.000000000000000
  0
LINE
  5
335
100
AcDbEntity
  8
A8
  6
CONTINUOUS
 62
3
100
AcDbLine
 10
49.59075638450913
 20
75.89520839193270
 30
0.000000000000000
 11
49.59075638450913
 21
75.31671476662851
 31
0.000000000000000
  0
LINE
  5
336
100
AcDbEntity
  8
A8
  6
CONTINUOUS
 62
3
100
AcDbLine
 10
48.09075638450913
 20
76.67763337670191
 30
0.000000000000000
 11
48.09075638450913
 21
75.31671476662848
 31
0.000000000000000
  0
LINE
  5
337
100
AcDbEntity
  8
A8
  6
CONTINUOUS
 62
3
100
AcDbLine
 10
48.09075638450913
 20
75.31671476662848
 30
0.000000000000000
 11
35.59075638450913
 21
75.31671476662848
 31
0.000000000000000
  0
SPLINE
  5
338
100
AcDbEntity
  8
A8
  6
CONTINUOUS
 62
3
100
AcDbSpline
210
0.000000000000000
220
0.000000000000000
230
1.000000000000000
 70
     8
 71
     3
 72
    17
 73
    13
 74
     0
 42
1.000000000000000e-07
 43
1.000000000000000e-07
 12
0.9386184086388312
 22
-0.3449572190356776
 32
0.000000000000000
 13
0.9999989926159287
 23
-0.001419424595042074
 33
0.000000000000000
 40
0.000000000000000
 40
0.000000000000000
 40
0.000000000000000
 40
0.000000000000000
 40
0.05265198758814980
 40
0.4058311874350684
 40
0.6958036016747358
 40
0.9235680534339467
 40
1.090335676619111
 40
1.227413791212843
 40
1.350277138029631
 40
1.438308254523786
 40
1.531515712154537
 40
1.574341959826632
 40
1.574341959826632
 40
1.574341959826632
 40
1.574341959826632
 10
50.84335957668505
 20
75.59106947312722
 30
0.000000000000000
 10
50.85983295161894
 20
75.58501524538886
 30
0.000000000000000
 10
50.98708073431224
 20
75.53910593344740
 30
0.000000000000000
 10
51.20887830193244
 20
75.47029684401465
 30
0.000000000000000
 10
51.49183924876952
 20
75.40455680586126
 30
0.000000000000000
 10
51.71680746942782
 20
75.36587593506428
 30
0.000000000000000
 10
51.89263770417195
 20
75.34354539337635
 30
0.000000000000000
 10
52.03428461069332
 20
75.33037595422348
 30
0.000000000000000
 10
52.15005203088434
 20
75.32294715665243
 30
0.000000000000000
 10
52.25134013775813
 20
75.31879949297601
 30
0.000000000000000
 10
52.32601771607985
 20
75.31722955665835
 30
0.000000000000000
 10
52.37136200329594
 20
75.31695020500575
 30
0.000000000000000
 10
52.38563740480582
 20
75.31692994212933
 30
0.000000000000000
  0
SPLINE
  5
339
100
AcDbEntity
  8
A8
  6
CONTINUOUS
 62
3
100
AcDbSpline
210
0.000000000000000
220
0.000000000000000
230
1.000000000000000
 70
     8
 71
     3
 72
     9
 73
     5
 74
     0
 42
1.000000000000000e-07
 43
1.000000000000000e-07
 12
-0.9999764759895697
 22
-0.006859115674615168
 32
0.000000000000000
 13
-0.9890661978330400
 23
0.1474722221413458
 33
0.000000000000000
 40
0.000000000000000
 40
0.000000000000000
 40
0.000000000000000
 40
0.000000000000000
 40
0.3742351633276791
 40
0.6678038391107238
 40
0.6678038391107238
 40
0.6678038391107238
 40
0.6678038391107238
 10
52.39068393454183
 20
75.51644298913533
 30
0.000000000000000
 10
52.26594181460324
 20
75.51558734837708
 30
0.000000000000000
 10
52.04314993598423
 20
75.52368232991589
 30
0.000000000000000
 10
51.82182092439463
 20
75.54905047168396
 30
0.000000000000000
 10
51.72503463974142
 20
75.56348154667357
 30
0.000000000000000
  0
SPLINE
  5
33A
100
AcDbEntity
  8
A8
  6
CONTINUOUS
 62
3
100
AcDbSpline
210
0.000000000000000
220
0.000000000000000
230
1.000000000000000
 70
     8
 71
     3
 72
     9
 73
     5
 74
     0
 42
1.000000000000000e-07
 43
1.000000000000000e-07
 12
-0.9994805263019089
 22
0.03222852065164261
 32
0.000000000000000
 13
-0.9910333504686832
 23
-0.1336147381792898
 33
0.000000000000000
 40
0.000000000000000
 40
0.000000000000000
 40
0.000000000000000
 40
0.000000000000000
 40
0.2047706639055613
 40
0.7145276073419859
 40
0.7145276073419859
 40
0.7145276073419859
 40
0.7145276073419859
 10
52.39143320380335
 20
84.21859879135013
 30
0.000000000000000
 10
52.32321177349284
 20
84.22079860987364
 30
0.000000000000000
 10
52.08499174728463
 20
84.22282808910137
 30
0.000000000000000
 10
51.84673646198134
 20
84.20489367479195
 30
0.000000000000000
 10
51.67834108478853
 20
84.18218999461450
 30
0.000000000000000
  0
ARC
  5
33B
100
AcDbEntity
  8
A8
  6
CONTINUOUS
 62
3
100
AcDbCircle
 10
52.38825884245323
 20
79.79978132039915
 30
0.000000000000000
 40
4.514390224755505
100
AcDbArc
 50
89.89121970316775
 51
100.3405151359892
  0
SPLINE
  5
33C
100
AcDbEntity
  8
A8
  6
CONTINUOUS
 62
3
100
AcDbSpline
210
0.000000000000000
220
0.000000000000000
230
1.000000000000000
 70
     8
 71
     3
 72
    15
 73
    11
 74
     0
 42
1.000000000000000e-07
 43
1.000000000000000e-07
 12
0.9999989784728314
 22
-0.001429354852916731
 32
0.000000000000000
 13
0.9380839131845278
 23
0.3464081001056911
 33
0.000000000000000
 40
0.000000000000000
 40
0.000000000000000
 40
0.000000000000000
 40
0.000000000000000
 40
0.09326932439625001
 40
0.2741903326690418
 40
0.4997897844266539
 40
0.7218723519951983
 40
0.9751854069804011
 40
1.260279164219848
 40
1.577914399744013
 40
1.594043751293361
 40
1.594043751293361
 40
1.594043751293361
 40
1.594043751293361
 10
31.08563740499604
 20
75.31692994548578
 30
0.000000000000000
 10
31.11672714803574
 20
75.31688550716530
 30
0.000000000000000
 10
31.20812669623062
 20
75.31769357465211
 30
0.000000000000000
 10
31.37464191247834
 20
75.32417503781440
 30
0.000000000000000
 10
31.58353166442423
 20
75.34170946124260
 30
0.000000000000000
 10
31.81520798877584
 20
75.37283393388037
 30
0.000000000000000
 10
32.06443155755822
 20
75.41993845189683
 30
0.000000000000000
 10
32.34127758761953
 20
75.48983589226296
 30
0.000000000000000
 10
32.53758423260423
 20
75.55388764152050
 30
0.000000000000000
 10
32.64202146137113
 20
75.59223250185873
 30
0.000000000000000
 10
32.64706502311064
 20
75.59409494786745
 30
0.000000000000000
  0
SPLINE
  5
33D
100
AcDbEntity
  8
A8
  6
CONTINUOUS
 62
3
100
AcDbSpline
210
0.000000000000000
220
0.000000000000000
230
1.000000000000000
 70
     8
 71
     3
 72
     9
 73
     5
 74
     0
 42
1.000000000000000e-07
 43
1.000000000000000e-07
 12
-0.9760596463711124
 22
0.2175030269334002
 32
0.000000000000000
 13
-0.9994775677924963
 23
0.03232014048069232
 33
0.000000000000000
 40
0.000000000000000
 40
0.000000000000000
 40
0.000000000000000
 40
0.000000000000000
 40
0.4885155264392600
 40
0.8003531985087742
 40
0.8003531985087742
 40
0.8003531985087742
 40
0.8003531985087742
 10
31.88462525570732
 20
84.11822040285432
 30
0.000000000000000
 10
31.72568515837962
 20
84.15363827142249
 30
0.000000000000000
 10
31.46170098241173
 20
84.19695989130324
 30
0.000000000000000
 10
31.19532478981192
 20
84.21523924556064
 30
0.000000000000000
 10
31.09143320380322
 20
84.21859879135013
 30
0.000000000000000
  0
ELLIPSE
  5
33E
100
AcDbEntity
  8
A8
  6
CONTINUOUS
 62
3
100
AcDbEllipse
 10
29.22408219613185
 20
83.12703685525432
 30
0.000000000000000
 11
-0.3369383547243180
 21
0.6135735857382195
 31
0.000000000000000
210
0.000000000000000
220
0.000000000000000
230
1.000000000000000
 40
0.1051921023431462
 41
3.149688488485808
 42
3.494045607969962
  0
ARC
  5
33F
100
AcDbEntity
  8
A8
  6
CONTINUOUS
 62
3
100
AcDbCircle
 10
31.06061335617592
 20
79.82092485776249
 30
0.000000000000000
 40
4.304586902017810
100
AcDbArc
 50
270.4002547237385
 51
279.2904142324230
  0
ARC
  5
340
100
AcDbEntity
  8
A8
  6
CONTINUOUS
 62
3
100
AcDbCircle
 10
31.09237998718554
 20
79.79343387542711
 30
0.000000000000000
 40
4.520731716049601
100
AcDbArc
 50
77.71501136093271
 51
89.94360376376700
  0
LINE
  5
341
100
AcDbEntity
  8
A8
  6
CONTINUOUS
 62
3
100
AcDbLine
 10
29.56258887926955
 20
82.56341543662042
 30
0.000000000000000
 11
29.58999342650843
 21
82.57936833749936
 31
0.000000000000000
  0
LINE
  5
342
100
AcDbEntity
  8
A8
  6
CONTINUOUS
 62
3
100
AcDbLine
 10
29.56076080820862
 20
82.51510499888678
 30
0.000000000000000
 11
29.59073984657431
 21
82.53188382622548
 31
0.000000000000000
  0
ARC
  5
343
100
AcDbEntity
  8
A4
  6
CONTINUOUS
 62
7
100
AcDbCircle
 10
31.09075638450915
 20
79.81671476662838
 30
0.000000000000000
 40
4.500000000000000
100
AcDbArc
 50
109.4712209999999
 51
250.5287789999999
  0
ARC
  5
344
100
AcDbEntity
  8
A4
  6
CONTINUOUS
 62
7
100
AcDbCircle
 10
52.39075638450915
 20
79.81671476662838
 30
0.000000000000000
 40
4.500000000000000
100
AcDbArc
 50
289.4712210000000
 51
430.5287790000000
  0
LINE
  5
345
100
AcDbEntity
  8
A2
  6
CENTER
 62
1
100
AcDbLine
 10
41.84075638450923
 20
68.81671476662851
 30
0.000000000000000
 11
41.84075638450923
 21
90.81671476662851
 31
0.000000000000000
  0
ELLIPSE
  5
346
100
AcDbEntity
  8
A15
  6
CONTINUOUS
 62
3
100
AcDbEllipse
 10
293.8608963844767
 20
111.8274151319972
 30
0.000000000000000
 11
-4.500000000000001
 21
0.000000000000000
 31
0.000000000000000
210
0.000000000000000
220
0.000000000000000
230
1.000000000000000
 40
0.7071067811865448
 41
0.000000000000000
 42
2.309773096430389
  0
ELLIPSE
  5
347
100
AcDbEntity
  8
A15
  6
CONTINUOUS
 62
3
100
AcDbEllipse
 10
293.8608963844767
 20
112.5345219131825
 30
0.000000000000000
 11
-4.500000000000001
 21
0.000000000000000
 31
0.000000000000000
210
0.000000000000000
220
0.000000000000000
230
1.000000000000000
 40
0.7071067811865448
 41
5.777291286593603
 42
0.000000000000000
  0
ELLIPSE
  5
348
100
AcDbEntity
  8
A15
  6
CONTINUOUS
 62
3
100
AcDbEllipse
 10
303.0308963844767
 20
108.9424194647617
 30
0.000000000000000
 11
-14.98309591675576
 21
0.000000000000000
 31
0.000000000000000
210
0.000000000000000
220
0.000000000000000
230
1.000000000000000
 40
0.7071067811865447
 41
5.249348304282364
 42
5.777291286593608
  0
ELLIPSE
  5
349
100
AcDbEntity
  8
A15
  6
CONTINUOUS
 62
3
100
AcDbEllipse
 10
293.8608963844767
 20
112.5345219131825
 30
0.000000000000000
 11
-4.500000000000001
 21
0.000000000000000
 31
0.000000000000000
210
0.000000000000000
220
0.000000000000000
230
1.000000000000000
 40
0.7071067811865448
 41
0.000000000000000
 42
2.309773096430389
  0
LINE
  5
34A
100
AcDbEntity
  8
A15
  6
CONTINUOUS
 62
3
100
AcDbLine
 10
289.3608963844767
 20
112.5345219131825
 30
0.000000000000000
 11
289.3608963844767
 21
111.8274151319972
 31
0.000000000000000
  0
ELLIPSE
  5
34B
100
AcDbEntity
  8
A15
  6
CONTINUOUS
 62
3
100
AcDbEllipse
 10
313.3608963845417
 20
111.8274151319972
 30
0.000000000000000
 11
4.500000000000001
 21
0.000000000000000
 31
0.000000000000000
210
0.000000000000000
220
0.000000000000000
230
1.000000000000000
 40
0.7071067811865448
 41
3.973412210749197
 42
0.000000000000000
  0
ELLIPSE
  5
34C
100
AcDbEntity
  8
A15
  6
CONTINUOUS
 62
3
100
AcDbEllipse
 10
313.3608963845417
 20
112.5345219131825
 30
0.000000000000000
 11
4.500000000000001
 21
0.000000000000000
 31
0.000000000000000
210
0.000000000000000
220
0.000000000000000
230
1.000000000000000
 40
0.7071067811865448
 41
0.000000000000000
 42
0.5058940205859831
  0
ELLIPSE
  5
34D
100
AcDbEntity
  8
A15
  6
CONTINUOUS
 62
3
100
AcDbEllipse
 10
304.1908963845417
 20
108.9424194647617
 30
0.000000000000000
 11
14.98309591675576
 21
0.000000000000000
 31
0.000000000000000
210
0.000000000000000
220
0.000000000000000
230
1.000000000000000
 40
0.7071067811865447
 41
0.5058940205859777
 42
1.033837002897222
  0
ELLIPSE
  5
34E
100
AcDbEntity
  8
A15
  6
CONTINUOUS
 62
3
100
AcDbEllipse
 10
313.3608963845417
 20
112.5345219131825
 30
0.000000000000000
 11
4.500000000000001
 21
0.000000000000000
 31
0.000000000000000
210
0.000000000000000
220
0.000000000000000
230
1.000000000000000
 40
0.7071067811865448
 41
3.973412210749197
 42
0.000000000000000
  0
LINE
  5
34F
100
AcDbEntity
  8
A15
  6
CONTINUOUS
 62
3
100
AcDbLine
 10
317.8608963845417
 20
112.5345219131825
 30
0.000000000000000
 11
317.8608963845417
 21
111.8274151319972
 31
0.000000000000000
  0
LINE
  5
350
100
AcDbEntity
  8
A0
  6
CONTINUOUS
 62
3
100
AcDbLine
 10
294.6108963845092
 20
119.4913769599940
 30
0.000000000000000
 11
295.6108963846343
 21
119.4913769599945
 31
0.000000000000000
  0
ELLIPSE
  5
351
100
AcDbEntity
  8
A15
  6
CONTINUOUS
 62
3
100
AcDbEllipse
 10
295.1108963844677
 20
118.3498595832895
 30
0.000000000000000
 11
-0.5000000000000000
 21
0.000000000000000
 31
0.000000000000000
210
0.000000000000000
220
0.000000000000000
230
1.000000000000000
 40
0.7071067811871468
 41
2.107755650692615
 42
3.141592653589793
  0
LINE
  5
352
100
AcDbEntity
  8
A15
  6
CONTINUOUS
 62
3
100
AcDbLine
 10
295.6108963844677
 20
119.4340168497957
 30
0.000000000000000
 11
295.6108963844677
 21
118.3498595832895
 31
0.000000000000000
  0
ELLIPSE
  5
353
100
AcDbEntity
  8
A15
  6
CONTINUOUS
 62
3
100
AcDbEllipse
 10
312.1108963845508
 20
118.3498595832895
 30
0.000000000000000
 11
0.5000000000000000
 21
0.000000000000000
 31
0.000000000000000
210
0.000000000000000
220
0.000000000000000
230
1.000000000000000
 40
0.7071067811871468
 41
3.141592653589793
 42
4.175429656486972
  0
LINE
  5
354
100
AcDbEntity
  8
A15
  6
CONTINUOUS
 62
3
100
AcDbLine
 10
311.6108963845508
 20
119.4340168497957
 30
0.000000000000000
 11
311.6108963845508
 21
118.3498595832895
 31
0.000000000000000
  0
LINE
  5
355
100
AcDbEntity
  8
A0
  6
CONTINUOUS
 62
3
100
AcDbLine
 10
312.6108963845092
 20
119.4913769599940
 30
0.000000000000000
 11
311.6108963843841
 21
119.4913769599945
 31
0.000000000000000
  0
ELLIPSE
  5
356
100
AcDbEntity
  8
A15
  6
CONTINUOUS
 62
3
100
AcDbEllipse
 10
303.6108963844767
 20
104.2613725733082
 30
0.000000000000000
 11
-9.975928294924367
 21
0.000000000000000
 31
0.000000000000000
210
0.000000000000000
220
0.000000000000000
230
1.000000000000000
 40
0.7071067811865448
 41
3.973412210749194
 42
5.451365750020178
  0
ELLIPSE
  5
357
100
AcDbEntity
  8
A15
  6
CONTINUOUS
 62
3
100
AcDbEllipse
 10
303.6108963844767
 20
104.9684793544934
 30
0.000000000000000
 11
-9.975928294924367
 21
0.000000000000000
 31
0.000000000000000
210
0.000000000000000
220
0.000000000000000
230
1.000000000000000
 40
0.7071067811865448
 41
3.973412210749194
 42
5.451365750020178
  0
ENDSEC
  0
SECTION
  2
OBJECTS
  0
DICTIONARY
  5
386
100
AcDbDictionary
  3
ACAD_GROUP
350
387
  3
ACAD_LAYOUT
350
388
  3
ACAD_MLINESTYLE
350
389
  0
DICTIONARY
  5
387
102
{ACAD_REACTORS
330
386
102
}
330
386
100
AcDbDictionary
  0
DICTIONARY
  5
388
102
{ACAD_REACTORS
330
386
102
}
330
386
100
AcDbDictionary
  3
Model
350
38A
  3
ﾚｲｱｳﾄ1
350
38B
  3
ﾚｲｱｳﾄ2
350
38C
  0
DICTIONARY
  5
389
102
{ACAD_REACTORS
330
386
102
}
330
386
100
AcDbDictionary
  3
STANDARD
350
38D
  0
LAYOUT
  5
38A
102
{ACAD_REACTORS
330
388
102
}
330
388
100
AcDbPlotSettings
 70
11952
  4
A3
 44
297.000000
 45
420.000000
 73
  1
 72
  1
100
AcDbLayout
  1
Model
 71
0
330
37D
  0
LAYOUT
  5
38B
102
{ACAD_REACTORS
330
388
102
}
330
388
100
AcDbPlotSettings
100
AcDbLayout
  1
ﾚｲｱｳﾄ1
 71
1
330
37E
  0
LAYOUT
  5
38C
102
{ACAD_REACTORS
330
388
102
}
330
388
100
AcDbPlotSettings
100
AcDbLayout
  1
ﾚｲｱｳﾄ2
 71
2
330
37F
  0
MLINESTYLE
  5
38D
102
{ACAD_REACTORS
330
389
102
}
330
389
100
AcDbMlineStyle
  2
STANDARD
 70
     0
  3

 62
   256
 51
90.00
 52
90.00
 71
     2
 49
0.50
 62
   256
  6
BYLAYER
 49
-0.50
 62
   256
  6
BYLAYER
  0
ENDSEC
  0
EOF
