  0
SECTION
  2
HEADER
  9
$ACADVER
  1
AC1027
  9
$DWGCODEPAGE
  3
ANSI_932
  9
$LTSCALE
 40
20.0
  9
$FILLMODE
 70
     1
  9
$CLAYER
  8
0
  9
$PDMODE
 70
     0
  9
$SPLFRAME
 70
     0
  9
$SPLINETYPE
 70
     6
  9
$SPLINESEGS
 70
     8
  9
$DIMASZ
 40
2.000000
  9
$DIMEXE
 40
1.500000
  9
$DIMEXO
 40
0.800000
  9
$DIMTAD
 70
     1
  9
$DIMTIH
 70
     0
  9
$DIMTOH
 70
     0
  9
$DIMTVP
 40
0.500000
  9
$DIMTXT
 40
3.100000
  9
$EXTMIN
 10
0.000000
 20
0.000000
 30
0.000000
  9
$EXTMAX
 10
297.000000
 20
420.000000
 30
0.000000
  9
$MEASUREMENT
 70
  1
  9
$LIMMIN
 10
0.000000
 20
0.000000
  9
$LIMMAX
 10
297.000000
 20
420.000000
  9
$HANDSEED
  5
11B
  9
$LWDISPLAY
290
     0
  9
$DIMBLK
  1
_OPEN
  9
$DIMDEC
 70
     2
  9
$DIMADEC
 70
     2
  9
$DIMAUNIT
 70
     0
  9
$DIMZIN
 70
     8
  9
$DIMAZIN
 70
     2
  9
$DIMTOFL
 70
     1
  0
ENDSEC
  0
SECTION
  2
CLASSES
  0
ENDSEC
  0
SECTION
  2
TABLES
  0
TABLE
  2
VPORT
  5
E2
100
AcDbSymbolTable
 70
     1
  0
VPORT
  5
E3
100
AcDbSymbolTableRecord
100
AcDbViewportTableRecord
  2
*ACTIVE
 70
     0
 12
71.476033
 22
81.305787
 40
126.611573
 41
0.971097
  0
ENDTAB
  0
TABLE
  2
LTYPE
  5
E4
100
AcDbSymbolTable
 70
     3
  0
LTYPE
  5
E5
100
AcDbSymbolTableRecord
100
AcDbLinetypeTableRecord
  2
BYBLOCK
 70
     0
  3

 72
    65
 73
     0
 40
0.0
  0
LTYPE
  5
E6
100
AcDbSymbolTableRecord
100
AcDbLinetypeTableRecord
  2
BYLAYER
 70
     0
  3

 72
    65
 73
     0
 40
0.0
  0
LTYPE
  5
E7
100
AcDbSymbolTableRecord
100
AcDbLinetypeTableRecord
  2
CONTINUOUS
 70
     0
  3
Solid line (NEC CAE2D for Win R18.0 : 2025.12.18)
 72
    65
 73
     0
 40
0.0
  0
LTYPE
  5
E8
100
AcDbSymbolTableRecord
100
AcDbLinetypeTableRecord
  2
DASHED
 70
     0
  3
__ __ __ __ __ __ __ __ __ __ __ __ __ _
 72
    65
 73
     2
 40
0.75
 49
0.5
 74
     0
 49
-0.25
 74
     0
  0
LTYPE
  5
E9
100
AcDbSymbolTableRecord
100
AcDbLinetypeTableRecord
  2
CENTER
 70
     0
  3
____ _ ____ _ ____ _ ____ _ ____ _ ____
 72
    65
 73
     4
 40
2.0
 49
1.25
 74
     0
 49
-0.25
 74
     0
 49
0.25
 74
     0
 49
-0.25
 74
     0
  0
ENDTAB
  0
TABLE
  2
LAYER
  5
EA
100
AcDbSymbolTable
 70
    18
  0
LAYER
  5
EB
100
AcDbSymbolTableRecord
100
AcDbLayerTableRecord
  2
0
 70
     0
 62
     7
  6
CONTINUOUS
370
    -3
390

  0
LAYER
  5
EC
100
AcDbSymbolTableRecord
100
AcDbLayerTableRecord
  2
DXF0
 70
     0
 62
     7
  6
CONTINUOUS
370
    -3
390

  0
LAYER
  5
ED
100
AcDbSymbolTableRecord
100
AcDbLayerTableRecord
  2
A0
 70
     0
 62
     9
  6
CONTINUOUS
370
    -3
390

  0
LAYER
  5
EE
100
AcDbSymbolTableRecord
100
AcDbLayerTableRecord
  2
A1
 70
     0
 62
    12
  6
CONTINUOUS
370
    -3
390

  0
LAYER
  5
EF
100
AcDbSymbolTableRecord
100
AcDbLayerTableRecord
  2
A2
 70
     0
 62
     9
  6
CONTINUOUS
370
    -3
390

  0
LAYER
  5
F0
100
AcDbSymbolTableRecord
100
AcDbLayerTableRecord
  2
A3
 70
     0
 62
    12
  6
CONTINUOUS
370
    -3
390

  0
LAYER
  5
F1
100
AcDbSymbolTableRecord
100
AcDbLayerTableRecord
  2
A4
 70
     0
 62
     9
  6
CONTINUOUS
370
    -3
390

  0
LAYER
  5
F2
100
AcDbSymbolTableRecord
100
AcDbLayerTableRecord
  2
A5
 70
     0
 62
     8
  6
CONTINUOUS
370
    -3
390

  0
LAYER
  5
F3
100
AcDbSymbolTableRecord
100
AcDbLayerTableRecord
  2
A6
 70
     0
 62
    12
  6
CONTINUOUS
370
    -3
390

  0
LAYER
  5
F4
100
AcDbSymbolTableRecord
100
AcDbLayerTableRecord
  2
A8
 70
     0
 62
    10
  6
CONTINUOUS
370
    -3
390

  0
LAYER
  5
F5
100
AcDbSymbolTableRecord
100
AcDbLayerTableRecord
  2
A9
 70
     0
 62
     9
  6
CONTINUOUS
370
    -3
390

  0
LAYER
  5
F6
100
AcDbSymbolTableRecord
100
AcDbLayerTableRecord
  2
A10
 70
     0
 62
     6
  6
CONTINUOUS
370
    -3
390

  0
LAYER
  5
F7
100
AcDbSymbolTableRecord
100
AcDbLayerTableRecord
  2
A20
 70
     0
 62
     1
  6
CONTINUOUS
370
    -3
390

  0
LAYER
  5
F8
100
AcDbSymbolTableRecord
100
AcDbLayerTableRecord
  2
A30
 70
     0
 62
     1
  6
CONTINUOUS
370
    -3
390

  0
LAYER
  5
F9
100
AcDbSymbolTableRecord
100
AcDbLayerTableRecord
  2
A40
 70
     0
 62
     9
  6
CONTINUOUS
370
    -3
390

  0
LAYER
  5
FA
100
AcDbSymbolTableRecord
100
AcDbLayerTableRecord
  2
A50
 70
     0
 62
    12
  6
CONTINUOUS
370
    -3
390

  0
LAYER
  5
FB
100
AcDbSymbolTableRecord
100
AcDbLayerTableRecord
  2
A1023
 70
     0
 62
     8
  6
CONTINUOUS
370
    -3
390

  0
LAYER
  5
FC
100
AcDbSymbolTableRecord
100
AcDbLayerTableRecord
  2
DXF1023
 70
     0
 62
    16
  6
CONTINUOUS
370
    -3
390

  0
ENDTAB
  0
TABLE
  2
STYLE
  5
FD
100
AcDbSymbolTable
 70
     4
  0
STYLE
  5
FE
100
AcDbSymbolTableRecord
100
AcDbTextStyleTableRecord
  2
STANDARD
 70
    64
 40
0.0
 41
1.0
 50
0.0
 71
     0
 42
3.000000000000000
  3
TXT
  4

  0
STYLE
  5
FF
100
AcDbSymbolTableRecord
100
AcDbTextStyleTableRecord
  2
ANKTATE
 70
    68
 40
0.0
 41
1.0
 50
0.0
 71
     0
 42
3.000000000000000
  3
TXT
  4

  0
STYLE
  5
100
100
AcDbSymbolTableRecord
100
AcDbTextStyleTableRecord
  2
KNJYOKO
 70
    64
 40
0.0
 41
1.0
 50
0.0
 71
     0
 42
3.000000000000000
  3
TXT
  4
BIGFONT
  0
STYLE
  5
101
100
AcDbSymbolTableRecord
100
AcDbTextStyleTableRecord
  2
KNJTATE
 70
    68
 40
0.0
 41
1.0
 50
0.0
 71
     0
 42
3.000000000000000
  3
TXT
  4
BIGFONT
  0
ENDTAB
  0
TABLE
  2
VIEW
  5
102
100
AcDbSymbolTable
 70
     0
  0
ENDTAB
  0
TABLE
  2
UCS
  5
103
100
AcDbSymbolTable
 70
     0
  0
ENDTAB
  0
TABLE
  2
APPID
  5
104
100
AcDbSymbolTable
 70
     1
  0
APPID
  5
105
100
AcDbSymbolTableRecord
100
AcDbRegAppTableRecord
  2
ACAD
 70
     0
  0
ENDTAB
  0
TABLE
  2
DIMSTYLE
  5
106
100
AcDbSymbolTable
 70
     2
100
AcDbDimStyleTable
  0
DIMSTYLE
105
107
100
AcDbSymbolTableRecord
100
AcDbDimStyleTableRecord
  2
STANDARD
 70
     0
 41
2.000000
 44
1.500000
 42
0.800000
145
0.661290
140
3.100000
144
1.000000
146
0.645161
340
FE
  0
DIMSTYLE
105
108
100
AcDbSymbolTableRecord
100
AcDbDimStyleTableRecord
  2
DXF001
 70
     0
 41
2.000000
 44
1.500000
 42
0.800000
145
0.661290
140
3.100000
144
1.000000
146
0.645161
 77
     1
 73
     0
 74
     0
271
     2
179
     2
275
     0
 78
     8
 79
     2
172
     1
340
FE
  0
ENDTAB
  0
TABLE
  2
BLOCK_RECORD
  5
109
100
AcDbSymbolTable
 70
    12
  0
BLOCK_RECORD
  5
10A
100
AcDbSymbolTableRecord
100
AcDbBlockTableRecord
  2
*MODEL_SPACE
  0
BLOCK_RECORD
  5
10B
100
AcDbSymbolTableRecord
100
AcDbBlockTableRecord
  2
*PAPER_SPACE
  0
BLOCK_RECORD
  5
10C
100
AcDbSymbolTableRecord
100
AcDbBlockTableRecord
  2
*PAPER_SPACE0
  0
BLOCK_RECORD
  5
1
100
AcDbSymbolTableRecord
100
AcDbBlockTableRecord
  2
_NONE
  0
BLOCK_RECORD
  5
4
100
AcDbSymbolTableRecord
100
AcDbBlockTableRecord
  2
_CLOSED
  0
BLOCK_RECORD
  5
B
100
AcDbSymbolTableRecord
100
AcDbBlockTableRecord
  2
_DOT
  0
BLOCK_RECORD
  5
13
100
AcDbSymbolTableRecord
100
AcDbBlockTableRecord
  2
_OPEN
  0
BLOCK_RECORD
  5
19
100
AcDbSymbolTableRecord
100
AcDbBlockTableRecord
  2
_ORIGIN
  0
BLOCK_RECORD
  5
1E
100
AcDbSymbolTableRecord
100
AcDbBlockTableRecord
  2
_OPEN30
  0
BLOCK_RECORD
  5
24
100
AcDbSymbolTableRecord
100
AcDbBlockTableRecord
  2
_BOXFILLED
  0
BLOCK_RECORD
  5
29
100
AcDbSymbolTableRecord
100
AcDbBlockTableRecord
  2
_BOXBLANK
  0
BLOCK_RECORD
  5
31
100
AcDbSymbolTableRecord
100
AcDbBlockTableRecord
  2
_OBLIQUE
  0
BLOCK_RECORD
  5
35
100
AcDbSymbolTableRecord
100
AcDbBlockTableRecord
  2
_OPEN90
  0
BLOCK_RECORD
  5
3B
100
AcDbSymbolTableRecord
100
AcDbBlockTableRecord
  2
_CLOSEDBLANK
  0
BLOCK_RECORD
  5
41
100
AcDbSymbolTableRecord
100
AcDbBlockTableRecord
  2
_DOTBLANK
  0
ENDTAB
  0
ENDSEC
  0
SECTION
  2
BLOCKS
  0
BLOCK
  5
10D
100
AcDbEntity
  8
0
100
AcDbBlockBegin
  2
*MODEL_SPACE
 70
     0
 10
0.0
 20
0.0
 30
0.0
  3
*MODEL_SPACE
  1

  0
ENDBLK
  5
10E
100
AcDbEntity
  8
0
100
AcDbBlockEnd
  0
BLOCK
  5
10F
100
AcDbEntity
  8
0
100
AcDbBlockBegin
  2
*PAPER_SPACE
 70
     0
 10
0.0
 20
0.0
 30
0.0
  3
*PAPER_SPACE
  1

  0
ENDBLK
  5
110
100
AcDbEntity
  8
0
100
AcDbBlockEnd
  0
BLOCK
  5
111
100
AcDbEntity
  8
0
100
AcDbBlockBegin
  2
*PAPER_SPACE0
 70
     0
 10
0.0
 20
0.0
 30
0.0
  3
*PAPER_SPACE0
  1

  0
ENDBLK
  5
112
100
AcDbEntity
  8
0
100
AcDbBlockEnd
  0
BLOCK
  5
2
330
1
100
AcDbEntity
  8
0
100
AcDbBlockBegin
  2
_NONE
 70
     0
 10
0.0
 20
0.0
 30
0.0
  3
_NONE
  1

  0
ENDBLK
  5
3
330
1
100
AcDbEntity
  8
0
100
AcDbBlockEnd
  0
BLOCK
  5
5
330
4
100
AcDbEntity
  8
0
100
AcDbBlockBegin
  2
_CLOSED
 70
     0
 10
0.0
 20
0.0
 30
0.0
  3
_CLOSED
  1

  0
LINE
  5
6
330
4
100
AcDbEntity
  8
0
  6
BYBLOCK
 62
     0
370
    -2
100
AcDbLine
 10
-1.0
 20
0.166667
 30
0.0
 11
0.0
 21
0.0
 31
0.0
  0
LINE
  5
7
330
4
100
AcDbEntity
  8
0
  6
BYBLOCK
 62
     0
370
    -2
100
AcDbLine
 10
0.0
 20
0.0
 30
0.0
 11
-1.0
 21
-0.166667
 31
0.0
  0
LINE
  5
8
330
4
100
AcDbEntity
  8
0
  6
BYBLOCK
 62
     0
370
    -2
100
AcDbLine
 10
-1.0
 20
0.166667
 30
0.0
 11
-1.0
 21
-0.166667
 31
0.0
  0
LINE
  5
9
330
4
100
AcDbEntity
  8
0
  6
BYBLOCK
 62
     0
370
    -2
100
AcDbLine
 10
0.0
 20
0.0
 30
0.0
 11
-1.0
 21
0.0
 31
0.0
  0
ENDBLK
  5
A
330
4
100
AcDbEntity
  8
0
100
AcDbBlockEnd
  0
BLOCK
  5
C
330
B
100
AcDbEntity
  8
0
100
AcDbBlockBegin
  2
_DOT
 70
     0
 10
0.0
 20
0.0
 30
0.0
  3
_DOT
  1

  0
POLYLINE
  5
D
330
B
100
AcDbEntity
  8
0
  6
BYBLOCK
 62
     0
370
    -2
100
AcDb2dPolyline
 66
     1
 10
0.0
 20
0.0
 30
0.0
 70
     1
 40
0.5
 41
0.5
  0
VERTEX
  5
E
330
B
100
AcDbEntity
  8
0
  6
BYBLOCK
 62
     0
370
    -2
100
AcDbVertex
100
AcDb2dVertex
 10
-0.25
 20
0.0
 30
0.0
 42
1.0
  0
VERTEX
  5
F
330
B
100
AcDbEntity
  8
0
  6
BYBLOCK
 62
     0
370
    -2
100
AcDbVertex
100
AcDb2dVertex
 10
0.25
 20
0.0
 30
0.0
 42
1.0
  0
SEQEND
  5
10
330
B
100
AcDbEntity
  8
0
  6
BYBLOCK
 62
     0
370
    -2
  0
LINE
  5
11
330
B
100
AcDbEntity
  8
0
  6
BYBLOCK
 62
     0
370
    -2
100
AcDbLine
 10
-0.5
 20
0.0
 30
0.0
 11
-1.0
 21
0.0
 31
0.0
  0
ENDBLK
  5
12
330
B
100
AcDbEntity
  8
0
100
AcDbBlockEnd
  0
BLOCK
  5
14
330
13
100
AcDbEntity
  8
0
100
AcDbBlockBegin
  2
_OPEN
 70
     0
 10
0.0
 20
0.0
 30
0.0
  3
_OPEN
  1

  0
LINE
  5
15
330
13
100
AcDbEntity
  8
0
  6
BYBLOCK
 62
     0
370
    -2
100
AcDbLine
 10
-1.0
 20
0.166667
 30
0.0
 11
0.0
 21
0.0
 31
0.0
  0
LINE
  5
16
330
13
100
AcDbEntity
  8
0
  6
BYBLOCK
 62
     0
370
    -2
100
AcDbLine
 10
0.0
 20
0.0
 30
0.0
 11
-1.0
 21
-0.166667
 31
0.0
  0
LINE
  5
17
330
13
100
AcDbEntity
  8
0
  6
BYBLOCK
 62
     0
370
    -2
100
AcDbLine
 10
0.0
 20
0.0
 30
0.0
 11
-1.0
 21
0.0
 31
0.0
  0
ENDBLK
  5
18
330
13
100
AcDbEntity
  8
0
100
AcDbBlockEnd
  0
BLOCK
  5
1A
330
19
100
AcDbEntity
  8
0
100
AcDbBlockBegin
  2
_ORIGIN
 70
     0
 10
0.0
 20
0.0
 30
0.0
  3
_ORIGIN
  1

  0
CIRCLE
  5
1B
330
19
100
AcDbEntity
  8
0
  6
BYBLOCK
 62
     0
370
    -2
100
AcDbCircle
 10
0.0
 20
0.0
 30
0.0
 40
0.5
  0
LINE
  5
1C
330
19
100
AcDbEntity
  8
0
  6
BYBLOCK
 62
     0
370
    -2
100
AcDbLine
 10
0.0
 20
0.0
 30
0.0
 11
-1.0
 21
0.0
 31
0.0
  0
ENDBLK
  5
1D
330
19
100
AcDbEntity
  8
0
100
AcDbBlockEnd
  0
BLOCK
  5
1F
330
1E
100
AcDbEntity
  8
0
100
AcDbBlockBegin
  2
_OPEN30
 70
     0
 10
0.0
 20
0.0
 30
0.0
  3
_OPEN30
  1

  0
LINE
  5
20
330
1E
100
AcDbEntity
  8
0
  6
BYBLOCK
 62
     0
370
    -2
100
AcDbLine
 10
-1.0
 20
0.267949
 30
0.0
 11
0.0
 21
0.0
 31
0.0
  0
LINE
  5
21
330
1E
100
AcDbEntity
  8
0
  6
BYBLOCK
 62
     0
370
    -2
100
AcDbLine
 10
0.0
 20
0.0
 30
0.0
 11
-1.0
 21
-0.267949
 31
0.0
  0
LINE
  5
22
330
1E
100
AcDbEntity
  8
0
  6
BYBLOCK
 62
     0
370
    -2
100
AcDbLine
 10
0.0
 20
0.0
 30
0.0
 11
-1.0
 21
0.0
 31
0.0
  0
ENDBLK
  5
23
330
1E
100
AcDbEntity
  8
0
100
AcDbBlockEnd
  0
BLOCK
  5
25
330
24
100
AcDbEntity
  8
0
100
AcDbBlockBegin
  2
_BOXFILLED
 70
     0
 10
0.0
 20
0.0
 30
0.0
  3
_BOXFILLED
  1

  0
SOLID
  5
26
330
24
100
AcDbEntity
  8
0
  6
BYBLOCK
 62
     0
370
    -2
100
AcDbTrace
 10
-0.5
 20
0.5
 30
0.0
 11
0.5
 21
0.5
 31
0.0
 12
-0.5
 22
-0.5
 32
0.0
 13
0.5
 23
-0.5
 33
0.0
  0
LINE
  5
27
330
24
100
AcDbEntity
  8
0
  6
BYBLOCK
 62
     0
370
    -2
100
AcDbLine
 10
-0.5
 20
0.0
 30
0.0
 11
-1.0
 21
0.0
 31
0.0
  0
ENDBLK
  5
28
330
24
100
AcDbEntity
  8
0
100
AcDbBlockEnd
  0
BLOCK
  5
2A
330
29
100
AcDbEntity
  8
0
100
AcDbBlockBegin
  2
_BOXBLANK
 70
     0
 10
0.0
 20
0.0
 30
0.0
  3
_BOXBLANK
  1

  0
LINE
  5
2B
330
29
100
AcDbEntity
  8
0
  6
BYBLOCK
 62
     0
370
    -2
100
AcDbLine
 10
-0.5
 20
-0.5
 30
0.0
 11
0.5
 21
-0.5
 31
0.0
  0
LINE
  5
2C
330
29
100
AcDbEntity
  8
0
  6
BYBLOCK
 62
     0
370
    -2
100
AcDbLine
 10
0.5
 20
-0.5
 30
0.0
 11
0.5
 21
0.5
 31
0.0
  0
LINE
  5
2D
330
29
100
AcDbEntity
  8
0
  6
BYBLOCK
 62
     0
370
    -2
100
AcDbLine
 10
0.5
 20
0.5
 30
0.0
 11
-0.5
 21
0.5
 31
0.0
  0
LINE
  5
2E
330
29
100
AcDbEntity
  8
0
  6
BYBLOCK
 62
     0
370
    -2
100
AcDbLine
 10
-0.5
 20
0.5
 30
0.0
 11
-0.5
 21
-0.5
 31
0.0
  0
LINE
  5
2F
330
29
100
AcDbEntity
  8
0
  6
BYBLOCK
 62
     0
370
    -2
100
AcDbLine
 10
-0.5
 20
0.0
 30
0.0
 11
-1.0
 21
0.0
 31
0.0
  0
ENDBLK
  5
30
330
29
100
AcDbEntity
  8
0
100
AcDbBlockEnd
  0
BLOCK
  5
32
330
31
100
AcDbEntity
  8
0
100
AcDbBlockBegin
  2
_OBLIQUE
 70
     0
 10
0.0
 20
0.0
 30
0.0
  3
_OBLIQUE
  1

  0
LINE
  5
33
330
31
100
AcDbEntity
  8
0
  6
BYBLOCK
 62
     0
370
    -2
100
AcDbLine
 10
-0.5
 20
-0.5
 30
0.0
 11
0.5
 21
0.5
 31
0.0
  0
ENDBLK
  5
34
330
31
100
AcDbEntity
  8
0
100
AcDbBlockEnd
  0
BLOCK
  5
36
330
35
100
AcDbEntity
  8
0
100
AcDbBlockBegin
  2
_OPEN90
 70
     0
 10
0.0
 20
0.0
 30
0.0
  3
_OPEN90
  1

  0
LINE
  5
37
330
35
100
AcDbEntity
  8
0
  6
BYBLOCK
 62
     0
370
    -2
100
AcDbLine
 10
-0.5
 20
0.5
 30
0.0
 11
0.0
 21
0.0
 31
0.0
  0
LINE
  5
38
330
35
100
AcDbEntity
  8
0
  6
BYBLOCK
 62
     0
370
    -2
100
AcDbLine
 10
0.0
 20
0.0
 30
0.0
 11
-0.5
 21
-0.5
 31
0.0
  0
LINE
  5
39
330
35
100
AcDbEntity
  8
0
  6
BYBLOCK
 62
     0
370
    -2
100
AcDbLine
 10
0.0
 20
0.0
 30
0.0
 11
-1.0
 21
0.0
 31
0.0
  0
ENDBLK
  5
3A
330
35
100
AcDbEntity
  8
0
100
AcDbBlockEnd
  0
BLOCK
  5
3C
330
3B
100
AcDbEntity
  8
0
100
AcDbBlockBegin
  2
_CLOSEDBLANK
 70
     0
 10
0.0
 20
0.0
 30
0.0
  3
_CLOSEDBLANK
  1

  0
LINE
  5
3D
330
3B
100
AcDbEntity
  8
0
  6
BYBLOCK
 62
     0
370
    -2
100
AcDbLine
 10
-1.0
 20
0.1666666666666666
 30
0.0
 11
0.0
 21
0.0
 31
0.0
  0
LINE
  5
3E
330
3B
100
AcDbEntity
  8
0
  6
BYBLOCK
 62
     0
370
    -2
100
AcDbLine
 10
0.0
 20
0.0
 30
0.0
 11
-1.0
 21
-0.1666666666666666
 31
0.0
  0
LINE
  5
3F
330
3B
100
AcDbEntity
  8
0
  6
BYBLOCK
 62
     0
370
    -2
100
AcDbLine
 10
-1.0
 20
0.1666666666666666
 30
0.0
 11
-1.0
 21
-0.1666666666666666
 31
0.0
  0
ENDBLK
  5
40
330
3B
100
AcDbEntity
  8
0
100
AcDbBlockEnd
  0
BLOCK
  5
42
330
41
100
AcDbEntity
  8
0
100
AcDbBlockBegin
  2
_DOTBLANK
 70
     0
 10
0.0
 20
0.0
 30
0.0
  3
_DOTBLANK
  1

  0
CIRCLE
  5
43
330
41
100
AcDbEntity
  8
0
  6
BYBLOCK
 62
     0
370
    -2
100
AcDbCircle
 10
0.0
 20
0.0
 30
0.0
 40
0.5
  0
LINE
  5
44
330
41
100
AcDbEntity
  8
0
  6
BYBLOCK
 62
     0
370
    -2
100
AcDbLine
 10
-0.5
 20
0.0
 30
0.0
 11
-1.0
 21
0.0
 31
0.0
  0
ENDBLK
  5
45
330
41
100
AcDbEntity
  8
0
100
AcDbBlockEnd
  0
ENDSEC
  0
SECTION
  2
ENTITIES
  0
MTEXT
  5
46
100
AcDbEntity
  8
A8
  6
CONTINUOUS
 62
3
100
AcDbMText
 10
9.999997526638502
 20
18.00000076076889
 30
0.000000000000000
 40
3.000000000000000
 41
0.000000000000000
 44
0.6739999771118164
 71
     7
 72
     1
  1
{\H0.94x;{TYPE No.TL-446SUS}}
 11
1.000000000000000
 21
0.000000000000000
 31
0.000000000000000
  7
STANDARD
  0
POINT
  5
47
100
AcDbEntity
  8
A0
  6
CONTINUOUS
 62
3
100
AcDbPoint
 10
9.999997526638502
 20
18.00000076076889
 30
0.000000000000000
  0
LINE
  5
48
100
AcDbEntity
  8
A5
  6
CENTER
 62
1
100
AcDbLine
 10
132.0578333393431
 20
71.99999999999994
 30
0.000000000000000
 11
111.9101143393431
 21
71.99999999999993
 31
0.000000000000000
  0
LINE
  5
49
100
AcDbEntity
  8
A1
  6
CONTINUOUS
 62
7
100
AcDbLine
 10
51.00000000000001
 20
66.50000000000007
 30
0.000000000000000
 11
49.99999999999997
 21
66.17613600000006
 31
0.000000000000000
  0
ARC
  5
4A
100
AcDbEntity
  8
A1
  6
CONTINUOUS
 62
7
100
AcDbCircle
 10
53.00000000000003
 20
88.78133678515691
 30
0.000000000000000
 40
1.000000000000000
100
AcDbArc
 50
30.88678625372264
 51
210.8867964477671
  0
ARC
  5
4B
100
AcDbEntity
  8
A1
  6
CONTINUOUS
 62
7
100
AcDbCircle
 10
54.00000000000000
 20
61.99999999999999
 30
0.000000000000000
 40
1.000000000000000
100
AcDbArc
 50
166.7607376856073
 51
346.7607367716837
  0
LINE
  5
4C
100
AcDbEntity
  8
A1
  6
CONTINUOUS
 62
7
100
AcDbLine
 10
58.47392847151811
 20
81.57829475010900
 30
0.000000000000000
 11
53.85818361638189
 21
89.29468036923446
 31
0.000000000000000
  0
LINE
  5
4D
100
AcDbEntity
  8
A1
  6
CONTINUOUS
 62
7
100
AcDbLine
 10
58.93128998953509
 20
42.75766251581197
 30
0.000000000000000
 11
57.96505499826105
 21
42.50000000000003
 31
0.000000000000000
  0
LINE
  5
4E
100
AcDbEntity
  8
A1
  6
CONTINUOUS
 62
7
100
AcDbLine
 10
50.99999999999997
 20
52.00000000000000
 30
0.000000000000000
 11
56.48882730380451
 21
50.17039056605191
 31
0.000000000000000
  0
LINE
  5
4F
100
AcDbEntity
  8
A1
  6
CONTINUOUS
 62
7
100
AcDbLine
 10
55.99337595667913
 20
49.89379494303239
 30
0.000000000000000
 11
57.96505499826097
 21
42.50000000000000
 31
0.000000000000000
  0
ARC
  5
50
100
AcDbEntity
  8
A1
  6
CONTINUOUS
 62
7
100
AcDbCircle
 10
55.03388899999999
 20
49.60127700000004
 30
0.000000000000000
 40
1.000000000000000
100
AcDbArc
 50
15.94539600000001
 51
71.56505100000000
  0
ARC
  5
51
100
AcDbEntity
  8
A1
  6
CONTINUOUS
 62
7
100
AcDbCircle
 10
56.18338000000000
 20
49.21811400000001
 30
0.000000000000000
 40
1.000000000000000
100
AcDbArc
 50
15.94539600000001
 51
71.56505100000000
  0
ARC
  5
52
100
AcDbEntity
  8
A1
  6
CONTINUOUS
 62
7
100
AcDbCircle
 10
54.00000000000000
 20
61.99999999999999
 30
0.000000000000000
 40
1.100000000000000
100
AcDbArc
 50
142.1407683328569
 51
366.9779650000000
  0
LINE
  5
53
100
AcDbEntity
  8
A1
  6
CONTINUOUS
 62
7
100
AcDbLine
 10
57.13883441674146
 20
49.47936996917707
 30
0.000000000000000
 11
58.93128998647123
 21
42.75766251499498
 31
0.000000000000000
  0
LINE
  5
54
100
AcDbEntity
  8
A1
  6
CONTINUOUS
 62
7
100
AcDbLine
 10
60.00000000000000
 20
69.34615300000004
 30
0.000000000000000
 11
57.16108505759735
 21
51.03878961090838
 31
0.000000000000000
  0
LINE
  5
55
100
AcDbEntity
  8
A1
  6
CONTINUOUS
 62
7
100
AcDbLine
 10
58.99999999999995
 20
69.50000000000001
 30
0.000000000000000
 11
59.99999999999996
 21
69.34615300000003
 31
0.000000000000000
  0
LINE
  5
56
100
AcDbEntity
  8
A1
  6
CONTINUOUS
 62
7
100
AcDbLine
 10
58.99999999999999
 20
71.99999999999999
 30
0.000000000000000
 11
58.99999999999999
 21
69.49999999999999
 31
0.000000000000000
  0
ARC
  5
57
100
AcDbEntity
  8
A1
  6
CONTINUOUS
 62
7
100
AcDbCircle
 10
55.00000000000000
 20
69.34615300000000
 30
0.000000000000000
 40
5.000000000000000
100
AcDbArc
 50
0.000000000000000
 51
37.19395299999998
  0
ARC
  5
58
100
AcDbEntity
  8
A1
  6
CONTINUOUS
 62
7
100
AcDbCircle
 10
55.00000000000000
 20
71.99999999999999
 30
0.000000000000000
 40
4.000000000000000
100
AcDbArc
 50
0.000000000000000
 51
41.36718005290888
  0
LINE
  5
59
100
AcDbEntity
  8
A1
  6
CONTINUOUS
 62
7
100
AcDbLine
 10
54.99999999999999
 20
75.99999999999999
 30
0.000000000000000
 11
49.99999999999999
 21
75.99999999999999
 31
0.000000000000000
  0
LINE
  5
5A
100
AcDbEntity
  8
A1
  6
CONTINUOUS
 62
7
100
AcDbLine
 10
49.99999999999999
 20
75.99999999999999
 30
0.000000000000000
 11
50.00000000000000
 21
50.00000000000000
 31
0.000000000000000
  0
LINE
  5
5B
100
AcDbEntity
  8
A1
  6
CONTINUOUS
 62
7
100
AcDbLine
 10
50.00000000000000
 20
50.00000000000000
 30
0.000000000000000
 11
51.00000000000000
 21
50.00000000000000
 31
0.000000000000000
  0
LINE
  5
5C
100
AcDbEntity
  8
A1
  6
CONTINUOUS
 62
7
100
AcDbLine
 10
51.00000000000000
 20
50.00000000000000
 30
0.000000000000000
 11
50.99999999999999
 21
71.99999999999999
 31
0.000000000000000
  0
ARC
  5
5D
100
AcDbEntity
  8
A1
  6
CONTINUOUS
 62
7
100
AcDbCircle
 10
55.00000000000000
 20
71.99999999999999
 30
0.000000000000000
 40
1.750000000000000
100
AcDbArc
 50
66.33247829892245
 51
267.1889970722924
  0
LINE
  5
5E
100
AcDbEntity
  8
A5
  6
CENTER
 62
1
100
AcDbLine
 10
52.50000000000000
 20
54.99999999999999
 30
0.000000000000000
 11
48.50000000000000
 21
54.99999999999999
 31
0.000000000000000
  0
LINE
  5
5F
100
AcDbEntity
  8
A1
  6
CONTINUOUS
 62
7
100
AcDbLine
 10
52.14181638361806
 20
88.26799320107941
 30
0.000000000000000
 11
56.75756141080832
 21
80.55161041069732
 31
0.000000000000000
  0
LINE
  5
60
100
AcDbEntity
  8
A1
  6
CONTINUOUS
 62
7
100
AcDbLine
 10
56.98803934912383
 20
79.06688747243246
 30
0.000000000000000
 11
53.02657774255697
 21
62.22901798247925
 31
0.000000000000000
  0
LINE
  5
61
100
AcDbEntity
  8
A1
  6
CONTINUOUS
 62
7
100
AcDbLine
 10
54.97342251328872
 20
61.77098178163186
 30
0.000000000000000
 11
58.93488396820138
 21
78.60884942222199
 31
0.000000000000000
  0
ARC
  5
62
100
AcDbEntity
  8
A1
  6
CONTINUOUS
 62
7
100
AcDbCircle
 10
55.00000000000000
 20
71.99999999999999
 30
0.000000000000000
 40
4.000000000000000
100
AcDbArc
 50
72.21876632410570
 51
180.0000000000000
  0
LINE
  5
63
100
AcDbEntity
  8
A1
  6
CONTINUOUS
 62
7
100
AcDbLine
 10
128.9520683393432
 20
50.00000000000001
 30
0.000000000000000
 11
114.9520683393431
 21
50.00000000000001
 31
0.000000000000000
  0
LINE
  5
64
100
AcDbEntity
  8
A1
  6
CONTINUOUS
 62
7
100
AcDbLine
 10
115.7020683393431
 20
69.34615299999994
 30
0.000000000000000
 11
115.7020683393431
 21
75.99999999999993
 31
0.000000000000000
  0
LINE
  5
65
100
AcDbEntity
  8
A1
  6
CONTINUOUS
 62
7
100
AcDbLine
 10
116.7020683393431
 20
75.99999999999994
 30
0.000000000000000
 11
116.7020683393431
 21
69.34615299999996
 31
0.000000000000000
  0
LINE
  5
66
100
AcDbEntity
  8
A1
  6
CONTINUOUS
 62
7
100
AcDbLine
 10
127.2020683393432
 20
69.34615299999996
 30
0.000000000000000
 11
127.2020683393432
 21
75.99999999999994
 31
0.000000000000000
  0
LINE
  5
67
100
AcDbEntity
  8
A1
  6
CONTINUOUS
 62
7
100
AcDbLine
 10
128.2020683393432
 20
75.99999999999994
 30
0.000000000000000
 11
128.2020683393432
 21
69.34615299999996
 31
0.000000000000000
  0
LINE
  5
68
100
AcDbEntity
  8
A1
  6
CONTINUOUS
 62
7
100
AcDbLine
 10
129.4520683393432
 20
75.99999999999994
 30
0.000000000000000
 11
129.4520683393432
 21
50.00000000000001
 31
0.000000000000000
  0
LINE
  5
69
100
AcDbEntity
  8
A1
  6
CONTINUOUS
 62
7
100
AcDbLine
 10
129.4520683393431
 20
49.99999999999982
 30
0.000000000000000
 11
127.7942247263365
 21
43.96982238254253
 31
0.000000000000000
  0
LINE
  5
6A
100
AcDbEntity
  8
A1
  6
CONTINUOUS
 62
7
100
AcDbLine
 10
125.8657767249771
 20
42.50000000000000
 30
0.000000000000000
 11
118.0383609925177
 21
42.50000000000000
 31
0.000000000000000
  0
LINE
  5
6B
100
AcDbEntity
  8
A1
  6
CONTINUOUS
 62
7
100
AcDbLine
 10
116.1099130760729
 20
43.96982207367726
 30
0.000000000000000
 11
114.4520683393432
 21
50.00000000000007
 31
0.000000000000000
  0
LINE
  5
6C
100
AcDbEntity
  8
A1
  6
CONTINUOUS
 62
7
100
AcDbLine
 10
114.4520683393431
 20
50.00000000000001
 30
0.000000000000000
 11
114.4520683393431
 21
75.99999999999993
 31
0.000000000000000
  0
LINE
  5
6D
100
AcDbEntity
  8
A1
  6
CONTINUOUS
 62
7
100
AcDbLine
 10
126.9520683393432
 20
69.34615299999996
 30
0.000000000000000
 11
126.9520683393432
 21
74.34615299999996
 31
0.000000000000000
  0
LINE
  5
6E
100
AcDbEntity
  8
A1
  6
CONTINUOUS
 62
7
100
AcDbLine
 10
128.2020683393432
 20
75.99999999999994
 30
0.000000000000000
 11
115.7020683393431
 21
75.99999999999993
 31
0.000000000000000
  0
LINE
  5
6F
100
AcDbEntity
  8
A1
  6
CONTINUOUS
 62
7
100
AcDbLine
 10
116.9520683393431
 20
74.34615299999996
 30
0.000000000000000
 11
116.9520683393431
 21
69.34615299999996
 31
0.000000000000000
  0
LINE
  5
70
100
AcDbEntity
  8
A1
  6
CONTINUOUS
 62
7
100
AcDbLine
 10
129.4520683393432
 20
75.99999999999994
 30
0.000000000000000
 11
128.4520683393432
 21
75.99999999999994
 31
0.000000000000000
  0
LINE
  5
71
100
AcDbEntity
  8
A1
  6
CONTINUOUS
 62
7
100
AcDbLine
 10
128.4520683393432
 20
75.99999999999994
 30
0.000000000000000
 11
128.4520683393432
 21
69.34615299999996
 31
0.000000000000000
  0
LINE
  5
72
100
AcDbEntity
  8
A1
  6
CONTINUOUS
 62
7
100
AcDbLine
 10
128.4520683393432
 20
69.34615299999996
 30
0.000000000000000
 11
126.9520683393432
 21
69.34615299999996
 31
0.000000000000000
  0
LINE
  5
73
100
AcDbEntity
  8
A1
  6
CONTINUOUS
 62
7
100
AcDbLine
 10
116.9520683393431
 20
69.34615299999996
 30
0.000000000000000
 11
115.4520683393431
 21
69.34615299999994
 31
0.000000000000000
  0
LINE
  5
74
100
AcDbEntity
  8
A1
  6
CONTINUOUS
 62
7
100
AcDbLine
 10
115.4520683393431
 20
69.34615299999994
 30
0.000000000000000
 11
115.4520683393431
 21
75.99999999999993
 31
0.000000000000000
  0
LINE
  5
75
100
AcDbEntity
  8
A1
  6
CONTINUOUS
 62
7
100
AcDbLine
 10
115.4520683393431
 20
75.99999999999993
 30
0.000000000000000
 11
114.4520683393431
 21
75.99999999999993
 31
0.000000000000000
  0
LINE
  5
76
100
AcDbEntity
  8
A1
  6
CONTINUOUS
 62
7
100
AcDbLine
 10
125.9366144650726
 20
42.75766251499496
 30
0.000000000000000
 11
117.9675232080350
 21
42.75766251499496
 31
0.000000000000000
  0
ARC
  5
77
100
AcDbEntity
  8
A1
  6
CONTINUOUS
 62
7
100
AcDbCircle
 10
114.9520683393431
 20
81.47670300000003
 30
0.000000000000000
 40
2.000000000000000
100
AcDbArc
 50
157.7065570000000
 51
180.0000000000000
  0
ARC
  5
78
100
AcDbEntity
  8
A1
  6
CONTINUOUS
 62
7
100
AcDbCircle
 10
128.9520683393432
 20
81.47670300000003
 30
0.000000000000000
 40
2.000000000000000
100
AcDbArc
 50
0.000000000000000
 51
22.29344299999999
  0
LINE
  5
79
100
AcDbEntity
  8
A1
  6
CONTINUOUS
 62
7
100
AcDbLine
 10
110.9520683393431
 20
81.47670299999997
 30
0.000000000000000
 11
110.9520683393431
 21
64.49999999999993
 31
0.000000000000000
  0
LINE
  5
7A
100
AcDbEntity
  8
A1
  6
CONTINUOUS
 62
7
100
AcDbLine
 10
130.6337340137050
 20
87.91938750446809
 30
0.000000000000000
 11
132.6530813393433
 21
82.99410400000015
 31
0.000000000000000
  0
LINE
  5
7B
100
AcDbEntity
  8
A1
  6
CONTINUOUS
 62
7
100
AcDbLine
 10
132.9520683393432
 20
81.47670299999999
 30
0.000000000000000
 11
132.9520683393432
 21
64.49999999999994
 31
0.000000000000000
  0
LINE
  5
7C
100
AcDbEntity
  8
A1
  6
CONTINUOUS
 62
7
100
AcDbLine
 10
113.2704036649815
 20
87.91938750446815
 30
0.000000000000000
 11
111.2510563393432
 21
82.99410399999999
 31
0.000000000000000
  0
ARC
  5
7D
100
AcDbEntity
  8
A1
  6
CONTINUOUS
 62
7
100
AcDbCircle
 10
129.4520683393432
 20
64.49999999999999
 30
0.000000000000000
 40
3.500000000000000
100
AcDbArc
 50
270.0000000000000
 51
360.0000000000000
  0
LINE
  5
7E
100
AcDbEntity
  8
A1
  6
CONTINUOUS
 62
7
100
AcDbLine
 10
130.9520683393432
 20
64.49999999999994
 30
0.000000000000000
 11
130.9520683393432
 21
81.47670299999999
 31
0.000000000000000
  0
LINE
  5
7F
100
AcDbEntity
  8
A1
  6
CONTINUOUS
 62
7
100
AcDbLine
 10
130.8025753393430
 20
82.23540299999996
 30
0.000000000000000
 11
128.7832266822849
 21
87.16068719361121
 31
0.000000000000000
  0
ARC
  5
80
100
AcDbEntity
  8
A1
  6
CONTINUOUS
 62
7
100
AcDbCircle
 10
129.4520683393432
 20
64.49999999999999
 30
0.000000000000000
 40
1.500000000000000
100
AcDbArc
 50
270.0000000000000
 51
360.0000000000000
  0
ARC
  5
81
100
AcDbEntity
  8
A1
  6
CONTINUOUS
 62
7
100
AcDbCircle
 10
128.9520683393432
 20
81.47670300000003
 30
0.000000000000000
 40
4.000000000000000
100
AcDbArc
 50
0.000000000000000
 51
22.29344299999999
  0
ARC
  5
82
100
AcDbEntity
  8
A1
  6
CONTINUOUS
 62
7
100
AcDbCircle
 10
114.4520683393431
 20
64.49999999999999
 30
0.000000000000000
 40
3.500000000000000
100
AcDbArc
 50
180.0000000000000
 51
270.0000000000000
  0
LINE
  5
83
100
AcDbEntity
  8
A1
  6
CONTINUOUS
 62
7
100
AcDbLine
 10
112.9520683393431
 20
64.49999999999993
 30
0.000000000000000
 11
112.9520683393431
 21
81.47670299999997
 31
0.000000000000000
  0
LINE
  5
84
100
AcDbEntity
  8
A1
  6
CONTINUOUS
 62
7
100
AcDbLine
 10
113.1015623393431
 20
82.23540299999992
 30
0.000000000000000
 11
115.1209098783677
 21
87.16068702492736
 31
0.000000000000000
  0
ARC
  5
85
100
AcDbEntity
  8
A1
  6
CONTINUOUS
 62
7
100
AcDbCircle
 10
114.4520683393431
 20
64.49999999999999
 30
0.000000000000000
 40
1.500000000000000
100
AcDbArc
 50
180.0000000000000
 51
270.0000000000000
  0
ARC
  5
86
100
AcDbEntity
  8
A1
  6
CONTINUOUS
 62
7
100
AcDbCircle
 10
114.9520683393431
 20
81.47670300000003
 30
0.000000000000000
 40
4.000000000000000
100
AcDbArc
 50
157.7065570000000
 51
180.0000000000000
  0
LINE
  5
87
100
AcDbEntity
  8
A1
  6
CONTINUOUS
 62
7
100
AcDbLine
 10
128.2020683393432
 20
70.74999999999994
 30
0.000000000000000
 11
128.4520683393432
 21
70.74999999999994
 31
0.000000000000000
  0
LINE
  5
88
100
AcDbEntity
  8
A1
  6
CONTINUOUS
 62
7
100
AcDbLine
 10
126.9520683393432
 20
70.74999999999994
 30
0.000000000000000
 11
127.2020683393432
 21
70.74999999999994
 31
0.000000000000000
  0
LINE
  5
89
100
AcDbEntity
  8
A1
  6
CONTINUOUS
 62
7
100
AcDbLine
 10
116.7020683393431
 20
70.74999999999994
 30
0.000000000000000
 11
116.9520683393431
 21
70.74999999999994
 31
0.000000000000000
  0
LINE
  5
8A
100
AcDbEntity
  8
A1
  6
CONTINUOUS
 62
7
100
AcDbLine
 10
115.4520683393431
 20
70.74999999999993
 30
0.000000000000000
 11
115.7020683393431
 21
70.74999999999993
 31
0.000000000000000
  0
LINE
  5
8B
100
AcDbEntity
  8
A1
  6
CONTINUOUS
 62
7
100
AcDbLine
 10
115.7020683393431
 20
73.24999999999993
 30
0.000000000000000
 11
115.4520683393431
 21
73.24999999999993
 31
0.000000000000000
  0
LINE
  5
8C
100
AcDbEntity
  8
A1
  6
CONTINUOUS
 62
7
100
AcDbLine
 10
116.9520683393431
 20
73.24999999999994
 30
0.000000000000000
 11
116.7020683393431
 21
73.24999999999994
 31
0.000000000000000
  0
LINE
  5
8D
100
AcDbEntity
  8
A1
  6
CONTINUOUS
 62
7
100
AcDbLine
 10
127.2020683393432
 20
73.24999999999994
 30
0.000000000000000
 11
126.9520683393432
 21
73.24999999999994
 31
0.000000000000000
  0
LINE
  5
8E
100
AcDbEntity
  8
A1
  6
CONTINUOUS
 62
7
100
AcDbLine
 10
128.4520683393432
 20
73.24999999999994
 30
0.000000000000000
 11
128.2020683393432
 21
73.24999999999994
 31
0.000000000000000
  0
ARC
  5
8F
100
AcDbEntity
  8
A1
  6
CONTINUOUS
 62
7
100
AcDbCircle
 10
117.2645683393431
 20
71.99999999999999
 30
0.000000000000000
 40
3.312500000000000
100
AcDbArc
 50
148.1092080000000
 51
211.8907920000000
  0
LINE
  5
90
100
AcDbEntity
  8
A1
  6
CONTINUOUS
 62
7
100
AcDbLine
 10
130.4520683393432
 20
69.99999999999994
 30
0.000000000000000
 11
129.4520683393432
 21
69.99999999999994
 31
0.000000000000000
  0
LINE
  5
91
100
AcDbEntity
  8
A1
  6
CONTINUOUS
 62
7
100
AcDbLine
 10
130.4520683393432
 20
73.99999999999994
 30
0.000000000000000
 11
130.4520683393432
 21
69.99999999999994
 31
0.000000000000000
  0
LINE
  5
92
100
AcDbEntity
  8
A1
  6
CONTINUOUS
 62
7
100
AcDbLine
 10
129.4520683393432
 20
73.99999999999994
 30
0.000000000000000
 11
130.4520683393432
 21
73.99999999999994
 31
0.000000000000000
  0
LINE
  5
93
100
AcDbEntity
  8
A1
  6
CONTINUOUS
 62
7
100
AcDbLine
 10
132.6803833393431
 20
82.21132700000008
 30
0.000000000000000
 11
131.1105663393432
 21
81.90201100000010
 31
0.000000000000000
  0
LINE
  5
94
100
AcDbEntity
  8
A1
  6
CONTINUOUS
 62
7
100
AcDbLine
 10
111.2237543393431
 20
82.21132700000010
 30
0.000000000000000
 11
112.7935713393431
 21
81.90201100000010
 31
0.000000000000000
  0
LINE
  5
95
100
AcDbEntity
  8
A1
  6
CONTINUOUS
 62
7
100
AcDbLine
 10
126.9520683393432
 20
74.34615299999996
 30
0.000000000000000
 11
116.9520683393431
 21
74.34615299999996
 31
0.000000000000000
  0
LINE
  5
96
100
AcDbEntity
  8
A1
  6
CONTINUOUS
 62
7
100
AcDbLine
 10
116.0461630305299
 20
87.78133678515694
 30
0.000000000000000
 11
127.8579735992825
 21
87.78133678515694
 31
0.000000000000000
  0
LINE
  5
97
100
AcDbEntity
  8
A1
  6
CONTINUOUS
 62
7
100
AcDbLine
 10
116.0461631214681
 20
89.78133678515688
 30
0.000000000000000
 11
127.8579745572184
 21
89.78133678515688
 31
0.000000000000000
  0
LINE
  5
98
100
AcDbEntity
  8
A5
  6
CENTER
 62
1
100
AcDbLine
 10
55.00000000000000
 20
68.74999999999999
 30
0.000000000000000
 11
55.00000000000000
 21
75.24999999999999
 31
0.000000000000000
  0
LINE
  5
99
100
AcDbEntity
  8
A5
  6
CENTER
 62
1
100
AcDbLine
 10
51.75000000000000
 20
71.99999999999999
 30
0.000000000000000
 11
57.66769299999999
 21
71.99999999999999
 31
0.000000000000000
  0
LINE
  5
9A
100
AcDbEntity
  8
A5
  6
CENTER
 62
1
100
AcDbLine
 10
118.8520683393431
 20
54.99999999999993
 30
0.000000000000000
 11
125.0520683393431
 21
54.99999999999993
 31
0.000000000000000
  0
LINE
  5
9B
100
AcDbEntity
  8
A5
  6
CENTER
 62
1
100
AcDbLine
 10
118.8520683393431
 20
64.99999999999993
 30
0.000000000000000
 11
125.0520683393431
 21
64.99999999999993
 31
0.000000000000000
  0
LINE
  5
9C
100
AcDbEntity
  8
A3
  6
DASHED
 62
2
100
AcDbLine
 10
51.00000000000000
 20
66.59999999999989
 30
0.000000000000000
 11
50.00000000000000
 21
66.59999999999989
 31
0.000000000000000
  0
LINE
  5
9D
100
AcDbEntity
  8
A3
  6
DASHED
 62
2
100
AcDbLine
 10
51.00000000000000
 20
63.39999999999991
 30
0.000000000000000
 11
50.00000000000000
 21
63.39999999999991
 31
0.000000000000000
  0
LINE
  5
9E
100
AcDbEntity
  8
A5
  6
CENTER
 62
1
100
AcDbLine
 10
48.50000000000000
 20
64.99999999999993
 30
0.000000000000000
 11
52.50000000000000
 21
64.99999999999993
 31
0.000000000000000
  0
LINE
  5
9F
100
AcDbEntity
  8
A3
  6
DASHED
 62
2
100
AcDbLine
 10
51.00000000000000
 20
53.39999999999998
 30
0.000000000000000
 11
50.00000000000000
 21
53.39999999999998
 31
0.000000000000000
  0
LINE
  5
A0
100
AcDbEntity
  8
A3
  6
DASHED
 62
2
100
AcDbLine
 10
51.00000000000000
 20
56.59999999999995
 30
0.000000000000000
 11
50.00000000000000
 21
56.59999999999995
 31
0.000000000000000
  0
LINE
  5
A1
100
AcDbEntity
  8
A5
  6
CENTER
 62
1
100
AcDbLine
 10
56.59999999999999
 20
61.99999999999999
 30
0.000000000000000
 11
51.39999999999998
 21
61.99999999999999
 31
0.000000000000000
  0
LINE
  5
A2
100
AcDbEntity
  8
A5
  6
CENTER
 62
1
100
AcDbLine
 10
54.00000000000000
 20
63.49999999999999
 30
0.000000000000000
 11
54.00000000000000
 21
59.39999999999996
 31
0.000000000000000
  0
LINE
  5
A3
100
AcDbEntity
  8
A5
  6
CENTER
 62
1
100
AcDbLine
 10
121.9520683393431
 20
41.22527900000001
 30
0.000000000000000
 11
121.9520683393431
 21
91.05183599999998
 31
0.000000000000000
  0
LINE
  5
A4
100
AcDbEntity
  8
A5
  6
CENTER
 62
1
100
AcDbLine
 10
50.50000000000003
 20
88.78133678515691
 30
0.000000000000000
 11
55.50000000000003
 21
88.78133678515691
 31
0.000000000000000
  0
LINE
  5
A5
100
AcDbEntity
  8
A5
  6
CENTER
 62
1
100
AcDbLine
 10
53.00000000000003
 20
86.28133678515691
 30
0.000000000000000
 11
53.00000000000003
 21
91.28133678515691
 31
0.000000000000000
  0
LINE
  5
A6
100
AcDbEntity
  8
A3
  6
DASHED
 62
2
100
AcDbLine
 10
115.7020683393432
 20
66.17613599999997
 30
0.000000000000000
 11
115.9520683393432
 21
66.17613599999997
 31
0.000000000000000
  0
ARC
  5
A7
100
AcDbEntity
  8
A3
  6
DASHED
 62
2
100
AcDbCircle
 10
115.9520683393432
 20
65.17613599999997
 30
0.000000000000000
 40
1.000000000000000
100
AcDbArc
 50
0.000000000000000
 51
90.00000000000000
  0
LINE
  5
A8
100
AcDbEntity
  8
A3
  6
DASHED
 62
2
100
AcDbLine
 10
116.9520683393432
 20
65.17613599999997
 30
0.000000000000000
 11
116.9520683393432
 21
52.24999999999991
 31
0.000000000000000
  0
LINE
  5
A9
100
AcDbEntity
  8
A3
  6
DASHED
 62
2
100
AcDbLine
 10
127.9520683393432
 20
66.17613599999999
 30
0.000000000000000
 11
128.2020683393432
 21
66.17613599999999
 31
0.000000000000000
  0
ARC
  5
AA
100
AcDbEntity
  8
A3
  6
DASHED
 62
2
100
AcDbCircle
 10
127.9520683393432
 20
65.17613599999997
 30
0.000000000000000
 40
1.000000000000000
100
AcDbArc
 50
90.00000000000000
 51
180.0000000000000
  0
LINE
  5
AB
100
AcDbEntity
  8
A3
  6
DASHED
 62
2
100
AcDbLine
 10
126.9520683393433
 20
52.24999999999999
 30
0.000000000000000
 11
126.9520683393432
 21
65.17613599999997
 31
0.000000000000000
  0
ARC
  5
AC
100
AcDbEntity
  8
A3
  6
DASHED
 62
2
100
AcDbCircle
 10
124.7020683393432
 20
52.24999999999991
 30
0.000000000000000
 40
2.250000000000000
100
AcDbArc
 50
270.0000000000000
 51
360.0000000000000
  0
LINE
  5
AD
100
AcDbEntity
  8
A3
  6
DASHED
 62
2
100
AcDbLine
 10
119.2020683393432
 20
49.99999999999991
 30
0.000000000000000
 11
124.7020683393432
 21
49.99999999999991
 31
0.000000000000000
  0
ARC
  5
AE
100
AcDbEntity
  8
A3
  6
DASHED
 62
2
100
AcDbCircle
 10
119.2020683393432
 20
52.24999999999991
 30
0.000000000000000
 40
2.250000000000000
100
AcDbArc
 50
180.0000000000000
 51
270.0000000000000
  0
LINE
  5
AF
100
AcDbEntity
  8
A3
  6
DASHED
 62
2
100
AcDbLine
 10
115.7020683393432
 20
66.17613599999997
 30
0.000000000000000
 11
115.7020683393432
 21
69.34615299999994
 31
0.000000000000000
  0
LINE
  5
B0
100
AcDbEntity
  8
A3
  6
DASHED
 62
2
100
AcDbLine
 10
128.2020683393432
 20
66.17613599999996
 30
0.000000000000000
 11
128.2020683393432
 21
69.34615299999993
 31
0.000000000000000
  0
ARC
  5
B1
100
AcDbEntity
  8
A1
  6
CONTINUOUS
 62
7
100
AcDbCircle
 10
62.10203154678639
 20
50.27259917050185
 30
0.000000000000000
 40
5.000000000000000
100
AcDbArc
 50
171.1853745861199
 51
194.9314191566328
  0
ARC
  5
B2
100
AcDbEntity
  8
A1
  6
CONTINUOUS
 62
7
100
AcDbCircle
 10
56.17259948603761
 20
49.22170728525140
 30
0.000000000000000
 40
1.000000000000000
100
AcDbArc
 50
14.93141915663289
 51
71.56504805163118
  0
ARC
  5
B3
100
AcDbEntity
  8
A1
  6
CONTINUOUS
 62
7
100
AcDbCircle
 10
125.8657767249771
 20
44.50000000000000
 30
0.000000000000000
 40
2.000000000000000
100
AcDbArc
 50
270.0000000000000
 51
344.6277701079741
  0
ARC
  5
B4
100
AcDbEntity
  8
A1
  6
CONTINUOUS
 62
7
100
AcDbCircle
 10
118.0383609925177
 20
44.50000000000003
 30
0.000000000000000
 40
2.000000000000000
100
AcDbArc
 50
195.3722390686682
 51
270.0000000000000
  0
ARC
  5
B5
100
AcDbEntity
  8
A1
  6
CONTINUOUS
 62
7
100
AcDbCircle
 10
125.9366144650726
 20
44.75766251499496
 30
0.000000000000000
 40
2.000000000000000
100
AcDbArc
 50
270.0000000000000
 51
344.6277701079741
  0
ARC
  5
B6
100
AcDbEntity
  8
A1
  6
CONTINUOUS
 62
7
100
AcDbCircle
 10
117.9675232080350
 20
44.75766251499493
 30
0.000000000000000
 40
2.000000000000000
100
AcDbArc
 50
195.3722390686682
 51
270.0000000000000
  0
LINE
  5
B7
100
AcDbEntity
  8
A1
  6
CONTINUOUS
 62
7
100
AcDbLine
 10
51.00000000000001
 20
143.1115738093787
 30
0.000000000000000
 11
50.00000000000001
 21
143.1115738093787
 31
0.000000000000000
  0
LINE
  5
B8
100
AcDbEntity
  8
A1
  6
CONTINUOUS
 62
7
100
AcDbLine
 10
50.00000000000000
 20
143.1115738093787
 30
0.000000000000000
 11
50.00000000000000
 21
120.6115738093788
 31
0.000000000000000
  0
LINE
  5
B9
100
AcDbEntity
  8
A1
  6
CONTINUOUS
 62
7
100
AcDbLine
 10
51.00000000000000
 20
143.1115738093787
 30
0.000000000000000
 11
51.00000000000000
 21
120.6115738093788
 31
0.000000000000000
  0
LINE
  5
BA
100
AcDbEntity
  8
A1
  6
CONTINUOUS
 62
7
100
AcDbLine
 10
127.9520683393432
 20
141.1115738093787
 30
0.000000000000000
 11
127.9520683393432
 21
120.8115738093787
 31
0.000000000000000
  0
LINE
  5
BB
100
AcDbEntity
  8
A1
  6
CONTINUOUS
 62
7
100
AcDbLine
 10
127.9520683393432
 20
118.6115738093787
 30
0.000000000000000
 11
115.9520683393431
 21
118.6115738093787
 31
0.000000000000000
  0
LINE
  5
BC
100
AcDbEntity
  8
A1
  6
CONTINUOUS
 62
7
100
AcDbLine
 10
115.9520683393431
 20
118.6115738093787
 30
0.000000000000000
 11
115.9520683393431
 21
120.8115738093787
 31
0.000000000000000
  0
LINE
  5
BD
100
AcDbEntity
  8
A1
  6
CONTINUOUS
 62
7
100
AcDbLine
 10
117.9520683393431
 20
143.1115738093787
 30
0.000000000000000
 11
125.9520683393432
 21
143.1115738093787
 31
0.000000000000000
  0
LINE
  5
BE
100
AcDbEntity
  8
A1
  6
CONTINUOUS
 62
7
100
AcDbLine
 10
125.9520683393432
 20
122.1115738093789
 30
0.000000000000000
 11
117.9520683393431
 21
122.1115738093789
 31
0.000000000000000
  0
ARC
  5
BF
100
AcDbEntity
  8
A1
  6
CONTINUOUS
 62
7
100
AcDbCircle
 10
125.9520683393431
 20
120.1115738093788
 30
0.000000000000000
 40
2.000000000000000
100
AcDbArc
 50
0.000000000000000
 51
90.00000000000000
  0
ARC
  5
C0
100
AcDbEntity
  8
A1
  6
CONTINUOUS
 62
7
100
AcDbCircle
 10
117.9520683393431
 20
120.1115738093788
 30
0.000000000000000
 40
2.000000000000000
100
AcDbArc
 50
90.00000000000000
 51
180.0000000000000
  0
ARC
  5
C1
100
AcDbEntity
  8
A1
  6
CONTINUOUS
 62
7
100
AcDbCircle
 10
117.9520683393431
 20
141.1115738093788
 30
0.000000000000000
 40
2.000000000000000
100
AcDbArc
 50
90.00000000000000
 51
180.0000000000000
  0
ARC
  5
C2
100
AcDbEntity
  8
A1
  6
CONTINUOUS
 62
7
100
AcDbCircle
 10
125.9520683393431
 20
141.1115738093788
 30
0.000000000000000
 40
2.000000000000000
100
AcDbArc
 50
0.000000000000000
 51
90.00000000000000
  0
LINE
  5
C3
100
AcDbEntity
  8
A1
  6
CONTINUOUS
 62
7
100
AcDbLine
 10
127.9520683393432
 20
120.8115738093787
 30
0.000000000000000
 11
127.9520683393432
 21
118.6115738093787
 31
0.000000000000000
  0
LINE
  5
C4
100
AcDbEntity
  8
A1
  6
CONTINUOUS
 62
7
100
AcDbLine
 10
115.9520683393431
 20
120.8115738093787
 30
0.000000000000000
 11
115.9520683393431
 21
141.1115738093787
 31
0.000000000000000
  0
LINE
  5
C5
100
AcDbEntity
  8
A5
  6
CENTER
 62
1
100
AcDbLine
 10
125.0520683393432
 20
137.1115738093788
 30
0.000000000000000
 11
118.8520683393432
 21
137.1115738093788
 31
0.000000000000000
  0
LINE
  5
C6
100
AcDbEntity
  8
A5
  6
CENTER
 62
1
100
AcDbLine
 10
125.0520683393432
 20
127.1115738093788
 30
0.000000000000000
 11
118.8520683393432
 21
127.1115738093788
 31
0.000000000000000
  0
LINE
  5
C7
100
AcDbEntity
  8
A3
  6
DASHED
 62
2
100
AcDbLine
 10
50.99999999999999
 20
135.5115738093788
 30
0.000000000000000
 11
49.99999999999999
 21
135.5115738093788
 31
0.000000000000000
  0
LINE
  5
C8
100
AcDbEntity
  8
A3
  6
DASHED
 62
2
100
AcDbLine
 10
50.99999999999999
 20
138.7115738093787
 30
0.000000000000000
 11
49.99999999999999
 21
138.7115738093787
 31
0.000000000000000
  0
LINE
  5
C9
100
AcDbEntity
  8
A5
  6
CENTER
 62
1
100
AcDbLine
 10
48.49999999999999
 20
137.1115738093788
 30
0.000000000000000
 11
52.49999999999999
 21
137.1115738093788
 31
0.000000000000000
  0
LINE
  5
CA
100
AcDbEntity
  8
A3
  6
DASHED
 62
2
100
AcDbLine
 10
50.99999999999999
 20
128.7115738093787
 30
0.000000000000000
 11
49.99999999999999
 21
128.7115738093787
 31
0.000000000000000
  0
LINE
  5
CB
100
AcDbEntity
  8
A3
  6
DASHED
 62
2
100
AcDbLine
 10
50.99999999999999
 20
125.5115738093788
 30
0.000000000000000
 11
49.99999999999999
 21
125.5115738093788
 31
0.000000000000000
  0
LINE
  5
CC
100
AcDbEntity
  8
A5
  6
CENTER
 62
1
100
AcDbLine
 10
48.49999999999999
 20
127.1115738093788
 30
0.000000000000000
 11
52.49999999999999
 21
127.1115738093788
 31
0.000000000000000
  0
LINE
  5
CD
100
AcDbEntity
  8
A5
  6
CENTER
 62
1
100
AcDbLine
 10
121.9520683393431
 20
116.6115738093787
 30
0.000000000000000
 11
121.9520683393431
 21
144.6115738093788
 31
0.000000000000000
  0
CIRCLE
  5
CE
100
AcDbEntity
  8
A1
  6
CONTINUOUS
 62
7
100
AcDbCircle
 10
121.9520683393431
 20
137.1115738093788
 30
0.000000000000000
 40
1.650000000000000
  0
CIRCLE
  5
CF
100
AcDbEntity
  8
A1
  6
CONTINUOUS
 62
7
100
AcDbCircle
 10
121.9520683393431
 20
127.1115738093788
 30
0.000000000000000
 40
1.650000000000000
  0
LINE
  5
D0
100
AcDbEntity
  8
A5
  6
CENTER
 62
1
100
AcDbLine
 10
56.49999999999999
 20
120.6115738093788
 30
0.000000000000000
 11
48.49999999999999
 21
120.6115738093788
 31
0.000000000000000
  0
LINE
  5
D1
100
AcDbEntity
  8
A5
  6
CENTER
 62
1
100
AcDbLine
 10
52.49999999999999
 20
122.1115738093788
 30
0.000000000000000
 11
52.49999999999999
 21
116.6115738093788
 31
0.000000000000000
  0
CIRCLE
  5
D2
100
AcDbEntity
  8
A3
  6
DASHED
 62
2
100
AcDbCircle
 10
121.9520683393431
 20
64.99999999999993
 30
0.000000000000000
 40
1.750000000000000
  0
CIRCLE
  5
D3
100
AcDbEntity
  8
A3
  6
DASHED
 62
2
100
AcDbCircle
 10
121.9520683393431
 20
54.99999999999993
 30
0.000000000000000
 40
1.750000000000000
  0
ARC
  5
D4
100
AcDbEntity
  8
A1
  6
CONTINUOUS
 62
7
100
AcDbCircle
 10
55.04119520142838
 20
79.52492135580898
 30
0.000000000000000
 40
4.000000000000000
100
AcDbArc
 50
346.7607367716831
 51
390.8867862537219
  0
ARC
  5
D5
100
AcDbEntity
  8
A1
  6
CONTINUOUS
 62
7
100
AcDbCircle
 10
55.04119495843122
 20
79.52492340817194
 30
0.000000000000000
 40
2.000000000000000
100
AcDbArc
 50
346.7607376856072
 51
390.8867964477678
  0
ARC
  5
D6
100
AcDbEntity
  8
A1
  6
CONTINUOUS
 62
7
100
AcDbCircle
 10
116.0461630305299
 20
86.78133678515694
 30
0.000000000000000
 40
1.000000000000000
100
AcDbArc
 50
90.00000000000000
 51
157.7065591752484
  0
ARC
  5
D7
100
AcDbEntity
  8
A1
  6
CONTINUOUS
 62
7
100
AcDbCircle
 10
127.8579735992825
 20
86.78133678515694
 30
0.000000000000000
 40
1.000000000000000
100
AcDbArc
 50
22.29345127040839
 51
90.00000000000000
  0
ARC
  5
D8
100
AcDbEntity
  8
A1
  6
CONTINUOUS
 62
7
100
AcDbCircle
 10
127.8579745572184
 20
86.78133678515688
 30
0.000000000000000
 40
3.000000000000000
100
AcDbArc
 50
22.29344082475281
 51
90.00000000000000
  0
ARC
  5
D9
100
AcDbEntity
  8
A1
  6
CONTINUOUS
 62
7
100
AcDbCircle
 10
116.0461631214681
 20
86.78133678515688
 30
0.000000000000000
 40
3.000000000000000
100
AcDbArc
 50
90.00000000000000
 51
157.7065591752472
  0
ELLIPSE
  5
DA
100
AcDbEntity
  8
A1
  6
CONTINUOUS
 62
7
100
AcDbEllipse
 10
117.9520683393432
 20
119.8308656138978
 30
0.000000000000000
 11
2.000000000000001
 21
0.000000000000000
 31
0.000000000000000
210
0.000000000000000
220
0.000000000000000
230
1.000000000000000
 40
0.9617944316285986
 41
1.570796326794897
 42
3.141592623787471
  0
LINE
  5
DB
100
AcDbEntity
  8
A1
  6
CONTINUOUS
 62
7
100
AcDbLine
 10
125.9520683393432
 20
121.7544544771549
 30
0.000000000000000
 11
117.9520683393432
 21
121.7544544771549
 31
0.000000000000000
  0
ELLIPSE
  5
DC
100
AcDbEntity
  8
A1
  6
CONTINUOUS
 62
7
100
AcDbEllipse
 10
125.9520683393432
 20
119.8308656138978
 30
0.000000000000000
 11
2.000000000000001
 21
0.000000000000000
 31
0.000000000000000
210
0.000000000000000
220
0.000000000000000
230
1.000000000000000
 40
0.9617944316285986
 41
0.000000000000000
 42
1.570796326794897
  0
LINE
  5
DD
100
AcDbEntity
  8
A1
  6
CONTINUOUS
 62
7
100
AcDbLine
 10
54.56457288070676
 20
122.1115738093790
 30
0.000000000000000
 11
53.92658477444267
 21
120.1480483178164
 31
0.000000000000000
  0
LINE
  5
DE
100
AcDbEntity
  8
A1
  6
CONTINUOUS
 62
7
100
AcDbLine
 10
54.87764129073797
 20
119.8390313234415
 30
0.000000000000000
 11
55.49999999999998
 21
121.7544544771549
 31
0.000000000000000
  0
ARC
  5
DF
100
AcDbEntity
  8
A1
  6
CONTINUOUS
 62
7
100
AcDbCircle
 10
52.49999999999997
 20
120.6115738093788
 30
0.000000000000000
 40
2.500000000000000
100
AcDbArc
 50
180.0000000000000
 51
342.0000000000005
  0
ARC
  5
E0
100
AcDbEntity
  8
A1
  6
CONTINUOUS
 62
7
100
AcDbCircle
 10
52.49999999999997
 20
120.6115738093788
 30
0.000000000000000
 40
1.500000000000000
100
AcDbArc
 50
180.0000000000000
 51
341.9999999999995
  0
LINE
  5
E1
100
AcDbEntity
  8
A1
  6
CONTINUOUS
 62
7
100
AcDbLine
 10
54.56457288070678
 20
122.1115738093789
 30
0.000000000000000
 11
55.49999999999999
 21
121.7544544771549
 31
0.000000000000000
  0
ENDSEC
  0
SECTION
  2
OBJECTS
  0
DICTIONARY
  5
113
100
AcDbDictionary
  3
ACAD_GROUP
350
114
  3
ACAD_LAYOUT
350
115
  3
ACAD_MLINESTYLE
350
116
  0
DICTIONARY
  5
114
102
{ACAD_REACTORS
330
113
102
}
330
113
100
AcDbDictionary
  0
DICTIONARY
  5
115
102
{ACAD_REACTORS
330
113
102
}
330
113
100
AcDbDictionary
  3
Model
350
117
  3
ﾚｲｱｳﾄ1
350
118
  3
ﾚｲｱｳﾄ2
350
119
  0
DICTIONARY
  5
116
102
{ACAD_REACTORS
330
113
102
}
330
113
100
AcDbDictionary
  3
STANDARD
350
11A
  0
LAYOUT
  5
117
102
{ACAD_REACTORS
330
115
102
}
330
115
100
AcDbPlotSettings
 70
11952
  4
A3
 44
297.000000
 45
420.000000
 73
  1
 72
  1
100
AcDbLayout
  1
Model
 71
0
330
10A
  0
LAYOUT
  5
118
102
{ACAD_REACTORS
330
115
102
}
330
115
100
AcDbPlotSettings
100
AcDbLayout
  1
ﾚｲｱｳﾄ1
 71
1
330
10B
  0
LAYOUT
  5
119
102
{ACAD_REACTORS
330
115
102
}
330
115
100
AcDbPlotSettings
100
AcDbLayout
  1
ﾚｲｱｳﾄ2
 71
2
330
10C
  0
MLINESTYLE
  5
11A
102
{ACAD_REACTORS
330
116
102
}
330
116
100
AcDbMlineStyle
  2
STANDARD
 70
     0
  3

 62
   256
 51
90.00
 52
90.00
 71
     2
 49
0.50
 62
   256
  6
BYLAYER
 49
-0.50
 62
   256
  6
BYLAYER
  0
ENDSEC
  0
EOF
