  0
SECTION
  2
HEADER
  9
$ACADVER
  1
AC1027
  9
$DWGCODEPAGE
  3
ANSI_932
  9
$LTSCALE
 40
20.0
  9
$FILLMODE
 70
     1
  9
$CLAYER
  8
0
  9
$PDMODE
 70
     0
  9
$SPLFRAME
 70
     0
  9
$SPLINETYPE
 70
     6
  9
$SPLINESEGS
 70
     8
  9
$DIMASZ
 40
2.000000
  9
$DIMEXE
 40
1.500000
  9
$DIMEXO
 40
0.800000
  9
$DIMTAD
 70
     1
  9
$DIMTIH
 70
     0
  9
$DIMTOH
 70
     0
  9
$DIMTVP
 40
0.500000
  9
$DIMTXT
 40
3.100000
  9
$EXTMIN
 10
0.000000
 20
0.000000
 30
0.000000
  9
$EXTMAX
 10
297.000000
 20
420.000000
 30
0.000000
  9
$MEASUREMENT
 70
  1
  9
$LIMMIN
 10
0.000000
 20
0.000000
  9
$LIMMAX
 10
297.000000
 20
420.000000
  9
$HANDSEED
  5
18A
  9
$LWDISPLAY
290
     0
  9
$DIMBLK
  1
_OPEN
  9
$DIMDEC
 70
     2
  9
$DIMADEC
 70
     2
  9
$DIMAUNIT
 70
     0
  9
$DIMZIN
 70
     8
  9
$DIMAZIN
 70
     2
  9
$DIMTOFL
 70
     1
  0
ENDSEC
  0
SECTION
  2
CLASSES
  0
ENDSEC
  0
SECTION
  2
TABLES
  0
TABLE
  2
VPORT
  5
151
100
AcDbSymbolTable
 70
     1
  0
VPORT
  5
152
100
AcDbSymbolTableRecord
100
AcDbViewportTableRecord
  2
*ACTIVE
 70
     0
 12
56.055096
 22
78.635515
 40
121.271029
 41
0.759540
  0
ENDTAB
  0
TABLE
  2
LTYPE
  5
153
100
AcDbSymbolTable
 70
     4
  0
LTYPE
  5
154
100
AcDbSymbolTableRecord
100
AcDbLinetypeTableRecord
  2
BYBLOCK
 70
     0
  3

 72
    65
 73
     0
 40
0.0
  0
LTYPE
  5
155
100
AcDbSymbolTableRecord
100
AcDbLinetypeTableRecord
  2
BYLAYER
 70
     0
  3

 72
    65
 73
     0
 40
0.0
  0
LTYPE
  5
156
100
AcDbSymbolTableRecord
100
AcDbLinetypeTableRecord
  2
CONTINUOUS
 70
     0
  3
Solid line (NEC CAE2D for Win R18.0 : 2025.05.27)
 72
    65
 73
     0
 40
0.0
  0
LTYPE
  5
157
100
AcDbSymbolTableRecord
100
AcDbLinetypeTableRecord
  2
DASHED
 70
     0
  3
__ __ __ __ __ __ __ __ __ __ __ __ __ _
 72
    65
 73
     2
 40
0.75
 49
0.5
 74
     0
 49
-0.25
 74
     0
  0
LTYPE
  5
158
100
AcDbSymbolTableRecord
100
AcDbLinetypeTableRecord
  2
CENTER
 70
     0
  3
____ _ ____ _ ____ _ ____ _ ____ _ ____
 72
    65
 73
     4
 40
2.0
 49
1.25
 74
     0
 49
-0.25
 74
     0
 49
0.25
 74
     0
 49
-0.25
 74
     0
  0
LTYPE
  5
159
100
AcDbSymbolTableRecord
100
AcDbLinetypeTableRecord
  2
PHANTOM
 70
     0
  3
______  __  __  ______  __  __  ______ 
 72
    65
 73
     6
 40
2.5
 49
1.25
 74
     0
 49
-0.25
 74
     0
 49
0.25
 74
     0
 49
-0.25
 74
     0
 49
0.25
 74
     0
 49
-0.25
 74
     0
  0
ENDTAB
  0
TABLE
  2
LAYER
  5
15A
100
AcDbSymbolTable
 70
    17
  0
LAYER
  5
15B
100
AcDbSymbolTableRecord
100
AcDbLayerTableRecord
  2
0
 70
     0
 62
     7
  6
CONTINUOUS
370
    -3
390

  0
LAYER
  5
15C
100
AcDbSymbolTableRecord
100
AcDbLayerTableRecord
  2
A0
 70
     0
 62
     9
  6
CONTINUOUS
370
    -3
390

  0
LAYER
  5
15D
100
AcDbSymbolTableRecord
100
AcDbLayerTableRecord
  2
A1
 70
     0
 62
    12
  6
CONTINUOUS
370
    -3
390

  0
LAYER
  5
15E
100
AcDbSymbolTableRecord
100
AcDbLayerTableRecord
  2
A2
 70
     0
 62
     9
  6
CONTINUOUS
370
    -3
390

  0
LAYER
  5
15F
100
AcDbSymbolTableRecord
100
AcDbLayerTableRecord
  2
A3
 70
     0
 62
    10
  6
CONTINUOUS
370
    -3
390

  0
LAYER
  5
160
100
AcDbSymbolTableRecord
100
AcDbLayerTableRecord
  2
A4
 70
     0
 62
     9
  6
CONTINUOUS
370
    -3
390

  0
LAYER
  5
161
100
AcDbSymbolTableRecord
100
AcDbLayerTableRecord
  2
A5
 70
     0
 62
     8
  6
CONTINUOUS
370
    -3
390

  0
LAYER
  5
162
100
AcDbSymbolTableRecord
100
AcDbLayerTableRecord
  2
A6
 70
     0
 62
    12
  6
CONTINUOUS
370
    -3
390

  0
LAYER
  5
163
100
AcDbSymbolTableRecord
100
AcDbLayerTableRecord
  2
A7
 70
     0
 62
    12
  6
CONTINUOUS
370
    -3
390

  0
LAYER
  5
164
100
AcDbSymbolTableRecord
100
AcDbLayerTableRecord
  2
A8
 70
     0
 62
    10
  6
CONTINUOUS
370
    -3
390

  0
LAYER
  5
165
100
AcDbSymbolTableRecord
100
AcDbLayerTableRecord
  2
A9
 70
     0
 62
     9
  6
CONTINUOUS
370
    -3
390

  0
LAYER
  5
166
100
AcDbSymbolTableRecord
100
AcDbLayerTableRecord
  2
A10
 70
     0
 62
     6
  6
CONTINUOUS
370
    -3
390

  0
LAYER
  5
167
100
AcDbSymbolTableRecord
100
AcDbLayerTableRecord
  2
A20
 70
     0
 62
     1
  6
CONTINUOUS
370
    -3
390

  0
LAYER
  5
168
100
AcDbSymbolTableRecord
100
AcDbLayerTableRecord
  2
A30
 70
     0
 62
     1
  6
CONTINUOUS
370
    -3
390

  0
LAYER
  5
169
100
AcDbSymbolTableRecord
100
AcDbLayerTableRecord
  2
A40
 70
     0
 62
     9
  6
CONTINUOUS
370
    -3
390

  0
LAYER
  5
16A
100
AcDbSymbolTableRecord
100
AcDbLayerTableRecord
  2
A50
 70
     0
 62
    12
  6
CONTINUOUS
370
    -3
390

  0
LAYER
  5
16B
100
AcDbSymbolTableRecord
100
AcDbLayerTableRecord
  2
A1023
 70
     0
 62
    16
  6
CONTINUOUS
370
    -3
390

  0
ENDTAB
  0
TABLE
  2
STYLE
  5
16C
100
AcDbSymbolTable
 70
     4
  0
STYLE
  5
16D
100
AcDbSymbolTableRecord
100
AcDbTextStyleTableRecord
  2
STANDARD
 70
    64
 40
0.0
 41
1.0
 50
0.0
 71
     0
 42
3.000000000000000
  3
TXT
  4

  0
STYLE
  5
16E
100
AcDbSymbolTableRecord
100
AcDbTextStyleTableRecord
  2
ANKTATE
 70
    68
 40
0.0
 41
1.0
 50
0.0
 71
     0
 42
3.000000000000000
  3
TXT
  4

  0
STYLE
  5
16F
100
AcDbSymbolTableRecord
100
AcDbTextStyleTableRecord
  2
KNJYOKO
 70
    64
 40
0.0
 41
1.0
 50
0.0
 71
     0
 42
3.000000000000000
  3
TXT
  4
BIGFONT
  0
STYLE
  5
170
100
AcDbSymbolTableRecord
100
AcDbTextStyleTableRecord
  2
KNJTATE
 70
    68
 40
0.0
 41
1.0
 50
0.0
 71
     0
 42
3.000000000000000
  3
TXT
  4
BIGFONT
  0
ENDTAB
  0
TABLE
  2
VIEW
  5
171
100
AcDbSymbolTable
 70
     0
  0
ENDTAB
  0
TABLE
  2
UCS
  5
172
100
AcDbSymbolTable
 70
     0
  0
ENDTAB
  0
TABLE
  2
APPID
  5
173
100
AcDbSymbolTable
 70
     1
  0
APPID
  5
174
100
AcDbSymbolTableRecord
100
AcDbRegAppTableRecord
  2
ACAD
 70
     0
  0
ENDTAB
  0
TABLE
  2
DIMSTYLE
  5
175
100
AcDbSymbolTable
 70
     2
100
AcDbDimStyleTable
  0
DIMSTYLE
105
176
100
AcDbSymbolTableRecord
100
AcDbDimStyleTableRecord
  2
STANDARD
 70
     0
 41
2.000000
 44
1.500000
 42
0.800000
145
0.661290
140
3.100000
144
1.000000
146
0.645161
340
16D
  0
DIMSTYLE
105
177
100
AcDbSymbolTableRecord
100
AcDbDimStyleTableRecord
  2
A001
 70
     0
 41
2.000000
 44
1.500000
 42
0.800000
145
0.661290
140
3.100000
144
1.000000
146
0.645161
 77
     1
 73
     0
 74
     0
271
     2
179
     2
275
     0
 78
     8
 79
     2
172
     1
340
16D
  0
ENDTAB
  0
TABLE
  2
BLOCK_RECORD
  5
178
100
AcDbSymbolTable
 70
    12
  0
BLOCK_RECORD
  5
179
100
AcDbSymbolTableRecord
100
AcDbBlockTableRecord
  2
*MODEL_SPACE
  0
BLOCK_RECORD
  5
17A
100
AcDbSymbolTableRecord
100
AcDbBlockTableRecord
  2
*PAPER_SPACE
  0
BLOCK_RECORD
  5
17B
100
AcDbSymbolTableRecord
100
AcDbBlockTableRecord
  2
*PAPER_SPACE0
  0
BLOCK_RECORD
  5
1
100
AcDbSymbolTableRecord
100
AcDbBlockTableRecord
  2
_NONE
  0
BLOCK_RECORD
  5
4
100
AcDbSymbolTableRecord
100
AcDbBlockTableRecord
  2
_CLOSED
  0
BLOCK_RECORD
  5
B
100
AcDbSymbolTableRecord
100
AcDbBlockTableRecord
  2
_DOT
  0
BLOCK_RECORD
  5
13
100
AcDbSymbolTableRecord
100
AcDbBlockTableRecord
  2
_OPEN
  0
BLOCK_RECORD
  5
19
100
AcDbSymbolTableRecord
100
AcDbBlockTableRecord
  2
_ORIGIN
  0
BLOCK_RECORD
  5
1E
100
AcDbSymbolTableRecord
100
AcDbBlockTableRecord
  2
_OPEN30
  0
BLOCK_RECORD
  5
24
100
AcDbSymbolTableRecord
100
AcDbBlockTableRecord
  2
_BOXFILLED
  0
BLOCK_RECORD
  5
29
100
AcDbSymbolTableRecord
100
AcDbBlockTableRecord
  2
_BOXBLANK
  0
BLOCK_RECORD
  5
31
100
AcDbSymbolTableRecord
100
AcDbBlockTableRecord
  2
_OBLIQUE
  0
BLOCK_RECORD
  5
35
100
AcDbSymbolTableRecord
100
AcDbBlockTableRecord
  2
_OPEN90
  0
BLOCK_RECORD
  5
3B
100
AcDbSymbolTableRecord
100
AcDbBlockTableRecord
  2
_CLOSEDBLANK
  0
BLOCK_RECORD
  5
41
100
AcDbSymbolTableRecord
100
AcDbBlockTableRecord
  2
_DOTBLANK
  0
ENDTAB
  0
ENDSEC
  0
SECTION
  2
BLOCKS
  0
BLOCK
  5
17C
100
AcDbEntity
  8
0
100
AcDbBlockBegin
  2
*MODEL_SPACE
 70
     0
 10
0.0
 20
0.0
 30
0.0
  3
*MODEL_SPACE
  1

  0
ENDBLK
  5
17D
100
AcDbEntity
  8
0
100
AcDbBlockEnd
  0
BLOCK
  5
17E
100
AcDbEntity
  8
0
100
AcDbBlockBegin
  2
*PAPER_SPACE
 70
     0
 10
0.0
 20
0.0
 30
0.0
  3
*PAPER_SPACE
  1

  0
ENDBLK
  5
17F
100
AcDbEntity
  8
0
100
AcDbBlockEnd
  0
BLOCK
  5
180
100
AcDbEntity
  8
0
100
AcDbBlockBegin
  2
*PAPER_SPACE0
 70
     0
 10
0.0
 20
0.0
 30
0.0
  3
*PAPER_SPACE0
  1

  0
ENDBLK
  5
181
100
AcDbEntity
  8
0
100
AcDbBlockEnd
  0
BLOCK
  5
2
330
1
100
AcDbEntity
  8
0
100
AcDbBlockBegin
  2
_NONE
 70
     0
 10
0.0
 20
0.0
 30
0.0
  3
_NONE
  1

  0
ENDBLK
  5
3
330
1
100
AcDbEntity
  8
0
100
AcDbBlockEnd
  0
BLOCK
  5
5
330
4
100
AcDbEntity
  8
0
100
AcDbBlockBegin
  2
_CLOSED
 70
     0
 10
0.0
 20
0.0
 30
0.0
  3
_CLOSED
  1

  0
LINE
  5
6
330
4
100
AcDbEntity
  8
0
  6
BYBLOCK
 62
     0
370
    -2
100
AcDbLine
 10
-1.0
 20
0.166667
 30
0.0
 11
0.0
 21
0.0
 31
0.0
  0
LINE
  5
7
330
4
100
AcDbEntity
  8
0
  6
BYBLOCK
 62
     0
370
    -2
100
AcDbLine
 10
0.0
 20
0.0
 30
0.0
 11
-1.0
 21
-0.166667
 31
0.0
  0
LINE
  5
8
330
4
100
AcDbEntity
  8
0
  6
BYBLOCK
 62
     0
370
    -2
100
AcDbLine
 10
-1.0
 20
0.166667
 30
0.0
 11
-1.0
 21
-0.166667
 31
0.0
  0
LINE
  5
9
330
4
100
AcDbEntity
  8
0
  6
BYBLOCK
 62
     0
370
    -2
100
AcDbLine
 10
0.0
 20
0.0
 30
0.0
 11
-1.0
 21
0.0
 31
0.0
  0
ENDBLK
  5
A
330
4
100
AcDbEntity
  8
0
100
AcDbBlockEnd
  0
BLOCK
  5
C
330
B
100
AcDbEntity
  8
0
100
AcDbBlockBegin
  2
_DOT
 70
     0
 10
0.0
 20
0.0
 30
0.0
  3
_DOT
  1

  0
POLYLINE
  5
D
330
B
100
AcDbEntity
  8
0
  6
BYBLOCK
 62
     0
370
    -2
100
AcDb2dPolyline
 66
     1
 10
0.0
 20
0.0
 30
0.0
 70
     1
 40
0.5
 41
0.5
  0
VERTEX
  5
E
330
B
100
AcDbEntity
  8
0
  6
BYBLOCK
 62
     0
370
    -2
100
AcDbVertex
100
AcDb2dVertex
 10
-0.25
 20
0.0
 30
0.0
 42
1.0
  0
VERTEX
  5
F
330
B
100
AcDbEntity
  8
0
  6
BYBLOCK
 62
     0
370
    -2
100
AcDbVertex
100
AcDb2dVertex
 10
0.25
 20
0.0
 30
0.0
 42
1.0
  0
SEQEND
  5
10
330
B
100
AcDbEntity
  8
0
  6
BYBLOCK
 62
     0
370
    -2
  0
LINE
  5
11
330
B
100
AcDbEntity
  8
0
  6
BYBLOCK
 62
     0
370
    -2
100
AcDbLine
 10
-0.5
 20
0.0
 30
0.0
 11
-1.0
 21
0.0
 31
0.0
  0
ENDBLK
  5
12
330
B
100
AcDbEntity
  8
0
100
AcDbBlockEnd
  0
BLOCK
  5
14
330
13
100
AcDbEntity
  8
0
100
AcDbBlockBegin
  2
_OPEN
 70
     0
 10
0.0
 20
0.0
 30
0.0
  3
_OPEN
  1

  0
LINE
  5
15
330
13
100
AcDbEntity
  8
0
  6
BYBLOCK
 62
     0
370
    -2
100
AcDbLine
 10
-1.0
 20
0.166667
 30
0.0
 11
0.0
 21
0.0
 31
0.0
  0
LINE
  5
16
330
13
100
AcDbEntity
  8
0
  6
BYBLOCK
 62
     0
370
    -2
100
AcDbLine
 10
0.0
 20
0.0
 30
0.0
 11
-1.0
 21
-0.166667
 31
0.0
  0
LINE
  5
17
330
13
100
AcDbEntity
  8
0
  6
BYBLOCK
 62
     0
370
    -2
100
AcDbLine
 10
0.0
 20
0.0
 30
0.0
 11
-1.0
 21
0.0
 31
0.0
  0
ENDBLK
  5
18
330
13
100
AcDbEntity
  8
0
100
AcDbBlockEnd
  0
BLOCK
  5
1A
330
19
100
AcDbEntity
  8
0
100
AcDbBlockBegin
  2
_ORIGIN
 70
     0
 10
0.0
 20
0.0
 30
0.0
  3
_ORIGIN
  1

  0
CIRCLE
  5
1B
330
19
100
AcDbEntity
  8
0
  6
BYBLOCK
 62
     0
370
    -2
100
AcDbCircle
 10
0.0
 20
0.0
 30
0.0
 40
0.5
  0
LINE
  5
1C
330
19
100
AcDbEntity
  8
0
  6
BYBLOCK
 62
     0
370
    -2
100
AcDbLine
 10
0.0
 20
0.0
 30
0.0
 11
-1.0
 21
0.0
 31
0.0
  0
ENDBLK
  5
1D
330
19
100
AcDbEntity
  8
0
100
AcDbBlockEnd
  0
BLOCK
  5
1F
330
1E
100
AcDbEntity
  8
0
100
AcDbBlockBegin
  2
_OPEN30
 70
     0
 10
0.0
 20
0.0
 30
0.0
  3
_OPEN30
  1

  0
LINE
  5
20
330
1E
100
AcDbEntity
  8
0
  6
BYBLOCK
 62
     0
370
    -2
100
AcDbLine
 10
-1.0
 20
0.267949
 30
0.0
 11
0.0
 21
0.0
 31
0.0
  0
LINE
  5
21
330
1E
100
AcDbEntity
  8
0
  6
BYBLOCK
 62
     0
370
    -2
100
AcDbLine
 10
0.0
 20
0.0
 30
0.0
 11
-1.0
 21
-0.267949
 31
0.0
  0
LINE
  5
22
330
1E
100
AcDbEntity
  8
0
  6
BYBLOCK
 62
     0
370
    -2
100
AcDbLine
 10
0.0
 20
0.0
 30
0.0
 11
-1.0
 21
0.0
 31
0.0
  0
ENDBLK
  5
23
330
1E
100
AcDbEntity
  8
0
100
AcDbBlockEnd
  0
BLOCK
  5
25
330
24
100
AcDbEntity
  8
0
100
AcDbBlockBegin
  2
_BOXFILLED
 70
     0
 10
0.0
 20
0.0
 30
0.0
  3
_BOXFILLED
  1

  0
SOLID
  5
26
330
24
100
AcDbEntity
  8
0
  6
BYBLOCK
 62
     0
370
    -2
100
AcDbTrace
 10
-0.5
 20
0.5
 30
0.0
 11
0.5
 21
0.5
 31
0.0
 12
-0.5
 22
-0.5
 32
0.0
 13
0.5
 23
-0.5
 33
0.0
  0
LINE
  5
27
330
24
100
AcDbEntity
  8
0
  6
BYBLOCK
 62
     0
370
    -2
100
AcDbLine
 10
-0.5
 20
0.0
 30
0.0
 11
-1.0
 21
0.0
 31
0.0
  0
ENDBLK
  5
28
330
24
100
AcDbEntity
  8
0
100
AcDbBlockEnd
  0
BLOCK
  5
2A
330
29
100
AcDbEntity
  8
0
100
AcDbBlockBegin
  2
_BOXBLANK
 70
     0
 10
0.0
 20
0.0
 30
0.0
  3
_BOXBLANK
  1

  0
LINE
  5
2B
330
29
100
AcDbEntity
  8
0
  6
BYBLOCK
 62
     0
370
    -2
100
AcDbLine
 10
-0.5
 20
-0.5
 30
0.0
 11
0.5
 21
-0.5
 31
0.0
  0
LINE
  5
2C
330
29
100
AcDbEntity
  8
0
  6
BYBLOCK
 62
     0
370
    -2
100
AcDbLine
 10
0.5
 20
-0.5
 30
0.0
 11
0.5
 21
0.5
 31
0.0
  0
LINE
  5
2D
330
29
100
AcDbEntity
  8
0
  6
BYBLOCK
 62
     0
370
    -2
100
AcDbLine
 10
0.5
 20
0.5
 30
0.0
 11
-0.5
 21
0.5
 31
0.0
  0
LINE
  5
2E
330
29
100
AcDbEntity
  8
0
  6
BYBLOCK
 62
     0
370
    -2
100
AcDbLine
 10
-0.5
 20
0.5
 30
0.0
 11
-0.5
 21
-0.5
 31
0.0
  0
LINE
  5
2F
330
29
100
AcDbEntity
  8
0
  6
BYBLOCK
 62
     0
370
    -2
100
AcDbLine
 10
-0.5
 20
0.0
 30
0.0
 11
-1.0
 21
0.0
 31
0.0
  0
ENDBLK
  5
30
330
29
100
AcDbEntity
  8
0
100
AcDbBlockEnd
  0
BLOCK
  5
32
330
31
100
AcDbEntity
  8
0
100
AcDbBlockBegin
  2
_OBLIQUE
 70
     0
 10
0.0
 20
0.0
 30
0.0
  3
_OBLIQUE
  1

  0
LINE
  5
33
330
31
100
AcDbEntity
  8
0
  6
BYBLOCK
 62
     0
370
    -2
100
AcDbLine
 10
-0.5
 20
-0.5
 30
0.0
 11
0.5
 21
0.5
 31
0.0
  0
ENDBLK
  5
34
330
31
100
AcDbEntity
  8
0
100
AcDbBlockEnd
  0
BLOCK
  5
36
330
35
100
AcDbEntity
  8
0
100
AcDbBlockBegin
  2
_OPEN90
 70
     0
 10
0.0
 20
0.0
 30
0.0
  3
_OPEN90
  1

  0
LINE
  5
37
330
35
100
AcDbEntity
  8
0
  6
BYBLOCK
 62
     0
370
    -2
100
AcDbLine
 10
-0.5
 20
0.5
 30
0.0
 11
0.0
 21
0.0
 31
0.0
  0
LINE
  5
38
330
35
100
AcDbEntity
  8
0
  6
BYBLOCK
 62
     0
370
    -2
100
AcDbLine
 10
0.0
 20
0.0
 30
0.0
 11
-0.5
 21
-0.5
 31
0.0
  0
LINE
  5
39
330
35
100
AcDbEntity
  8
0
  6
BYBLOCK
 62
     0
370
    -2
100
AcDbLine
 10
0.0
 20
0.0
 30
0.0
 11
-1.0
 21
0.0
 31
0.0
  0
ENDBLK
  5
3A
330
35
100
AcDbEntity
  8
0
100
AcDbBlockEnd
  0
BLOCK
  5
3C
330
3B
100
AcDbEntity
  8
0
100
AcDbBlockBegin
  2
_CLOSEDBLANK
 70
     0
 10
0.0
 20
0.0
 30
0.0
  3
_CLOSEDBLANK
  1

  0
LINE
  5
3D
330
3B
100
AcDbEntity
  8
0
  6
BYBLOCK
 62
     0
370
    -2
100
AcDbLine
 10
-1.0
 20
0.1666666666666666
 30
0.0
 11
0.0
 21
0.0
 31
0.0
  0
LINE
  5
3E
330
3B
100
AcDbEntity
  8
0
  6
BYBLOCK
 62
     0
370
    -2
100
AcDbLine
 10
0.0
 20
0.0
 30
0.0
 11
-1.0
 21
-0.1666666666666666
 31
0.0
  0
LINE
  5
3F
330
3B
100
AcDbEntity
  8
0
  6
BYBLOCK
 62
     0
370
    -2
100
AcDbLine
 10
-1.0
 20
0.1666666666666666
 30
0.0
 11
-1.0
 21
-0.1666666666666666
 31
0.0
  0
ENDBLK
  5
40
330
3B
100
AcDbEntity
  8
0
100
AcDbBlockEnd
  0
BLOCK
  5
42
330
41
100
AcDbEntity
  8
0
100
AcDbBlockBegin
  2
_DOTBLANK
 70
     0
 10
0.0
 20
0.0
 30
0.0
  3
_DOTBLANK
  1

  0
CIRCLE
  5
43
330
41
100
AcDbEntity
  8
0
  6
BYBLOCK
 62
     0
370
    -2
100
AcDbCircle
 10
0.0
 20
0.0
 30
0.0
 40
0.5
  0
LINE
  5
44
330
41
100
AcDbEntity
  8
0
  6
BYBLOCK
 62
     0
370
    -2
100
AcDbLine
 10
-0.5
 20
0.0
 30
0.0
 11
-1.0
 21
0.0
 31
0.0
  0
ENDBLK
  5
45
330
41
100
AcDbEntity
  8
0
100
AcDbBlockEnd
  0
ENDSEC
  0
SECTION
  2
ENTITIES
  0
MTEXT
  5
46
100
AcDbEntity
  8
A8
  6
CONTINUOUS
 62
3
100
AcDbMText
 10
9.999997526638502
 20
18.00000076076889
 30
0.000000000000000
 40
3.000000000000000
 41
0.000000000000000
 44
0.6739999771118164
 71
     7
 72
     1
  1
{\H0.94x;{TYPE No.TL-446SUS-H}}
 11
1.000000000000000
 21
0.000000000000000
 31
0.000000000000000
  7
STANDARD
  0
POINT
  5
47
100
AcDbEntity
  8
A0
  6
CONTINUOUS
 62
3
100
AcDbPoint
 10
9.999997526638502
 20
18.00000076076889
 30
0.000000000000000
  0
SPLINE
  5
48
100
AcDbEntity
  8
A1
  6
CONTINUOUS
 62
7
100
AcDbSpline
210
0.000000000000000
220
0.000000000000000
230
1.000000000000000
 70
     8
 71
     3
 72
    26
 73
    22
 74
     0
 42
1.000000000000000e-07
 43
1.000000000000000e-07
 12
-0.9838888127160317
 22
-0.1787814425333636
 32
0.000000000000000
 13
-0.07816024625481077
 23
-0.9969408086290059
 33
0.000000000000000
 40
0.000000000000000
 40
0.000000000000000
 40
0.000000000000000
 40
0.000000000000000
 40
0.006857315361441400
 40
0.1893837772975904
 40
0.3555815808752718
 40
0.5047543429817226
 40
0.6365747049223893
 40
0.7553997347630204
 40
0.9591433825033291
 40
1.187847038796337
 40
1.411382527805831
 40
1.610562802711652
 40
1.722112604113372
 40
1.869694424757182
 40
2.064294149965340
 40
2.312131652987229
 40
2.567113079451166
 40
2.714197485660478
 40
2.850140342097430
 40
2.973921655744800
 40
2.998082472843035
 40
2.998082472843035
 40
2.998082472843035
 40
2.998082472843035
 10
54.30410580808130
 20
139.2530993229180
 30
0.000000000000000
 10
54.30185686279150
 20
139.2526906693406
 30
0.000000000000000
 10
54.23978166322050
 20
139.2412189552738
 30
0.000000000000000
 10
54.12491340740730
 20
139.2095719054345
 30
0.000000000000000
 10
53.97287095236370
 20
139.1417626267859
 30
0.000000000000000
 10
53.84561560725910
 20
139.0633763433045
 30
0.000000000000000
 10
53.74103229456190
 20
138.9802960743067
 30
0.000000000000000
 10
53.63323836520620
 20
138.8735633324712
 30
0.000000000000000
 10
53.51970227661621
 20
138.7281443017098
 30
0.000000000000000
 10
53.41088919209209
 20
138.5377149810080
 30
0.000000000000000
 10
53.32582354658859
 20
138.3375461058153
 30
0.000000000000000
 10
53.26965809483828
 20
138.1684097933678
 30
0.000000000000000
 10
53.22820364787099
 20
138.0213523960692
 30
0.000000000000000
 10
53.19200611885960
 20
137.8744706212225
 30
0.000000000000000
 10
53.15192577342548
 20
137.6818779467708
 30
0.000000000000000
 10
53.11323875862700
 20
137.4525904023265
 30
0.000000000000000
 10
53.08430366794192
 20
137.2378630049315
 30
0.000000000000000
 10
53.06425696957609
 20
137.0596449669830
 30
0.000000000000000
 10
53.05100560288951
 20
136.9246871155722
 30
0.000000000000000
 10
53.04289533979442
 20
136.8304048343242
 30
0.000000000000000
 10
53.03898781710648
 20
136.7812458366699
 30
0.000000000000000
 10
53.03835834530178
 20
136.7732168684916
 30
0.000000000000000
  0
SPLINE
  5
49
100
AcDbEntity
  8
A1
  6
CONTINUOUS
 62
7
100
AcDbSpline
210
0.000000000000000
220
0.000000000000000
230
1.000000000000000
 70
     8
 71
     3
 72
     9
 73
     5
 74
     0
 42
1.000000000000000e-07
 43
1.000000000000000e-07
 12
0.9835281814803238
 22
-0.1807548511997084
 32
0.000000000000000
 13
0.9999285999815584
 23
-0.01194968350682757
 33
0.000000000000000
 40
0.000000000000000
 40
0.000000000000000
 40
0.000000000000000
 40
0.000000000000000
 40
0.05382782264765890
 40
0.1875910839655508
 40
0.1875910839655508
 40
0.1875910839655508
 40
0.1875910839655508
 10
54.29650493682120
 20
117.2897608285674
 30
0.000000000000000
 10
54.31415199699510
 20
117.2865176152097
 30
0.000000000000000
 10
54.37592285044690
 20
117.2767080390149
 30
0.000000000000000
 10
54.43849647340731
 20
117.2721912338644
 30
0.000000000000000
 10
54.48308104361350
 20
117.2716584243186
 30
0.000000000000000
  0
SPLINE
  5
4A
100
AcDbEntity
  8
A1
  6
CONTINUOUS
 62
7
100
AcDbSpline
210
0.000000000000000
220
0.000000000000000
230
1.000000000000000
 70
     8
 71
     3
 72
    26
 73
    22
 74
     0
 42
1.000000000000000e-07
 43
1.000000000000000e-07
 12
0.06875007341250239
 22
-0.9686256259569745
 32
0.000000000000000
 13
0.5965968942239215
 23
-0.1098720098152626
 33
0.000000000000000
 40
0.000000000000000
 40
0.000000000000000
 40
0.000000000000000
 40
0.000000000000000
 40
0.1106297512614040
 40
0.2285289051877872
 40
0.4115204228441802
 40
0.6351197640266848
 40
0.8768481167097131
 40
1.076375208280082
 40
1.261262715227740
 40
1.453165971204175
 40
1.648955642827517
 40
1.835843462433441
 40
1.982377493386921
 40
2.095832900774331
 40
2.182977144260423
 40
2.282080367331716
 40
2.406272031423872
 40
2.568012021222958
 40
2.770609852624172
 40
2.947245510010890
 40
3.082460921766090
 40
3.082460921766090
 40
3.082460921766090
 40
3.082460921766090
 10
53.03186753829322
 20
119.8557814774176
 30
0.000000000000000
 10
53.03440280613349
 20
119.8200618733959
 30
0.000000000000000
 10
53.04003745745020
 20
119.7454540579411
 30
0.000000000000000
 10
53.05006270926099
 20
119.6279819130612
 30
0.000000000000000
 10
53.06771365147380
 20
119.4458436694845
 30
0.000000000000000
 10
53.09396651169362
 20
119.2237908543537
 30
0.000000000000000
 10
53.13010060734290
 20
118.9847784621594
 30
0.000000000000000
 10
53.16620187117399
 20
118.7885445226373
 30
0.000000000000000
 10
53.20569066062600
 20
118.6079233009248
 30
0.000000000000000
 10
53.25438420701320
 20
118.4223005701115
 30
0.000000000000000
 10
53.31467728014740
 20
118.2360256634643
 30
0.000000000000000
 10
53.38511928963521
 20
118.0629217050567
 30
0.000000000000000
 10
53.45176649871041
 20
117.9324212385826
 30
0.000000000000000
 10
53.51082326575561
 20
117.8355479825642
 30
0.000000000000000
 10
53.56021843808750
 20
117.7637549736910
 30
0.000000000000000
 10
53.62129989930281
 20
117.6857132930394
 30
0.000000000000000
 10
53.70531844318298
 20
117.5942559056165
 30
0.000000000000000
 10
53.82735500472150
 20
117.4881102417952
 30
0.000000000000000
 10
53.99915535233701
 20
117.3807299742984
 30
0.000000000000000
 10
54.16429698296660
 20
117.3180530463788
 30
0.000000000000000
 10
54.26961523858640
 20
117.2947129582499
 30
0.000000000000000
 10
54.29650493682120
 20
117.2897608285674
 30
0.000000000000000
  0
SPLINE
  5
4B
100
AcDbEntity
  8
A1
  6
CONTINUOUS
 62
7
100
AcDbSpline
210
0.000000000000000
220
0.000000000000000
230
1.000000000000000
 70
     8
 71
     3
 72
    26
 73
    22
 74
     0
 42
1.000000000000000e-07
 43
1.000000000000000e-07
 12
0.4892595998555862
 22
0.8721382023209117
 32
0.000000000000000
 13
-0.9999984335458976
 23
-0.001770001677869004
 33
0.000000000000000
 40
0.000000000000000
 40
0.000000000000000
 40
0.000000000000000
 40
0.000000000000000
 40
0.1644311380449752
 40
0.3376594109891624
 40
0.4832156879073732
 40
0.6108840674187720
 40
0.7272393204749057
 40
0.8338827499875361
 40
0.9315295053630573
 40
1.021067496018657
 40
1.217941791301414
 40
1.292564954275456
 40
1.371690913004123
 40
1.459054954003288
 40
1.628917935842400
 40
1.732260258612299
 40
1.848322940637091
 40
1.977506364227179
 40
2.117806377139604
 40
2.267394818865030
 40
2.429577285250816
 40
2.429577285250816
 40
2.429577285250816
 40
2.429577285250816
 10
58.63678637765890
 20
137.5050166735064
 30
0.000000000000000
 10
58.66360288192680
 20
137.5528188992197
 30
0.000000000000000
 10
58.71531865890829
 20
137.6528332753602
 30
0.000000000000000
 10
58.78259857521630
 20
137.7993784783018
 30
0.000000000000000
 10
58.82971545966300
 20
137.9408964764282
 30
0.000000000000000
 10
58.85629281886140
 20
138.0683035741031
 30
0.000000000000000
 10
58.86692752503360
 20
138.1849390377953
 30
0.000000000000000
 10
58.86583038893500
 20
138.2919805448463
 30
0.000000000000000
 10
58.85548653625801
 20
138.3895249893172
 30
0.000000000000000
 10
58.83092334849950
 20
138.5152633063451
 30
0.000000000000000
 10
58.79197691797540
 20
138.6300597659682
 30
0.000000000000000
 10
58.74015652885300
 20
138.7348897207533
 30
0.000000000000000
 10
58.69909985829000
 20
138.8040959469748
 30
0.000000000000000
 10
58.63390107787260
 20
138.8954459390854
 30
0.000000000000000
 10
58.55168227768340
 20
138.9840293269808
 30
0.000000000000000
 10
58.45122935022010
 20
139.0664596411117
 30
0.000000000000000
 10
58.35362166063320
 20
139.1300058979546
 30
0.000000000000000
 10
58.23787725868660
 20
139.1866352932422
 30
0.000000000000000
 10
58.10537991982410
 20
139.2319620042927
 30
0.000000000000000
 10
57.95761529450049
 20
139.2634425325774
 30
0.000000000000000
 10
57.85349077184861
 20
139.2705639877585
 30
0.000000000000000
 10
57.79943003440381
 20
139.2704683000127
 30
0.000000000000000
  0
SPLINE
  5
4C
100
AcDbEntity
  8
A1
  6
CONTINUOUS
 62
7
100
AcDbSpline
210
0.000000000000000
220
0.000000000000000
230
1.000000000000000
 70
     8
 71
     3
 72
    25
 73
    21
 74
     0
 42
1.000000000000000e-07
 43
1.000000000000000e-07
 12
0.9999985913743785
 22
-0.001678467129750061
 32
0.000000000000000
 13
-0.4807391013863480
 23
0.8768636817655988
 33
0.000000000000000
 40
0.000000000000000
 40
0.000000000000000
 40
0.000000000000000
 40
0.000000000000000
 40
0.1448953323891772
 40
0.2796204692152956
 40
0.4065748709635540
 40
0.5752876435468208
 40
0.7182579996088014
 40
0.9818972222717577
 40
1.114217012938758
 40
1.246067053000136
 40
1.367639843070565
 40
1.475591546104074
 40
1.569937308392592
 40
1.614948181545980
 40
1.666845922443375
 40
1.766622357383626
 40
1.891078407534663
 40
2.046563214876870
 40
2.239317957225196
 40
2.424001828947655
 40
2.424001828947655
 40
2.424001828947655
 40
2.424001828947655
 10
57.79943003439950
 20
117.2715905502359
 30
0.000000000000000
 10
57.84772841049480
 20
117.2715094828850
 30
0.000000000000000
 10
57.94103865125759
 20
117.2769421349781
 30
0.000000000000000
 10
58.07481406738960
 20
117.3002839479042
 30
0.000000000000000
 10
58.21271419876820
 20
117.3410282817043
 30
0.000000000000000
 10
58.34577110283400
 20
117.4035892738568
 30
0.000000000000000
 10
58.50503032439270
 20
117.5111957982880
 30
0.000000000000000
 10
58.63357527057710
 20
117.6400187196886
 30
0.000000000000000
 10
58.73111121033150
 20
117.7869502775331
 30
0.000000000000000
 10
58.78759041506459
 20
117.9028925286486
 30
0.000000000000000
 10
58.82684538532011
 20
118.0170533296465
 30
0.000000000000000
 10
58.85076669126750
 20
118.1225128632105
 30
0.000000000000000
 10
58.86139199761910
 20
118.2043739276598
 30
0.000000000000000
 10
58.86549851455100
 20
118.2680095843987
 30
0.000000000000000
 10
58.86660931251770
 20
118.3335882766633
 30
0.000000000000000
 10
58.86106329120010
 20
118.4256338877334
 30
0.000000000000000
 10
58.83939633411570
 20
118.5506186993076
 30
0.000000000000000
 10
58.79450001498900
 20
118.7020473456660
 30
0.000000000000000
 10
58.72491120389260
 20
118.8657568392718
 30
0.000000000000000
 10
58.66880698049020
 20
118.9784581697218
 30
0.000000000000000
 10
58.63921206097940
 20
119.0324390296289
 30
0.000000000000000
  0
SPLINE
  5
4D
100
AcDbEntity
  8
A1
  6
CONTINUOUS
 62
7
100
AcDbSpline
210
0.000000000000000
220
0.000000000000000
230
1.000000000000000
 70
     8
 71
     3
 72
    23
 73
    19
 74
     0
 42
1.000000000000000e-07
 43
1.000000000000000e-07
 12
-0.002227406760766826
 22
0.9999975193259161
 32
0.000000000000000
 13
0.9210238684936485
 23
0.3895061407256435
 33
0.000000000000000
 40
0.000000000000000
 40
0.000000000000000
 40
0.000000000000000
 40
0.000000000000000
 40
0.1570652901844949
 40
0.2909133188516024
 40
0.4032949382062186
 40
0.4951011650295732
 40
0.5863690504375005
 40
0.6595129524031264
 40
0.7232422989218102
 40
0.7777323982393519
 40
0.8276037261214612
 40
0.8914996172168569
 40
0.9492091449709095
 40
1.014480436378493
 40
1.049726301127984
 40
1.083451317331114
 40
1.119786630662714
 40
1.157224731641599
 40
1.157224731641599
 40
1.157224731641599
 40
1.157224731641599
 10
53.76549618876782
 20
134.1769347389539
 30
0.000000000000000
 10
53.76537957267140
 20
134.2292897058061
 30
0.000000000000000
 10
53.77143763001208
 20
134.3263933876945
 30
0.000000000000000
 10
53.79571880168120
 20
134.4588836964928
 30
0.000000000000000
 10
53.82786064874090
 20
134.5670838804628
 30
0.000000000000000
 10
53.86446933628211
 20
134.6586295406170
 30
0.000000000000000
 10
53.90276461955290
 20
134.7350859582214
 30
0.000000000000000
 10
53.94195285567459
 20
134.8003289879658
 30
0.000000000000000
 10
53.97844336355930
 20
134.8527023027705
 30
0.000000000000000
 10
54.01300846588860
 20
134.8968213028853
 30
0.000000000000000
 10
54.04937036930969
 20
134.9395561772812
 30
0.000000000000000
 10
54.08976693374979
 20
134.9801089999747
 30
0.000000000000000
 10
54.13710640705479
 20
135.0206696521073
 30
0.000000000000000
 10
54.17977724984670
 20
135.0517995921144
 30
0.000000000000000
 10
54.21765931315390
 20
135.0756295412410
 30
0.000000000000000
 10
54.24793312241710
 20
135.0934262351557
 30
0.000000000000000
 10
54.27997486515179
 20
135.1095125604600
 30
0.000000000000000
 10
54.30238158256250
 20
135.1196621181371
 30
0.000000000000000
 10
54.31387537742670
 20
135.1245229082132
 30
0.000000000000000
  0
SPLINE
  5
4E
100
AcDbEntity
  8
A1
  6
CONTINUOUS
 62
7
100
AcDbSpline
210
0.000000000000000
220
0.000000000000000
230
1.000000000000000
 70
     8
 71
     3
 72
    29
 73
    25
 74
     0
 42
1.000000000000000e-07
 43
1.000000000000000e-07
 12
-0.9051177663418457
 22
-0.4251609448797353
 32
0.000000000000000
 13
-9.949063525027668e-05
 23
-0.9999999950507572
 33
0.000000000000000
 40
0.000000000000000
 40
0.000000000000000
 40
0.000000000000000
 40
0.000000000000000
 40
0.1460927006811436
 40
0.3278090967711870
 40
0.4637087980158742
 40
0.5561546439569653
 40
0.6151289471616680
 40
0.6750139554541039
 40
0.7390775898308168
 40
0.8639089231223238
 40
1.016468911504203
 40
1.198830317633688
 40
1.408880010068640
 40
1.570085302587296
 40
1.716068725086516
 40
1.846736082815726
 40
1.961814819174664
 40
2.080490608646554
 40
2.213486631267323
 40
2.379496867400658
 40
2.579752227913483
 40
2.815730660764938
 40
3.089250582854411
 40
3.402676969436129
 40
3.402676969436129
 40
3.402676969436129
 40
3.402676969436129
 10
53.44963068820601
 20
136.9283042242091
 30
0.000000000000000
 10
53.40555365523289
 20
136.9075999206552
 30
0.000000000000000
 10
53.30783174194550
 20
136.8586006472555
 30
0.000000000000000
 10
53.17362539853661
 20
136.7816890572647
 30
0.000000000000000
 10
53.05923288039209
 20
136.7067614095664
 30
0.000000000000000
 10
52.98138910182140
 20
136.6509382358626
 30
0.000000000000000
 10
52.92527033535259
 20
136.6083654223150
 30
0.000000000000000
 10
52.87748169528660
 20
136.5704878990334
 30
0.000000000000000
 10
52.81363605698112
 20
136.5175579346156
 30
0.000000000000000
 10
52.72845942919621
 20
136.4420046648831
 30
0.000000000000000
 10
52.61881213942251
 20
136.3348359874980
 30
0.000000000000000
 10
52.49637411200620
 20
136.2004832135058
 30
0.000000000000000
 10
52.38135854853521
 20
136.0559604361102
 30
0.000000000000000
 10
52.28257394032340
 20
135.9145571745570
 30
0.000000000000000
 10
52.20515173540030
 20
135.7907644374057
 30
0.000000000000000
 10
52.14103286436110
 20
135.6769685935921
 30
0.000000000000000
 10
52.08567711825162
 20
135.5688095675653
 30
0.000000000000000
 10
52.03412273449589
 20
135.4579287109967
 30
0.000000000000000
 10
51.98056843310010
 20
135.3293684287725
 30
0.000000000000000
 10
51.92395907541458
 20
135.1727888734655
 30
0.000000000000000
 10
51.86674863052729
 20
134.9802266501683
 30
0.000000000000000
 10
51.81506420539960
 20
134.7491292533549
 30
0.000000000000000
 10
51.77669852169151
 20
134.4772020940424
 30
0.000000000000000
 10
51.76717243741270
 20
134.2814102006326
 30
0.000000000000000
 10
51.76716204308260
 20
134.1769347389558
 30
0.000000000000000
  0
SPLINE
  5
4F
100
AcDbEntity
  8
A1
  6
CONTINUOUS
 62
7
100
AcDbSpline
210
0.000000000000000
220
0.000000000000000
230
1.000000000000000
 70
     8
 71
     3
 72
    29
 73
    25
 74
     0
 42
1.000000000000000e-07
 43
1.000000000000000e-07
 12
9.949063309022677e-05
 22
-0.9999999950507572
 32
0.000000000000000
 13
0.9052642175784058
 23
-0.4248490277382189
 33
0.000000000000000
 40
0.000000000000000
 40
0.000000000000000
 40
0.000000000000000
 40
0.000000000000000
 40
0.3134263925227945
 40
0.5869463152227163
 40
0.8229247485668119
 40
1.023180109523187
 40
1.189190346058718
 40
1.322186369034110
 40
1.468152208701991
 40
1.619333160575460
 40
1.794644792589105
 40
1.993764628855604
 40
2.203814322455961
 40
2.386175729793235
 40
2.538735719374447
 40
2.663567053801263
 40
2.719852568110019
 40
2.772934065210749
 40
2.822843396936587
 40
2.887381110922021
 40
2.984580778989296
 40
3.116268639380087
 40
3.281822493036743
 40
3.402754817696955
 40
3.402754817696955
 40
3.402754817696955
 40
3.402754817696955
 10
51.76716204307132
 20
122.3651241113247
 30
0.000000000000000
 10
51.76717243740139
 20
122.2606486476675
 30
0.000000000000000
 10
51.77669852572580
 20
122.0648567478718
 30
0.000000000000000
 10
51.81506419575998
 20
121.7929296024458
 30
0.000000000000000
 10
51.86674866042869
 20
121.5618321573275
 30
0.000000000000000
 10
51.92395899028059
 20
121.3692700729863
 30
0.000000000000000
 10
51.98056867270270
 20
121.2126901239851
 30
0.000000000000000
 10
52.03762107766152
 20
121.0757312844811
 30
0.000000000000000
 10
52.09866654572601
 20
120.9459349499888
 30
0.000000000000000
 10
52.17249653555029
 20
120.8067562338803
 30
0.000000000000000
 10
52.26284325494870
 20
120.6565284429949
 30
0.000000000000000
 10
52.37348541875462
 20
120.4959929882315
 30
0.000000000000000
 10
52.49637321953559
 20
120.3415763597502
 30
0.000000000000000
 10
52.61881236626220
 20
120.2072226897113
 30
0.000000000000000
 10
52.72845927704838
 20
120.1000542344770
 30
0.000000000000000
 10
52.81169606932888
 20
120.0262218843715
 30
0.000000000000000
 10
52.87172959037348
 20
119.9763123877835
 30
0.000000000000000
 10
52.91320909852441
 20
119.9431676628341
 30
0.000000000000000
 10
52.95746757534459
 20
119.9091097815504
 30
0.000000000000000
 10
53.01425751112628
 20
119.8672429776175
 30
0.000000000000000
 10
53.09461243168320
 20
119.8114405843860
 30
0.000000000000000
 10
53.20589694869781
 20
119.7413210006798
 30
0.000000000000000
 10
53.32762546502232
 20
119.6732436628632
 30
0.000000000000000
 10
53.41322464341999
 20
119.6308406010677
 30
0.000000000000000
 10
53.44971654550780
 20
119.6137146075497
 30
0.000000000000000
  0
SPLINE
  5
50
100
AcDbEntity
  8
A1
  6
CONTINUOUS
 62
7
100
AcDbSpline
210
0.000000000000000
220
0.000000000000000
230
1.000000000000000
 70
     8
 71
     3
 72
    22
 73
    18
 74
     0
 42
1.000000000000000e-07
 43
1.000000000000000e-07
 12
-0.9170033670079647
 22
0.3988794615961524
 32
0.000000000000000
 13
0.003531335095658505
 23
0.9999937648167361
 33
0.000000000000000
 40
0.000000000000000
 40
0.000000000000000
 40
0.000000000000000
 40
0.000000000000000
 40
0.03250056333221570
 40
0.06817724650067340
 40
0.09765924817054240
 40
0.1255495534100727
 40
0.1995544974736310
 40
0.2502807795691391
 40
0.2984716383933017
 40
0.3563176779148159
 40
0.4160249972352154
 40
0.4936255834044178
 40
0.6055180708367311
 40
0.7112556837947346
 40
0.8364958771264998
 40
0.9832978395597307
 40
1.155146480755687
 40
1.155146480755687
 40
1.155146480755687
 40
1.155146480755687
 10
54.31239920864760
 20
121.4182458587106
 30
0.000000000000000
 10
54.30246483331251
 20
121.4225671277784
 30
0.000000000000000
 10
54.28181681201711
 20
121.4320686781659
 30
0.000000000000000
 10
54.25269037720310
 20
121.4466422456128
 30
0.000000000000000
 10
54.22586279349760
 20
121.4622399365484
 30
0.000000000000000
 10
54.18891597659530
 20
121.4857530952251
 30
0.000000000000000
 10
54.14739346843469
 20
121.5152768800938
 30
0.000000000000000
 10
54.10324344112799
 20
121.5523909505113
 30
0.000000000000000
 10
54.06521643124049
 20
121.5882676045176
 30
0.000000000000000
 10
54.02739498125710
 20
121.6285961311797
 30
0.000000000000000
 10
53.98600303403909
 20
121.6788344929146
 30
0.000000000000000
 10
53.93782031901240
 20
121.7466002063083
 30
0.000000000000000
 10
53.88835801381691
 20
121.8319024709143
 30
0.000000000000000
 10
53.84110067475859
 20
121.9361491704331
 30
0.000000000000000
 10
53.80152985120679
 20
122.0560016318663
 30
0.000000000000000
 10
53.77246365662699
 20
122.2014470912450
 30
0.000000000000000
 10
53.76529390371058
 20
122.3078415880934
 30
0.000000000000000
 10
53.76549618875651
 20
122.3651241113228
 30
0.000000000000000
  0
ARC
  5
51
100
AcDbEntity
  8
A1
  6
CONTINUOUS
 62
7
100
AcDbCircle
 10
57.99612130506861
 20
137.8384743440938
 30
0.000000000000000
 40
0.7222354051923220
100
AcDbArc
 50
297.2699833627754
 51
332.4724091446871
  0
ARC
  5
52
100
AcDbEntity
  8
A1
  6
CONTINUOUS
 62
7
100
AcDbCircle
 10
57.99600993815110
 20
118.7034445530609
 30
0.000000000000000
 40
0.7224108309046269
100
AcDbArc
 50
27.17226904836111
 51
62.72725142504095
  0
LINE
  5
53
100
AcDbEntity
  8
A1
  6
CONTINUOUS
 62
7
100
AcDbLine
 10
54.49523794582803
 20
139.2704682999826
 30
0.000000000000000
 11
54.30410580808132
 21
139.2530993229180
 31
0.000000000000000
  0
LINE
  5
54
100
AcDbEntity
  8
A1
  6
CONTINUOUS
 62
7
100
AcDbLine
 10
54.48308104361352
 20
117.2716584243186
 30
0.000000000000000
 11
54.49523794582092
 21
117.2715905502262
 31
0.000000000000000
  0
LINE
  5
55
100
AcDbEntity
  8
A1
  6
CONTINUOUS
 62
7
100
AcDbLine
 10
57.78937482251442
 20
139.2710294250898
 30
0.000000000000000
 11
54.49154240977941
 21
139.2710294250637
 31
0.000000000000000
  0
LINE
  5
56
100
AcDbEntity
  8
A1
  6
CONTINUOUS
 62
7
100
AcDbLine
 10
57.78869867528459
 20
139.2710291953355
 30
0.000000000000000
 11
57.79916278908679
 21
139.2709801830916
 31
0.000000000000000
  0
LINE
  5
57
100
AcDbEntity
  8
A1
  6
CONTINUOUS
 62
7
100
AcDbLine
 10
54.49154240977221
 20
117.2710294251452
 30
0.000000000000000
 11
57.78937482250740
 21
117.2710294251588
 31
0.000000000000000
  0
LINE
  5
58
100
AcDbEntity
  8
A1
  6
CONTINUOUS
 62
7
100
AcDbLine
 10
57.78869867527738
 20
117.2710296549131
 30
0.000000000000000
 11
57.79900351197809
 21
117.2710770787084
 31
0.000000000000000
  0
LINE
  5
59
100
AcDbEntity
  8
A1
  6
CONTINUOUS
 62
7
100
AcDbLine
 10
57.76892714153719
 20
139.2708149520519
 30
0.000000000000000
 11
57.78869867528460
 21
139.2710291953354
 31
0.000000000000000
  0
LINE
  5
5A
100
AcDbEntity
  8
A1
  6
CONTINUOUS
 62
7
100
AcDbLine
 10
57.76892714152989
 20
117.2712438981964
 30
0.000000000000000
 11
57.78869867527739
 21
117.2710296549131
 31
0.000000000000000
  0
LINE
  5
5B
100
AcDbEntity
  8
A1
  6
CONTINUOUS
 62
7
100
AcDbLine
 10
57.26471866789229
 20
138.8988523217780
 30
0.000000000000000
 11
53.43536984416719
 21
136.9212759978384
 31
0.000000000000000
  0
LINE
  5
5C
100
AcDbEntity
  8
A1
  6
CONTINUOUS
 62
7
100
AcDbLine
 10
54.33246210559661
 20
135.1336061275496
 30
0.000000000000000
 11
58.32668260736529
 21
137.1963265169676
 31
0.000000000000000
  0
LINE
  5
5D
100
AcDbEntity
  8
A1
  6
CONTINUOUS
 62
7
100
AcDbLine
 10
58.32668260735089
 20
119.3457323332818
 30
0.000000000000000
 11
54.33246210558582
 21
121.4084527227214
 31
0.000000000000000
  0
LINE
  5
5E
100
AcDbEntity
  8
A1
  6
CONTINUOUS
 62
7
100
AcDbLine
 10
53.43536984414833
 20
119.6207828524366
 30
0.000000000000000
 11
57.26471866786921
 21
117.6432065284768
 31
0.000000000000000
  0
LINE
  5
5F
100
AcDbEntity
  8
A1
  6
CONTINUOUS
 62
7
100
AcDbLine
 10
53.76632911590691
 20
122.3651241113238
 30
0.000000000000000
 11
53.76632911591421
 21
134.1769347389549
 31
0.000000000000000
  0
LINE
  5
60
100
AcDbEntity
  8
A1
  6
CONTINUOUS
 62
7
100
AcDbLine
 10
51.76632911591421
 20
134.1769347389561
 30
0.000000000000000
 11
51.76632911590691
 21
122.3651241113250
 31
0.000000000000000
  0
ELLIPSE
  5
61
100
AcDbEntity
  8
A1
  6
CONTINUOUS
 62
7
100
AcDbEllipse
 10
59.01162772341370
 20
121.7710294251404
 30
0.000000000000000
 11
0.000000000000000
 21
-0.9999999999999990
 31
0.000000000000000
210
0.000000000000000
220
0.000000000000000
230
1.000000000000000
 40
0.9883722765862540
 41
0.000000000000000
 42
1.570796326794897
  0
ELLIPSE
  5
62
100
AcDbEntity
  8
A1
  6
CONTINUOUS
 62
7
100
AcDbEllipse
 10
59.01162772341370
 20
134.7710294251406
 30
0.000000000000000
 11
0.000000000000000
 21
-0.9999999999999990
 31
0.000000000000000
210
0.000000000000000
220
0.000000000000000
230
1.000000000000000
 40
0.9883722765862540
 41
1.570796326794897
 42
3.141592653589793
  0
ARC
  5
63
100
AcDbEntity
  8
A1
  6
CONTINUOUS
 62
7
100
AcDbCircle
 10
54.99999999999999
 20
123.5835294251404
 30
0.000000000000000
 40
3.312500000000000
100
AcDbArc
 50
290.1637022881364
 51
301.8907918018461
  0
LINE
  5
64
100
AcDbEntity
  8
A1
  6
CONTINUOUS
 62
7
100
AcDbLine
 10
60.00000000000000
 20
133.2710294251406
 30
0.000000000000000
 11
60.00000000000000
 21
134.7710294251406
 31
0.000000000000000
  0
LINE
  5
65
100
AcDbEntity
  8
A1
  6
CONTINUOUS
 62
7
100
AcDbLine
 10
60.00000000000000
 20
121.7710294251406
 30
0.000000000000000
 11
60.00000000000000
 21
123.2710294251404
 31
0.000000000000000
  0
LINE
  5
66
100
AcDbEntity
  8
A1
  6
CONTINUOUS
 62
7
100
AcDbLine
 10
59.01162772341372
 20
120.7710294251404
 30
0.000000000000000
 11
59.00000000000001
 21
120.7710294251405
 31
0.000000000000000
  0
LINE
  5
67
100
AcDbEntity
  8
A1
  6
CONTINUOUS
 62
7
100
AcDbLine
 10
60.00000000000000
 20
121.7710294251406
 30
0.000000000000000
 11
59.00000000000000
 21
121.7710294251406
 31
0.000000000000000
  0
LINE
  5
68
100
AcDbEntity
  8
A1
  6
CONTINUOUS
 62
7
100
AcDbLine
 10
60.00000000000000
 20
134.7710294251406
 30
0.000000000000000
 11
59.00000000000000
 21
134.7710294251406
 31
0.000000000000000
  0
LINE
  5
69
100
AcDbEntity
  8
A1
  6
CONTINUOUS
 62
7
100
AcDbLine
 10
59.01162772341371
 20
135.7710294251406
 30
0.000000000000000
 11
59.00000000000000
 21
135.7710294251406
 31
0.000000000000000
  0
LINE
  5
6A
100
AcDbEntity
  8
A1
  6
CONTINUOUS
 62
7
100
AcDbLine
 10
58.98804813795481
 20
122.0210294251389
 30
0.000000000000000
 11
58.98804813795481
 21
121.7710294251404
 31
0.000000000000000
  0
LINE
  5
6B
100
AcDbEntity
  8
A1
  6
CONTINUOUS
 62
7
100
AcDbLine
 10
58.98804813795481
 20
123.2710294251404
 30
0.000000000000000
 11
58.98804813795481
 21
123.0210294251389
 31
0.000000000000000
  0
LINE
  5
6C
100
AcDbEntity
  8
A1
  6
CONTINUOUS
 62
7
100
AcDbLine
 10
58.98804813795481
 20
133.5210294251389
 30
0.000000000000000
 11
58.98804813795481
 21
133.2710294251406
 31
0.000000000000000
  0
LINE
  5
6D
100
AcDbEntity
  8
A1
  6
CONTINUOUS
 62
7
100
AcDbLine
 10
58.98804813795481
 20
134.7710294251406
 30
0.000000000000000
 11
58.98804813795481
 21
134.5210294251389
 31
0.000000000000000
  0
LINE
  5
6E
100
AcDbEntity
  8
A1
  6
CONTINUOUS
 62
7
100
AcDbLine
 10
56.25000000000000
 20
134.5210294251389
 30
0.000000000000000
 11
56.25000000000000
 21
134.7710294251406
 31
0.000000000000000
  0
LINE
  5
6F
100
AcDbEntity
  8
A1
  6
CONTINUOUS
 62
7
100
AcDbLine
 10
56.25000000000000
 20
133.2710294251406
 30
0.000000000000000
 11
56.25000000000000
 21
133.5210294251389
 31
0.000000000000000
  0
LINE
  5
70
100
AcDbEntity
  8
A1
  6
CONTINUOUS
 62
7
100
AcDbLine
 10
56.25000000000000
 20
123.0210294251389
 30
0.000000000000000
 11
56.25000000000000
 21
123.2710294251404
 31
0.000000000000000
  0
LINE
  5
71
100
AcDbEntity
  8
A1
  6
CONTINUOUS
 62
7
100
AcDbLine
 10
56.25000000000000
 20
121.7710294251404
 30
0.000000000000000
 11
56.25000000000000
 21
122.0210294251389
 31
0.000000000000000
  0
LINE
  5
72
100
AcDbEntity
  8
A1
  6
CONTINUOUS
 62
7
100
AcDbLine
 10
53.15532002782021
 20
136.7710294251406
 30
0.000000000000000
 11
53.00000000000000
 21
136.7710294251406
 31
0.000000000000000
  0
LINE
  5
73
100
AcDbEntity
  8
A1
  6
CONTINUOUS
 62
7
100
AcDbLine
 10
53.00000000000000
 20
136.7710294251406
 30
0.000000000000000
 11
53.00000000000000
 21
136.6636537488356
 31
0.000000000000000
  0
LINE
  5
74
100
AcDbEntity
  8
A1
  6
CONTINUOUS
 62
7
100
AcDbLine
 10
57.00000000000000
 20
135.7710294251406
 30
0.000000000000000
 11
57.00000000000000
 21
136.5111927685211
 31
0.000000000000000
  0
LINE
  5
75
100
AcDbEntity
  8
A1
  6
CONTINUOUS
 62
7
100
AcDbLine
 10
56.10726212038981
 20
133.2710294251406
 30
0.000000000000000
 11
60.10726212038981
 21
133.2710294251406
 31
0.000000000000000
  0
LINE
  5
76
100
AcDbEntity
  8
A1
  6
CONTINUOUS
 62
7
100
AcDbLine
 10
60.10726212038981
 20
123.2710294251404
 30
0.000000000000000
 11
60.10726212038981
 21
133.2710294251406
 31
0.000000000000000
  0
LINE
  5
77
100
AcDbEntity
  8
A1
  6
CONTINUOUS
 62
7
100
AcDbLine
 10
60.10726212038981
 20
123.2710294251404
 30
0.000000000000000
 11
56.10726212038981
 21
123.2710294251404
 31
0.000000000000000
  0
LINE
  5
78
100
AcDbEntity
  8
A1
  6
CONTINUOUS
 62
7
100
AcDbLine
 10
56.10726212038981
 20
133.2710294251406
 30
0.000000000000000
 11
53.81057103677861
 21
133.2710294251406
 31
0.000000000000000
  0
LINE
  5
79
100
AcDbEntity
  8
A1
  6
CONTINUOUS
 62
7
100
AcDbLine
 10
53.81057103677861
 20
133.2710294251406
 30
0.000000000000000
 11
53.81057103677861
 21
123.2710294251404
 31
0.000000000000000
  0
LINE
  5
7A
100
AcDbEntity
  8
A1
  6
CONTINUOUS
 62
7
100
AcDbLine
 10
56.10726212038981
 20
123.2710294251404
 30
0.000000000000000
 11
53.81057103677861
 21
123.2710294251404
 31
0.000000000000000
  0
LINE
  5
7B
100
AcDbEntity
  8
A1
  6
CONTINUOUS
 62
7
100
AcDbLine
 10
51.81546698684610
 20
134.7710294251406
 30
0.000000000000000
 11
51.00000000000000
 21
134.7710294251406
 31
0.000000000000000
  0
LINE
  5
7C
100
AcDbEntity
  8
A1
  6
CONTINUOUS
 62
7
100
AcDbLine
 10
59.00000000000000
 20
134.7710294251406
 30
0.000000000000000
 11
53.92500783159639
 21
134.7710294251406
 31
0.000000000000000
  0
LINE
  5
7D
100
AcDbEntity
  8
A1
  6
CONTINUOUS
 62
7
100
AcDbLine
 10
52.18852722387871
 20
135.7710294251406
 30
0.000000000000000
 11
51.00000000000000
 21
135.7710294251406
 31
0.000000000000000
  0
LINE
  5
7E
100
AcDbEntity
  8
A1
  6
CONTINUOUS
 62
7
100
AcDbLine
 10
59.00000000000000
 20
135.7710294251406
 30
0.000000000000000
 11
55.56675891897180
 21
135.7710294251406
 31
0.000000000000000
  0
LINE
  5
7F
100
AcDbEntity
  8
A1
  6
CONTINUOUS
 62
7
100
AcDbLine
 10
59.00000000000000
 20
135.7710294251406
 30
0.000000000000000
 11
59.00000000000000
 21
134.7710294251406
 31
0.000000000000000
  0
LINE
  5
80
100
AcDbEntity
  8
A1
  6
CONTINUOUS
 62
7
100
AcDbLine
 10
51.00000000000000
 20
135.7710294251406
 30
0.000000000000000
 11
51.00000000000000
 21
134.7710294251406
 31
0.000000000000000
  0
LINE
  5
81
100
AcDbEntity
  8
A1
  6
CONTINUOUS
 62
7
100
AcDbLine
 10
52.18935693841371
 20
120.7710294251406
 30
0.000000000000000
 11
51.00000000000000
 21
120.7710294251406
 31
0.000000000000000
  0
LINE
  5
82
100
AcDbEntity
  8
A1
  6
CONTINUOUS
 62
7
100
AcDbLine
 10
59.00000000000000
 20
120.7710294251406
 30
0.000000000000000
 11
55.56675891892750
 21
120.7710294251406
 31
0.000000000000000
  0
LINE
  5
83
100
AcDbEntity
  8
A1
  6
CONTINUOUS
 62
7
100
AcDbLine
 10
59.00000000000000
 20
121.7710294251406
 30
0.000000000000000
 11
59.00000000000000
 21
120.7710294251406
 31
0.000000000000000
  0
LINE
  5
84
100
AcDbEntity
  8
A1
  6
CONTINUOUS
 62
7
100
AcDbLine
 10
51.81546698683371
 20
121.7710294251406
 30
0.000000000000000
 11
51.00000000000000
 21
121.7710294251406
 31
0.000000000000000
  0
LINE
  5
85
100
AcDbEntity
  8
A1
  6
CONTINUOUS
 62
7
100
AcDbLine
 10
59.00000000000000
 20
121.7710294251406
 30
0.000000000000000
 11
53.92563134022109
 21
121.7710294251406
 31
0.000000000000000
  0
LINE
  5
86
100
AcDbEntity
  8
A1
  6
CONTINUOUS
 62
7
100
AcDbLine
 10
51.00000000000000
 20
121.7710294251406
 30
0.000000000000000
 11
51.00000000000000
 21
120.7710294251406
 31
0.000000000000000
  0
ARC
  5
87
100
AcDbEntity
  8
A1
  6
CONTINUOUS
 62
7
100
AcDbCircle
 10
50.99999999999999
 20
133.5210294251389
 30
0.000000000000000
 40
1.000000000000000
100
AcDbArc
 50
90.00000000000000
 51
180.0000000000000
  0
ARC
  5
88
100
AcDbEntity
  8
A1
  6
CONTINUOUS
 62
7
100
AcDbCircle
 10
50.99999999999999
 20
123.0210294251389
 30
0.000000000000000
 40
1.000000000000000
100
AcDbArc
 50
180.0000000000000
 51
270.0000000000000
  0
LINE
  5
89
100
AcDbEntity
  8
A1
  6
CONTINUOUS
 62
7
100
AcDbLine
 10
59.00000000000000
 20
122.0210294251389
 30
0.000000000000000
 11
59.00000000000000
 21
123.0210294251389
 31
0.000000000000000
  0
LINE
  5
8A
100
AcDbEntity
  8
A1
  6
CONTINUOUS
 62
7
100
AcDbLine
 10
59.00000000000000
 20
122.0210294251389
 30
0.000000000000000
 11
55.00000000000000
 21
122.0210294251389
 31
0.000000000000000
  0
LINE
  5
8B
100
AcDbEntity
  8
A1
  6
CONTINUOUS
 62
7
100
AcDbLine
 10
59.00000000000000
 20
123.0210294251389
 30
0.000000000000000
 11
55.00000000000000
 21
123.0210294251389
 31
0.000000000000000
  0
LINE
  5
8C
100
AcDbEntity
  8
A1
  6
CONTINUOUS
 62
7
100
AcDbLine
 10
59.00000000000000
 20
133.5210294251389
 30
0.000000000000000
 11
59.00000000000000
 21
134.5210294251389
 31
0.000000000000000
  0
LINE
  5
8D
100
AcDbEntity
  8
A1
  6
CONTINUOUS
 62
7
100
AcDbLine
 10
59.00000000000000
 20
133.5210294251389
 30
0.000000000000000
 11
55.00000000000000
 21
133.5210294251389
 31
0.000000000000000
  0
LINE
  5
8E
100
AcDbEntity
  8
A1
  6
CONTINUOUS
 62
7
100
AcDbLine
 10
59.00000000000000
 20
134.5210294251389
 30
0.000000000000000
 11
55.00000000000000
 21
134.5210294251389
 31
0.000000000000000
  0
LINE
  5
8F
100
AcDbEntity
  8
A1
  6
CONTINUOUS
 62
7
100
AcDbLine
 10
51.78681311961830
 20
134.5210294251389
 30
0.000000000000000
 11
51.00000000000000
 21
134.5210294251389
 31
0.000000000000000
  0
LINE
  5
90
100
AcDbEntity
  8
A1
  6
CONTINUOUS
 62
7
100
AcDbLine
 10
55.00000000000000
 20
134.5210294251389
 30
0.000000000000000
 11
53.81612456628972
 21
134.5210294251389
 31
0.000000000000000
  0
LINE
  5
91
100
AcDbEntity
  8
A1
  6
CONTINUOUS
 62
7
100
AcDbLine
 10
50.00000000000000
 20
133.5210294251389
 30
0.000000000000000
 11
50.00000000000000
 21
123.0210294251389
 31
0.000000000000000
  0
LINE
  5
92
100
AcDbEntity
  8
A1
  6
CONTINUOUS
 62
7
100
AcDbLine
 10
51.78681311960679
 20
122.0210294251389
 30
0.000000000000000
 11
51.00000000000000
 21
122.0210294251389
 31
0.000000000000000
  0
LINE
  5
93
100
AcDbEntity
  8
A1
  6
CONTINUOUS
 62
7
100
AcDbLine
 10
55.00000000000000
 20
122.0210294251389
 30
0.000000000000000
 11
53.81555750223282
 21
122.0210294251389
 31
0.000000000000000
  0
LINE
  5
94
100
AcDbEntity
  8
A1
  6
CONTINUOUS
 62
7
100
AcDbLine
 10
53.76632911590730
 20
123.0210294251389
 30
0.000000000000000
 11
55.00000000000000
 21
123.0210294251389
 31
0.000000000000000
  0
LINE
  5
95
100
AcDbEntity
  8
A1
  6
CONTINUOUS
 62
7
100
AcDbLine
 10
51.00000000000000
 20
123.0210294251389
 30
0.000000000000000
 11
51.76632911590730
 21
123.0210294251389
 31
0.000000000000000
  0
LINE
  5
96
100
AcDbEntity
  8
A1
  6
CONTINUOUS
 62
7
100
AcDbLine
 10
51.00000000000000
 20
133.5210294251389
 30
0.000000000000000
 11
51.00000000000000
 21
123.0210294251389
 31
0.000000000000000
  0
LINE
  5
97
100
AcDbEntity
  8
A1
  6
CONTINUOUS
 62
7
100
AcDbLine
 10
51.76632911591381
 20
133.5210294251389
 30
0.000000000000000
 11
51.00000000000000
 21
133.5210294251389
 31
0.000000000000000
  0
LINE
  5
98
100
AcDbEntity
  8
A1
  6
CONTINUOUS
 62
7
100
AcDbLine
 10
55.00000000000000
 20
133.5210294251389
 30
0.000000000000000
 11
53.76632911591381
 21
133.5210294251389
 31
0.000000000000000
  0
SPLINE
  5
99
100
AcDbEntity
  8
A1
  6
CONTINUOUS
 62
7
100
AcDbSpline
210
0.000000000000000
220
0.000000000000000
230
1.000000000000000
 70
     8
 71
     3
 72
    29
 73
    25
 74
     0
 42
1.000000000000000e-07
 43
1.000000000000000e-07
 12
-0.9999999985037675
 22
5.470234555104980e-05
 32
0.000000000000000
 13
-0.3859509897881708
 23
-0.9225192862381846
 33
0.000000000000000
 40
0.000000000000000
 40
0.000000000000000
 40
0.000000000000000
 40
0.000000000000000
 40
0.3057427510902191
 40
0.5725233477401186
 40
0.8027996984168682
 40
0.9983179612732571
 40
1.160388082793490
 40
1.290033856228879
 40
1.403924032802088
 40
1.494380486986559
 40
1.596159177351386
 40
1.709585680431001
 40
1.834441459450211
 40
1.998872890961999
 40
2.147811515021260
 40
2.279530531312882
 40
2.408284041145937
 40
2.508565184162709
 40
2.631481470561634
 40
2.776865155170938
 40
2.944613381568554
 40
3.135005973476306
 40
3.353195057763644
 40
3.529851925666113
 40
3.529851925666113
 40
3.529851925666113
 40
3.529851925666113
 10
85.20135680656404
 20
97.27075762306868
 30
0.000000000000000
 10
85.09944255635311
 20
97.27076319801722
 30
0.000000000000000
 10
84.90844805711905
 20
97.26114867021133
 30
0.000000000000000
 10
84.64335280224422
 20
97.22229042578721
 30
0.000000000000000
 10
84.41825418523931
 20
97.17001606580561
 30
0.000000000000000
 10
84.23085775049312
 20
97.11227202782217
 30
0.000000000000000
 10
84.07868196230554
 20
97.05530229585816
 30
0.000000000000000
 10
83.95446436690179
 20
97.00181788775430
 30
0.000000000000000
 10
83.85404500458853
 20
96.95368760306320
 30
0.000000000000000
 10
83.76355642262503
 20
96.90649360036514
 30
0.000000000000000
 10
83.67474638230803
 20
96.85651618392237
 30
0.000000000000000
 10
83.57798613829625
 20
96.79741674661369
 30
0.000000000000000
 10
83.46628143861822
 20
96.72290625547788
 30
0.000000000000000
 10
83.34873994250331
 20
96.63604717985703
 30
0.000000000000000
 10
83.23414984964539
 20
96.54171394866694
 30
0.000000000000000
 10
83.13294719141932
 20
96.45009500842684
 30
0.000000000000000
 10
83.04738124731936
 20
96.36554777624463
 30
0.000000000000000
 10
82.96714923065944
 20
96.27992708731153
 30
0.000000000000000
 10
82.88653679616580
 20
96.18716423993865
 30
0.000000000000000
 10
82.79618895150618
 20
96.07323115674933
 30
0.000000000000000
 10
82.69894262462655
 20
95.93632691448423
 30
0.000000000000000
 10
82.59716357981644
 20
95.77322642643841
 30
0.000000000000000
 10
82.50605309223606
 20
95.60053137411106
 30
0.000000000000000
 10
82.45178299859747
 20
95.48054877073855
 30
0.000000000000000
 10
82.42905603425753
 20
95.42622564817640
 30
0.000000000000000
  0
SPLINE
  5
9A
100
AcDbEntity
  8
A1
  6
CONTINUOUS
 62
7
100
AcDbSpline
210
0.000000000000000
220
0.000000000000000
230
1.000000000000000
 70
     8
 71
     3
 72
    22
 73
    18
 74
     0
 42
1.000000000000000e-07
 43
1.000000000000000e-07
 12
0.3716017108363303
 22
0.9283922492686543
 32
0.000000000000000
 13
0.9999989148375334
 23
-0.001473201550197700
 33
0.000000000000000
 40
0.000000000000000
 40
0.000000000000000
 40
0.000000000000000
 40
0.000000000000000
 40
0.06138903277101180
 40
0.1311501289851955
 40
0.2014544286216424
 40
0.2672588837033429
 40
0.3284171008969615
 40
0.3852595952124267
 40
0.4392010997102175
 40
0.4905411553964540
 40
0.5550109271346524
 40
0.6154411194785847
 40
0.6997300346835380
 40
0.7881364205975834
 40
0.8974301092091107
 40
1.028122254872521
 40
1.182375129621385
 40
1.182375129621385
 40
1.182375129621385
 40
1.182375129621385
 10
84.27291367066387
 20
94.65450138885220
 30
0.000000000000000
 10
84.28051776053196
 20
94.67349908959045
 30
0.000000000000000
 10
84.29816503532240
 20
94.71355124926063
 30
0.000000000000000
 10
84.33027185909741
 20
94.77259757717769
 30
0.000000000000000
 10
84.36663106192231
 20
94.83085064543903
 30
0.000000000000000
 10
84.40530838473865
 20
94.88409304428015
 30
0.000000000000000
 10
84.44439609117713
 20
94.93132155354843
 30
0.000000000000000
 10
84.48352512000160
 20
94.97324279302435
 30
0.000000000000000
 10
84.52252839893960
 20
95.01068621931356
 30
0.000000000000000
 10
84.56534799392107
 20
95.04770996680958
 30
0.000000000000000
 10
84.61195382576575
 20
95.08354677943979
 30
0.000000000000000
 10
84.66983427210221
 20
95.12249806660640
 30
0.000000000000000
 10
84.73722616176318
 20
95.16137211995365
 30
0.000000000000000
 10
84.82248767260387
 20
95.20122273210430
 30
0.000000000000000
 10
84.92601922399491
 20
95.23749290588964
 30
0.000000000000000
 10
85.05478049000510
 20
95.26547003483645
 30
0.000000000000000
 10
85.14993923744147
 20
95.27249922590821
 30
0.000000000000000
 10
85.20135680656129
 20
95.27242347738348
 30
0.000000000000000
  0
SPLINE
  5
9B
100
AcDbEntity
  8
A1
  6
CONTINUOUS
 62
7
100
AcDbSpline
210
0.000000000000000
220
0.000000000000000
230
1.000000000000000
 70
     8
 71
     3
 72
    24
 73
    20
 74
     0
 42
1.000000000000000e-07
 43
1.000000000000000e-07
 12
0.9999994377026269
 22
0.001060468586501884
 32
0.000000000000000
 13
0.3725029073420956
 23
-0.9280310253561765
 33
0.000000000000000
 40
0.000000000000000
 40
0.000000000000000
 40
0.000000000000000
 40
0.000000000000000
 40
0.1411325883621153
 40
0.2571339114524271
 40
0.3493896329581884
 40
0.4179618909722869
 40
0.4725820696837901
 40
0.5188927556911900
 40
0.5736960878944972
 40
0.6373920440534668
 40
0.7118573339768556
 40
0.8045751785028917
 40
0.8503499460857837
 40
0.8998876411266633
 40
0.9532930462599875
 40
1.010665095955259
 40
1.070355833073980
 40
1.131510391887612
 40
1.182931800984416
 40
1.182931800984416
 40
1.182931800984416
 40
1.182931800984416
 10
97.01316743419237
 20
95.27242347736731
 30
0.000000000000000
 10
97.06021160386025
 20
95.27247336625948
 30
0.000000000000000
 10
97.14605685120021
 20
95.26664983371032
 30
0.000000000000000
 10
97.26057140663606
 20
95.24414508298347
 30
0.000000000000000
 10
97.34886543118084
 20
95.21684991893719
 30
0.000000000000000
 10
97.41558082102976
 20
95.19011991592910
 30
0.000000000000000
 10
97.46665627335040
 20
95.16589393530299
 30
0.000000000000000
 10
97.51238343389097
 20
95.14128303969423
 30
0.000000000000000
 10
97.55941469711692
 20
95.11284199311424
 30
0.000000000000000
 10
97.61252024255448
 20
95.07647464340181
 30
0.000000000000000
 10
97.67287102552561
 20
95.02860979699255
 30
0.000000000000000
 10
97.72474623729170
 20
94.97999063107798
 30
0.000000000000000
 10
97.76743742069361
 20
94.93407723395296
 30
0.000000000000000
 10
97.79942274611888
 20
94.89617628700927
 30
0.000000000000000
 10
97.83175700013703
 20
94.85359685554442
 30
0.000000000000000
 10
97.86351231009914
 20
94.80644041357144
 30
0.000000000000000
 10
97.89403596105082
 20
94.75544034469743
 30
0.000000000000000
 10
97.92041721460798
 20
94.70438586608958
 30
0.000000000000000
 10
97.93540507521033
 20
94.66995547793610
 30
0.000000000000000
 10
97.94178995000640
 20
94.65404859026631
 30
0.000000000000000
  0
SPLINE
  5
9C
100
AcDbEntity
  8
A1
  6
CONTINUOUS
 62
7
100
AcDbSpline
210
0.000000000000000
220
0.000000000000000
230
1.000000000000000
 70
     8
 71
     3
 72
    24
 73
    20
 74
     0
 42
1.000000000000000e-07
 43
1.000000000000000e-07
 12
-0.3860021089042220
 22
0.9224978980580545
 32
0.000000000000000
 13
-1.000000000000000
 23
4.764999630424427e-07
 33
0.000000000000000
 40
0.000000000000000
 40
0.000000000000000
 40
0.000000000000000
 40
0.000000000000000
 40
0.1942669306102816
 40
0.4234202590681115
 40
0.6179952405402727
 40
0.7836926898222920
 40
0.9205287059729639
 40
1.222004925408572
 40
1.505047185487826
 40
1.639224209037156
 40
1.768543468765706
 40
1.910633498695550
 40
2.108316820751396
 40
2.273100423094284
 40
2.465180284674152
 40
2.685485168362602
 40
2.935160609679264
 40
3.215727224358927
 40
3.529341366711955
 40
3.529341366711955
 40
3.529341366711955
 40
3.529341366711955
 10
99.78539560830306
 20
95.42639651490660
 30
0.000000000000000
 10
99.76039979333443
 20
95.48613345995665
 30
0.000000000000000
 10
99.70181145055138
 20
95.61464045212836
 30
0.000000000000000
 10
99.60422662148109
 20
95.79629344158937
 30
0.000000000000000
 10
99.49834158040673
 20
95.96197431955881
 30
0.000000000000000
 10
99.40089860557046
 20
96.09610352330438
 30
0.000000000000000
 10
99.27435766794167
 20
96.25277611200354
 30
0.000000000000000
 10
99.10964348061519
 20
96.42856502635024
 30
0.000000000000000
 10
98.92918734743539
 20
96.58670577802238
 30
0.000000000000000
 10
98.78410643709222
 20
96.69697415336364
 30
0.000000000000000
 10
98.67296382044829
 20
96.77402603004154
 30
0.000000000000000
 10
98.54050558900539
 20
96.85722171589387
 30
0.000000000000000
 10
98.39312757873485
 20
96.93852720876308
 30
0.000000000000000
 10
98.22612077958496
 20
97.01795786883721
 30
0.000000000000000
 10
98.04768265500626
 20
97.09023719066897
 30
0.000000000000000
 10
97.83778193648411
 20
97.15901168180946
 30
0.000000000000000
 10
97.59441072871964
 20
97.21823856835491
 30
0.000000000000000
 10
97.31593171777327
 20
97.26051014019450
 30
0.000000000000000
 10
97.11770548164610
 20
97.27075757324010
 30
0.000000000000000
 10
97.01316743419510
 20
97.27075762305250
 30
0.000000000000000
  0
SPLINE
  5
9D
100
AcDbEntity
  8
A1
  6
CONTINUOUS
 62
7
100
AcDbSpline
210
0.000000000000000
220
0.000000000000000
230
1.000000000000000
 70
     8
 71
     3
 72
    24
 73
    20
 74
     0
 42
1.000000000000000e-07
 43
1.000000000000000e-07
 12
0.001103537472204152
 22
-0.9999993911022784
 32
0.000000000000000
 13
0.9999992696997424
 23
-0.001208552749517366
 33
0.000000000000000
 40
0.000000000000000
 40
0.000000000000000
 40
0.000000000000000
 40
0.000000000000000
 40
0.4156850894805704
 40
0.7973060074744973
 40
1.145427448110851
 40
1.460282180669151
 40
1.832706815799801
 40
2.187133351167724
 40
2.532197900568427
 40
2.785134666960272
 40
3.032789996115012
 40
3.302244343817215
 40
3.627636055215268
 40
3.875894607163533
 40
4.149274731035765
 40
4.447849299728531
 40
4.771720852708785
 40
5.121111145273241
 40
5.496540212080790
 40
5.496540212080790
 40
5.496540212080790
 40
5.496540212080790
 10
80.10782966835062
 20
72.00435413221786
 30
0.000000000000000
 10
80.10798257637491
 20
71.86579252009423
 30
0.000000000000000
 10
80.12399445377926
 20
71.59973823174909
 30
0.000000000000000
 10
80.19099647419226
 20
71.22312477872845
 30
0.000000000000000
 10
80.28702320315857
 20
70.88783791740352
 30
0.000000000000000
 10
80.41261328652560
 20
70.56591137349326
 30
0.000000000000000
 10
80.56960586445364
 20
70.25545338494271
 30
0.000000000000000
 10
80.76294037783146
 20
69.95427394293156
 30
0.000000000000000
 10
80.96061541346067
 20
69.70514493917636
 30
0.000000000000000
 10
81.15454261331766
 20
69.50022795345339
 30
0.000000000000000
 10
81.34451757027732
 20
69.32726955636215
 30
0.000000000000000
 10
81.56604411780633
 20
69.15421958780570
 30
0.000000000000000
 10
81.80178830291491
 20
69.00044262273103
 30
0.000000000000000
 10
82.05013298403826
 20
68.86568045107684
 30
0.000000000000000
 10
82.29955444076820
 20
68.75304254247231
 30
0.000000000000000
 10
82.58096441710865
 20
68.65213677598317
 30
0.000000000000000
 10
82.89472599693454
 20
68.56973784558268
 30
0.000000000000000
 10
83.24030117575352
 20
68.51347650195569
 30
0.000000000000000
 10
83.48211918948961
 20
68.50015306889006
 30
0.000000000000000
 10
83.60726212036681
 20
68.50000182694640
 30
0.000000000000000
  0
SPLINE
  5
9E
100
AcDbEntity
  8
A1
  6
CONTINUOUS
 62
7
100
AcDbSpline
210
0.000000000000000
220
0.000000000000000
230
1.000000000000000
 70
     8
 71
     3
 72
    19
 73
    15
 74
     0
 42
1.000000000000000e-07
 43
1.000000000000000e-07
 12
-0.9999962728863920
 22
0.002730240569235320
 32
0.000000000000000
 13
-0.002616414152953439
 23
0.9999965771827419
 33
0.000000000000000
 40
0.000000000000000
 40
0.000000000000000
 40
0.000000000000000
 40
0.000000000000000
 40
0.2467553234580192
 40
0.4664929321925325
 40
0.6595848946530146
 40
0.8260981303354159
 40
1.006719066781592
 40
1.153800122965981
 40
1.301187544564018
 40
1.525357130535573
 40
1.760533303832478
 40
1.939531539089159
 40
2.138207419406623
 40
2.357132309467440
 40
2.357132309467440
 40
2.357132309467440
 40
2.357132309467440
 10
83.60726212036685
 20
70.49999817305041
 30
0.000000000000000
 10
83.52501065244256
 20
70.50022274018201
 30
0.000000000000000
 10
83.36919668760301
 20
70.51325136168722
 30
0.000000000000000
 10
83.15502877855197
 20
70.56615566283151
 30
0.000000000000000
 10
82.97499146653514
 20
70.63743973579432
 30
0.000000000000000
 10
82.81622129028757
 20
70.72312996871042
 30
0.000000000000000
 10
82.68081166515789
 20
70.81768309851023
 30
0.000000000000000
 10
82.56152966890009
 20
70.92224485625835
 30
0.000000000000000
 10
82.44357639155176
 20
71.04901593621844
 30
0.000000000000000
 10
82.32508676134653
 20
71.21388246410530
 30
0.000000000000000
 10
82.22784043832498
 20
71.40410795690053
 30
0.000000000000000
 10
82.15991021761589
 20
71.59722263104948
 30
0.000000000000000
 10
82.11725186285811
 20
71.79202753766208
 30
0.000000000000000
 10
82.10688550514445
 20
71.93144122826803
 30
0.000000000000000
 10
82.10669457241751
 20
72.00441594184167
 30
0.000000000000000
  0
SPLINE
  5
9F
100
AcDbEntity
  8
A1
  6
CONTINUOUS
 62
7
100
AcDbSpline
210
0.000000000000000
220
0.000000000000000
230
1.000000000000000
 70
     8
 71
     3
 72
    19
 73
    15
 74
     0
 42
1.000000000000000e-07
 43
1.000000000000000e-07
 12
-0.002616414155227176
 22
-0.9999965771828556
 32
0.000000000000000
 13
-0.9999962728861647
 23
-0.002730240566506836
 33
0.000000000000000
 40
0.000000000000000
 40
0.000000000000000
 40
0.000000000000000
 40
0.000000000000000
 40
0.2189248900607987
 40
0.4176007703782185
 40
0.5965990056348260
 40
0.8317751789316378
 40
1.055944764903083
 40
1.203332186501031
 40
1.350413242685349
 40
1.531034179131429
 40
1.697547414813766
 40
1.890639377274174
 40
2.110376986008624
 40
2.357132309466601
 40
2.357132309466601
 40
2.357132309466601
 40
2.357132309466601
 10
100.1078296682691
 20
72.00441594181663
 30
0.000000000000000
 10
100.1076387355420
 20
71.93144122824299
 30
0.000000000000000
 10
100.0972723778280
 20
71.79202753763710
 30
0.000000000000000
 10
100.0546140230698
 20
71.59722263102464
 30
0.000000000000000
 10
99.98668380236028
 20
71.40410795687592
 30
0.000000000000000
 10
99.88943747933826
 20
71.21388246408100
 30
0.000000000000000
 10
99.77094784913271
 20
71.04901593619454
 30
0.000000000000000
 10
99.65299457178411
 20
70.92224485623481
 30
0.000000000000000
 10
99.53371257552614
 20
70.81768309848701
 30
0.000000000000000
 10
99.39830295039623
 20
70.72312996868766
 30
0.000000000000000
 10
99.23953277414854
 20
70.63743973577195
 30
0.000000000000000
 10
99.05949546213154
 20
70.56615566280971
 30
0.000000000000000
 10
98.84532755308042
 20
70.51325136166602
 30
0.000000000000000
 10
98.68951358824087
 20
70.50022274016123
 30
0.000000000000000
 10
98.60726212031661
 20
70.49999817302987
 30
0.000000000000000
  0
SPLINE
  5
A0
100
AcDbEntity
  8
A1
  6
CONTINUOUS
 62
7
100
AcDbSpline
210
0.000000000000000
220
0.000000000000000
230
1.000000000000000
 70
     8
 71
     3
 72
    25
 73
    21
 74
     0
 42
1.000000000000000e-07
 43
1.000000000000000e-07
 12
0.9999992697000835
 22
0.001208552746788882
 32
0.000000000000000
 13
0.001103537474364202
 23
0.9999993911023921
 33
0.000000000000000
 40
0.000000000000000
 40
0.000000000000000
 40
0.000000000000000
 40
0.000000000000000
 40
0.3754290661354159
 40
0.7248193586052802
 40
1.048690911510596
 40
1.347265480131035
 40
1.620645603928320
 40
1.868904155796068
 40
2.194295867059874
 40
2.463750214611678
 40
2.711405543578544
 40
2.964342309705173
 40
3.222323246297700
 40
3.485524657396228
 40
3.754082103240769
 40
4.036460225736799
 40
4.351314958212499
 40
4.699436398765728
 40
5.081057316657732
 40
5.496742405463822
 40
5.496742405463822
 40
5.496742405463822
 40
5.496742405463822
 10
98.60726212031115
 20
68.50000182692584
 30
0.000000000000000
 10
98.73240505096433
 20
68.50015306886888
 30
0.000000000000000
 10
98.97422306440133
 20
68.51347650106342
 30
0.000000000000000
 10
99.31979824327972
 20
68.56973784532678
 30
0.000000000000000
 10
99.63355982194348
 20
68.65213677395229
 30
0.000000000000000
 10
99.91496980184705
 20
68.75304254585959
 30
0.000000000000000
 10
100.1643912466778
 20
68.86568043654205
 30
0.000000000000000
 10
100.4127359712327
 20
69.00044267372354
 30
0.000000000000000
 10
100.6484799604073
 20
69.15421934334714
 30
0.000000000000000
 10
100.8700071376523
 20
69.32727026156411
 30
0.000000000000000
 10
101.0599800118610
 20
69.50022551782419
 30
0.000000000000000
 10
101.2339449263124
 20
69.68405250756857
 30
0.000000000000000
 10
101.3970364716101
 20
69.88432454299962
 30
0.000000000000000
 10
101.5476692791107
 20
70.10051716549182
 30
0.000000000000000
 10
101.6857149548461
 20
70.33446369144340
 30
0.000000000000000
 10
101.8128251526483
 20
70.59389398239458
 30
0.000000000000000
 10
101.9275035657634
 20
70.88784248697453
 30
0.000000000000000
 10
102.0235269842026
 20
71.22312336428575
 30
0.000000000000000
 10
102.0905300422466
 20
71.59973869246122
 30
0.000000000000000
 10
102.1065416643116
 20
71.86579252028926
 30
0.000000000000000
 10
102.1066945723360
 20
72.00435413218807
 30
0.000000000000000
  0
SPLINE
  5
A1
100
AcDbEntity
  8
A1
  6
CONTINUOUS
 62
7
100
AcDbSpline
210
0.000000000000000
220
0.000000000000000
230
1.000000000000000
 70
     8
 71
     3
 72
    14
 73
    10
 74
     0
 42
1.000000000000000e-07
 43
1.000000000000000e-07
 12
-0.3790003564549806
 22
-0.9253965257153141
 32
0.000000000000000
 13
0.02106988258287856
 23
-0.9997780053827228
 33
0.000000000000000
 40
0.000000000000000
 40
0.000000000000000
 40
0.000000000000000
 40
0.000000000000000
 40
0.1240209284482805
 40
0.3709316443400851
 40
0.6292796973222340
 40
0.9048525309994523
 40
1.196639468722773
 40
1.506425082855197
 40
1.759784203196719
 40
1.759784203196719
 40
1.759784203196719
 40
1.759784203196719
 10
80.40933222896372
 20
90.53401653692882
 30
0.000000000000000
 10
80.39366423693379
 20
90.49576035816148
 30
0.000000000000000
 10
80.34852055143999
 20
90.38063682671142
 30
0.000000000000000
 10
80.28026961039615
 20
90.18214482538531
 30
0.000000000000000
 10
80.21201306214471
 20
89.93077261519571
 30
0.000000000000000
 10
80.15770728636228
 20
89.66075340830466
 30
0.000000000000000
 10
80.11985402915651
 20
89.37051292311224
 30
0.000000000000000
 10
80.10673921352856
 20
89.08560878948896
 30
0.000000000000000
 10
80.10605025267070
 20
88.89785359332549
 30
0.000000000000000
 10
80.10782966830966
 20
88.81341930133195
 30
0.000000000000000
  0
SPLINE
  5
A2
100
AcDbEntity
  8
A1
  6
CONTINUOUS
 62
7
100
AcDbSpline
210
0.000000000000000
220
0.000000000000000
230
1.000000000000000
 70
     8
 71
     3
 72
    14
 73
    10
 74
     0
 42
1.000000000000000e-07
 43
1.000000000000000e-07
 12
-0.03127152114643650
 22
0.9995109263863924
 32
0.000000000000000
 13
0.3797709162518004
 23
0.9250805646906883
 33
0.000000000000000
 40
0.000000000000000
 40
0.000000000000000
 40
0.000000000000000
 40
0.000000000000000
 40
0.2307892114181416
 40
0.3814370638745530
 40
0.5264148663512764
 40
0.6630334274547326
 40
0.7916037830741446
 40
0.9059396742765232
 40
0.9637215492142239
 40
0.9637215492142239
 40
0.9637215492142239
 40
0.9637215492142239
 10
82.10669457248599
 20
88.81347097949003
 30
0.000000000000000
 10
82.10428886258424
 20
88.89036309232486
 30
0.000000000000000
 10
82.10490643538714
 20
89.01757697532034
 30
0.000000000000000
 10
82.11283528902246
 20
89.19297306130329
 30
0.000000000000000
 10
82.13154728113831
 20
89.33599998185176
 30
0.000000000000000
 10
82.15843003488474
 20
89.47015483713173
 30
0.000000000000000
 10
82.19180897573149
 20
89.59226421447326
 30
0.000000000000000
 10
82.22352098725868
 20
89.68740961626409
 30
0.000000000000000
 10
82.24447692875771
 20
89.74083185254588
 30
0.000000000000000
 10
82.25179155395365
 20
89.75864948237799
 30
0.000000000000000
  0
SPLINE
  5
A3
100
AcDbEntity
  8
A1
  6
CONTINUOUS
 62
7
100
AcDbSpline
210
0.000000000000000
220
0.000000000000000
230
1.000000000000000
 70
     8
 71
     3
 72
    15
 73
    11
 74
     0
 42
1.000000000000000e-07
 43
1.000000000000000e-07
 12
0.3797709162499814
 22
-0.9250805646915978
 32
0.000000000000000
 13
-0.01825163838907429
 23
-0.9998334249744403
 33
0.000000000000000
 40
0.000000000000000
 40
0.000000000000000
 40
0.000000000000000
 40
0.000000000000000
 40
0.05778198046118380
 40
0.1721179154368100
 40
0.3006881792744472
 40
0.4093412236793347
 40
0.5232646007642595
 40
0.6428034168678657
 40
0.7688941923313067
 40
0.9637469015225618
 40
0.9637469015225618
 40
0.9637469015225618
 40
0.9637469015225618
 10
99.96273268677496
 20
89.75864948235446
 30
0.000000000000000
 10
99.97004732532911
 20
89.74083181998310
 30
0.000000000000000
 10
99.99100258401099
 20
89.68740942238824
 30
0.000000000000000
 10
100.0227192063361
 20
89.59226442384602
 30
0.000000000000000
 10
100.0536188371268
 20
89.47915099434150
 30
0.000000000000000
 10
100.0775287055971
 20
89.36450344546321
 30
0.000000000000000
 10
100.0944668276042
 20
89.25168040776435
 30
0.000000000000000
 10
100.1057056526840
 20
89.13225455993276
 30
0.000000000000000
 10
100.1085099014625
 20
88.98539473004755
 30
0.000000000000000
 10
100.1090151286361
 20
88.87841106333047
 30
0.000000000000000
 10
100.1078296682403
 20
88.81347097946505
 30
0.000000000000000
  0
SPLINE
  5
A4
100
AcDbEntity
  8
A1
  6
CONTINUOUS
 62
7
100
AcDbSpline
210
0.000000000000000
220
0.000000000000000
230
1.000000000000000
 70
     8
 71
     3
 72
    14
 73
    10
 74
     0
 42
1.000000000000000e-07
 43
1.000000000000000e-07
 12
0.02917186967317775
 22
0.9995744104464848
 32
0.000000000000000
 13
-0.3795405489418044
 23
0.9251751032716129
 33
0.000000000000000
 40
0.000000000000000
 40
0.000000000000000
 40
0.000000000000000
 40
0.000000000000000
 40
0.3599452450646569
 40
0.7593258287707093
 40
1.130375018724148
 40
1.338372673470068
 40
1.539854704822165
 40
1.723112205020267
 40
1.754724834772747
 40
1.754724834772747
 40
1.754724834772747
 40
1.754724834772747
 10
102.1066945724167
 20
88.81341930130213
 30
0.000000000000000
 10
102.1101946643428
 20
88.93334998667831
 30
0.000000000000000
 10
102.1075293767091
 20
89.18668717718941
 30
0.000000000000000
 10
102.0750367630813
 20
89.56261953709352
 30
0.000000000000000
 10
102.0138802243001
 20
89.88353034390681
 30
0.000000000000000
 10
101.9474019125165
 20
90.13517659669904
 30
0.000000000000000
 10
101.8864065463427
 20
90.32319388000658
 30
0.000000000000000
 10
101.8379942447316
 20
90.45331126727024
 30
0.000000000000000
 10
101.8110732364934
 20
90.51968352154609
 30
0.000000000000000
 10
101.8070738115435
 20
90.52943259421139
 30
0.000000000000000
  0
SPLINE
  5
A5
100
AcDbEntity
  8
A10
  6
PHANTOM
 62
3
100
AcDbSpline
210
0.000000000000000
220
0.000000000000000
230
1.000000000000000
 70
     8
 71
     3
 72
     8
 73
     4
 74
     0
 42
1.000000000000000e-07
 43
1.000000000000000e-07
 12
0.01454214901241357
 22
-0.9680259882215978
 32
0.000000000000000
 13
0.7093347042018650
 23
-0.5815516158463652
 33
0.000000000000000
 40
0.000000000000000
 40
0.000000000000000
 40
0.000000000000000
 40
0.000000000000000
 40
0.04658260975899785
 40
0.04658260975899785
 40
0.04658260975899785
 40
0.04658260975899785
 10
80.10726212054693
 20
72.00438156258812
 30
0.000000000000000
 10
80.10748792429779
 20
71.98935050363949
 30
0.000000000000000
 10
80.11668823949161
 20
71.97469134025459
 30
0.000000000000000
 10
80.12770246006305
 20
71.96566127626269
 30
0.000000000000000
  0
SPLINE
  5
A6
100
AcDbEntity
  8
A10
  6
PHANTOM
 62
3
100
AcDbSpline
210
0.000000000000000
220
0.000000000000000
230
1.000000000000000
 70
     8
 71
     3
 72
     8
 73
     4
 74
     0
 42
1.000000000000000e-07
 43
1.000000000000000e-07
 12
-0.01454214903333195
 22
-0.9680259882252358
 32
0.000000000000000
 13
-0.7093347042027744
 23
-0.5815516158390892
 33
0.000000000000000
 40
0.000000000000000
 40
0.000000000000000
 40
0.000000000000000
 40
0.000000000000000
 40
0.04658260975943322
 40
0.04658260975943322
 40
0.04658260975943322
 40
0.04658260975943322
 10
102.1072621201397
 20
72.00438156255836
 30
0.000000000000000
 10
102.1070363163885
 20
71.98935050360953
 30
0.000000000000000
 10
102.0978360011947
 20
71.97469134022447
 30
0.000000000000000
 10
102.0868217806231
 20
71.96566127623259
 30
0.000000000000000
  0
SPLINE
  5
A7
100
AcDbEntity
  8
A1
  6
CONTINUOUS
 62
7
100
AcDbSpline
210
0.000000000000000
220
0.000000000000000
230
1.000000000000000
 70
     8
 71
     3
 72
     9
 73
     5
 74
     0
 42
1.000000000000000e-07
 43
1.000000000000000e-07
 12
-0.7411750104324710
 22
-0.6713118529505664
 32
0.000000000000000
 13
-0.3828716512834944
 23
-0.9238015472183179
 33
0.000000000000000
 40
0.000000000000000
 40
0.000000000000000
 40
0.000000000000000
 40
0.000000000000000
 40
0.06035940383256920
 40
0.08387465878056040
 40
0.08387465878056040
 40
0.08387465878056040
 40
0.08387465878056040
 10
80.45469557202325
 20
90.59662689559877
 30
0.000000000000000
 10
80.43978327810150
 20
90.58312023452217
 30
0.000000000000000
 10
80.42171940636017
 20
90.56095147077599
 30
0.000000000000000
 10
80.40946514834768
 20
90.53576766436612
 30
0.000000000000000
 10
80.40646404018358
 20
90.52852652139805
 30
0.000000000000000
  0
SPLINE
  5
A8
100
AcDbEntity
  8
A1
  6
CONTINUOUS
 62
7
100
AcDbSpline
210
0.000000000000000
220
0.000000000000000
230
1.000000000000000
 70
     8
 71
     3
 72
     9
 73
     5
 74
     0
 42
1.000000000000000e-07
 43
1.000000000000000e-07
 12
0.7411750104320163
 22
-0.6713118529514759
 32
0.000000000000000
 13
0.3828716512816754
 23
-0.9238015472201369
 33
0.000000000000000
 40
0.000000000000000
 40
0.000000000000000
 40
0.000000000000000
 40
0.000000000000000
 40
0.06035940383272250
 40
0.08387465878169270
 40
0.08387465878169270
 40
0.08387465878169270
 40
0.08387465878169270
 10
101.7598286687076
 20
90.59662689556959
 30
0.000000000000000
 10
101.7747409626294
 20
90.58312023449292
 30
0.000000000000000
 10
101.7928048343710
 20
90.56095147074649
 30
0.000000000000000
 10
101.8050590923836
 20
90.53576766433625
 30
0.000000000000000
 10
101.8080602005478
 20
90.52852652136787
 30
0.000000000000000
  0
LINE
  5
A9
100
AcDbEntity
  8
A1
  6
CONTINUOUS
 62
7
100
AcDbLine
 10
85.20135680656263
 20
95.27159055022607
 30
0.000000000000000
 11
97.01316743419366
 21
95.27159055021737
 31
0.000000000000000
  0
LINE
  5
AA
100
AcDbEntity
  8
A1
  6
CONTINUOUS
 62
7
100
AcDbLine
 10
97.01316743419514
 20
97.27159055021737
 30
0.000000000000000
 11
85.20135680656409
 21
97.27159055022607
 31
0.000000000000000
  0
LINE
  5
AB
100
AcDbEntity
  8
A1
  6
CONTINUOUS
 62
7
100
AcDbLine
 10
82.43007234104445
 20
95.42991648123221
 30
0.000000000000000
 11
82.42661925398517
 21
95.42182975639695
 31
0.000000000000000
  0
LINE
  5
AC
100
AcDbEntity
  8
A1
  6
CONTINUOUS
 62
7
100
AcDbLine
 10
99.78442145053251
 20
95.42998556158578
 30
0.000000000000000
 11
99.78790498676733
 21
95.42182975637189
 31
0.000000000000000
  0
LINE
  5
AD
100
AcDbEntity
  8
A1
  6
CONTINUOUS
 62
7
100
AcDbLine
 10
82.10726212038408
 20
72.00438503702952
 30
0.000000000000000
 11
82.10726212039768
 21
88.81495161181638
 31
0.000000000000000
  0
LINE
  5
AE
100
AcDbEntity
  8
A1
  6
CONTINUOUS
 62
7
100
AcDbLine
 10
80.10726212039768
 20
88.81482791386861
 30
0.000000000000000
 11
80.10726212038408
 21
72.00438503703114
 31
0.000000000000000
  0
LINE
  5
AF
100
AcDbEntity
  8
A1
  6
CONTINUOUS
 62
7
100
AcDbLine
 10
80.10726235015198
 20
88.81490256252921
 30
0.000000000000000
 11
80.12897709112895
 21
88.78119522790936
 31
0.000000000000000
  0
LINE
  5
B0
100
AcDbEntity
  8
A1
  6
CONTINUOUS
 62
7
100
AcDbLine
 10
102.1072621203026
 20
72.00438503700138
 30
0.000000000000000
 11
102.1072621203287
 21
88.81482791383880
 31
0.000000000000000
  0
LINE
  5
B1
100
AcDbEntity
  8
A1
  6
CONTINUOUS
 62
7
100
AcDbLine
 10
100.1072621203287
 20
88.81495161179139
 30
0.000000000000000
 11
100.1072621203026
 21
72.00438503700450
 31
0.000000000000000
  0
LINE
  5
B2
100
AcDbEntity
  8
A1
  6
CONTINUOUS
 62
7
100
AcDbLine
 10
102.1072618905743
 20
88.81490256249936
 30
0.000000000000000
 11
102.0855471495969
 21
88.78119522787927
 31
0.000000000000000
  0
LINE
  5
B3
100
AcDbEntity
  8
A1
  6
CONTINUOUS
 62
7
100
AcDbLine
 10
82.25399792100879
 20
89.76261146417448
 30
0.000000000000000
 11
84.27514226059171
 21
94.65830989236856
 31
0.000000000000000
  0
LINE
  5
B4
100
AcDbEntity
  8
A1
  6
CONTINUOUS
 62
7
100
AcDbLine
 10
82.42653881709316
 20
95.42163507008361
 30
0.000000000000000
 11
80.40657660911889
 21
90.52880004938845
 31
0.000000000000000
  0
LINE
  5
B5
100
AcDbEntity
  8
A1
  6
CONTINUOUS
 62
7
100
AcDbLine
 10
84.27518383501086
 20
94.65841063697246
 30
0.000000000000000
 11
84.28249023444359
 21
94.67756048208865
 31
0.000000000000000
  0
LINE
  5
B6
100
AcDbEntity
  8
A1
  6
CONTINUOUS
 62
7
100
AcDbLine
 10
99.77583629290993
 20
95.44815169085101
 30
0.000000000000000
 11
99.78442145053251
 21
95.42998556158578
 31
0.000000000000000
  0
LINE
  5
B7
100
AcDbEntity
  8
A1
  6
CONTINUOUS
 62
7
100
AcDbLine
 10
101.8079476316125
 20
90.52880004935827
 30
0.000000000000000
 11
99.78798542365926
 21
95.42163507005858
 31
0.000000000000000
  0
LINE
  5
B8
100
AcDbEntity
  8
A1
  6
CONTINUOUS
 62
7
100
AcDbLine
 10
97.93938198015756
 20
94.65830989235116
 30
0.000000000000000
 11
99.96052631971972
 21
89.76261146415112
 31
0.000000000000000
  0
LINE
  5
B9
100
AcDbEntity
  8
A1
  6
CONTINUOUS
 62
7
100
AcDbLine
 10
97.93934040573845
 20
94.65841063695501
 30
0.000000000000000
 11
97.93203400630580
 21
94.67756048207129
 31
0.000000000000000
  0
ELLIPSE
  5
BA
100
AcDbEntity
  8
A1
  6
CONTINUOUS
 62
7
100
AcDbEllipse
 10
84.60726212037935
 20
76.99821110963600
 30
0.000000000000000
 11
0.9999999999999989
 21
0.000000000000000
 31
0.000000000000000
210
0.000000000000000
220
0.000000000000000
230
1.000000000000000
 40
0.1520581096359502
 41
3.141592653589793
 42
4.712388980384690
  0
ELLIPSE
  5
BB
100
AcDbEntity
  8
A1
  6
CONTINUOUS
 62
7
100
AcDbEllipse
 10
97.60726212037945
 20
76.99821110963600
 30
0.000000000000000
 11
0.9999999999999989
 21
0.000000000000000
 31
0.000000000000000
210
0.000000000000000
220
0.000000000000000
230
1.000000000000000
 40
0.1520581096359502
 41
4.712388980384690
 42
0.000000000000000
  0
ARC
  5
BC
100
AcDbEntity
  8
A1
  6
CONTINUOUS
 62
7
100
AcDbCircle
 10
86.41976212037935
 20
79.50000000000003
 30
0.000000000000000
 40
3.312500000000000
100
AcDbArc
 50
148.1092081981543
 51
211.8907918018464
  0
ARC
  5
BD
100
AcDbEntity
  8
A1
  6
CONTINUOUS
 62
7
100
AcDbCircle
 10
87.19355477355397
 20
51.99999999999999
 30
0.000000000000000
 40
2.000000000000161
100
AcDbArc
 50
240.5947402380184
 51
270.0000000000000
  0
ARC
  5
BE
100
AcDbEntity
  8
A1
  6
CONTINUOUS
 62
7
100
AcDbCircle
 10
95.02097050601337
 20
51.99999999999999
 30
0.000000000000000
 40
2.000000000000091
100
AcDbArc
 50
270.0000000000000
 51
299.4052597619714
  0
ARC
  5
BF
100
AcDbEntity
  8
A1
  6
CONTINUOUS
 62
7
100
AcDbCircle
 10
87.19355477355397
 20
51.99999999999999
 30
0.000000000000000
 40
2.000000000000161
100
AcDbArc
 50
195.3722390686647
 51
240.5947402380184
  0
ARC
  5
C0
100
AcDbEntity
  8
A1
  6
CONTINUOUS
 62
7
100
AcDbCircle
 10
95.02097050601337
 20
51.99999999999999
 30
0.000000000000000
 40
2.000000000000091
100
AcDbArc
 50
299.4052597619714
 51
344.6277701079766
  0
LINE
  5
C1
100
AcDbEntity
  8
A1
  6
CONTINUOUS
 62
7
100
AcDbLine
 10
84.85726212037781
 20
80.75000000000000
 30
0.000000000000000
 11
84.60726212037935
 21
80.75000000000000
 31
0.000000000000000
  0
LINE
  5
C2
100
AcDbEntity
  8
A1
  6
CONTINUOUS
 62
7
100
AcDbLine
 10
86.10726212037933
 20
80.75000000000000
 30
0.000000000000000
 11
85.85726212037781
 21
80.75000000000000
 31
0.000000000000000
  0
LINE
  5
C3
100
AcDbEntity
  8
A1
  6
CONTINUOUS
 62
7
100
AcDbLine
 10
96.35726212037781
 20
80.75000000000000
 30
0.000000000000000
 11
96.10726212037945
 21
80.75000000000000
 31
0.000000000000000
  0
LINE
  5
C4
100
AcDbEntity
  8
A1
  6
CONTINUOUS
 62
7
100
AcDbLine
 10
97.60726212037945
 20
80.75000000000000
 30
0.000000000000000
 11
97.35726212037781
 21
80.75000000000000
 31
0.000000000000000
  0
LINE
  5
C5
100
AcDbEntity
  8
A1
  6
CONTINUOUS
 62
7
100
AcDbLine
 10
97.35726212037781
 20
78.25000000000000
 30
0.000000000000000
 11
97.60726212037945
 21
78.25000000000000
 31
0.000000000000000
  0
LINE
  5
C6
100
AcDbEntity
  8
A1
  6
CONTINUOUS
 62
7
100
AcDbLine
 10
96.10726212037945
 20
78.25000000000000
 30
0.000000000000000
 11
96.35726212037781
 21
78.25000000000000
 31
0.000000000000000
  0
LINE
  5
C7
100
AcDbEntity
  8
A1
  6
CONTINUOUS
 62
7
100
AcDbLine
 10
85.85726212037781
 20
78.25000000000000
 30
0.000000000000000
 11
86.10726212037933
 21
78.25000000000000
 31
0.000000000000000
  0
LINE
  5
C8
100
AcDbEntity
  8
A1
  6
CONTINUOUS
 62
7
100
AcDbLine
 10
84.60726212037935
 20
78.25000000000000
 30
0.000000000000000
 11
84.85726212037781
 21
78.25000000000000
 31
0.000000000000000
  0
LINE
  5
C9
100
AcDbEntity
  8
A1
  6
CONTINUOUS
 62
7
100
AcDbLine
 10
99.60726212037945
 20
81.50000000000000
 30
0.000000000000000
 11
98.60726212037945
 21
81.50000000000000
 31
0.000000000000000
  0
LINE
  5
CA
100
AcDbEntity
  8
A1
  6
CONTINUOUS
 62
7
100
AcDbLine
 10
98.60726212037945
 20
77.50000000000000
 30
0.000000000000000
 11
99.60726212037945
 21
77.50000000000000
 31
0.000000000000000
  0
LINE
  5
CB
100
AcDbEntity
  8
A1
  6
CONTINUOUS
 62
7
100
AcDbLine
 10
99.60726212037945
 20
77.50000000000000
 30
0.000000000000000
 11
99.60726212037945
 21
81.50000000000000
 31
0.000000000000000
  0
LINE
  5
CC
100
AcDbEntity
  8
A1
  6
CONTINUOUS
 62
7
100
AcDbLine
 10
83.60726212037935
 20
58.69202769898969
 30
0.000000000000000
 11
83.60726212037935
 21
57.49999999999999
 31
0.000000000000000
  0
LINE
  5
CD
100
AcDbEntity
  8
A1
  6
CONTINUOUS
 62
7
100
AcDbLine
 10
83.60726212037936
 20
57.50000000000001
 30
0.000000000000000
 11
84.16055493219810
 21
55.48747492651066
 31
0.000000000000000
  0
LINE
  5
CE
100
AcDbEntity
  8
A1
  6
CONTINUOUS
 62
7
100
AcDbLine
 10
98.60726212037945
 20
57.49999999999999
 30
0.000000000000000
 11
98.60726212037945
 21
58.69202769898969
 31
0.000000000000000
  0
LINE
  5
CF
100
AcDbEntity
  8
A1
  6
CONTINUOUS
 62
7
100
AcDbLine
 10
98.05396951787139
 20
55.48747442679590
 30
0.000000000000000
 11
98.60726212037935
 21
57.49999999999999
 31
0.000000000000000
  0
LINE
  5
D0
100
AcDbEntity
  8
A1
  6
CONTINUOUS
 62
7
100
AcDbLine
 10
95.02097050601337
 20
49.99999999999999
 30
0.000000000000000
 11
87.19355477355397
 21
49.99999999999999
 31
0.000000000000000
  0
LINE
  5
D1
100
AcDbEntity
  8
A1
  6
CONTINUOUS
 62
7
100
AcDbLine
 10
85.26510685710915
 20
51.46982207367727
 30
0.000000000000000
 11
84.16055493219808
 21
55.48747492651063
 31
0.000000000000000
  0
LINE
  5
D2
100
AcDbEntity
  8
A1
  6
CONTINUOUS
 62
7
100
AcDbLine
 10
96.00293796389892
 20
50.25766251581198
 30
0.000000000000000
 11
86.21158731566801
 21
50.25766251581198
 31
0.000000000000000
  0
LINE
  5
D3
100
AcDbEntity
  8
A1
  6
CONTINUOUS
 62
7
100
AcDbLine
 10
98.05396951787139
 20
55.48747442679588
 30
0.000000000000000
 11
96.94941850737283
 21
51.46982238254253
 31
0.000000000000000
  0
LINE
  5
D4
100
AcDbEntity
  8
A1
  6
CONTINUOUS
 62
7
100
AcDbLine
 10
97.60726212037945
 20
79.50000000000000
 30
0.000000000000000
 11
97.60726212037945
 21
83.50000000000000
 31
0.000000000000000
  0
LINE
  5
D5
100
AcDbEntity
  8
A1
  6
CONTINUOUS
 62
7
100
AcDbLine
 10
98.60726212037945
 20
79.50000000000000
 30
0.000000000000000
 11
98.60726212037945
 21
83.50000000000000
 31
0.000000000000000
  0
LINE
  5
D6
100
AcDbEntity
  8
A1
  6
CONTINUOUS
 62
7
100
AcDbLine
 10
98.60726212037939
 20
83.50000000000000
 30
0.000000000000000
 11
97.60726212037939
 21
83.50000000000000
 31
0.000000000000000
  0
LINE
  5
D7
100
AcDbEntity
  8
A1
  6
CONTINUOUS
 62
7
100
AcDbLine
 10
84.60726212037945
 20
79.50000000000000
 30
0.000000000000000
 11
84.60726212037945
 21
83.50000000000000
 31
0.000000000000000
  0
LINE
  5
D8
100
AcDbEntity
  8
A1
  6
CONTINUOUS
 62
7
100
AcDbLine
 10
83.60726212037945
 20
79.50000000000000
 30
0.000000000000000
 11
83.60726212037945
 21
83.50000000000000
 31
0.000000000000000
  0
LINE
  5
D9
100
AcDbEntity
  8
A1
  6
CONTINUOUS
 62
7
100
AcDbLine
 10
84.60726212037950
 20
83.50000000000000
 30
0.000000000000000
 11
83.60726212037949
 21
83.50000000000000
 31
0.000000000000000
  0
LINE
  5
DA
100
AcDbEntity
  8
A1
  6
CONTINUOUS
 62
7
100
AcDbLine
 10
97.60726212037945
 20
77.00000000000003
 30
0.000000000000000
 11
97.60726212037945
 21
79.50000000000000
 31
0.000000000000000
  0
LINE
  5
DB
100
AcDbEntity
  8
A1
  6
CONTINUOUS
 62
7
100
AcDbLine
 10
98.60726212037945
 20
77.00000000000003
 30
0.000000000000000
 11
98.60726212037945
 21
79.50000000000000
 31
0.000000000000000
  0
LINE
  5
DC
100
AcDbEntity
  8
A1
  6
CONTINUOUS
 62
7
100
AcDbLine
 10
84.60726212037945
 20
77.00000000000003
 30
0.000000000000000
 11
84.60726212037945
 21
79.50000000000000
 31
0.000000000000000
  0
LINE
  5
DD
100
AcDbEntity
  8
A1
  6
CONTINUOUS
 62
7
100
AcDbLine
 10
83.60726212037945
 20
77.00000000000003
 30
0.000000000000000
 11
83.60726212037945
 21
79.50000000000000
 31
0.000000000000000
  0
LINE
  5
DE
100
AcDbEntity
  8
A1
  6
CONTINUOUS
 62
7
100
AcDbLine
 10
83.60726212037935
 20
58.69202769898967
 30
0.000000000000000
 11
83.60726212037935
 21
76.99821110963600
 31
0.000000000000000
  0
LINE
  5
DF
100
AcDbEntity
  8
A1
  6
CONTINUOUS
 62
7
100
AcDbLine
 10
83.60726212037935
 20
76.99821110963599
 30
0.000000000000000
 11
83.60726212037945
 21
77.00000000000001
 31
0.000000000000000
  0
LINE
  5
E0
100
AcDbEntity
  8
A1
  6
CONTINUOUS
 62
7
100
AcDbLine
 10
84.60726212037945
 20
76.84615300000004
 30
0.000000000000000
 11
84.60726212037945
 21
77.00000000000003
 31
0.000000000000000
  0
LINE
  5
E1
100
AcDbEntity
  8
A1
  6
CONTINUOUS
 62
7
100
AcDbLine
 10
84.60726212037945
 20
77.00000000000003
 30
0.000000000000000
 11
83.60726212037945
 21
77.00000000000003
 31
0.000000000000000
  0
LINE
  5
E2
100
AcDbEntity
  8
A1
  6
CONTINUOUS
 62
7
100
AcDbLine
 10
98.60726212037945
 20
76.99821110963600
 30
0.000000000000000
 11
98.60726212037945
 21
58.69202769898967
 31
0.000000000000000
  0
LINE
  5
E3
100
AcDbEntity
  8
A1
  6
CONTINUOUS
 62
7
100
AcDbLine
 10
97.60726212037945
 20
76.84615300000004
 30
0.000000000000000
 11
97.60726212037945
 21
77.00000000000003
 31
0.000000000000000
  0
LINE
  5
E4
100
AcDbEntity
  8
A1
  6
CONTINUOUS
 62
7
100
AcDbLine
 10
98.60726212037945
 20
76.99821110963600
 30
0.000000000000000
 11
98.60726212037945
 21
77.00000000000003
 31
0.000000000000000
  0
LINE
  5
E5
100
AcDbEntity
  8
A1
  6
CONTINUOUS
 62
7
100
AcDbLine
 10
98.60726212037945
 20
77.00000000000003
 30
0.000000000000000
 11
97.60726212037945
 21
77.00000000000003
 31
0.000000000000000
  0
LINE
  5
E6
100
AcDbEntity
  8
A1
  6
CONTINUOUS
 62
7
100
AcDbLine
 10
96.10726212037945
 20
77.23320064767472
 30
0.000000000000000
 11
96.10726212037945
 21
76.84615299999999
 31
0.000000000000000
  0
LINE
  5
E7
100
AcDbEntity
  8
A1
  6
CONTINUOUS
 62
7
100
AcDbLine
 10
86.10726212037933
 20
76.84615299999996
 30
0.000000000000000
 11
86.10726212037932
 21
77.23320064767472
 31
0.000000000000000
  0
LINE
  5
E8
100
AcDbEntity
  8
A1
  6
CONTINUOUS
 62
7
100
AcDbLine
 10
96.10726212037943
 20
76.84615299999997
 30
0.000000000000000
 11
97.60726212037943
 21
76.84615300000003
 31
0.000000000000000
  0
LINE
  5
E9
100
AcDbEntity
  8
A1
  6
CONTINUOUS
 62
7
100
AcDbLine
 10
84.60726212037946
 20
76.84615300000003
 30
0.000000000000000
 11
86.10726212037936
 21
76.84615299999997
 31
0.000000000000000
  0
LINE
  5
EA
100
AcDbEntity
  8
A1
  6
CONTINUOUS
 62
7
100
AcDbLine
 10
96.10726212037945
 20
81.84615299999996
 30
0.000000000000000
 11
96.10726212037945
 21
77.23320064767472
 31
0.000000000000000
  0
LINE
  5
EB
100
AcDbEntity
  8
A1
  6
CONTINUOUS
 62
7
100
AcDbLine
 10
96.10726212037945
 20
81.84615299999999
 30
0.000000000000000
 11
86.10726212037935
 21
81.84615299999999
 31
0.000000000000000
  0
LINE
  5
EC
100
AcDbEntity
  8
A1
  6
CONTINUOUS
 62
7
100
AcDbLine
 10
86.10726212037933
 20
77.23320064767472
 30
0.000000000000000
 11
86.10726212037933
 21
81.84615299999996
 31
0.000000000000000
  0
LINE
  5
ED
100
AcDbEntity
  8
A1
  6
CONTINUOUS
 62
7
100
AcDbLine
 10
96.35726212037781
 20
83.49999999998715
 30
0.000000000000000
 11
85.85726212037781
 21
83.49999999998715
 31
0.000000000000000
  0
LINE
  5
EE
100
AcDbEntity
  8
A1
  6
CONTINUOUS
 62
7
100
AcDbLine
 10
84.85726212037781
 20
76.84615299999999
 30
0.000000000000000
 11
84.85726212037781
 21
83.49999999998715
 31
0.000000000000000
  0
LINE
  5
EF
100
AcDbEntity
  8
A1
  6
CONTINUOUS
 62
7
100
AcDbLine
 10
85.85726212037781
 20
76.84615299999999
 30
0.000000000000000
 11
85.85726212037781
 21
83.49999999998715
 31
0.000000000000000
  0
LINE
  5
F0
100
AcDbEntity
  8
A1
  6
CONTINUOUS
 62
7
100
AcDbLine
 10
85.85726212037781
 20
83.49999999998715
 30
0.000000000000000
 11
84.85726212037781
 21
83.49999999998715
 31
0.000000000000000
  0
LINE
  5
F1
100
AcDbEntity
  8
A1
  6
CONTINUOUS
 62
7
100
AcDbLine
 10
96.35726212037781
 20
76.84615299999999
 30
0.000000000000000
 11
96.35726212037781
 21
83.49999999998715
 31
0.000000000000000
  0
LINE
  5
F2
100
AcDbEntity
  8
A1
  6
CONTINUOUS
 62
7
100
AcDbLine
 10
97.35726212037781
 20
76.84615299999999
 30
0.000000000000000
 11
97.35726212037781
 21
83.49999999998715
 31
0.000000000000000
  0
LINE
  5
F3
100
AcDbEntity
  8
A1
  6
CONTINUOUS
 62
7
100
AcDbLine
 10
97.35726212037781
 20
83.49999999998718
 30
0.000000000000000
 11
96.35726212037781
 21
83.49999999998718
 31
0.000000000000000
  0
SPLINE
  5
F4
100
AcDbEntity
  8
A1
  6
CONTINUOUS
 62
7
100
AcDbSpline
210
0.000000000000000
220
0.000000000000000
230
1.000000000000000
 70
     8
 71
     3
 72
    22
 73
    18
 74
     0
 42
1.000000000000000e-07
 43
1.000000000000000e-07
 12
0.1926620156509671
 22
0.9812651770689627
 32
0.000000000000000
 13
0.1939289646369389
 23
0.9810155741245126
 33
0.000000000000000
 40
0.000000000000000
 40
0.000000000000000
 40
0.000000000000000
 40
0.000000000000000
 40
0.03031986396919750
 40
0.1094459741968804
 40
0.2196506241796335
 40
0.3462474342350387
 40
0.4772064974142042
 40
0.6028084723925491
 40
0.7256190554332339
 40
0.8583621876806296
 40
1.051437360608008
 40
1.263782624175779
 40
1.508132588053429
 40
1.727895780032540
 40
1.976915869444238
 40
2.251381472873180
 40
2.545909202451763
 40
2.545909202451763
 40
2.545909202451763
 40
2.545909202451763
 10
54.98193045210090
 20
69.31365714494180
 30
0.000000000000000
 10
54.98387761413642
 20
69.32357442050395
 30
0.000000000000000
 10
54.99090570363300
 20
69.35937304695045
 30
0.000000000000000
 10
55.00500570338964
 20
69.43121941607956
 30
0.000000000000000
 10
55.02528931507371
 20
69.53455673080902
 30
0.000000000000000
 10
55.04889905459464
 20
69.65484851686611
 30
0.000000000000000
 10
55.07349776185228
 20
69.78017656174535
 30
0.000000000000000
 10
55.09785266669324
 20
69.90426630207472
 30
0.000000000000000
 10
55.12232434958293
 20
70.02893916143051
 30
0.000000000000000
 10
55.15110654919521
 20
70.17568615292285
 30
0.000000000000000
 10
55.18552529485726
 20
70.35174122002621
 30
0.000000000000000
 10
55.22658720399541
 20
70.56440356268561
 30
0.000000000000000
 10
55.26882964799447
 20
70.78589798324106
 30
0.000000000000000
 10
55.31457716240013
 20
71.01916623987537
 30
0.000000000000000
 10
55.36284172734122
 20
71.26216916492385
 30
0.000000000000000
 10
55.41636604892983
 20
71.52953548978741
 30
0.000000000000000
 10
55.45322407299801
 20
71.71558421927708
 30
0.000000000000000
 10
55.47226322554936
 20
71.81189631585312
 30
0.000000000000000
  0
SPLINE
  5
F5
100
AcDbEntity
  8
A1
  6
CONTINUOUS
 62
7
100
AcDbSpline
210
0.000000000000000
220
0.000000000000000
230
1.000000000000000
 70
     8
 71
     3
 72
    23
 73
    19
 74
     0
 42
1.000000000000000e-07
 43
1.000000000000000e-07
 12
-0.1915139402539126
 22
-0.9814898933193490
 32
0.000000000000000
 13
-0.1925129270930483
 23
-0.9812944374170911
 33
0.000000000000000
 40
0.000000000000000
 40
0.000000000000000
 40
0.000000000000000
 40
0.000000000000000
 40
0.2772228720777367
 40
0.5171774865454383
 40
0.7229066011323966
 40
0.8977734210214627
 40
1.045085083479609
 40
1.188043550824590
 40
1.361214010512652
 40
1.533674304408256
 40
1.719905866126442
 40
1.912149952676621
 40
2.100433730979528
 40
2.273690096502866
 40
2.418707665692309
 40
2.492055151531472
 40
2.540605060633899
 40
2.558443898663351
 40
2.558443898663351
 40
2.558443898663351
 40
2.558443898663351
 10
53.51082159398672
 20
72.19687375820652
 30
0.000000000000000
 10
53.49312424580002
 20
72.10617660915943
 30
0.000000000000000
 10
53.46024477530167
 20
71.93694839612184
 30
0.000000000000000
 10
53.41489894418201
 20
71.70028450632401
 30
0.000000000000000
 10
53.37583717495046
 20
71.49715607752776
 30
0.000000000000000
 10
53.34218687965652
 20
71.32443370244115
 30
0.000000000000000
 10
53.31177102387149
 20
71.17240031057099
 30
0.000000000000000
 10
53.28111690197883
 20
71.02099199181347
 30
0.000000000000000
 10
53.24937384351151
 20
70.86125207049338
 30
0.000000000000000
 10
53.21492540494484
 20
70.68734370084439
 30
0.000000000000000
 10
53.17937990547995
 20
70.50717119716566
 30
0.000000000000000
 10
53.14288745540946
 20
70.32180940600472
 30
0.000000000000000
 10
53.10727556912232
 20
70.14068233999328
 30
0.000000000000000
 10
53.07472932426666
 20
69.97499609222422
 30
0.000000000000000
 10
53.04958003823037
 20
69.84690109358183
 30
0.000000000000000
 10
53.03244256926749
 20
69.75959552385669
 30
0.000000000000000
 10
53.02347374268224
 20
69.71388841746236
 30
0.000000000000000
 10
53.01921331176263
 20
69.69217282065776
 30
0.000000000000000
 10
53.01806857612097
 20
69.68633776981500
 30
0.000000000000000
  0
SPLINE
  5
F6
100
AcDbEntity
  8
A1
  6
CONTINUOUS
 62
7
100
AcDbSpline
210
0.000000000000000
220
0.000000000000000
230
1.000000000000000
 70
     8
 71
     3
 72
    14
 73
    10
 74
     0
 42
1.000000000000000e-07
 43
1.000000000000000e-07
 12
0.1233213715295278
 22
-0.9923667866896722
 32
0.000000000000000
 13
-0.1686637889631584
 23
-0.9856736408632969
 33
0.000000000000000
 40
0.000000000000000
 40
0.000000000000000
 40
0.000000000000000
 40
0.000000000000000
 40
0.04330449617635600
 40
0.1739174024613198
 40
0.2784346668733773
 40
0.3832660901871241
 40
0.4881467781037296
 40
0.6048998417422428
 40
0.7693520337785897
 40
0.7693520337785897
 40
0.7693520337785897
 40
0.7693520337785897
 10
56.85233189389254
 20
89.73870368610514
 30
0.000000000000000
 10
56.85411201717983
 20
89.72437903819855
 30
0.000000000000000
 10
56.86063735362248
 20
89.66677197369242
 30
0.000000000000000
 10
56.86708574394490
 20
89.57410916718149
 30
0.000000000000000
 10
56.86828624469354
 20
89.46074315493132
 30
0.000000000000000
 10
56.86376098390467
 20
89.35605752333117
 30
0.000000000000000
 10
56.85370471602580
 20
89.24762858522092
 30
0.000000000000000
 10
56.83309569744721
 20
89.12055066970902
 30
0.000000000000000
 10
56.81849683889206
 20
89.02796911674275
 30
0.000000000000000
 10
56.80925112895467
 20
88.97393705311862
 30
0.000000000000000
  0
SPLINE
  5
F7
100
AcDbEntity
  8
A1
  6
CONTINUOUS
 62
7
100
AcDbSpline
210
0.000000000000000
220
0.000000000000000
230
1.000000000000000
 70
     8
 71
     3
 72
    16
 73
    12
 74
     0
 42
1.000000000000000e-07
 43
1.000000000000000e-07
 12
0.1745701785654319
 22
0.9846447342856663
 32
0.000000000000000
 13
-0.2225765069845238
 23
0.9749152263345877
 33
0.000000000000000
 40
0.000000000000000
 40
0.000000000000000
 40
0.000000000000000
 40
0.000000000000000
 40
0.2014392517729263
 40
0.4699066114944799
 40
0.7363646948298155
 40
0.9997907834913258
 40
1.207514460184852
 40
1.412655582287099
 40
1.618270213603389
 40
1.795305290643220
 40
1.942196113921034
 40
1.942196113921034
 40
1.942196113921034
 40
1.942196113921034
 10
58.78217542779888
 20
88.65295322770368
 30
0.000000000000000
 10
58.79389718984957
 20
88.71906859388255
 30
0.000000000000000
 10
58.81862888373207
 20
88.87374027749712
 30
0.000000000000000
 10
58.85180670623998
 20
89.11708080979176
 30
0.000000000000000
 10
58.86721026581968
 20
89.38300437212078
 30
0.000000000000000
 10
58.86594714227022
 20
89.62902668000942
 30
0.000000000000000
 10
58.85140272164200
 20
89.85409497111289
 30
0.000000000000000
 10
58.82740138104258
 20
90.05893578769638
 30
0.000000000000000
 10
58.79473214357070
 20
90.25223538883105
 30
0.000000000000000
 10
58.75621613338929
 20
90.42452175287610
 30
0.000000000000000
 10
58.73287395103759
 20
90.52994002300309
 30
0.000000000000000
 10
58.72197580225317
 20
90.57767538974389
 30
0.000000000000000
  0
SPLINE
  5
F8
100
AcDbEntity
  8
A1
  6
CONTINUOUS
 62
7
100
AcDbSpline
210
0.000000000000000
220
0.000000000000000
230
1.000000000000000
 70
     8
 71
     3
 72
     9
 73
     5
 74
     0
 42
1.000000000000000e-07
 43
1.000000000000000e-07
 12
-0.2181760487392239
 22
0.9759094280498175
 32
0.000000000000000
 13
-0.6320320613467629
 23
0.7749422387678351
 33
0.000000000000000
 40
0.000000000000000
 40
0.000000000000000
 40
0.000000000000000
 40
0.000000000000000
 40
0.04026598065106890
 40
0.05556574223378330
 40
0.05556574223378330
 40
0.05556574223378330
 40
0.05556574223378330
 10
58.72526053418652
 20
90.56564432342196
 30
0.000000000000000
 10
58.72233217666749
 20
90.57874297347098
 30
0.000000000000000
 10
58.71530549382375
 20
90.59639176270321
 30
0.000000000000000
 10
58.70448625543573
 20
90.61146731242459
 30
0.000000000000000
 10
58.70126294215198
 20
90.61541945625578
 30
0.000000000000000
  0
ARC
  5
F9
100
AcDbEntity
  8
A1
  6
CONTINUOUS
 62
7
100
AcDbCircle
 10
54.00000000000550
 20
69.49999999999469
 30
0.000000000000000
 40
1.000000000000000
100
AcDbArc
 50
168.7382142399772
 51
169.6981304821195
  0
ARC
  5
FA
100
AcDbEntity
  8
A1
  6
CONTINUOUS
 62
7
100
AcDbCircle
 10
54.00000000000550
 20
69.49999999999469
 30
0.000000000000000
 40
1.000000000000000
100
AcDbArc
 50
336.4039677010940
 51
349.8582451894018
  0
ARC
  5
FB
100
AcDbEntity
  8
A1
  6
CONTINUOUS
 62
7
100
AcDbCircle
 10
52.76632911590690
 20
96.27159055022622
 30
0.000000000000000
 40
0.9999999999999997
100
AcDbArc
 50
42.50947452549512
 51
106.2961125775872
  0
ARC
  5
FC
100
AcDbEntity
  8
A1
  6
CONTINUOUS
 62
7
100
AcDbCircle
 10
52.76632911590690
 20
96.27159055022622
 30
0.000000000000000
 40
0.9999999999999988
100
AcDbArc
 50
106.2961125775871
 51
222.2661973984004
  0
ARC
  5
FD
100
AcDbEntity
  8
A1
  6
CONTINUOUS
 62
7
100
AcDbCircle
 10
53.99999999999991
 20
69.49999999999858
 30
0.000000000000000
 40
0.9999999999999986
100
AcDbArc
 50
270.4999999999998
 51
349.2499999999999
  0
ARC
  5
FE
100
AcDbEntity
  8
A1
  6
CONTINUOUS
 62
7
100
AcDbCircle
 10
53.99999999999991
 20
69.49999999999858
 30
0.000000000000000
 40
0.9999999999999982
100
AcDbArc
 50
169.2579862280384
 51
270.5000000000001
  0
LINE
  5
FF
100
AcDbEntity
  8
A1
  6
CONTINUOUS
 62
7
100
AcDbLine
 10
52.02636504618376
 20
95.60033498127022
 30
0.000000000000000
 11
53.12380775454946
 21
94.39093806195467
 31
0.000000000000000
  0
LINE
  5
100
100
AcDbEntity
  8
A1
  6
CONTINUOUS
 62
7
100
AcDbLine
 10
53.50279978834497
 20
96.94668920936223
 30
0.000000000000000
 11
54.64183769313284
 21
95.69146388974167
 31
0.000000000000000
  0
LINE
  5
101
100
AcDbEntity
  8
A1
  6
CONTINUOUS
 62
7
100
AcDbLine
 10
58.70149958460891
 20
90.61512958801828
 30
0.000000000000000
 11
54.64729002325288
 21
95.68657606694190
 31
0.000000000000000
  0
LINE
  5
102
100
AcDbEntity
  8
A1
  6
CONTINUOUS
 62
7
100
AcDbLine
 10
53.12053193606905
 20
94.39342956601308
 30
0.000000000000000
 11
56.85346914756153
 21
89.72386550161026
 31
0.000000000000000
  0
LINE
  5
103
100
AcDbEntity
  8
A1
  6
CONTINUOUS
 62
7
100
AcDbLine
 10
54.64681151101144
 20
95.68717055449127
 30
0.000000000000000
 11
54.64330742349505
 21
95.69123287209528
 31
0.000000000000000
  0
LINE
  5
104
100
AcDbEntity
  8
A1
  6
CONTINUOUS
 62
7
100
AcDbLine
 10
55.47283777947834
 20
71.81187686217712
 30
0.000000000000000
 11
58.77688032967110
 21
88.65397542915392
 31
0.000000000000000
  0
LINE
  5
105
100
AcDbEntity
  8
A1
  6
CONTINUOUS
 62
7
100
AcDbLine
 10
56.80235233535146
 20
88.97814255534765
 30
0.000000000000000
 11
53.51024704005800
 21
72.19689321188390
 31
0.000000000000000
  0
SPLINE
  5
106
100
AcDbEntity
  8
A1
  6
CONTINUOUS
 62
7
100
AcDbSpline
210
0.000000000000000
220
0.000000000000000
230
1.000000000000000
 70
     8
 71
     3
 72
    17
 73
    13
 74
     0
 42
1.000000000000000e-07
 43
1.000000000000000e-07
 12
-0.5420802538199041
 22
0.8403267212331116
 32
0.000000000000000
 13
-0.9999604478225592
 23
0.008893974836610141
 33
0.000000000000000
 40
0.000000000000000
 40
0.000000000000000
 40
0.000000000000000
 40
0.000000000000000
 40
0.4873688495218727
 40
0.9742626573152589
 40
1.299110614490635
 40
1.624055030891509
 40
1.949032920895813
 40
2.159226831455626
 40
2.264851155355758
 40
2.373772295223700
 40
2.477625428832581
 40
2.522226714992816
 40
2.522226714992816
 40
2.522226714992816
 40
2.522226714992816
 10
57.53667314996632
 20
55.48747492651081
 30
0.000000000000000
 10
57.44860880674875
 20
55.62399128229411
 30
0.000000000000000
 10
57.27760840656414
 20
55.90020013791023
 30
0.000000000000000
 10
57.06504508637984
 20
56.27759893273807
 30
0.000000000000000
 10
56.88705820425076
 20
56.61206380117895
 30
0.000000000000000
 10
56.73061446007350
 20
56.89694211363803
 30
0.000000000000000
 10
56.57764728961907
 20
57.13967612883193
 30
0.000000000000000
 10
56.44629135827302
 20
57.30906645610653
 30
0.000000000000000
 10
56.34324784486881
 20
57.40671781865196
 30
0.000000000000000
 10
56.25502514676113
 20
57.46688211236658
 30
0.000000000000000
 10
56.17264906711739
 20
57.49613407918464
 30
0.000000000000000
 10
56.12309377871060
 20
57.49986777242790
 30
0.000000000000000
 10
56.10822727134985
 20
57.50000000000016
 30
0.000000000000000
  0
ARC
  5
107
100
AcDbEntity
  8
A1
  6
CONTINUOUS
 62
7
100
AcDbCircle
 10
56.10726212038981
 20
77.84615300000013
 30
0.000000000000000
 40
4.000000000000000
100
AcDbArc
 50
351.1853745861197
 51
408.2082573781017
  0
ARC
  5
108
100
AcDbEntity
  8
A1
  6
CONTINUOUS
 62
7
100
AcDbCircle
 10
56.10726212038981
 20
77.84615300000013
 30
0.000000000000000
 40
3.000000000000000
100
AcDbArc
 50
351.1853745861194
 51
375.3674829600728
  0
ARC
  5
109
100
AcDbEntity
  8
A1
  6
CONTINUOUS
 62
7
100
AcDbCircle
 10
51.50000000000000
 20
59.86037958930641
 30
0.000000000000000
 40
0.5000000000000000
100
AcDbArc
 50
180.0000000000000
 51
251.5650480516309
  0
ARC
  5
10A
100
AcDbEntity
  8
A1
  6
CONTINUOUS
 62
7
100
AcDbCircle
 10
55.00000000000000
 20
79.50000000000017
 30
0.000000000000000
 40
4.000000000000000
100
AcDbArc
 50
79.70268477726665
 51
179.9999999999998
  0
ARC
  5
10B
100
AcDbEntity
  8
A1
  6
CONTINUOUS
 62
7
100
AcDbCircle
 10
55.00000000000000
 20
79.50000000000017
 30
0.000000000000000
 40
4.000000000000000
100
AcDbArc
 50
2.036000000000000e-13
 51
49.82246573078022
  0
ARC
  5
10C
100
AcDbEntity
  8
A1
  6
CONTINUOUS
 62
7
100
AcDbCircle
 10
54.00000000000000
 20
69.50000000000017
 30
0.000000000000000
 40
1.100000000000000
100
AcDbArc
 50
145.3333753650573
 51
372.6663662328780
  0
ARC
  5
10D
100
AcDbEntity
  8
A1
  6
CONTINUOUS
 62
7
100
AcDbCircle
 10
62.10203154678641
 20
57.77259917050200
 30
0.000000000000000
 40
5.000000000000000
100
AcDbArc
 50
171.1853745861198
 51
194.9314191566331
  0
ARC
  5
10E
100
AcDbEntity
  8
A1
  6
CONTINUOUS
 62
7
100
AcDbCircle
 10
55.03388900000002
 20
57.10127700000021
 30
0.000000000000000
 40
0.9999999999999993
100
AcDbArc
 50
14.94993035935130
 51
19.32624055906713
  0
ARC
  5
10F
100
AcDbEntity
  8
A1
  6
CONTINUOUS
 62
7
100
AcDbCircle
 10
55.00000000000000
 20
79.50000000000017
 30
0.000000000000000
 40
1.750000000000045
100
AcDbArc
 50
80.73392560346861
 51
90.00000000000000
  0
ARC
  5
110
100
AcDbEntity
  8
A1
  6
CONTINUOUS
 62
7
100
AcDbCircle
 10
55.00000000000000
 20
79.50000000000017
 30
0.000000000000000
 40
1.750000000000045
100
AcDbArc
 50
90.00000000000000
 51
257.0676849324447
  0
LINE
  5
111
100
AcDbEntity
  8
A1
  6
CONTINUOUS
 62
7
100
AcDbLine
 10
59.07183001390310
 20
77.38643873575620
 30
0.000000000000000
 11
59.01162772341367
 21
76.99821110963617
 31
0.000000000000000
  0
LINE
  5
112
100
AcDbEntity
  8
A1
  6
CONTINUOUS
 62
7
100
AcDbLine
 10
59.99999999999999
 20
76.84615300000016
 30
0.000000000000000
 11
60.06001931174099
 21
77.23320064767491
 31
0.000000000000000
  0
LINE
  5
113
100
AcDbEntity
  8
A1
  6
CONTINUOUS
 62
7
100
AcDbLine
 10
57.96505499826095
 20
49.99999999999999
 30
0.000000000000000
 11
57.57259370614577
 21
51.46982207367746
 31
0.000000000000000
  0
LINE
  5
114
100
AcDbEntity
  8
A1
  6
CONTINUOUS
 62
7
100
AcDbLine
 10
58.93128998953512
 20
50.25766251581216
 30
0.000000000000000
 11
58.60804739265542
 21
51.46982207367746
 31
0.000000000000000
  0
LINE
  5
115
100
AcDbEntity
  8
A1
  6
CONTINUOUS
 62
7
100
AcDbLine
 10
57.96505499826105
 20
50.00000000000018
 30
0.000000000000000
 11
58.93128998953512
 21
50.25766251581217
 31
0.000000000000000
  0
LINE
  5
116
100
AcDbEntity
  8
A1
  6
CONTINUOUS
 62
7
100
AcDbLine
 10
60.00000000000001
 20
76.84615300000019
 30
0.000000000000000
 11
59.01162772341376
 21
76.99821110963615
 31
0.000000000000000
  0
LINE
  5
117
100
AcDbEntity
  8
A1
  6
CONTINUOUS
 62
7
100
AcDbLine
 10
60.00000000000001
 20
76.84615300000021
 30
0.000000000000000
 11
57.16108505759736
 21
58.53878961090857
 31
0.000000000000000
  0
LINE
  5
118
100
AcDbEntity
  8
A1
  6
CONTINUOUS
 62
7
100
AcDbLine
 10
51.00000000000000
 20
79.50000000000017
 30
0.000000000000000
 11
51.00000000000000
 21
59.86037958930641
 31
0.000000000000000
  0
LINE
  5
119
100
AcDbEntity
  8
A1
  6
CONTINUOUS
 62
7
100
AcDbLine
 10
51.34188609111658
 20
59.38603794890616
 30
0.000000000000000
 11
56.03778523426883
 21
57.82073794990180
 31
0.000000000000000
  0
LINE
  5
11A
100
AcDbEntity
  8
A1
  6
CONTINUOUS
 62
7
100
AcDbLine
 10
56.03778523426882
 20
57.82073794990179
 30
0.000000000000000
 11
55.98804853875358
 21
57.50000000000016
 31
0.000000000000000
  0
LINE
  5
11B
100
AcDbEntity
  8
A1
  6
CONTINUOUS
 62
7
100
AcDbLine
 10
59.01162772341377
 20
76.99821110963616
 30
0.000000000000000
 11
59.00000000000001
 21
77.00000000000018
 31
0.000000000000000
  0
LINE
  5
11C
100
AcDbEntity
  8
A1
  6
CONTINUOUS
 62
7
100
AcDbLine
 10
59.00000000000000
 20
77.00000000000020
 30
0.000000000000000
 11
59.00000000000000
 21
79.50000000000017
 31
0.000000000000000
  0
LINE
  5
11D
100
AcDbEntity
  8
A1
  6
CONTINUOUS
 62
7
100
AcDbLine
 10
57.27085689326735
 20
56.48428575087382
 30
0.000000000000000
 11
57.53667314996633
 21
55.48747492651082
 31
0.000000000000000
  0
LINE
  5
11E
100
AcDbEntity
  8
A1
  6
CONTINUOUS
 62
7
100
AcDbLine
 10
58.60804739265542
 20
51.46982207367743
 30
0.000000000000000
 11
57.53667314996631
 21
55.48747492651080
 31
0.000000000000000
  0
LINE
  5
11F
100
AcDbEntity
  8
A1
  6
CONTINUOUS
 62
7
100
AcDbLine
 10
56.10822727134985
 20
57.50000000000016
 30
0.000000000000000
 11
55.98804853875359
 21
57.50000000000016
 31
0.000000000000000
  0
LINE
  5
120
100
AcDbEntity
  8
A1
  6
CONTINUOUS
 62
7
100
AcDbLine
 10
55.98804853875359
 20
57.50000000000016
 30
0.000000000000000
 11
55.97753848225341
 21
57.43222360391540
 31
0.000000000000000
  0
LINE
  5
121
100
AcDbEntity
  8
A1
  6
CONTINUOUS
 62
7
100
AcDbLine
 10
56.00004063424679
 20
57.35925184304165
 30
0.000000000000000
 11
57.57259370614576
 21
51.46982207367745
 31
0.000000000000000
  0
SPLINE
  5
122
100
AcDbEntity
  8
A1
  6
CONTINUOUS
 62
7
100
AcDbSpline
210
0.000000000000000
220
0.000000000000000
230
1.000000000000000
 70
     8
 71
     3
 72
    14
 73
    10
 74
     0
 42
1.000000000000000e-07
 43
1.000000000000000e-07
 12
-0.9995205920974968
 22
0.03096103959887841
 32
0.000000000000000
 13
0.03240247983762856
 23
-0.9994749017860158
 33
0.000000000000000
 40
0.000000000000000
 40
0.000000000000000
 40
0.000000000000000
 40
0.000000000000000
 40
0.09470897619206840
 40
0.1786897983387057
 40
0.2498828926348456
 40
0.3190793772768545
 40
0.3860796042849404
 40
0.4646907348715402
 40
0.5638292916177017
 40
0.5638292916177017
 40
0.5638292916177017
 40
0.5638292916177017
 10
50.33856217223382
 20
75.49999999998744
 30
0.000000000000000
 10
50.30700764824701
 20
75.50097742944152
 30
0.000000000000000
 10
50.24735014073508
 20
75.49751933783907
 30
0.000000000000000
 10
50.16489487789570
 20
75.48332289432369
 30
0.000000000000000
 10
50.09566174864646
 20
75.45177616837736
 30
0.000000000000000
 10
50.04630746369513
 20
75.40090297636161
 30
0.000000000000000
 10
50.01693312518326
 20
75.33447625469751
 30
0.000000000000000
 10
50.00252004864004
 20
75.25384360310301
 30
0.000000000000000
 10
49.99892922163797
 20
75.19446666084249
 30
0.000000000000000
 10
50.00000000000000
 20
75.16143782775347
 30
0.000000000000000
  0
LINE
  5
123
100
AcDbEntity
  8
A1
  6
CONTINUOUS
 62
7
100
AcDbLine
 10
51.00000000000000
 20
59.86037958930641
 30
0.000000000000000
 11
51.00000000000000
 21
59.74999999998732
 31
0.000000000000000
  0
LINE
  5
124
100
AcDbEntity
  8
A1
  6
CONTINUOUS
 62
7
100
AcDbLine
 10
50.00000000000000
 20
74.49999999998732
 30
0.000000000000000
 11
50.00000000000000
 21
59.74999999998732
 31
0.000000000000000
  0
LINE
  5
125
100
AcDbEntity
  8
A1
  6
CONTINUOUS
 62
7
100
AcDbLine
 10
51.00000000000000
 20
59.74999999998732
 30
0.000000000000000
 11
51.00000000000000
 21
57.49999999998732
 31
0.000000000000000
  0
LINE
  5
126
100
AcDbEntity
  8
A1
  6
CONTINUOUS
 62
7
100
AcDbLine
 10
50.00000000000000
 20
59.74999999998732
 30
0.000000000000000
 11
50.00000000000000
 21
57.49999999998732
 31
0.000000000000000
  0
LINE
  5
127
100
AcDbEntity
  8
A1
  6
CONTINUOUS
 62
7
100
AcDbLine
 10
51.00000000000000
 20
57.49999999998732
 30
0.000000000000000
 11
50.00000000000000
 21
57.49999999998732
 31
0.000000000000000
  0
LINE
  5
128
100
AcDbEntity
  8
A1
  6
CONTINUOUS
 62
7
100
AcDbLine
 10
50.00000000000000
 20
75.16143782775347
 30
0.000000000000000
 11
50.00000000000000
 21
74.49999999998732
 31
0.000000000000000
  0
LINE
  5
129
100
AcDbEntity
  8
A1
  6
CONTINUOUS
 62
7
100
AcDbLine
 10
55.00000000000000
 20
83.49999999998732
 30
0.000000000000000
 11
51.00000000000000
 21
83.49999999998732
 31
0.000000000000000
  0
LINE
  5
12A
100
AcDbEntity
  8
A1
  6
CONTINUOUS
 62
7
100
AcDbLine
 10
50.00000000000000
 20
83.49999999998732
 30
0.000000000000000
 11
51.00000000000000
 21
83.49999999998732
 31
0.000000000000000
  0
LINE
  5
12B
100
AcDbEntity
  8
A1
  6
CONTINUOUS
 62
7
100
AcDbLine
 10
50.00000000000000
 20
75.16143782775347
 30
0.000000000000000
 11
50.00000000000000
 21
83.49999999998732
 31
0.000000000000000
  0
LINE
  5
12C
100
AcDbEntity
  8
A1
  6
CONTINUOUS
 62
7
100
AcDbLine
 10
51.00000000000000
 20
75.49999999998744
 30
0.000000000000000
 11
50.33856217223385
 21
75.49999999998744
 31
0.000000000000000
  0
LINE
  5
12D
100
AcDbEntity
  8
A4
  6
CENTER
 62
1
100
AcDbLine
 10
50.26632911590690
 20
96.27159055022622
 30
0.000000000000000
 11
55.26632911590690
 21
96.27159055022622
 31
0.000000000000000
  0
LINE
  5
12E
100
AcDbEntity
  8
A4
  6
CENTER
 62
1
100
AcDbLine
 10
52.76632911590690
 20
93.77159055022622
 30
0.000000000000000
 11
52.76632911590690
 21
98.77159055022622
 31
0.000000000000000
  0
LINE
  5
12F
100
AcDbEntity
  8
A3
  6
DASHED
 62
2
100
AcDbLine
 10
51.00000000000000
 20
74.09999999998723
 30
0.000000000000000
 11
50.00000000000000
 21
74.09999999998723
 31
0.000000000000000
  0
LINE
  5
130
100
AcDbEntity
  8
A4
  6
CENTER
 62
1
100
AcDbLine
 10
48.50000000000000
 20
72.49999999998727
 30
0.000000000000000
 11
52.50000000000000
 21
72.49999999998727
 31
0.000000000000000
  0
LINE
  5
131
100
AcDbEntity
  8
A3
  6
DASHED
 62
2
100
AcDbLine
 10
51.00000000000000
 20
70.89999999998724
 30
0.000000000000000
 11
50.00000000000000
 21
70.89999999998724
 31
0.000000000000000
  0
LINE
  5
132
100
AcDbEntity
  8
A3
  6
DASHED
 62
2
100
AcDbLine
 10
51.00000000000000
 20
64.09999999998729
 30
0.000000000000000
 11
50.00000000000000
 21
64.09999999998729
 31
0.000000000000000
  0
LINE
  5
133
100
AcDbEntity
  8
A4
  6
CENTER
 62
1
100
AcDbLine
 10
52.50000000000000
 20
62.49999999998732
 30
0.000000000000000
 11
48.50000000000000
 21
62.49999999998732
 31
0.000000000000000
  0
LINE
  5
134
100
AcDbEntity
  8
A3
  6
DASHED
 62
2
100
AcDbLine
 10
51.00000000000000
 20
60.89999999998731
 30
0.000000000000000
 11
50.00000000000000
 21
60.89999999998731
 31
0.000000000000000
  0
LINE
  5
135
100
AcDbEntity
  8
A4
  6
CENTER
 62
1
100
AcDbLine
 10
56.59999999999997
 20
69.49999999998732
 30
0.000000000000000
 11
51.39999999999998
 21
69.49999999998732
 31
0.000000000000000
  0
LINE
  5
136
100
AcDbEntity
  8
A4
  6
CENTER
 62
1
100
AcDbLine
 10
54.00000000000000
 20
70.99999999998732
 30
0.000000000000000
 11
54.00000000000000
 21
66.89999999998730
 31
0.000000000000000
  0
LINE
  5
137
100
AcDbEntity
  8
A4
  6
CENTER
 62
1
100
AcDbLine
 10
55.00000000000000
 20
76.24999999998732
 30
0.000000000000000
 11
55.00000000000000
 21
82.74999999998732
 31
0.000000000000000
  0
LINE
  5
138
100
AcDbEntity
  8
A4
  6
CENTER
 62
1
100
AcDbLine
 10
51.75000000000000
 20
79.49999999998732
 30
0.000000000000000
 11
57.66769299999999
 21
79.49999999998732
 31
0.000000000000000
  0
LINE
  5
139
100
AcDbEntity
  8
A3
  6
DASHED
 62
2
100
AcDbLine
 10
96.10726212037781
 20
74.49999999998715
 30
0.000000000000000
 11
96.10726212037781
 21
59.74999999998715
 31
0.000000000000000
  0
ARC
  5
13A
100
AcDbEntity
  8
A3
  6
DASHED
 62
2
100
AcDbCircle
 10
93.85726212037781
 20
59.74999999998715
 30
0.000000000000000
 40
2.250000000000000
100
AcDbArc
 50
270.0000000000000
 51
360.0000000000000
  0
LINE
  5
13B
100
AcDbEntity
  8
A3
  6
DASHED
 62
2
100
AcDbLine
 10
93.85726212037781
 20
57.49999999998715
 30
0.000000000000000
 11
88.35726212037781
 21
57.49999999998715
 31
0.000000000000000
  0
LINE
  5
13C
100
AcDbEntity
  8
A1
  6
CONTINUOUS
 62
7
100
AcDbLine
 10
83.62589551270544
 20
57.43222360391524
 30
0.000000000000000
 11
98.58862871637091
 21
57.43222360391524
 31
0.000000000000000
  0
LINE
  5
13D
100
AcDbEntity
  8
A3
  6
DASHED
 62
2
100
AcDbLine
 10
86.10726212037783
 20
59.74999999998714
 30
0.000000000000000
 11
86.10726212037771
 21
74.49999999998714
 31
0.000000000000000
  0
ARC
  5
13E
100
AcDbEntity
  8
A3
  6
DASHED
 62
2
100
AcDbCircle
 10
88.35726212037781
 20
59.74999999998715
 30
0.000000000000000
 40
2.250000000000000
100
AcDbArc
 50
180.0000000000000
 51
270.0000000000000
  0
CIRCLE
  5
13F
100
AcDbEntity
  8
A3
  6
DASHED
 62
2
100
AcDbCircle
 10
91.10726212037781
 20
62.49999999998715
 30
0.000000000000000
 40
1.750000000000000
  0
CIRCLE
  5
140
100
AcDbEntity
  8
A3
  6
DASHED
 62
2
100
AcDbCircle
 10
91.10726212037781
 20
72.49999999998715
 30
0.000000000000000
 40
1.750000000000000
  0
ARC
  5
141
100
AcDbEntity
  8
A3
  6
DASHED
 62
2
100
AcDbCircle
 10
85.10726212037781
 20
74.49999999998712
 30
0.000000000000000
 40
1.000000000000011
100
AcDbArc
 50
41.40962210927145
 51
89.99999999999990
  0
LINE
  5
142
100
AcDbEntity
  8
A3
  6
DASHED
 62
2
100
AcDbLine
 10
85.10726212037783
 20
75.49999999998727
 30
0.000000000000000
 11
84.85726212037781
 21
75.49999999998727
 31
0.000000000000000
  0
LINE
  5
143
100
AcDbEntity
  8
A3
  6
DASHED
 62
2
100
AcDbLine
 10
84.85726212037781
 20
75.49999999998727
 30
0.000000000000000
 11
84.85726212037781
 21
76.84615300000002
 31
0.000000000000000
  0
LINE
  5
144
100
AcDbEntity
  8
A3
  6
DASHED
 62
2
100
AcDbLine
 10
97.35726212037781
 20
76.84615300000002
 30
0.000000000000000
 11
97.35726212037781
 21
75.49999999998727
 31
0.000000000000000
  0
LINE
  5
145
100
AcDbEntity
  8
A3
  6
DASHED
 62
2
100
AcDbLine
 10
97.35726212037781
 20
75.49999999998727
 30
0.000000000000000
 11
97.10726212037781
 21
75.49999999998727
 31
0.000000000000000
  0
ARC
  5
146
100
AcDbEntity
  8
A3
  6
DASHED
 62
2
100
AcDbCircle
 10
97.10726212037831
 20
74.49999999998630
 30
0.000000000000000
 40
1.000000000000951
100
AcDbArc
 50
90.00000000003007
 51
138.5903778907128
  0
ARC
  5
147
100
AcDbEntity
  8
A3
  6
DASHED
 62
2
100
AcDbCircle
 10
97.10726212037781
 20
74.49999999998715
 30
0.000000000000000
 40
1.000000000000000
100
AcDbArc
 50
138.5903778907291
 51
180.0000000000000
  0
ARC
  5
148
100
AcDbEntity
  8
A3
  6
DASHED
 62
2
100
AcDbCircle
 10
85.10726212037781
 20
74.49999999998715
 30
0.000000000000000
 40
1.000000000000000
100
AcDbArc
 50
0.000000000000000
 51
41.40962210927094
  0
LINE
  5
149
100
AcDbEntity
  8
A4
  6
CENTER
 62
1
100
AcDbLine
 10
91.10726212037781
 20
65.74999999998715
 30
0.000000000000000
 11
91.10726212037781
 21
59.24999999998715
 31
0.000000000000000
  0
LINE
  5
14A
100
AcDbEntity
  8
A4
  6
CENTER
 62
1
100
AcDbLine
 10
101.2130271203779
 20
79.49999999998715
 30
0.000000000000000
 11
81.06530812037788
 21
79.49999999998715
 31
0.000000000000000
  0
LINE
  5
14B
100
AcDbEntity
  8
A4
  6
CENTER
 62
1
100
AcDbLine
 10
91.10726212037783
 20
48.72527899998724
 30
0.000000000000000
 11
91.10726212037784
 21
98.55183599998719
 31
0.000000000000000
  0
LINE
  5
14C
100
AcDbEntity
  8
A4
  6
CENTER
 62
1
100
AcDbLine
 10
87.85726212037781
 20
72.49999999998715
 30
0.000000000000000
 11
94.35726212037781
 21
72.49999999998715
 31
0.000000000000000
  0
LINE
  5
14D
100
AcDbEntity
  8
A4
  6
CENTER
 62
1
100
AcDbLine
 10
87.85726212037781
 20
62.49999999998715
 30
0.000000000000000
 11
94.35726212037781
 21
62.49999999998715
 31
0.000000000000000
  0
LINE
  5
14E
100
AcDbEntity
  8
A3
  6
DASHED
 62
2
100
AcDbLine
 10
51.00000000000000
 20
129.8710294251405
 30
0.000000000000000
 11
50.00000000000000
 21
129.8710294251405
 31
0.000000000000000
  0
LINE
  5
14F
100
AcDbEntity
  8
A4
  6
CENTER
 62
1
100
AcDbLine
 10
48.50000000000000
 20
128.2710294251405
 30
0.000000000000000
 11
52.50000000000000
 21
128.2710294251405
 31
0.000000000000000
  0
LINE
  5
150
100
AcDbEntity
  8
A3
  6
DASHED
 62
2
100
AcDbLine
 10
51.00000000000000
 20
126.6710294251405
 30
0.000000000000000
 11
50.00000000000000
 21
126.6710294251405
 31
0.000000000000000
  0
ENDSEC
  0
SECTION
  2
OBJECTS
  0
DICTIONARY
  5
182
100
AcDbDictionary
  3
ACAD_GROUP
350
183
  3
ACAD_LAYOUT
350
184
  3
ACAD_MLINESTYLE
350
185
  0
DICTIONARY
  5
183
102
{ACAD_REACTORS
330
182
102
}
330
182
100
AcDbDictionary
  0
DICTIONARY
  5
184
102
{ACAD_REACTORS
330
182
102
}
330
182
100
AcDbDictionary
  3
Model
350
186
  3
ﾚｲｱｳﾄ1
350
187
  3
ﾚｲｱｳﾄ2
350
188
  0
DICTIONARY
  5
185
102
{ACAD_REACTORS
330
182
102
}
330
182
100
AcDbDictionary
  3
STANDARD
350
189
  0
LAYOUT
  5
186
102
{ACAD_REACTORS
330
184
102
}
330
184
100
AcDbPlotSettings
 70
11952
  4
A3
 44
297.000000
 45
420.000000
 73
  1
 72
  1
100
AcDbLayout
  1
Model
 71
0
330
179
  0
LAYOUT
  5
187
102
{ACAD_REACTORS
330
184
102
}
330
184
100
AcDbPlotSettings
100
AcDbLayout
  1
ﾚｲｱｳﾄ1
 71
1
330
17A
  0
LAYOUT
  5
188
102
{ACAD_REACTORS
330
184
102
}
330
184
100
AcDbPlotSettings
100
AcDbLayout
  1
ﾚｲｱｳﾄ2
 71
2
330
17B
  0
MLINESTYLE
  5
189
102
{ACAD_REACTORS
330
185
102
}
330
185
100
AcDbMlineStyle
  2
STANDARD
 70
     0
  3

 62
   256
 51
90.00
 52
90.00
 71
     2
 49
0.50
 62
   256
  6
BYLAYER
 49
-0.50
 62
   256
  6
BYLAYER
  0
ENDSEC
  0
EOF
