  0
SECTION
  2
HEADER
  9
$ACADVER
  1
AC1032
  9
$DWGCODEPAGE
  3
ANSI_932
  9
$LTSCALE
 40
20.0
  9
$FILLMODE
 70
     1
  9
$CLAYER
  8
0
  9
$PDMODE
 70
     0
  9
$SPLFRAME
 70
     0
  9
$SPLINETYPE
 70
     6
  9
$SPLINESEGS
 70
     8
  9
$DIMASZ
 40
2.000000
  9
$DIMEXE
 40
1.500000
  9
$DIMEXO
 40
0.800000
  9
$DIMTAD
 70
     1
  9
$DIMTIH
 70
     0
  9
$DIMTOH
 70
     0
  9
$DIMTVP
 40
0.500000
  9
$DIMTXT
 40
3.100000
  9
$EXTMIN
 10
0.000000
 20
0.000000
 30
0.000000
  9
$EXTMAX
 10
297.000000
 20
420.000000
 30
0.000000
  9
$MEASUREMENT
 70
  1
  9
$LIMMIN
 10
0.000000
 20
0.000000
  9
$LIMMAX
 10
297.000000
 20
420.000000
  9
$HANDSEED
  5
24A
  9
$LWDISPLAY
290
     0
  9
$DIMBLK
  1
_OPEN
  9
$DIMDEC
 70
     2
  9
$DIMADEC
 70
     2
  9
$DIMAUNIT
 70
     0
  9
$DIMZIN
 70
     8
  9
$DIMAZIN
 70
     2
  9
$DIMTOFL
 70
     1
  0
ENDSEC
  0
SECTION
  2
CLASSES
  0
ENDSEC
  0
SECTION
  2
TABLES
  0
TABLE
  2
VPORT
  5
216
100
AcDbSymbolTable
 70
     1
  0
VPORT
  5
217
100
AcDbSymbolTableRecord
100
AcDbViewportTableRecord
  2
*ACTIVE
 70
     0
 12
147.704331
 22
141.448237
 40
246.896473
 41
1.115482
  0
ENDTAB
  0
TABLE
  2
LTYPE
  5
218
100
AcDbSymbolTable
 70
     2
  0
LTYPE
  5
219
100
AcDbSymbolTableRecord
100
AcDbLinetypeTableRecord
  2
BYBLOCK
 70
     0
  3

 72
    65
 73
     0
 40
0.0
  0
LTYPE
  5
21A
100
AcDbSymbolTableRecord
100
AcDbLinetypeTableRecord
  2
BYLAYER
 70
     0
  3

 72
    65
 73
     0
 40
0.0
  0
LTYPE
  5
21B
100
AcDbSymbolTableRecord
100
AcDbLinetypeTableRecord
  2
CONTINUOUS
 70
     0
  3
Solid line (NEC CAE2D for Win R18.0 : 2025.12.18)
 72
    65
 73
     0
 40
0.0
  0
LTYPE
  5
21C
100
AcDbSymbolTableRecord
100
AcDbLinetypeTableRecord
  2
CENTER
 70
     0
  3
____ _ ____ _ ____ _ ____ _ ____ _ ____
 72
    65
 73
     4
 40
2.0
 49
1.25
 74
     0
 49
-0.25
 74
     0
 49
0.25
 74
     0
 49
-0.25
 74
     0
  0
ENDTAB
  0
TABLE
  2
LAYER
  5
21D
100
AcDbSymbolTable
 70
    14
  0
LAYER
  5
21E
100
AcDbSymbolTableRecord
100
AcDbLayerTableRecord
  2
0
 70
     0
 62
     7
  6
CONTINUOUS
370
    -3
390

  0
LAYER
  5
21F
100
AcDbSymbolTableRecord
100
AcDbLayerTableRecord
  2
A0
 70
     0
 62
     9
  6
CONTINUOUS
370
    -3
390

  0
LAYER
  5
220
100
AcDbSymbolTableRecord
100
AcDbLayerTableRecord
  2
A1
 70
     0
 62
     1
  6
CONTINUOUS
370
    -3
390

  0
LAYER
  5
221
100
AcDbSymbolTableRecord
100
AcDbLayerTableRecord
  2
A4
 70
     0
 62
     9
  6
CONTINUOUS
370
    -3
390

  0
LAYER
  5
222
100
AcDbSymbolTableRecord
100
AcDbLayerTableRecord
  2
A5
 70
     0
 62
     8
  6
CONTINUOUS
370
    -3
390

  0
LAYER
  5
223
100
AcDbSymbolTableRecord
100
AcDbLayerTableRecord
  2
A6
 70
     0
 62
    12
  6
CONTINUOUS
370
    -3
390

  0
LAYER
  5
224
100
AcDbSymbolTableRecord
100
AcDbLayerTableRecord
  2
A8
 70
     0
 62
    10
  6
CONTINUOUS
370
    -3
390

  0
LAYER
  5
225
100
AcDbSymbolTableRecord
100
AcDbLayerTableRecord
  2
A9
 70
     0
 62
     9
  6
CONTINUOUS
370
    -3
390

  0
LAYER
  5
226
100
AcDbSymbolTableRecord
100
AcDbLayerTableRecord
  2
A10
 70
     0
 62
     6
  6
CONTINUOUS
370
    -3
390

  0
LAYER
  5
227
100
AcDbSymbolTableRecord
100
AcDbLayerTableRecord
  2
A20
 70
     0
 62
     1
  6
CONTINUOUS
370
    -3
390

  0
LAYER
  5
228
100
AcDbSymbolTableRecord
100
AcDbLayerTableRecord
  2
A30
 70
     0
 62
     1
  6
CONTINUOUS
370
    -3
390

  0
LAYER
  5
229
100
AcDbSymbolTableRecord
100
AcDbLayerTableRecord
  2
A40
 70
     0
 62
     9
  6
CONTINUOUS
370
    -3
390

  0
LAYER
  5
22A
100
AcDbSymbolTableRecord
100
AcDbLayerTableRecord
  2
A50
 70
     0
 62
    12
  6
CONTINUOUS
370
    -3
390

  0
LAYER
  5
22B
100
AcDbSymbolTableRecord
100
AcDbLayerTableRecord
  2
A1023
 70
     0
 62
    16
  6
CONTINUOUS
370
    -3
390

  0
ENDTAB
  0
TABLE
  2
STYLE
  5
22C
100
AcDbSymbolTable
 70
     4
  0
STYLE
  5
22D
100
AcDbSymbolTableRecord
100
AcDbTextStyleTableRecord
  2
STANDARD
 70
    64
 40
0.0
 41
1.0
 50
0.0
 71
     0
 42
3.000000000000000
  3
TXT
  4

  0
STYLE
  5
22E
100
AcDbSymbolTableRecord
100
AcDbTextStyleTableRecord
  2
ANKTATE
 70
    68
 40
0.0
 41
1.0
 50
0.0
 71
     0
 42
3.000000000000000
  3
TXT
  4

  0
STYLE
  5
22F
100
AcDbSymbolTableRecord
100
AcDbTextStyleTableRecord
  2
KNJYOKO
 70
    64
 40
0.0
 41
1.0
 50
0.0
 71
     0
 42
3.000000000000000
  3
TXT
  4
BIGFONT
  0
STYLE
  5
230
100
AcDbSymbolTableRecord
100
AcDbTextStyleTableRecord
  2
KNJTATE
 70
    68
 40
0.0
 41
1.0
 50
0.0
 71
     0
 42
3.000000000000000
  3
TXT
  4
BIGFONT
  0
ENDTAB
  0
TABLE
  2
VIEW
  5
231
100
AcDbSymbolTable
 70
     0
  0
ENDTAB
  0
TABLE
  2
UCS
  5
232
100
AcDbSymbolTable
 70
     0
  0
ENDTAB
  0
TABLE
  2
APPID
  5
233
100
AcDbSymbolTable
 70
     1
  0
APPID
  5
234
100
AcDbSymbolTableRecord
100
AcDbRegAppTableRecord
  2
ACAD
 70
     0
  0
ENDTAB
  0
TABLE
  2
DIMSTYLE
  5
235
100
AcDbSymbolTable
 70
     2
100
AcDbDimStyleTable
  0
DIMSTYLE
105
236
100
AcDbSymbolTableRecord
100
AcDbDimStyleTableRecord
  2
STANDARD
 70
     0
 41
2.000000
 44
1.500000
 42
0.800000
145
0.661290
140
3.100000
144
1.000000
146
0.645161
340
22D
  0
DIMSTYLE
105
237
100
AcDbSymbolTableRecord
100
AcDbDimStyleTableRecord
  2
A001
 70
     0
 41
2.000000
 44
1.500000
 42
0.800000
145
0.661290
140
3.100000
144
1.000000
146
0.645161
 77
     1
 73
     0
 74
     0
271
     2
179
     2
275
     0
 78
     8
 79
     2
172
     1
340
22D
  0
ENDTAB
  0
TABLE
  2
BLOCK_RECORD
  5
238
100
AcDbSymbolTable
 70
    12
  0
BLOCK_RECORD
  5
239
100
AcDbSymbolTableRecord
100
AcDbBlockTableRecord
  2
*MODEL_SPACE
  0
BLOCK_RECORD
  5
23A
100
AcDbSymbolTableRecord
100
AcDbBlockTableRecord
  2
*PAPER_SPACE
  0
BLOCK_RECORD
  5
23B
100
AcDbSymbolTableRecord
100
AcDbBlockTableRecord
  2
*PAPER_SPACE0
  0
BLOCK_RECORD
  5
1
100
AcDbSymbolTableRecord
100
AcDbBlockTableRecord
  2
_NONE
  0
BLOCK_RECORD
  5
4
100
AcDbSymbolTableRecord
100
AcDbBlockTableRecord
  2
_CLOSED
  0
BLOCK_RECORD
  5
B
100
AcDbSymbolTableRecord
100
AcDbBlockTableRecord
  2
_DOT
  0
BLOCK_RECORD
  5
13
100
AcDbSymbolTableRecord
100
AcDbBlockTableRecord
  2
_OPEN
  0
BLOCK_RECORD
  5
19
100
AcDbSymbolTableRecord
100
AcDbBlockTableRecord
  2
_ORIGIN
  0
BLOCK_RECORD
  5
1E
100
AcDbSymbolTableRecord
100
AcDbBlockTableRecord
  2
_OPEN30
  0
BLOCK_RECORD
  5
24
100
AcDbSymbolTableRecord
100
AcDbBlockTableRecord
  2
_BOXFILLED
  0
BLOCK_RECORD
  5
29
100
AcDbSymbolTableRecord
100
AcDbBlockTableRecord
  2
_BOXBLANK
  0
BLOCK_RECORD
  5
31
100
AcDbSymbolTableRecord
100
AcDbBlockTableRecord
  2
_OBLIQUE
  0
BLOCK_RECORD
  5
35
100
AcDbSymbolTableRecord
100
AcDbBlockTableRecord
  2
_OPEN90
  0
BLOCK_RECORD
  5
3B
100
AcDbSymbolTableRecord
100
AcDbBlockTableRecord
  2
_CLOSEDBLANK
  0
BLOCK_RECORD
  5
41
100
AcDbSymbolTableRecord
100
AcDbBlockTableRecord
  2
_DOTBLANK
  0
ENDTAB
  0
ENDSEC
  0
SECTION
  2
BLOCKS
  0
BLOCK
  5
23C
100
AcDbEntity
  8
0
100
AcDbBlockBegin
  2
*MODEL_SPACE
 70
     0
 10
0.0
 20
0.0
 30
0.0
  3
*MODEL_SPACE
  1

  0
ENDBLK
  5
23D
100
AcDbEntity
  8
0
100
AcDbBlockEnd
  0
BLOCK
  5
23E
100
AcDbEntity
  8
0
100
AcDbBlockBegin
  2
*PAPER_SPACE
 70
     0
 10
0.0
 20
0.0
 30
0.0
  3
*PAPER_SPACE
  1

  0
ENDBLK
  5
23F
100
AcDbEntity
  8
0
100
AcDbBlockEnd
  0
BLOCK
  5
240
100
AcDbEntity
  8
0
100
AcDbBlockBegin
  2
*PAPER_SPACE0
 70
     0
 10
0.0
 20
0.0
 30
0.0
  3
*PAPER_SPACE0
  1

  0
ENDBLK
  5
241
100
AcDbEntity
  8
0
100
AcDbBlockEnd
  0
BLOCK
  5
2
330
1
100
AcDbEntity
  8
0
100
AcDbBlockBegin
  2
_NONE
 70
     0
 10
0.0
 20
0.0
 30
0.0
  3
_NONE
  1

  0
ENDBLK
  5
3
330
1
100
AcDbEntity
  8
0
100
AcDbBlockEnd
  0
BLOCK
  5
5
330
4
100
AcDbEntity
  8
0
100
AcDbBlockBegin
  2
_CLOSED
 70
     0
 10
0.0
 20
0.0
 30
0.0
  3
_CLOSED
  1

  0
LINE
  5
6
330
4
100
AcDbEntity
  8
0
  6
BYBLOCK
 62
     0
370
    -2
100
AcDbLine
 10
-1.0
 20
0.166667
 30
0.0
 11
0.0
 21
0.0
 31
0.0
  0
LINE
  5
7
330
4
100
AcDbEntity
  8
0
  6
BYBLOCK
 62
     0
370
    -2
100
AcDbLine
 10
0.0
 20
0.0
 30
0.0
 11
-1.0
 21
-0.166667
 31
0.0
  0
LINE
  5
8
330
4
100
AcDbEntity
  8
0
  6
BYBLOCK
 62
     0
370
    -2
100
AcDbLine
 10
-1.0
 20
0.166667
 30
0.0
 11
-1.0
 21
-0.166667
 31
0.0
  0
LINE
  5
9
330
4
100
AcDbEntity
  8
0
  6
BYBLOCK
 62
     0
370
    -2
100
AcDbLine
 10
0.0
 20
0.0
 30
0.0
 11
-1.0
 21
0.0
 31
0.0
  0
ENDBLK
  5
A
330
4
100
AcDbEntity
  8
0
100
AcDbBlockEnd
  0
BLOCK
  5
C
330
B
100
AcDbEntity
  8
0
100
AcDbBlockBegin
  2
_DOT
 70
     0
 10
0.0
 20
0.0
 30
0.0
  3
_DOT
  1

  0
POLYLINE
  5
D
330
B
100
AcDbEntity
  8
0
  6
BYBLOCK
 62
     0
370
    -2
100
AcDb2dPolyline
 66
     1
 10
0.0
 20
0.0
 30
0.0
 70
     1
 40
0.5
 41
0.5
  0
VERTEX
  5
E
330
B
100
AcDbEntity
  8
0
  6
BYBLOCK
 62
     0
370
    -2
100
AcDbVertex
100
AcDb2dVertex
 10
-0.25
 20
0.0
 30
0.0
 42
1.0
  0
VERTEX
  5
F
330
B
100
AcDbEntity
  8
0
  6
BYBLOCK
 62
     0
370
    -2
100
AcDbVertex
100
AcDb2dVertex
 10
0.25
 20
0.0
 30
0.0
 42
1.0
  0
SEQEND
  5
10
330
B
100
AcDbEntity
  8
0
  6
BYBLOCK
 62
     0
370
    -2
  0
LINE
  5
11
330
B
100
AcDbEntity
  8
0
  6
BYBLOCK
 62
     0
370
    -2
100
AcDbLine
 10
-0.5
 20
0.0
 30
0.0
 11
-1.0
 21
0.0
 31
0.0
  0
ENDBLK
  5
12
330
B
100
AcDbEntity
  8
0
100
AcDbBlockEnd
  0
BLOCK
  5
14
330
13
100
AcDbEntity
  8
0
100
AcDbBlockBegin
  2
_OPEN
 70
     0
 10
0.0
 20
0.0
 30
0.0
  3
_OPEN
  1

  0
LINE
  5
15
330
13
100
AcDbEntity
  8
0
  6
BYBLOCK
 62
     0
370
    -2
100
AcDbLine
 10
-1.0
 20
0.166667
 30
0.0
 11
0.0
 21
0.0
 31
0.0
  0
LINE
  5
16
330
13
100
AcDbEntity
  8
0
  6
BYBLOCK
 62
     0
370
    -2
100
AcDbLine
 10
0.0
 20
0.0
 30
0.0
 11
-1.0
 21
-0.166667
 31
0.0
  0
LINE
  5
17
330
13
100
AcDbEntity
  8
0
  6
BYBLOCK
 62
     0
370
    -2
100
AcDbLine
 10
0.0
 20
0.0
 30
0.0
 11
-1.0
 21
0.0
 31
0.0
  0
ENDBLK
  5
18
330
13
100
AcDbEntity
  8
0
100
AcDbBlockEnd
  0
BLOCK
  5
1A
330
19
100
AcDbEntity
  8
0
100
AcDbBlockBegin
  2
_ORIGIN
 70
     0
 10
0.0
 20
0.0
 30
0.0
  3
_ORIGIN
  1

  0
CIRCLE
  5
1B
330
19
100
AcDbEntity
  8
0
  6
BYBLOCK
 62
     0
370
    -2
100
AcDbCircle
 10
0.0
 20
0.0
 30
0.0
 40
0.5
  0
LINE
  5
1C
330
19
100
AcDbEntity
  8
0
  6
BYBLOCK
 62
     0
370
    -2
100
AcDbLine
 10
0.0
 20
0.0
 30
0.0
 11
-1.0
 21
0.0
 31
0.0
  0
ENDBLK
  5
1D
330
19
100
AcDbEntity
  8
0
100
AcDbBlockEnd
  0
BLOCK
  5
1F
330
1E
100
AcDbEntity
  8
0
100
AcDbBlockBegin
  2
_OPEN30
 70
     0
 10
0.0
 20
0.0
 30
0.0
  3
_OPEN30
  1

  0
LINE
  5
20
330
1E
100
AcDbEntity
  8
0
  6
BYBLOCK
 62
     0
370
    -2
100
AcDbLine
 10
-1.0
 20
0.267949
 30
0.0
 11
0.0
 21
0.0
 31
0.0
  0
LINE
  5
21
330
1E
100
AcDbEntity
  8
0
  6
BYBLOCK
 62
     0
370
    -2
100
AcDbLine
 10
0.0
 20
0.0
 30
0.0
 11
-1.0
 21
-0.267949
 31
0.0
  0
LINE
  5
22
330
1E
100
AcDbEntity
  8
0
  6
BYBLOCK
 62
     0
370
    -2
100
AcDbLine
 10
0.0
 20
0.0
 30
0.0
 11
-1.0
 21
0.0
 31
0.0
  0
ENDBLK
  5
23
330
1E
100
AcDbEntity
  8
0
100
AcDbBlockEnd
  0
BLOCK
  5
25
330
24
100
AcDbEntity
  8
0
100
AcDbBlockBegin
  2
_BOXFILLED
 70
     0
 10
0.0
 20
0.0
 30
0.0
  3
_BOXFILLED
  1

  0
SOLID
  5
26
330
24
100
AcDbEntity
  8
0
  6
BYBLOCK
 62
     0
370
    -2
100
AcDbTrace
 10
-0.5
 20
0.5
 30
0.0
 11
0.5
 21
0.5
 31
0.0
 12
-0.5
 22
-0.5
 32
0.0
 13
0.5
 23
-0.5
 33
0.0
  0
LINE
  5
27
330
24
100
AcDbEntity
  8
0
  6
BYBLOCK
 62
     0
370
    -2
100
AcDbLine
 10
-0.5
 20
0.0
 30
0.0
 11
-1.0
 21
0.0
 31
0.0
  0
ENDBLK
  5
28
330
24
100
AcDbEntity
  8
0
100
AcDbBlockEnd
  0
BLOCK
  5
2A
330
29
100
AcDbEntity
  8
0
100
AcDbBlockBegin
  2
_BOXBLANK
 70
     0
 10
0.0
 20
0.0
 30
0.0
  3
_BOXBLANK
  1

  0
LINE
  5
2B
330
29
100
AcDbEntity
  8
0
  6
BYBLOCK
 62
     0
370
    -2
100
AcDbLine
 10
-0.5
 20
-0.5
 30
0.0
 11
0.5
 21
-0.5
 31
0.0
  0
LINE
  5
2C
330
29
100
AcDbEntity
  8
0
  6
BYBLOCK
 62
     0
370
    -2
100
AcDbLine
 10
0.5
 20
-0.5
 30
0.0
 11
0.5
 21
0.5
 31
0.0
  0
LINE
  5
2D
330
29
100
AcDbEntity
  8
0
  6
BYBLOCK
 62
     0
370
    -2
100
AcDbLine
 10
0.5
 20
0.5
 30
0.0
 11
-0.5
 21
0.5
 31
0.0
  0
LINE
  5
2E
330
29
100
AcDbEntity
  8
0
  6
BYBLOCK
 62
     0
370
    -2
100
AcDbLine
 10
-0.5
 20
0.5
 30
0.0
 11
-0.5
 21
-0.5
 31
0.0
  0
LINE
  5
2F
330
29
100
AcDbEntity
  8
0
  6
BYBLOCK
 62
     0
370
    -2
100
AcDbLine
 10
-0.5
 20
0.0
 30
0.0
 11
-1.0
 21
0.0
 31
0.0
  0
ENDBLK
  5
30
330
29
100
AcDbEntity
  8
0
100
AcDbBlockEnd
  0
BLOCK
  5
32
330
31
100
AcDbEntity
  8
0
100
AcDbBlockBegin
  2
_OBLIQUE
 70
     0
 10
0.0
 20
0.0
 30
0.0
  3
_OBLIQUE
  1

  0
LINE
  5
33
330
31
100
AcDbEntity
  8
0
  6
BYBLOCK
 62
     0
370
    -2
100
AcDbLine
 10
-0.5
 20
-0.5
 30
0.0
 11
0.5
 21
0.5
 31
0.0
  0
ENDBLK
  5
34
330
31
100
AcDbEntity
  8
0
100
AcDbBlockEnd
  0
BLOCK
  5
36
330
35
100
AcDbEntity
  8
0
100
AcDbBlockBegin
  2
_OPEN90
 70
     0
 10
0.0
 20
0.0
 30
0.0
  3
_OPEN90
  1

  0
LINE
  5
37
330
35
100
AcDbEntity
  8
0
  6
BYBLOCK
 62
     0
370
    -2
100
AcDbLine
 10
-0.5
 20
0.5
 30
0.0
 11
0.0
 21
0.0
 31
0.0
  0
LINE
  5
38
330
35
100
AcDbEntity
  8
0
  6
BYBLOCK
 62
     0
370
    -2
100
AcDbLine
 10
0.0
 20
0.0
 30
0.0
 11
-0.5
 21
-0.5
 31
0.0
  0
LINE
  5
39
330
35
100
AcDbEntity
  8
0
  6
BYBLOCK
 62
     0
370
    -2
100
AcDbLine
 10
0.0
 20
0.0
 30
0.0
 11
-1.0
 21
0.0
 31
0.0
  0
ENDBLK
  5
3A
330
35
100
AcDbEntity
  8
0
100
AcDbBlockEnd
  0
BLOCK
  5
3C
330
3B
100
AcDbEntity
  8
0
100
AcDbBlockBegin
  2
_CLOSEDBLANK
 70
     0
 10
0.0
 20
0.0
 30
0.0
  3
_CLOSEDBLANK
  1

  0
LINE
  5
3D
330
3B
100
AcDbEntity
  8
0
  6
BYBLOCK
 62
     0
370
    -2
100
AcDbLine
 10
-1.0
 20
0.1666666666666666
 30
0.0
 11
0.0
 21
0.0
 31
0.0
  0
LINE
  5
3E
330
3B
100
AcDbEntity
  8
0
  6
BYBLOCK
 62
     0
370
    -2
100
AcDbLine
 10
0.0
 20
0.0
 30
0.0
 11
-1.0
 21
-0.1666666666666666
 31
0.0
  0
LINE
  5
3F
330
3B
100
AcDbEntity
  8
0
  6
BYBLOCK
 62
     0
370
    -2
100
AcDbLine
 10
-1.0
 20
0.1666666666666666
 30
0.0
 11
-1.0
 21
-0.1666666666666666
 31
0.0
  0
ENDBLK
  5
40
330
3B
100
AcDbEntity
  8
0
100
AcDbBlockEnd
  0
BLOCK
  5
42
330
41
100
AcDbEntity
  8
0
100
AcDbBlockBegin
  2
_DOTBLANK
 70
     0
 10
0.0
 20
0.0
 30
0.0
  3
_DOTBLANK
  1

  0
CIRCLE
  5
43
330
41
100
AcDbEntity
  8
0
  6
BYBLOCK
 62
     0
370
    -2
100
AcDbCircle
 10
0.0
 20
0.0
 30
0.0
 40
0.5
  0
LINE
  5
44
330
41
100
AcDbEntity
  8
0
  6
BYBLOCK
 62
     0
370
    -2
100
AcDbLine
 10
-0.5
 20
0.0
 30
0.0
 11
-1.0
 21
0.0
 31
0.0
  0
ENDBLK
  5
45
330
41
100
AcDbEntity
  8
0
100
AcDbBlockEnd
  0
ENDSEC
  0
SECTION
  2
ENTITIES
  0
MTEXT
  5
46
100
AcDbEntity
  8
A8
  6
CONTINUOUS
 62
3
100
AcDbMText
 10
9.999997526638502
 20
18.00000076076889
 30
0.000000000000000
 40
3.000000000000000
 41
0.000000000000000
 44
0.6739999771118164
 71
     7
 72
     1
  1
{\H0.94x;{TYPE No.TL-448SUS-1}}
 11
1.000000000000000
 21
0.000000000000000
 31
0.000000000000000
  7
STANDARD
  0
POINT
  5
47
100
AcDbEntity
  8
A0
  6
CONTINUOUS
 62
3
100
AcDbPoint
 10
9.999997526638502
 20
18.00000076076889
 30
0.000000000000000
  0
LINE
  5
48
100
AcDbEntity
  8
A1
  6
CONTINUOUS
 62
7
100
AcDbLine
 10
275.8341062993177
 20
128.6736093569014
 30
0.000000000000000
 11
276.3341062993177
 21
128.6736093569014
 31
0.000000000000000
  0
LINE
  5
49
100
AcDbEntity
  8
A1
  6
CONTINUOUS
 62
7
100
AcDbLine
 10
256.8341062993177
 20
128.6736093569014
 30
0.000000000000000
 11
256.3341062993177
 21
128.6736093569014
 31
0.000000000000000
  0
LINE
  5
4A
100
AcDbEntity
  8
A1
  6
CONTINUOUS
 62
7
100
AcDbLine
 10
263.7342312993177
 20
128.4990243569014
 30
0.000000000000000
 11
268.9339822993177
 21
128.4990243569014
 31
0.000000000000000
  0
LINE
  5
4B
100
AcDbEntity
  8
A1
  6
CONTINUOUS
 62
7
100
AcDbLine
 10
277.8341062993177
 20
164.6736093569014
 30
0.000000000000000
 11
277.8341062993177
 21
166.1736093569014
 31
0.000000000000000
  0
LINE
  5
4C
100
AcDbEntity
  8
A1
  6
CONTINUOUS
 62
7
100
AcDbLine
 10
254.8341062993177
 20
166.1736093569014
 30
0.000000000000000
 11
277.8341062993177
 21
166.1736093569014
 31
0.000000000000000
  0
LINE
  5
4D
100
AcDbEntity
  8
A1
  6
CONTINUOUS
 62
7
100
AcDbLine
 10
254.8341062993177
 20
166.1736093569014
 30
0.000000000000000
 11
254.8341062993177
 21
164.6736093569014
 31
0.000000000000000
  0
LINE
  5
4E
100
AcDbEntity
  8
A1
  6
CONTINUOUS
 62
7
100
AcDbLine
 10
276.3341062993177
 20
164.6736093569014
 30
0.000000000000000
 11
277.8341062993177
 21
164.6736093569014
 31
0.000000000000000
  0
LINE
  5
4F
100
AcDbEntity
  8
A1
  6
CONTINUOUS
 62
7
100
AcDbLine
 10
256.3341062993177
 20
164.6736093569014
 30
0.000000000000000
 11
276.3341062993177
 21
164.6736093569014
 31
0.000000000000000
  0
LINE
  5
50
100
AcDbEntity
  8
A1
  6
CONTINUOUS
 62
7
100
AcDbLine
 10
254.8341062993177
 20
164.6736093569014
 30
0.000000000000000
 11
256.3341062993177
 21
164.6736093569014
 31
0.000000000000000
  0
LINE
  5
51
100
AcDbEntity
  8
A1
  6
CONTINUOUS
 62
7
100
AcDbLine
 10
256.3341062993177
 20
128.6736093569014
 30
0.000000000000000
 11
256.3341062993177
 21
129.8736093569015
 31
0.000000000000000
  0
LINE
  5
52
100
AcDbEntity
  8
A1
  6
CONTINUOUS
 62
7
100
AcDbLine
 10
254.8341062993177
 20
128.6736093569014
 30
0.000000000000000
 11
254.8341062993177
 21
130.0075843569014
 31
0.000000000000000
  0
LINE
  5
53
100
AcDbEntity
  8
A1
  6
CONTINUOUS
 62
7
100
AcDbLine
 10
254.8341062993177
 20
128.6736093569014
 30
0.000000000000000
 11
256.3341062993177
 21
128.6736093569014
 31
0.000000000000000
  0
LINE
  5
54
100
AcDbEntity
  8
A1
  6
CONTINUOUS
 62
7
100
AcDbLine
 10
277.8341062993177
 20
147.7396353569014
 30
0.000000000000000
 11
277.8341062993177
 21
149.0736093569014
 31
0.000000000000000
  0
LINE
  5
55
100
AcDbEntity
  8
A1
  6
CONTINUOUS
 62
7
100
AcDbLine
 10
276.3341062993177
 20
129.8736093569015
 30
0.000000000000000
 11
276.3341062993177
 21
128.6736093569014
 31
0.000000000000000
  0
LINE
  5
56
100
AcDbEntity
  8
A1
  6
CONTINUOUS
 62
7
100
AcDbLine
 10
277.8341062993177
 20
130.0075843569014
 30
0.000000000000000
 11
277.8341062993177
 21
128.6736093569014
 31
0.000000000000000
  0
LINE
  5
57
100
AcDbEntity
  8
A1
  6
CONTINUOUS
 62
7
100
AcDbLine
 10
276.3341062993177
 20
128.6736093569014
 30
0.000000000000000
 11
277.8341062993177
 21
128.6736093569014
 31
0.000000000000000
  0
LINE
  5
58
100
AcDbEntity
  8
A1
  6
CONTINUOUS
 62
7
100
AcDbLine
 10
254.8341062993177
 20
149.0736093569014
 30
0.000000000000000
 11
254.8341062993177
 21
147.7396353569014
 31
0.000000000000000
  0
LINE
  5
59
100
AcDbEntity
  8
A1
  6
CONTINUOUS
 62
7
100
AcDbLine
 10
256.3341062993177
 20
158.6736093569014
 30
0.000000000000000
 11
256.3341062993177
 21
164.6736093569014
 31
0.000000000000000
  0
LINE
  5
5A
100
AcDbEntity
  8
A1
  6
CONTINUOUS
 62
7
100
AcDbLine
 10
254.8341062993177
 20
158.6736093569014
 30
0.000000000000000
 11
254.8341062993177
 21
164.6736093569014
 31
0.000000000000000
  0
LINE
  5
5B
100
AcDbEntity
  8
A1
  6
CONTINUOUS
 62
7
100
AcDbLine
 10
256.3341062993177
 20
164.6736093569014
 30
0.000000000000000
 11
254.8341062993177
 21
164.6736093569014
 31
0.000000000000000
  0
LINE
  5
5C
100
AcDbEntity
  8
A1
  6
CONTINUOUS
 62
7
100
AcDbLine
 10
277.8341062993177
 20
164.6736093569014
 30
0.000000000000000
 11
276.3341062993177
 21
164.6736093569014
 31
0.000000000000000
  0
LINE
  5
5D
100
AcDbEntity
  8
A1
  6
CONTINUOUS
 62
7
100
AcDbLine
 10
277.8341062993177
 20
164.6736093569014
 30
0.000000000000000
 11
277.8341062993177
 21
158.6736093569014
 31
0.000000000000000
  0
LINE
  5
5E
100
AcDbEntity
  8
A1
  6
CONTINUOUS
 62
7
100
AcDbLine
 10
276.3341062993177
 20
164.6736093569014
 30
0.000000000000000
 11
276.3341062993177
 21
158.6736093569014
 31
0.000000000000000
  0
LINE
  5
5F
100
AcDbEntity
  8
A1
  6
CONTINUOUS
 62
7
100
AcDbLine
 10
256.3341062993177
 20
158.6736093569014
 30
0.000000000000000
 11
256.3341062993177
 21
152.4142683569014
 31
0.000000000000000
  0
LINE
  5
60
100
AcDbEntity
  8
A1
  6
CONTINUOUS
 62
7
100
AcDbLine
 10
254.8341062993177
 20
158.6736093569014
 30
0.000000000000000
 11
254.8341062993177
 21
152.4142683569014
 31
0.000000000000000
  0
LINE
  5
61
100
AcDbEntity
  8
A1
  6
CONTINUOUS
 62
7
100
AcDbLine
 10
254.8341062993177
 20
158.6736093569014
 30
0.000000000000000
 11
256.3341062993177
 21
158.6736093569014
 31
0.000000000000000
  0
LINE
  5
62
100
AcDbEntity
  8
A1
  6
CONTINUOUS
 62
7
100
AcDbLine
 10
256.3341062993177
 20
149.8130403569014
 30
0.000000000000000
 11
256.3341062993177
 21
152.4142683569014
 31
0.000000000000000
  0
LINE
  5
63
100
AcDbEntity
  8
A1
  6
CONTINUOUS
 62
7
100
AcDbLine
 10
254.8341062993177
 20
149.0736093569014
 30
0.000000000000000
 11
254.8341062993177
 21
152.4142683569014
 31
0.000000000000000
  0
LINE
  5
64
100
AcDbEntity
  8
A1
  6
CONTINUOUS
 62
7
100
AcDbLine
 10
254.8341062993177
 20
152.4142683569014
 30
0.000000000000000
 11
256.3341062993177
 21
152.4142683569014
 31
0.000000000000000
  0
LINE
  5
65
100
AcDbEntity
  8
A1
  6
CONTINUOUS
 62
7
100
AcDbLine
 10
254.8341062993177
 20
149.0736093569014
 30
0.000000000000000
 11
256.3341062993177
 21
149.0736093569014
 31
0.000000000000000
  0
LINE
  5
66
100
AcDbEntity
  8
A1
  6
CONTINUOUS
 62
7
100
AcDbLine
 10
276.3341062993177
 20
152.4142683569014
 30
0.000000000000000
 11
276.3341062993177
 21
158.6736093569014
 31
0.000000000000000
  0
LINE
  5
67
100
AcDbEntity
  8
A1
  6
CONTINUOUS
 62
7
100
AcDbLine
 10
277.8341062993177
 20
152.4142683569014
 30
0.000000000000000
 11
277.8341062993177
 21
158.6736093569014
 31
0.000000000000000
  0
LINE
  5
68
100
AcDbEntity
  8
A1
  6
CONTINUOUS
 62
7
100
AcDbLine
 10
276.3341062993177
 20
158.6736093569014
 30
0.000000000000000
 11
277.8341062993177
 21
158.6736093569014
 31
0.000000000000000
  0
LINE
  5
69
100
AcDbEntity
  8
A1
  6
CONTINUOUS
 62
7
100
AcDbLine
 10
276.3341062993177
 20
152.4142683569014
 30
0.000000000000000
 11
276.3341062993177
 21
149.8130403569014
 31
0.000000000000000
  0
LINE
  5
6A
100
AcDbEntity
  8
A1
  6
CONTINUOUS
 62
7
100
AcDbLine
 10
277.8341062993177
 20
152.4142683569014
 30
0.000000000000000
 11
277.8341062993177
 21
149.0736093569014
 31
0.000000000000000
  0
LINE
  5
6B
100
AcDbEntity
  8
A1
  6
CONTINUOUS
 62
7
100
AcDbLine
 10
276.3341062993177
 20
152.4142683569014
 30
0.000000000000000
 11
277.8341062993177
 21
152.4142683569014
 31
0.000000000000000
  0
LINE
  5
6C
100
AcDbEntity
  8
A1
  6
CONTINUOUS
 62
7
100
AcDbLine
 10
276.3341062993177
 20
149.0736093569014
 30
0.000000000000000
 11
277.8341062993177
 21
149.0736093569014
 31
0.000000000000000
  0
CIRCLE
  5
6D
100
AcDbEntity
  8
A1
  6
CONTINUOUS
 62
7
100
AcDbCircle
 10
266.3341062993177
 20
114.4736093569014
 30
0.000000000000000
 40
2.600000000000000
  0
CIRCLE
  5
6E
100
AcDbEntity
  8
A1
  6
CONTINUOUS
 62
7
100
AcDbCircle
 10
266.3341062993177
 20
128.4736093569014
 30
0.000000000000000
 40
2.600000000000000
  0
CIRCLE
  5
6F
100
AcDbEntity
  8
A1
  6
CONTINUOUS
 62
7
100
AcDbCircle
 10
266.3341062993177
 20
142.4736093569014
 30
0.000000000000000
 40
2.600000000000000
  0
ARC
  5
70
100
AcDbEntity
  8
A1
  6
CONTINUOUS
 62
7
100
AcDbCircle
 10
255.0841062993177
 20
160.1736093569014
 30
0.000000000000000
 40
1.000000000000000
100
AcDbArc
 50
180.0000000000000
 51
255.5224880000000
  0
ARC
  5
71
100
AcDbEntity
  8
A1
  6
CONTINUOUS
 62
7
100
AcDbCircle
 10
277.5841062993177
 20
160.1736093569014
 30
0.000000000000000
 40
1.000000000000000
100
AcDbArc
 50
284.4775120000000
 51
360.0000000000000
  0
ARC
  5
72
100
AcDbEntity
  8
A1
  6
CONTINUOUS
 62
7
100
AcDbCircle
 10
277.5841062993177
 20
163.1736093569014
 30
0.000000000000000
 40
1.000000000000000
100
AcDbArc
 50
0.000000000000000
 51
75.52248800000000
  0
ARC
  5
73
100
AcDbEntity
  8
A1
  6
CONTINUOUS
 62
7
100
AcDbCircle
 10
255.0841062993177
 20
163.1736093569014
 30
0.000000000000000
 40
1.000000000000000
100
AcDbArc
 50
104.4775120000000
 51
180.0000000000000
  0
ARC
  5
74
100
AcDbEntity
  8
A1
  6
CONTINUOUS
 62
7
100
AcDbCircle
 10
255.3341062993177
 20
130.8736093569015
 30
0.000000000000000
 40
1.000000000000000
100
AcDbArc
 50
180.0000000000000
 51
270.0000000000000
  0
ARC
  5
75
100
AcDbEntity
  8
A1
  6
CONTINUOUS
 62
7
100
AcDbCircle
 10
277.3341062993177
 20
146.8736093569014
 30
0.000000000000000
 40
1.000000000000000
100
AcDbArc
 50
0.000000000000000
 51
73.80371000000000
  0
ARC
  5
76
100
AcDbEntity
  8
A1
  6
CONTINUOUS
 62
7
100
AcDbCircle
 10
277.3341062993177
 20
130.8736093569015
 30
0.000000000000000
 40
1.000000000000000
100
AcDbArc
 50
270.0000000000000
 51
360.0000000000000
  0
ARC
  5
77
100
AcDbEntity
  8
A1
  6
CONTINUOUS
 62
7
100
AcDbCircle
 10
255.3341062993177
 20
146.8736093569014
 30
0.000000000000000
 40
1.000000000000000
100
AcDbArc
 50
106.1962900000000
 51
180.0000000000000
  0
ARC
  5
78
100
AcDbEntity
  8
A1
  6
CONTINUOUS
 62
7
100
AcDbCircle
 10
272.8341062993177
 20
110.8736093569014
 30
0.000000000000000
 40
3.000000000000000
100
AcDbArc
 50
270.0000000000000
 51
360.0000000000000
  0
ARC
  5
79
100
AcDbEntity
  8
A1
  6
CONTINUOUS
 62
7
100
AcDbCircle
 10
259.8341062993177
 20
110.8736093569014
 30
0.000000000000000
 40
3.000000000000000
100
AcDbArc
 50
180.0000000000000
 51
270.0000000000000
  0
LINE
  5
7A
100
AcDbEntity
  8
A1
  6
CONTINUOUS
 62
7
100
AcDbLine
 10
254.0841062993177
 20
163.1736093569014
 30
0.000000000000000
 11
254.0841062993177
 21
160.1736093569014
 31
0.000000000000000
  0
LINE
  5
7B
100
AcDbEntity
  8
A1
  6
CONTINUOUS
 62
7
100
AcDbLine
 10
278.5841062993177
 20
163.1736093569014
 30
0.000000000000000
 11
278.5841062993177
 21
160.1736093569014
 31
0.000000000000000
  0
LINE
  5
7C
100
AcDbEntity
  8
A1
  6
CONTINUOUS
 62
7
100
AcDbLine
 10
256.3341062993177
 20
164.1736093569014
 30
0.000000000000000
 11
276.3341062993177
 21
164.1736093569014
 31
0.000000000000000
  0
LINE
  5
7D
100
AcDbEntity
  8
A1
  6
CONTINUOUS
 62
7
100
AcDbLine
 10
256.3341062993177
 20
149.2613993569014
 30
0.000000000000000
 11
256.3341062993177
 21
149.8130403569014
 31
0.000000000000000
  0
LINE
  5
7E
100
AcDbEntity
  8
A1
  6
CONTINUOUS
 62
7
100
AcDbLine
 10
276.3341062993177
 20
149.2613993569014
 30
0.000000000000000
 11
276.3341062993177
 21
149.8130403569014
 31
0.000000000000000
  0
LINE
  5
7F
100
AcDbEntity
  8
A1
  6
CONTINUOUS
 62
7
100
AcDbLine
 10
256.3341062993177
 20
159.1736093569014
 30
0.000000000000000
 11
276.3341062993177
 21
159.1736093569014
 31
0.000000000000000
  0
LINE
  5
80
100
AcDbEntity
  8
A1
  6
CONTINUOUS
 62
7
100
AcDbLine
 10
256.8341062993177
 20
129.8736093569015
 30
0.000000000000000
 11
256.8341062993177
 21
110.8736093569014
 31
0.000000000000000
  0
LINE
  5
81
100
AcDbEntity
  8
A1
  6
CONTINUOUS
 62
7
100
AcDbLine
 10
255.3341062993177
 20
129.8736093569015
 30
0.000000000000000
 11
256.8341062993177
 21
129.8736093569015
 31
0.000000000000000
  0
LINE
  5
82
100
AcDbEntity
  8
A1
  6
CONTINUOUS
 62
7
100
AcDbLine
 10
277.3341062993177
 20
129.8736093569015
 30
0.000000000000000
 11
275.8341062993177
 21
129.8736093569015
 31
0.000000000000000
  0
LINE
  5
83
100
AcDbEntity
  8
A1
  6
CONTINUOUS
 62
7
100
AcDbLine
 10
275.8341062993177
 20
129.8736093569015
 30
0.000000000000000
 11
275.8341062993177
 21
110.8736093569014
 31
0.000000000000000
  0
LINE
  5
84
100
AcDbEntity
  8
A1
  6
CONTINUOUS
 62
7
100
AcDbLine
 10
259.8341062993177
 20
107.8736093569014
 30
0.000000000000000
 11
272.8341062993177
 21
107.8736093569014
 31
0.000000000000000
  0
LINE
  5
85
100
AcDbEntity
  8
A1
  6
CONTINUOUS
 62
7
100
AcDbLine
 10
278.3341062993177
 20
130.8736093569015
 30
0.000000000000000
 11
278.3341062993177
 21
146.8736093569014
 31
0.000000000000000
  0
LINE
  5
86
100
AcDbEntity
  8
A1
  6
CONTINUOUS
 62
7
100
AcDbLine
 10
254.3341062993177
 20
130.8736093569015
 30
0.000000000000000
 11
254.3341062993177
 21
146.8736093569014
 31
0.000000000000000
  0
LINE
  5
87
100
AcDbEntity
  8
A1
  6
CONTINUOUS
 62
7
100
AcDbLine
 10
255.0551772993176
 20
147.8339213569014
 30
0.000000000000000
 11
277.6130352993176
 21
147.8339213569014
 31
0.000000000000000
  0
LINE
  5
88
100
AcDbEntity
  8
A1
  6
CONTINUOUS
 62
7
100
AcDbLine
 10
277.3341062993177
 20
147.8736093569014
 30
0.000000000000000
 11
276.3341062993177
 21
147.8736093569014
 31
0.000000000000000
  0
LINE
  5
89
100
AcDbEntity
  8
A1
  6
CONTINUOUS
 62
7
100
AcDbLine
 10
276.3341062993177
 20
147.8736093569014
 30
0.000000000000000
 11
276.3341062993177
 21
149.2613993569014
 31
0.000000000000000
  0
LINE
  5
8A
100
AcDbEntity
  8
A1
  6
CONTINUOUS
 62
7
100
AcDbLine
 10
256.3341062993177
 20
149.2613993569014
 30
0.000000000000000
 11
276.3341062993177
 21
149.2613993569014
 31
0.000000000000000
  0
LINE
  5
8B
100
AcDbEntity
  8
A1
  6
CONTINUOUS
 62
7
100
AcDbLine
 10
256.3341062993177
 20
147.8736093569014
 30
0.000000000000000
 11
256.3341062993177
 21
149.2613993569014
 31
0.000000000000000
  0
LINE
  5
8C
100
AcDbEntity
  8
A1
  6
CONTINUOUS
 62
7
100
AcDbLine
 10
255.3341062993177
 20
147.8736093569014
 30
0.000000000000000
 11
256.3341062993177
 21
147.8736093569014
 31
0.000000000000000
  0
ARC
  5
8D
100
AcDbEntity
  8
A1
  6
CONTINUOUS
 62
7
100
AcDbCircle
 10
278.7556072993177
 20
191.4985033569014
 30
0.000000000000000
 40
3.000000000000000
100
AcDbArc
 50
28.72226800000000
 51
90.00000000000000
  0
ARC
  5
8E
100
AcDbEntity
  8
A1
  6
CONTINUOUS
 62
7
100
AcDbCircle
 10
255.3903792993177
 20
140.0096133569014
 30
0.000000000000000
 40
5.000000000000000
100
AcDbArc
 50
190.8427000000000
 51
257.8041250000000
  0
ARC
  5
8F
100
AcDbEntity
  8
A1
  6
CONTINUOUS
 62
7
100
AcDbCircle
 10
277.2623932993176
 20
140.0096133569014
 30
0.000000000000000
 40
5.000000000000000
100
AcDbArc
 50
282.3769620000000
 51
349.1573000000001
  0
ARC
  5
90
100
AcDbEntity
  8
A1
  6
CONTINUOUS
 62
7
100
AcDbCircle
 10
150.7381742993176
 20
164.2431363569014
 30
0.000000000000000
 40
133.8240730000000
100
AcDbArc
 50
349.1573000000001
 51
372.2056950000000
  0
ARC
  5
91
100
AcDbEntity
  8
A1
  6
CONTINUOUS
 62
7
100
AcDbCircle
 10
277.2797542993177
 20
140.1004303569014
 30
0.000000000000000
 40
2.000000000000000
100
AcDbArc
 50
301.8148600000000
 51
349.1985190000000
  0
ARC
  5
92
100
AcDbEntity
  8
A1
  6
CONTINUOUS
 62
7
100
AcDbCircle
 10
280.0710462993177
 20
192.2193503569014
 30
0.000000000000000
 40
1.500000000000000
100
AcDbArc
 50
12.20569500000000
 51
28.72226800000000
  0
ARC
  5
93
100
AcDbEntity
  8
A1
  6
CONTINUOUS
 62
7
100
AcDbCircle
 10
255.3730182993176
 20
140.1004303569014
 30
0.000000000000000
 40
2.000000000000000
100
AcDbArc
 50
190.8014810000000
 51
238.7042440000000
  0
ARC
  5
94
100
AcDbEntity
  8
A1
  6
CONTINUOUS
 62
7
100
AcDbCircle
 10
381.9145982993176
 20
164.2431363569014
 30
0.000000000000000
 40
133.8240730000000
100
AcDbArc
 50
167.7170730000000
 51
190.8427000000000
  0
ARC
  5
95
100
AcDbEntity
  8
A1
  6
CONTINUOUS
 62
7
100
AcDbCircle
 10
253.8971652993177
 20
191.4985033569014
 30
0.000000000000000
 40
3.000000000000000
100
AcDbArc
 50
90.00000000000000
 51
156.1222580000000
  0
ARC
  5
96
100
AcDbEntity
  8
A1
  6
CONTINUOUS
 62
7
100
AcDbCircle
 10
381.9115542993177
 20
164.2423363569014
 30
0.000000000000000
 40
130.8209330000000
100
AcDbArc
 50
168.1858800000000
 51
190.8014810000000
  0
ARC
  5
97
100
AcDbEntity
  8
A1
  6
CONTINUOUS
 62
7
100
AcDbCircle
 10
254.7112052993176
 20
190.4985033569014
 30
0.000000000000000
 40
1.000000000000000
100
AcDbArc
 50
90.00000000000000
 51
148.1402760000000
  0
ARC
  5
98
100
AcDbEntity
  8
A1
  6
CONTINUOUS
 62
7
100
AcDbCircle
 10
277.9415662993176
 20
190.4985033569014
 30
0.000000000000000
 40
1.000000000000000
100
AcDbArc
 50
31.84970900000000
 51
90.00000000000000
  0
ARC
  5
99
100
AcDbEntity
  8
A1
  6
CONTINUOUS
 62
7
100
AcDbCircle
 10
150.7412182993177
 20
164.2423363569014
 30
0.000000000000000
 40
130.8209330000000
100
AcDbArc
 50
349.1985190000000
 51
371.8141200000001
  0
LINE
  5
9A
100
AcDbEntity
  8
A1
  6
CONTINUOUS
 62
7
100
AcDbLine
 10
278.7556072993177
 20
194.4985033569014
 30
0.000000000000000
 11
253.8971652993177
 21
194.4985033569014
 31
0.000000000000000
  0
LINE
  5
9B
100
AcDbEntity
  8
A1
  6
CONTINUOUS
 62
7
100
AcDbLine
 10
254.7112052993176
 20
191.4985033569014
 30
0.000000000000000
 11
277.9415662993176
 21
191.4985033569014
 31
0.000000000000000
  0
ARC
  5
9C
100
AcDbEntity
  8
A1
  6
CONTINUOUS
 62
7
100
AcDbCircle
 10
46.95724770119526
 20
261.8541128904931
 30
0.000000000000000
 40
1.999998000000000
100
AcDbArc
 50
89.99992899999998
 51
180.0000710000000
  0
ARC
  5
9D
100
AcDbEntity
  8
A1
  6
CONTINUOUS
 62
7
100
AcDbCircle
 10
64.95722770119525
 20
260.8540878904931
 30
0.000000000000000
 40
3.000022000000000
100
AcDbArc
 50
0.0004220000000000000
 51
89.99957800000000
  0
LINE
  5
9E
100
AcDbEntity
  8
A1
  6
CONTINUOUS
 62
7
100
AcDbLine
 10
46.45724970119525
 20
248.0541098904931
 30
0.000000000000000
 11
46.45724970119525
 21
253.5541098904931
 31
0.000000000000000
  0
LINE
  5
9F
100
AcDbEntity
  8
A1
  6
CONTINUOUS
 62
7
100
AcDbLine
 10
44.95724970119525
 20
248.0541098904931
 30
0.000000000000000
 11
44.95724970119525
 21
253.5541098904931
 31
0.000000000000000
  0
LINE
  5
A0
100
AcDbEntity
  8
A1
  6
CONTINUOUS
 62
7
100
AcDbLine
 10
44.95724970119525
 20
248.0541098904931
 30
0.000000000000000
 11
46.45724970119525
 21
248.0541098904931
 31
0.000000000000000
  0
LINE
  5
A1
100
AcDbEntity
  8
A1
  6
CONTINUOUS
 62
7
100
AcDbLine
 10
66.45724970119525
 20
253.5541098904931
 30
0.000000000000000
 11
66.45724970119525
 21
248.0541098904931
 31
0.000000000000000
  0
LINE
  5
A2
100
AcDbEntity
  8
A1
  6
CONTINUOUS
 62
7
100
AcDbLine
 10
67.95724970119525
 20
253.5541098904931
 30
0.000000000000000
 11
67.95724970119525
 21
248.0541098904931
 31
0.000000000000000
  0
LINE
  5
A3
100
AcDbEntity
  8
A1
  6
CONTINUOUS
 62
7
100
AcDbLine
 10
66.45724970119525
 20
248.0541098904931
 30
0.000000000000000
 11
67.95724970119525
 21
248.0541098904931
 31
0.000000000000000
  0
LINE
  5
A4
100
AcDbEntity
  8
A1
  6
CONTINUOUS
 62
7
100
AcDbLine
 10
44.95724970119525
 20
258.8541098904931
 30
0.000000000000000
 11
44.95724970119525
 21
261.8541098904931
 31
0.000000000000000
  0
LINE
  5
A5
100
AcDbEntity
  8
A1
  6
CONTINUOUS
 62
7
100
AcDbLine
 10
46.95724970119525
 20
263.8541098904931
 30
0.000000000000000
 11
64.95724970119525
 21
263.8541098904931
 31
0.000000000000000
  0
LINE
  5
A6
100
AcDbEntity
  8
A1
  6
CONTINUOUS
 62
7
100
AcDbLine
 10
67.95724970119525
 20
260.8541098904931
 30
0.000000000000000
 11
67.95724970119525
 21
258.8541098904931
 31
0.000000000000000
  0
LINE
  5
A7
100
AcDbEntity
  8
A1
  6
CONTINUOUS
 62
7
100
AcDbLine
 10
44.95724970119525
 20
258.8541098904931
 30
0.000000000000000
 11
44.95724970119525
 21
256.5541098904931
 31
0.000000000000000
  0
LINE
  5
A8
100
AcDbEntity
  8
A1
  6
CONTINUOUS
 62
7
100
AcDbLine
 10
67.95724970119525
 20
256.5541098904931
 30
0.000000000000000
 11
67.95724970119525
 21
258.8541098904931
 31
0.000000000000000
  0
LINE
  5
A9
100
AcDbEntity
  8
A1
  6
CONTINUOUS
 62
7
100
AcDbLine
 10
44.95724970119525
 20
258.8541098904931
 30
0.000000000000000
 11
67.95724970119525
 21
258.8541098904931
 31
0.000000000000000
  0
LINE
  5
AA
100
AcDbEntity
  8
A1
  6
CONTINUOUS
 62
7
100
AcDbLine
 10
45.45724970119525
 20
248.0541098904931
 30
0.000000000000000
 11
45.45724970119525
 21
247.8545038904931
 31
0.000000000000000
  0
LINE
  5
AB
100
AcDbEntity
  8
A1
  6
CONTINUOUS
 62
7
100
AcDbLine
 10
44.45724970119525
 20
249.8541098904931
 30
0.000000000000000
 11
44.95724970119525
 21
249.8541098904931
 31
0.000000000000000
  0
LINE
  5
AC
100
AcDbEntity
  8
A1
  6
CONTINUOUS
 62
7
100
AcDbLine
 10
44.45724970119525
 20
247.8541098904931
 30
0.000000000000000
 11
44.45724970119525
 21
249.8541098904931
 31
0.000000000000000
  0
LINE
  5
AD
100
AcDbEntity
  8
A1
  6
CONTINUOUS
 62
7
100
AcDbLine
 10
45.17832070119525
 20
247.8541098904931
 30
0.000000000000000
 11
44.45724970119525
 21
247.8541098904931
 31
0.000000000000000
  0
LINE
  5
AE
100
AcDbEntity
  8
A1
  6
CONTINUOUS
 62
7
100
AcDbLine
 10
68.45724970119525
 20
247.8541098904931
 30
0.000000000000000
 11
67.73617870119526
 21
247.8541098904931
 31
0.000000000000000
  0
LINE
  5
AF
100
AcDbEntity
  8
A1
  6
CONTINUOUS
 62
7
100
AcDbLine
 10
68.45724970119525
 20
249.8541098904931
 30
0.000000000000000
 11
68.45724970119525
 21
247.8541098904931
 31
0.000000000000000
  0
LINE
  5
B0
100
AcDbEntity
  8
A1
  6
CONTINUOUS
 62
7
100
AcDbLine
 10
67.95724970119525
 20
249.8541098904931
 30
0.000000000000000
 11
68.45724970119525
 21
249.8541098904931
 31
0.000000000000000
  0
LINE
  5
B1
100
AcDbEntity
  8
A1
  6
CONTINUOUS
 62
7
100
AcDbLine
 10
67.45724970119525
 20
247.8545038904931
 30
0.000000000000000
 11
67.45724970119525
 21
248.0541098904931
 31
0.000000000000000
  0
LINE
  5
B2
100
AcDbEntity
  8
A1
  6
CONTINUOUS
 62
7
100
AcDbLine
 10
46.45724970119525
 20
247.8545038904931
 30
0.000000000000000
 11
46.45724970119525
 21
248.0541098904931
 31
0.000000000000000
  0
LINE
  5
B3
100
AcDbEntity
  8
A1
  6
CONTINUOUS
 62
7
100
AcDbLine
 10
66.45724970119525
 20
247.8545038904931
 30
0.000000000000000
 11
66.45724970119525
 21
248.0541098904931
 31
0.000000000000000
  0
LINE
  5
B4
100
AcDbEntity
  8
A1
  6
CONTINUOUS
 62
7
100
AcDbLine
 10
45.17832070119525
 20
247.8541098904931
 30
0.000000000000000
 11
67.73617870119526
 21
247.8541098904931
 31
0.000000000000000
  0
LINE
  5
B5
100
AcDbEntity
  8
A1
  6
CONTINUOUS
 62
7
100
AcDbLine
 10
67.45724970119525
 20
247.8545038904931
 30
0.000000000000000
 11
66.45724970119525
 21
247.8545038904931
 31
0.000000000000000
  0
LINE
  5
B6
100
AcDbEntity
  8
A1
  6
CONTINUOUS
 62
7
100
AcDbLine
 10
45.45724970119525
 20
247.8545038904931
 30
0.000000000000000
 11
46.45724970119525
 21
247.8545038904931
 31
0.000000000000000
  0
LINE
  5
B7
100
AcDbEntity
  8
A1
  6
CONTINUOUS
 62
7
100
AcDbLine
 10
46.45724970119525
 20
248.4532868904931
 30
0.000000000000000
 11
66.45724970119525
 21
248.4532868904931
 31
0.000000000000000
  0
LINE
  5
B8
100
AcDbEntity
  8
A1
  6
CONTINUOUS
 62
7
100
AcDbLine
 10
67.95724970119525
 20
260.5541098904931
 30
0.000000000000000
 11
68.70724970119525
 21
260.5541098904931
 31
0.000000000000000
  0
LINE
  5
B9
100
AcDbEntity
  8
A1
  6
CONTINUOUS
 62
7
100
AcDbLine
 10
68.70724970119525
 20
258.5541098904931
 30
0.000000000000000
 11
67.95724970119525
 21
258.5541098904931
 31
0.000000000000000
  0
LINE
  5
BA
100
AcDbEntity
  8
A1
  6
CONTINUOUS
 62
7
100
AcDbLine
 10
68.70724970119525
 20
260.5541098904931
 30
0.000000000000000
 11
68.70724970119525
 21
258.5541098904931
 31
0.000000000000000
  0
LINE
  5
BB
100
AcDbEntity
  8
A1
  6
CONTINUOUS
 62
7
100
AcDbLine
 10
44.20724970119525
 20
260.5541098904931
 30
0.000000000000000
 11
44.95724970119525
 21
260.5541098904931
 31
0.000000000000000
  0
LINE
  5
BC
100
AcDbEntity
  8
A1
  6
CONTINUOUS
 62
7
100
AcDbLine
 10
44.20724970119525
 20
258.5541098904931
 30
0.000000000000000
 11
44.20724970119525
 21
260.5541098904931
 31
0.000000000000000
  0
LINE
  5
BD
100
AcDbEntity
  8
A1
  6
CONTINUOUS
 62
7
100
AcDbLine
 10
44.95724970119525
 20
258.5541098904931
 30
0.000000000000000
 11
44.20724970119525
 21
258.5541098904931
 31
0.000000000000000
  0
ARC
  5
BE
100
AcDbEntity
  8
A1
  6
CONTINUOUS
 62
7
100
AcDbCircle
 10
73.18539070119525
 20
255.0541098904931
 30
0.000000000000000
 40
1.500000000000000
100
AcDbArc
 50
270.0000000000000
 51
450.0000000000000
  0
ARC
  5
BF
100
AcDbEntity
  8
A1
  6
CONTINUOUS
 62
7
100
AcDbCircle
 10
39.71366870119525
 20
255.0541098904931
 30
0.000000000000000
 40
1.500000000000000
100
AcDbArc
 50
90.00000000000000
 51
270.0000000000000
  0
LINE
  5
C0
100
AcDbEntity
  8
A1
  6
CONTINUOUS
 62
7
100
AcDbLine
 10
70.19418970119526
 20
256.5541098904931
 30
0.000000000000000
 11
73.18539070119525
 21
256.5541098904931
 31
0.000000000000000
  0
LINE
  5
C1
100
AcDbEntity
  8
A1
  6
CONTINUOUS
 62
7
100
AcDbLine
 10
73.18539070119525
 20
253.5541098904931
 30
0.000000000000000
 11
70.19418970119526
 21
253.5541098904931
 31
0.000000000000000
  0
LINE
  5
C2
100
AcDbEntity
  8
A1
  6
CONTINUOUS
 62
7
100
AcDbLine
 10
42.70486970119524
 20
253.5541098904931
 30
0.000000000000000
 11
39.71366870119525
 21
253.5541098904931
 31
0.000000000000000
  0
LINE
  5
C3
100
AcDbEntity
  8
A1
  6
CONTINUOUS
 62
7
100
AcDbLine
 10
39.71366870119525
 20
256.5541098904931
 30
0.000000000000000
 11
42.70486970119524
 21
256.5541098904931
 31
0.000000000000000
  0
LINE
  5
C4
100
AcDbEntity
  8
A1
  6
CONTINUOUS
 62
7
100
AcDbLine
 10
68.06470970119526
 20
256.5541098904931
 30
0.000000000000000
 11
68.87875070119526
 21
256.5541098904931
 31
0.000000000000000
  0
LINE
  5
C5
100
AcDbEntity
  8
A1
  6
CONTINUOUS
 62
7
100
AcDbLine
 10
68.87875070119526
 20
253.5541098904931
 30
0.000000000000000
 11
68.06470970119526
 21
253.5541098904931
 31
0.000000000000000
  0
LINE
  5
C6
100
AcDbEntity
  8
A1
  6
CONTINUOUS
 62
7
100
AcDbLine
 10
44.83434870119524
 20
253.5541098904931
 30
0.000000000000000
 11
44.02030870119526
 21
253.5541098904931
 31
0.000000000000000
  0
LINE
  5
C7
100
AcDbEntity
  8
A1
  6
CONTINUOUS
 62
7
100
AcDbLine
 10
44.02030870119526
 20
256.5541098904931
 30
0.000000000000000
 11
44.83434870119524
 21
256.5541098904931
 31
0.000000000000000
  0
LINE
  5
C8
100
AcDbEntity
  8
A1
  6
CONTINUOUS
 62
7
100
AcDbLine
 10
68.06470970119526
 20
256.5541098904931
 30
0.000000000000000
 11
44.83434870119524
 21
256.5541098904931
 31
0.000000000000000
  0
LINE
  5
C9
100
AcDbEntity
  8
A1
  6
CONTINUOUS
 62
7
100
AcDbLine
 10
44.83434870119524
 20
253.5541098904931
 30
0.000000000000000
 11
68.06470970119526
 21
253.5541098904931
 31
0.000000000000000
  0
LINE
  5
CA
100
AcDbEntity
  8
A1
  6
CONTINUOUS
 62
7
100
AcDbLine
 10
44.02030870119526
 20
253.5541098904931
 30
0.000000000000000
 11
42.70486970119524
 21
253.5541098904931
 31
0.000000000000000
  0
LINE
  5
CB
100
AcDbEntity
  8
A1
  6
CONTINUOUS
 62
7
100
AcDbLine
 10
44.02030870119526
 20
256.5541098904931
 30
0.000000000000000
 11
44.02030870119526
 21
253.5541098904931
 31
0.000000000000000
  0
LINE
  5
CC
100
AcDbEntity
  8
A1
  6
CONTINUOUS
 62
7
100
AcDbLine
 10
42.70486970119524
 20
256.5541098904931
 30
0.000000000000000
 11
44.02030870119526
 21
256.5541098904931
 31
0.000000000000000
  0
LINE
  5
CD
100
AcDbEntity
  8
A1
  6
CONTINUOUS
 62
7
100
AcDbLine
 10
70.19418970119526
 20
253.5541098904931
 30
0.000000000000000
 11
68.87875070119526
 21
253.5541098904931
 31
0.000000000000000
  0
LINE
  5
CE
100
AcDbEntity
  8
A1
  6
CONTINUOUS
 62
7
100
AcDbLine
 10
68.87875070119526
 20
256.5541098904931
 30
0.000000000000000
 11
70.19418970119526
 21
256.5541098904931
 31
0.000000000000000
  0
LINE
  5
CF
100
AcDbEntity
  8
A1
  6
CONTINUOUS
 62
7
100
AcDbLine
 10
68.87875070119526
 20
253.5541098904931
 30
0.000000000000000
 11
68.87875070119526
 21
256.5541098904931
 31
0.000000000000000
  0
ARC
  5
D0
100
AcDbEntity
  8
A1
  6
CONTINUOUS
 62
7
100
AcDbCircle
 10
138.0986871659882
 20
116.0246513569014
 30
0.000000000000000
 40
15.00000000000000
100
AcDbArc
 50
358.1764330000000
 51
409.1148070000000
  0
ARC
  5
D1
100
AcDbEntity
  8
A1
  6
CONTINUOUS
 62
7
100
AcDbCircle
 10
138.0986871659882
 20
116.0246513569014
 30
0.000000000000000
 40
16.50000000000000
100
AcDbArc
 50
354.0326550000000
 51
409.1148070000000
  0
ARC
  5
D2
100
AcDbEntity
  8
A1
  6
CONTINUOUS
 62
7
100
AcDbCircle
 10
148.8986871659882
 20
128.4990243569014
 30
0.000000000000000
 40
1.500000000000000
100
AcDbArc
 50
180.0000000000000
 51
229.1148070000000
  0
ARC
  5
D3
100
AcDbEntity
  8
A1
  6
CONTINUOUS
 62
7
100
AcDbCircle
 10
138.0986871659882
 20
116.0246513569014
 30
0.000000000000000
 40
16.50000000000000
100
AcDbArc
 50
318.8799519999999
 51
354.0326550000000
  0
ARC
  5
D4
100
AcDbEntity
  8
A1
  6
CONTINUOUS
 62
7
100
AcDbCircle
 10
138.0986871659882
 20
116.0246513569014
 30
0.000000000000000
 40
15.00000000000000
100
AcDbArc
 50
318.8799519999999
 51
358.1764330000000
  0
ARC
  5
D5
100
AcDbEntity
  8
A1
  6
CONTINUOUS
 62
7
100
AcDbCircle
 10
152.3986871659882
 20
161.1736093569014
 30
0.000000000000000
 40
3.500000000000000
100
AcDbArc
 50
90.00000000000000
 51
148.9972810000000
  0
ARC
  5
D6
100
AcDbEntity
  8
A1
  6
CONTINUOUS
 62
7
100
AcDbCircle
 10
152.3986871659882
 20
161.1736093569014
 30
0.000000000000000
 40
5.000000000000000
100
AcDbArc
 50
90.00000000000000
 51
126.8698980000000
  0
ARC
  5
D7
100
AcDbEntity
  8
A1
  6
CONTINUOUS
 62
7
100
AcDbCircle
 10
152.3986871659882
 20
161.1736093569014
 30
0.000000000000000
 40
3.500000000000000
100
AcDbArc
 50
148.9972810000000
 51
180.0000000000000
  0
ARC
  5
D8
100
AcDbEntity
  8
A1
  6
CONTINUOUS
 62
7
100
AcDbCircle
 10
152.3986871659882
 20
161.1736093569014
 30
0.000000000000000
 40
5.000000000000000
100
AcDbArc
 50
126.8698980000000
 51
180.0000000000000
  0
ARC
  5
D9
100
AcDbEntity
  8
A1
  6
CONTINUOUS
 62
7
100
AcDbCircle
 10
156.1986871659882
 20
136.1736093569014
 30
0.000000000000000
 40
2.350000000000000
100
AcDbArc
 50
129.6650130000000
 51
410.3349870000000
  0
ARC
  5
DA
100
AcDbEntity
  8
A1
  6
CONTINUOUS
 62
7
100
AcDbCircle
 10
158.3986871659882
 20
131.6736093569014
 30
0.000000000000000
 40
3.000000000000000
100
AcDbArc
 50
270.0000000000000
 51
360.0000000000000
  0
ARC
  5
DB
100
AcDbEntity
  8
A1
  6
CONTINUOUS
 62
7
100
AcDbCircle
 10
159.1986871659882
 20
152.4142683569014
 30
0.000000000000000
 40
4.000000000000000
100
AcDbArc
 50
303.3670130000000
 51
360.0000000000000
  0
ARC
  5
DC
100
AcDbEntity
  8
A1
  6
CONTINUOUS
 62
7
100
AcDbCircle
 10
157.1986871659882
 20
158.6736093569014
 30
0.000000000000000
 40
6.000000000000000
100
AcDbArc
 50
0.000000000000000
 51
85.21980800000000
  0
ARC
  5
DD
100
AcDbEntity
  8
A1
  6
CONTINUOUS
 62
7
100
AcDbCircle
 10
151.6986871659882
 20
161.6736093569014
 30
0.000000000000000
 40
3.000000000000000
100
AcDbArc
 50
220.8773270000000
 51
360.0000000000000
  0
LINE
  5
DE
100
AcDbEntity
  8
A1
  6
CONTINUOUS
 62
7
100
AcDbLine
 10
148.8986871659882
 20
128.4990243569014
 30
0.000000000000000
 11
148.8986871659882
 21
128.6736093569014
 31
0.000000000000000
  0
LINE
  5
DF
100
AcDbEntity
  8
A1
  6
CONTINUOUS
 62
7
100
AcDbLine
 10
147.3986871659882
 20
128.4990243569014
 30
0.000000000000000
 11
147.3986871659882
 21
128.6736093569014
 31
0.000000000000000
  0
LINE
  5
E0
100
AcDbEntity
  8
A1
  6
CONTINUOUS
 62
7
100
AcDbLine
 10
154.5092791659881
 20
114.3092843569014
 30
0.000000000000000
 11
153.0910901659881
 21
115.5473223569014
 31
0.000000000000000
  0
LINE
  5
E1
100
AcDbEntity
  8
A1
  6
CONTINUOUS
 62
7
100
AcDbLine
 10
149.3986871659882
 20
106.1600683569014
 30
0.000000000000000
 11
150.5286871659882
 21
105.1736093569014
 31
0.000000000000000
  0
LINE
  5
E2
100
AcDbEntity
  8
A1
  6
CONTINUOUS
 62
7
100
AcDbLine
 10
154.6986871659882
 20
164.6736093569014
 30
0.000000000000000
 11
152.3986871659882
 21
164.6736093569014
 31
0.000000000000000
  0
LINE
  5
E3
100
AcDbEntity
  8
A1
  6
CONTINUOUS
 62
7
100
AcDbLine
 10
152.3986871659882
 20
166.1736093569014
 30
0.000000000000000
 11
154.6986871659882
 21
166.1736093569014
 31
0.000000000000000
  0
LINE
  5
E4
100
AcDbEntity
  8
A1
  6
CONTINUOUS
 62
7
100
AcDbLine
 10
148.8986871659882
 20
160.1780193569014
 30
0.000000000000000
 11
149.3986871659882
 21
159.7381403569014
 31
0.000000000000000
  0
LINE
  5
E5
100
AcDbEntity
  8
A1
  6
CONTINUOUS
 62
7
100
AcDbLine
 10
149.3986871659882
 20
165.1736093569014
 30
0.000000000000000
 11
149.3986871659882
 21
162.9763853569014
 31
0.000000000000000
  0
LINE
  5
E6
100
AcDbEntity
  8
A1
  6
CONTINUOUS
 62
7
100
AcDbLine
 10
147.3986871659882
 20
128.6736093569014
 30
0.000000000000000
 11
147.3986871659882
 21
161.1736093569014
 31
0.000000000000000
  0
LINE
  5
E7
100
AcDbEntity
  8
A1
  6
CONTINUOUS
 62
7
100
AcDbLine
 10
149.3986871659882
 20
128.6736093569014
 30
0.000000000000000
 11
147.3986871659882
 21
128.6736093569014
 31
0.000000000000000
  0
LINE
  5
E8
100
AcDbEntity
  8
A1
  6
CONTINUOUS
 62
7
100
AcDbLine
 10
148.8986871659882
 20
161.1736093569014
 30
0.000000000000000
 11
148.8986871659882
 21
160.1780193569014
 31
0.000000000000000
  0
LINE
  5
E9
100
AcDbEntity
  8
A1
  6
CONTINUOUS
 62
7
100
AcDbLine
 10
149.3986871659882
 20
159.7381403569015
 30
0.000000000000000
 11
149.4303491659882
 21
159.7102843569014
 31
0.000000000000000
  0
LINE
  5
EA
100
AcDbEntity
  8
A1
  6
CONTINUOUS
 62
7
100
AcDbLine
 10
149.3986871659882
 20
159.7381403569014
 30
0.000000000000000
 11
149.3986871659882
 21
128.6736093569014
 31
0.000000000000000
  0
LINE
  5
EB
100
AcDbEntity
  8
A1
  6
CONTINUOUS
 62
7
100
AcDbLine
 10
158.3986871659882
 20
128.6736093569014
 30
0.000000000000000
 11
149.3986871659882
 21
128.6736093569014
 31
0.000000000000000
  0
LINE
  5
EC
100
AcDbEntity
  8
A1
  6
CONTINUOUS
 62
7
100
AcDbLine
 10
161.3986871659882
 20
149.0736093569014
 30
0.000000000000000
 11
161.3986871659882
 21
147.7396353569014
 31
0.000000000000000
  0
LINE
  5
ED
100
AcDbEntity
  8
A1
  6
CONTINUOUS
 62
7
100
AcDbLine
 10
163.1986871659882
 20
158.6736093569014
 30
0.000000000000000
 11
163.1986871659882
 21
152.4142683569014
 31
0.000000000000000
  0
ARC
  5
EE
100
AcDbEntity
  8
A1
  6
CONTINUOUS
 62
7
100
AcDbCircle
 10
161.3986871659882
 20
147.8339213569014
 30
0.000000000000000
 40
2.000000000000000
100
AcDbArc
 50
1.137059000000000
 51
45.53996900000000
  0
ARC
  5
EF
100
AcDbEntity
  8
A1
  6
CONTINUOUS
 62
7
100
AcDbCircle
 10
152.6986871659882
 20
159.1736093569014
 30
0.000000000000000
 40
2.000000000000000
100
AcDbArc
 50
180.0000000000000
 51
189.7430870000000
  0
LINE
  5
F0
100
AcDbEntity
  8
A1
  6
CONTINUOUS
 62
7
100
AcDbLine
 10
163.3986871659882
 20
110.8736093569014
 30
0.000000000000000
 11
163.3986871659882
 21
107.8736093569014
 31
0.000000000000000
  0
LINE
  5
F1
100
AcDbEntity
  8
A1
  6
CONTINUOUS
 62
7
100
AcDbLine
 10
161.3986871659882
 20
107.8736093569014
 30
0.000000000000000
 11
161.3986871659882
 21
110.8736093569014
 31
0.000000000000000
  0
LINE
  5
F2
100
AcDbEntity
  8
A1
  6
CONTINUOUS
 62
7
100
AcDbLine
 10
163.3986871659882
 20
107.8736093569014
 30
0.000000000000000
 11
161.3986871659882
 21
107.8736093569014
 31
0.000000000000000
  0
LINE
  5
F3
100
AcDbEntity
  8
A1
  6
CONTINUOUS
 62
7
100
AcDbLine
 10
163.3986871659882
 20
129.8736093569015
 30
0.000000000000000
 11
163.3986871659882
 21
110.8736093569014
 31
0.000000000000000
  0
LINE
  5
F4
100
AcDbEntity
  8
A1
  6
CONTINUOUS
 62
7
100
AcDbLine
 10
161.3986871659882
 20
110.8736093569014
 30
0.000000000000000
 11
161.3986871659882
 21
129.8736093569015
 31
0.000000000000000
  0
LINE
  5
F5
100
AcDbEntity
  8
A1
  6
CONTINUOUS
 62
7
100
AcDbLine
 10
161.3986871659882
 20
110.8736093569014
 30
0.000000000000000
 11
163.3986871659882
 21
110.8736093569014
 31
0.000000000000000
  0
LINE
  5
F6
100
AcDbEntity
  8
A1
  6
CONTINUOUS
 62
7
100
AcDbLine
 10
152.9360531659883
 20
158.9406763569015
 30
0.000000000000000
 11
152.6986871659883
 21
159.1736093569015
 31
0.000000000000000
  0
LINE
  5
F7
100
AcDbEntity
  8
A1
  6
CONTINUOUS
 62
7
100
AcDbLine
 10
162.7995101659882
 20
149.2613993569014
 30
0.000000000000000
 11
162.2373731659882
 21
149.8130403569015
 31
0.000000000000000
  0
LINE
  5
F8
100
AcDbEntity
  8
A1
  6
CONTINUOUS
 62
7
100
AcDbLine
 10
163.3986871659882
 20
147.8339213569014
 30
0.000000000000000
 11
163.3986871659882
 21
146.8736093569014
 31
0.000000000000000
  0
LINE
  5
F9
100
AcDbEntity
  8
A1
  6
CONTINUOUS
 62
7
100
AcDbLine
 10
161.3986871659882
 20
146.8736093569014
 30
0.000000000000000
 11
161.3986871659882
 21
147.7396353569014
 31
0.000000000000000
  0
LINE
  5
FA
100
AcDbEntity
  8
A1
  6
CONTINUOUS
 62
7
100
AcDbLine
 10
161.3986871659882
 20
147.8736093569014
 30
0.000000000000000
 11
163.3982931659882
 21
147.8736093569014
 31
0.000000000000000
  0
LINE
  5
FB
100
AcDbEntity
  8
A1
  6
CONTINUOUS
 62
7
100
AcDbLine
 10
163.3986871659882
 20
130.8736093569015
 30
0.000000000000000
 11
163.3986871659882
 21
129.8736093569015
 31
0.000000000000000
  0
LINE
  5
FC
100
AcDbEntity
  8
A1
  6
CONTINUOUS
 62
7
100
AcDbLine
 10
161.3986871659882
 20
129.8736093569015
 30
0.000000000000000
 11
161.3986871659882
 21
130.8736093569015
 31
0.000000000000000
  0
LINE
  5
FD
100
AcDbEntity
  8
A1
  6
CONTINUOUS
 62
7
100
AcDbLine
 10
163.3986871659882
 20
129.8736093569015
 30
0.000000000000000
 11
161.3986871659882
 21
129.8736093569015
 31
0.000000000000000
  0
LINE
  5
FE
100
AcDbEntity
  8
A1
  6
CONTINUOUS
 62
7
100
AcDbLine
 10
163.3986871659882
 20
130.8736093569015
 30
0.000000000000000
 11
163.3986871659882
 21
146.8736093569014
 31
0.000000000000000
  0
LINE
  5
FF
100
AcDbEntity
  8
A1
  6
CONTINUOUS
 62
7
100
AcDbLine
 10
161.3986871659882
 20
146.8736093569014
 30
0.000000000000000
 11
161.3986871659882
 21
130.8736093569015
 31
0.000000000000000
  0
LINE
  5
100
100
AcDbEntity
  8
A1
  6
CONTINUOUS
 62
7
100
AcDbLine
 10
161.3986871659882
 20
130.8736093569015
 30
0.000000000000000
 11
163.3986871659882
 21
130.8736093569015
 31
0.000000000000000
  0
LINE
  5
101
100
AcDbEntity
  8
A1
  6
CONTINUOUS
 62
7
100
AcDbLine
 10
163.3986871659882
 20
146.8736093569014
 30
0.000000000000000
 11
161.3986871659882
 21
146.8736093569014
 31
0.000000000000000
  0
LINE
  5
102
100
AcDbEntity
  8
A1
  6
CONTINUOUS
 62
7
100
AcDbLine
 10
150.6986871659882
 20
163.1736093569014
 30
0.000000000000000
 11
150.6986871659882
 21
164.1736093569014
 31
0.000000000000000
  0
LINE
  5
103
100
AcDbEntity
  8
A1
  6
CONTINUOUS
 62
7
100
AcDbLine
 10
152.6986871659882
 20
164.1736093569014
 30
0.000000000000000
 11
152.6986871659882
 21
163.1736093569014
 31
0.000000000000000
  0
LINE
  5
104
100
AcDbEntity
  8
A1
  6
CONTINUOUS
 62
7
100
AcDbLine
 10
150.6986871659882
 20
164.1736093569014
 30
0.000000000000000
 11
152.6986871659882
 21
164.1736093569014
 31
0.000000000000000
  0
LINE
  5
105
100
AcDbEntity
  8
A1
  6
CONTINUOUS
 62
7
100
AcDbLine
 10
150.6986871659882
 20
160.1736093569014
 30
0.000000000000000
 11
150.6986871659882
 21
163.1736093569014
 31
0.000000000000000
  0
LINE
  5
106
100
AcDbEntity
  8
A1
  6
CONTINUOUS
 62
7
100
AcDbLine
 10
152.6986871659882
 20
163.1736093569014
 30
0.000000000000000
 11
152.6986871659882
 21
160.1736093569014
 31
0.000000000000000
  0
LINE
  5
107
100
AcDbEntity
  8
A1
  6
CONTINUOUS
 62
7
100
AcDbLine
 10
152.6986871659882
 20
163.1736093569014
 30
0.000000000000000
 11
150.6986871659882
 21
163.1736093569014
 31
0.000000000000000
  0
LINE
  5
108
100
AcDbEntity
  8
A1
  6
CONTINUOUS
 62
7
100
AcDbLine
 10
152.6986871659882
 20
160.1736093569014
 30
0.000000000000000
 11
152.6986871659882
 21
159.1736093569014
 31
0.000000000000000
  0
LINE
  5
109
100
AcDbEntity
  8
A1
  6
CONTINUOUS
 62
7
100
AcDbLine
 10
150.6986871659882
 20
160.1736093569014
 30
0.000000000000000
 11
152.6986871659882
 21
160.1736093569014
 31
0.000000000000000
  0
LINE
  5
10A
100
AcDbEntity
  8
A1
  6
CONTINUOUS
 62
7
100
AcDbLine
 10
150.6986871659882
 20
159.1736093569014
 30
0.000000000000000
 11
150.6986871659882
 21
160.1736093569014
 31
0.000000000000000
  0
LINE
  5
10B
100
AcDbEntity
  8
A1
  6
CONTINUOUS
 62
7
100
AcDbLine
 10
152.6986871659882
 20
159.1736093569014
 30
0.000000000000000
 11
150.6986871659882
 21
159.1736093569014
 31
0.000000000000000
  0
ARC
  5
10C
100
AcDbEntity
  8
A1
  6
CONTINUOUS
 62
7
100
AcDbCircle
 10
156.1986871659882
 20
192.9985033569014
 30
0.000000000000000
 40
1.500000000000000
100
AcDbArc
 50
0.000000000000000
 51
180.0000000000000
  0
ARC
  5
10D
100
AcDbEntity
  8
A1
  6
CONTINUOUS
 62
7
100
AcDbCircle
 10
156.1986871659882
 20
136.5096133569014
 30
0.000000000000000
 40
1.500000000000000
100
AcDbArc
 50
180.0000000000000
 51
360.0000000000000
  0
LINE
  5
10E
100
AcDbEntity
  8
A1
  6
CONTINUOUS
 62
7
100
AcDbLine
 10
154.6986871659882
 20
192.2193503569014
 30
0.000000000000000
 11
154.6986871659882
 21
192.9985033569014
 31
0.000000000000000
  0
LINE
  5
10F
100
AcDbEntity
  8
A1
  6
CONTINUOUS
 62
7
100
AcDbLine
 10
157.6986871659882
 20
192.9985033569014
 30
0.000000000000000
 11
157.6986871659882
 21
192.2193503569014
 31
0.000000000000000
  0
LINE
  5
110
100
AcDbEntity
  8
A1
  6
CONTINUOUS
 62
7
100
AcDbLine
 10
157.6986871659882
 20
139.3512163569014
 30
0.000000000000000
 11
157.6986871659882
 21
136.5096133569014
 31
0.000000000000000
  0
LINE
  5
111
100
AcDbEntity
  8
A1
  6
CONTINUOUS
 62
7
100
AcDbLine
 10
154.6986871659882
 20
136.5096133569014
 30
0.000000000000000
 11
154.6986871659882
 21
139.3512163569014
 31
0.000000000000000
  0
LINE
  5
112
100
AcDbEntity
  8
A1
  6
CONTINUOUS
 62
7
100
AcDbLine
 10
157.6986871659882
 20
192.2193503569014
 30
0.000000000000000
 11
157.6986871659882
 21
139.4445063569014
 31
0.000000000000000
  0
LINE
  5
113
100
AcDbEntity
  8
A1
  6
CONTINUOUS
 62
7
100
AcDbLine
 10
154.6986871659882
 20
139.4445013569014
 30
0.000000000000000
 11
154.6986871659882
 21
192.2193503569014
 31
0.000000000000000
  0
LINE
  5
114
100
AcDbEntity
  8
A1
  6
CONTINUOUS
 62
7
100
AcDbLine
 10
157.6986871659882
 20
139.4445063569014
 30
0.000000000000000
 11
157.6986871659882
 21
139.3512163569014
 31
0.000000000000000
  0
ARC
  5
115
100
AcDbEntity
  8
A1
  6
CONTINUOUS
 62
7
100
AcDbCircle
 10
47.95724970119528
 20
64.79229843104469
 30
0.000000000000000
 40
3.000000000000000
100
AcDbArc
 50
109.4712210000000
 51
180.0000000000000
  0
ARC
  5
116
100
AcDbEntity
  8
A1
  6
CONTINUOUS
 62
7
100
AcDbCircle
 10
65.95724970119528
 20
65.79229843104469
 30
0.000000000000000
 40
2.000000000000000
100
AcDbArc
 50
0.000000000000000
 51
90.00000000000000
  0
ARC
  5
117
100
AcDbEntity
  8
A1
  6
CONTINUOUS
 62
7
100
AcDbCircle
 10
47.95724970119528
 20
64.79229843104469
 30
0.000000000000000
 40
3.000000000000000
100
AcDbArc
 50
90.00000000000000
 51
109.4712210000000
  0
LINE
  5
118
100
AcDbEntity
  8
A1
  6
CONTINUOUS
 62
7
100
AcDbLine
 10
44.95724970119526
 20
53.79229843104468
 30
0.000000000000000
 11
44.95724970119526
 21
56.79229843104468
 31
0.000000000000000
  0
LINE
  5
119
100
AcDbEntity
  8
A1
  6
CONTINUOUS
 62
7
100
AcDbLine
 10
46.45724970119526
 20
53.79229843104468
 30
0.000000000000000
 11
46.45724970119526
 21
56.79229843104468
 31
0.000000000000000
  0
LINE
  5
11A
100
AcDbEntity
  8
A1
  6
CONTINUOUS
 62
7
100
AcDbLine
 10
67.95724970119525
 20
56.79229843104468
 30
0.000000000000000
 11
67.95724970119525
 21
53.79229843104468
 31
0.000000000000000
  0
LINE
  5
11B
100
AcDbEntity
  8
A1
  6
CONTINUOUS
 62
7
100
AcDbLine
 10
66.45724970119525
 20
56.79229843104468
 30
0.000000000000000
 11
66.45724970119525
 21
53.79229843104468
 31
0.000000000000000
  0
LINE
  5
11C
100
AcDbEntity
  8
A1
  6
CONTINUOUS
 62
7
100
AcDbLine
 10
46.95724970119526
 20
66.29229843104469
 30
0.000000000000000
 11
46.45724970119526
 21
66.29229843104469
 31
0.000000000000000
  0
LINE
  5
11D
100
AcDbEntity
  8
A1
  6
CONTINUOUS
 62
7
100
AcDbLine
 10
44.95724970119526
 20
64.79229843104469
 30
0.000000000000000
 11
44.95724970119526
 21
56.79229843104468
 31
0.000000000000000
  0
LINE
  5
11E
100
AcDbEntity
  8
A1
  6
CONTINUOUS
 62
7
100
AcDbLine
 10
46.45724970119526
 20
56.79229843104468
 30
0.000000000000000
 11
44.95724970119526
 21
56.79229843104468
 31
0.000000000000000
  0
LINE
  5
11F
100
AcDbEntity
  8
A1
  6
CONTINUOUS
 62
7
100
AcDbLine
 10
46.45724970119526
 20
66.29229843104469
 30
0.000000000000000
 11
46.45724970119526
 21
56.79229843104468
 31
0.000000000000000
  0
LINE
  5
120
100
AcDbEntity
  8
A1
  6
CONTINUOUS
 62
7
100
AcDbLine
 10
65.95724970119527
 20
66.29229843104467
 30
0.000000000000000
 11
66.45724970119527
 21
66.29229843104467
 31
0.000000000000000
  0
LINE
  5
121
100
AcDbEntity
  8
A1
  6
CONTINUOUS
 62
7
100
AcDbLine
 10
67.95724970119525
 20
56.79229843104468
 30
0.000000000000000
 11
67.95724970119527
 21
65.79229843104467
 31
0.000000000000000
  0
LINE
  5
122
100
AcDbEntity
  8
A1
  6
CONTINUOUS
 62
7
100
AcDbLine
 10
66.45724970119525
 20
56.79229843104468
 30
0.000000000000000
 11
66.45724970119527
 21
66.29229843104467
 31
0.000000000000000
  0
LINE
  5
123
100
AcDbEntity
  8
A1
  6
CONTINUOUS
 62
7
100
AcDbLine
 10
67.95724970119525
 20
56.79229843104468
 30
0.000000000000000
 11
66.45724970119525
 21
56.79229843104468
 31
0.000000000000000
  0
LINE
  5
124
100
AcDbEntity
  8
A1
  6
CONTINUOUS
 62
7
100
AcDbLine
 10
46.95724970119526
 20
67.27411643104467
 30
0.000000000000000
 11
46.95724970119526
 21
67.62072543104468
 31
0.000000000000000
  0
LINE
  5
125
100
AcDbEntity
  8
A1
  6
CONTINUOUS
 62
7
100
AcDbLine
 10
65.95724970119527
 20
67.27411643104466
 30
0.000000000000000
 11
65.95724970119527
 21
67.79229843104467
 31
0.000000000000000
  0
LINE
  5
126
100
AcDbEntity
  8
A1
  6
CONTINUOUS
 62
7
100
AcDbLine
 10
65.95724970119527
 20
67.79229843104467
 30
0.000000000000000
 11
47.95724970119526
 21
67.79229843104469
 31
0.000000000000000
  0
LINE
  5
127
100
AcDbEntity
  8
A1
  6
CONTINUOUS
 62
7
100
AcDbLine
 10
65.95724970119527
 20
62.09989443104468
 30
0.000000000000000
 11
65.95724970119527
 21
67.27411643104466
 31
0.000000000000000
  0
LINE
  5
128
100
AcDbEntity
  8
A1
  6
CONTINUOUS
 62
7
100
AcDbLine
 10
65.95724970119527
 20
67.27411643104466
 30
0.000000000000000
 11
46.95724970119526
 21
67.27411643104467
 31
0.000000000000000
  0
LINE
  5
129
100
AcDbEntity
  8
A1
  6
CONTINUOUS
 62
7
100
AcDbLine
 10
46.95724970119526
 20
62.09989443104468
 30
0.000000000000000
 11
46.95724970119526
 21
67.27411643104467
 31
0.000000000000000
  0
LINE
  5
12A
100
AcDbEntity
  8
A1
  6
CONTINUOUS
 62
7
100
AcDbLine
 10
65.95724970119527
 20
60.68170643104467
 30
0.000000000000000
 11
65.95724970119527
 21
62.09989443104468
 31
0.000000000000000
  0
LINE
  5
12B
100
AcDbEntity
  8
A1
  6
CONTINUOUS
 62
7
100
AcDbLine
 10
46.95724970119526
 20
60.68170643104467
 30
0.000000000000000
 11
46.95724970119526
 21
62.09989443104468
 31
0.000000000000000
  0
LINE
  5
12C
100
AcDbEntity
  8
A1
  6
CONTINUOUS
 62
7
100
AcDbLine
 10
46.95724970119526
 20
60.59229843104468
 30
0.000000000000000
 11
65.95724970119527
 21
60.59229843104468
 31
0.000000000000000
  0
LINE
  5
12D
100
AcDbEntity
  8
A1
  6
CONTINUOUS
 62
7
100
AcDbLine
 10
65.95724970119527
 20
60.59229843104468
 30
0.000000000000000
 11
65.95724970119527
 21
60.68170643104467
 31
0.000000000000000
  0
LINE
  5
12E
100
AcDbEntity
  8
A1
  6
CONTINUOUS
 62
7
100
AcDbLine
 10
46.95724970119526
 20
60.59229843104468
 30
0.000000000000000
 11
46.95724970119526
 21
60.68170643104467
 31
0.000000000000000
  0
LINE
  5
12F
100
AcDbEntity
  8
A1
  6
CONTINUOUS
 62
7
100
AcDbLine
 10
68.70724970119527
 20
62.49229843104468
 30
0.000000000000000
 11
67.95724970119527
 21
62.49229843104468
 31
0.000000000000000
  0
LINE
  5
130
100
AcDbEntity
  8
A1
  6
CONTINUOUS
 62
7
100
AcDbLine
 10
68.70724970119527
 20
64.49229843104467
 30
0.000000000000000
 11
68.70724970119527
 21
62.49229843104468
 31
0.000000000000000
  0
LINE
  5
131
100
AcDbEntity
  8
A1
  6
CONTINUOUS
 62
7
100
AcDbLine
 10
67.95724970119527
 20
64.49229843104467
 30
0.000000000000000
 11
68.70724970119527
 21
64.49229843104467
 31
0.000000000000000
  0
LINE
  5
132
100
AcDbEntity
  8
A1
  6
CONTINUOUS
 62
7
100
AcDbLine
 10
44.95724970119526
 20
62.49229843104468
 30
0.000000000000000
 11
44.20724970119526
 21
62.49229843104468
 31
0.000000000000000
  0
LINE
  5
133
100
AcDbEntity
  8
A1
  6
CONTINUOUS
 62
7
100
AcDbLine
 10
44.20724970119526
 20
64.49229843104469
 30
0.000000000000000
 11
44.95724970119526
 21
64.49229843104469
 31
0.000000000000000
  0
LINE
  5
134
100
AcDbEntity
  8
A1
  6
CONTINUOUS
 62
7
100
AcDbLine
 10
44.20724970119526
 20
62.49229843104468
 30
0.000000000000000
 11
44.20724970119526
 21
64.49229843104469
 31
0.000000000000000
  0
LINE
  5
135
100
AcDbEntity
  8
A1
  6
CONTINUOUS
 62
7
100
AcDbLine
 10
46.95724970119526
 20
64.49229843104469
 30
0.000000000000000
 11
46.45724970119526
 21
64.49229843104469
 31
0.000000000000000
  0
LINE
  5
136
100
AcDbEntity
  8
A1
  6
CONTINUOUS
 62
7
100
AcDbLine
 10
66.45724970119527
 20
64.49229843104467
 30
0.000000000000000
 11
65.95724970119527
 21
64.49229843104467
 31
0.000000000000000
  0
LINE
  5
137
100
AcDbEntity
  8
A1
  6
CONTINUOUS
 62
7
100
AcDbLine
 10
46.95724970119526
 20
63.89312143104468
 30
0.000000000000000
 11
46.45724970119526
 21
63.89312143104468
 31
0.000000000000000
  0
LINE
  5
138
100
AcDbEntity
  8
A1
  6
CONTINUOUS
 62
7
100
AcDbLine
 10
66.45724970119527
 20
63.89312143104468
 30
0.000000000000000
 11
65.95724970119527
 21
63.89312143104468
 31
0.000000000000000
  0
LINE
  5
139
100
AcDbEntity
  8
A1
  6
CONTINUOUS
 62
7
100
AcDbLine
 10
65.95724970119525
 20
53.79229843104468
 30
0.000000000000000
 11
67.45724970119525
 21
53.79229843104468
 31
0.000000000000000
  0
LINE
  5
13A
100
AcDbEntity
  8
A1
  6
CONTINUOUS
 62
7
100
AcDbLine
 10
67.45724970119525
 20
51.79229843104468
 30
0.000000000000000
 11
65.95724970119525
 21
51.79229843104468
 31
0.000000000000000
  0
LINE
  5
13B
100
AcDbEntity
  8
A1
  6
CONTINUOUS
 62
7
100
AcDbLine
 10
44.45724970119526
 20
53.79229843104468
 30
0.000000000000000
 11
45.45724970119526
 21
53.79229843104468
 31
0.000000000000000
  0
LINE
  5
13C
100
AcDbEntity
  8
A1
  6
CONTINUOUS
 62
7
100
AcDbLine
 10
45.45724970119526
 20
51.79229843104468
 30
0.000000000000000
 11
44.45724970119526
 21
51.79229843104468
 31
0.000000000000000
  0
LINE
  5
13D
100
AcDbEntity
  8
A1
  6
CONTINUOUS
 62
7
100
AcDbLine
 10
44.45724970119526
 20
51.79229843104468
 30
0.000000000000000
 11
44.45724970119526
 21
53.79229843104468
 31
0.000000000000000
  0
LINE
  5
13E
100
AcDbEntity
  8
A1
  6
CONTINUOUS
 62
7
100
AcDbLine
 10
67.45724970119525
 20
53.79229843104468
 30
0.000000000000000
 11
68.45724970119525
 21
53.79229843104468
 31
0.000000000000000
  0
LINE
  5
13F
100
AcDbEntity
  8
A1
  6
CONTINUOUS
 62
7
100
AcDbLine
 10
68.45724970119525
 20
51.79229843104468
 30
0.000000000000000
 11
67.45724970119525
 21
51.79229843104468
 31
0.000000000000000
  0
LINE
  5
140
100
AcDbEntity
  8
A1
  6
CONTINUOUS
 62
7
100
AcDbLine
 10
68.45724970119525
 20
53.79229843104468
 30
0.000000000000000
 11
68.45724970119525
 21
51.79229843104468
 31
0.000000000000000
  0
LINE
  5
141
100
AcDbEntity
  8
A1
  6
CONTINUOUS
 62
7
100
AcDbLine
 10
67.45724970119525
 20
51.79229843104468
 30
0.000000000000000
 11
67.45724970119525
 21
53.79229843104468
 31
0.000000000000000
  0
LINE
  5
142
100
AcDbEntity
  8
A1
  6
CONTINUOUS
 62
7
100
AcDbLine
 10
46.95724970119526
 20
53.79229843104468
 30
0.000000000000000
 11
45.45724970119526
 21
53.79229843104468
 31
0.000000000000000
  0
LINE
  5
143
100
AcDbEntity
  8
A1
  6
CONTINUOUS
 62
7
100
AcDbLine
 10
45.45724970119526
 20
51.79229843104468
 30
0.000000000000000
 11
46.95724970119526
 21
51.79229843104468
 31
0.000000000000000
  0
LINE
  5
144
100
AcDbEntity
  8
A1
  6
CONTINUOUS
 62
7
100
AcDbLine
 10
45.45724970119526
 20
53.79229843104468
 30
0.000000000000000
 11
45.45724970119526
 21
51.79229843104468
 31
0.000000000000000
  0
LINE
  5
145
100
AcDbEntity
  8
A1
  6
CONTINUOUS
 62
7
100
AcDbLine
 10
46.95724970119526
 20
53.79229843104468
 30
0.000000000000000
 11
49.95724970119526
 21
53.79229843104468
 31
0.000000000000000
  0
LINE
  5
146
100
AcDbEntity
  8
A1
  6
CONTINUOUS
 62
7
100
AcDbLine
 10
49.95724970119526
 20
51.79229843104468
 30
0.000000000000000
 11
46.95724970119526
 21
51.79229843104468
 31
0.000000000000000
  0
LINE
  5
147
100
AcDbEntity
  8
A1
  6
CONTINUOUS
 62
7
100
AcDbLine
 10
46.95724970119526
 20
51.79229843104468
 30
0.000000000000000
 11
46.95724970119526
 21
53.79229843104468
 31
0.000000000000000
  0
LINE
  5
148
100
AcDbEntity
  8
A1
  6
CONTINUOUS
 62
7
100
AcDbLine
 10
62.95724970119526
 20
53.79229843104468
 30
0.000000000000000
 11
65.95724970119525
 21
53.79229843104468
 31
0.000000000000000
  0
LINE
  5
149
100
AcDbEntity
  8
A1
  6
CONTINUOUS
 62
7
100
AcDbLine
 10
65.95724970119525
 20
51.79229843104468
 30
0.000000000000000
 11
62.95724970119526
 21
51.79229843104468
 31
0.000000000000000
  0
LINE
  5
14A
100
AcDbEntity
  8
A1
  6
CONTINUOUS
 62
7
100
AcDbLine
 10
65.95724970119525
 20
53.79229843104468
 30
0.000000000000000
 11
65.95724970119525
 21
51.79229843104468
 31
0.000000000000000
  0
LINE
  5
14B
100
AcDbEntity
  8
A1
  6
CONTINUOUS
 62
7
100
AcDbLine
 10
62.95724970119526
 20
53.79229843104468
 30
0.000000000000000
 11
49.95724970119526
 21
53.79229843104468
 31
0.000000000000000
  0
LINE
  5
14C
100
AcDbEntity
  8
A1
  6
CONTINUOUS
 62
7
100
AcDbLine
 10
49.95724970119526
 20
53.79229843104468
 30
0.000000000000000
 11
49.95724970119526
 21
51.79229843104468
 31
0.000000000000000
  0
LINE
  5
14D
100
AcDbEntity
  8
A1
  6
CONTINUOUS
 62
7
100
AcDbLine
 10
62.95724970119526
 20
51.79229843104468
 30
0.000000000000000
 11
49.95724970119526
 21
51.79229843104468
 31
0.000000000000000
  0
LINE
  5
14E
100
AcDbEntity
  8
A1
  6
CONTINUOUS
 62
7
100
AcDbLine
 10
62.95724970119526
 20
51.79229843104468
 30
0.000000000000000
 11
62.95724970119526
 21
53.79229843104468
 31
0.000000000000000
  0
ELLIPSE
  5
14F
100
AcDbEntity
  8
A1
  6
CONTINUOUS
 62
7
100
AcDbEllipse
 10
60.26153570119527
 20
58.99229843104469
 30
0.000000000000000
 11
0.000000000000000
 21
1.500000000000000
 31
0.000000000000000
210
0.000000000000000
220
0.000000000000000
230
1.000000000000000
 40
0.1977100000000000
 41
0.000000000000000
 42
3.141592638688632
  0
ELLIPSE
  5
150
100
AcDbEntity
  8
A1
  6
CONTINUOUS
 62
7
100
AcDbEllipse
 10
52.66840370119527
 20
58.99229843104469
 30
0.000000000000000
 11
0.000000000000000
 21
1.500000000000000
 31
0.000000000000000
210
0.000000000000000
220
0.000000000000000
230
1.000000000000000
 40
0.1977100000000000
 41
3.141592638688632
 42
0.000000000000000
  0
ELLIPSE
  5
151
100
AcDbEntity
  8
A1
  6
CONTINUOUS
 62
7
100
AcDbEllipse
 10
66.28513070119527
 20
58.99229843104469
 30
0.000000000000000
 11
0.000000000000000
 21
-1.500000000000000
 31
0.000000000000000
210
0.000000000000000
220
0.000000000000000
230
1.000000000000000
 40
0.3188130000000000
 41
3.141592653589793
 42
0.000000000000000
  0
ELLIPSE
  5
152
100
AcDbEntity
  8
A1
  6
CONTINUOUS
 62
7
100
AcDbEllipse
 10
70.83849270119526
 20
58.99229843104469
 30
0.000000000000000
 11
0.000000000000000
 21
-1.500000000000000
 31
0.000000000000000
210
0.000000000000000
220
0.000000000000000
230
1.000000000000000
 40
0.9821470000000000
 41
0.000000000000000
 42
3.141592653589793
  0
ELLIPSE
  5
153
100
AcDbEntity
  8
A1
  6
CONTINUOUS
 62
7
100
AcDbEllipse
 10
42.09144670119528
 20
58.99229843104469
 30
0.000000000000000
 11
0.000000000000000
 21
1.500000000000000
 31
0.000000000000000
210
0.000000000000000
220
0.000000000000000
230
1.000000000000000
 40
0.9821470000000000
 41
0.000000000000000
 42
3.141592653589793
  0
ELLIPSE
  5
154
100
AcDbEntity
  8
A1
  6
CONTINUOUS
 62
7
100
AcDbEllipse
 10
46.64480870119527
 20
58.99229843104469
 30
0.000000000000000
 11
0.000000000000000
 21
-1.500000000000000
 31
0.000000000000000
210
0.000000000000000
220
0.000000000000000
230
1.000000000000000
 40
0.3188130000000000
 41
0.000000000000000
 42
3.141592653589793
  0
ARC
  5
155
100
AcDbEntity
  8
A1
  6
CONTINUOUS
 62
7
100
AcDbCircle
 10
73.20083070119529
 20
58.99229843104469
 30
0.000000000000000
 40
1.500000000000000
100
AcDbArc
 50
270.0000000000000
 51
450.0000000000000
  0
ARC
  5
156
100
AcDbEntity
  8
A1
  6
CONTINUOUS
 62
7
100
AcDbCircle
 10
39.72910870119529
 20
58.99229843104469
 30
0.000000000000000
 40
1.500000000000000
100
AcDbArc
 50
90.00000000000000
 51
270.0000000000000
  0
LINE
  5
157
100
AcDbEntity
  8
A1
  6
CONTINUOUS
 62
7
100
AcDbLine
 10
70.83849270119525
 20
60.49229843104468
 30
0.000000000000000
 11
70.85632470119525
 21
60.49229843104468
 31
0.000000000000000
  0
LINE
  5
158
100
AcDbEntity
  8
A1
  6
CONTINUOUS
 62
7
100
AcDbLine
 10
70.85632670119523
 20
57.49229843104468
 30
0.000000000000000
 11
70.83849270119524
 21
57.49229843104468
 31
0.000000000000000
  0
LINE
  5
159
100
AcDbEntity
  8
A1
  6
CONTINUOUS
 62
7
100
AcDbLine
 10
70.85632470119525
 20
60.49229843104468
 30
0.000000000000000
 11
73.20083070119527
 21
60.49229843104468
 31
0.000000000000000
  0
LINE
  5
15A
100
AcDbEntity
  8
A1
  6
CONTINUOUS
 62
7
100
AcDbLine
 10
73.20083070119526
 20
57.49229843104468
 30
0.000000000000000
 11
70.85632670119523
 21
57.49229843104468
 31
0.000000000000000
  0
LINE
  5
15B
100
AcDbEntity
  8
A1
  6
CONTINUOUS
 62
7
100
AcDbLine
 10
42.09144670119526
 20
57.49229843104468
 30
0.000000000000000
 11
42.07361370119526
 21
57.49229843104468
 31
0.000000000000000
  0
LINE
  5
15C
100
AcDbEntity
  8
A1
  6
CONTINUOUS
 62
7
100
AcDbLine
 10
42.07361370119526
 20
60.49229843104468
 30
0.000000000000000
 11
42.09144670119526
 21
60.49229843104468
 31
0.000000000000000
  0
LINE
  5
15D
100
AcDbEntity
  8
A1
  6
CONTINUOUS
 62
7
100
AcDbLine
 10
42.07361370119526
 20
57.49229843104468
 30
0.000000000000000
 11
39.72910870119527
 21
57.49229843104468
 31
0.000000000000000
  0
LINE
  5
15E
100
AcDbEntity
  8
A1
  6
CONTINUOUS
 62
7
100
AcDbLine
 10
39.72910870119527
 20
60.49229843104468
 30
0.000000000000000
 11
42.07361370119526
 21
60.49229843104468
 31
0.000000000000000
  0
LINE
  5
15F
100
AcDbEntity
  8
A1
  6
CONTINUOUS
 62
7
100
AcDbLine
 10
66.28513070119524
 20
57.49229843104468
 30
0.000000000000000
 11
60.26153570119525
 21
57.49229843104468
 31
0.000000000000000
  0
LINE
  5
160
100
AcDbEntity
  8
A1
  6
CONTINUOUS
 62
7
100
AcDbLine
 10
60.26153570119525
 20
60.49229843104468
 30
0.000000000000000
 11
66.28513070119526
 21
60.49229843104468
 31
0.000000000000000
  0
LINE
  5
161
100
AcDbEntity
  8
A1
  6
CONTINUOUS
 62
7
100
AcDbLine
 10
46.64480870119525
 20
60.49229843104468
 30
0.000000000000000
 11
52.66840370119525
 21
60.49229843104468
 31
0.000000000000000
  0
LINE
  5
162
100
AcDbEntity
  8
A1
  6
CONTINUOUS
 62
7
100
AcDbLine
 10
52.66840370119525
 20
57.49229843104468
 30
0.000000000000000
 11
46.64480870119525
 21
57.49229843104468
 31
0.000000000000000
  0
LINE
  5
163
100
AcDbEntity
  8
A1
  6
CONTINUOUS
 62
7
100
AcDbLine
 10
66.45724970119525
 20
57.49229843104468
 30
0.000000000000000
 11
66.28513070119524
 21
57.49229843104468
 31
0.000000000000000
  0
LINE
  5
164
100
AcDbEntity
  8
A1
  6
CONTINUOUS
 62
7
100
AcDbLine
 10
70.83849270119524
 20
57.49229843104468
 30
0.000000000000000
 11
67.95724970119525
 21
57.49229843104468
 31
0.000000000000000
  0
LINE
  5
165
100
AcDbEntity
  8
A1
  6
CONTINUOUS
 62
7
100
AcDbLine
 10
67.95724970119527
 20
60.49229843104468
 30
0.000000000000000
 11
70.83849270119525
 21
60.49229843104468
 31
0.000000000000000
  0
LINE
  5
166
100
AcDbEntity
  8
A1
  6
CONTINUOUS
 62
7
100
AcDbLine
 10
66.28513070119526
 20
60.49229843104468
 30
0.000000000000000
 11
66.45724970119527
 21
60.49229843104468
 31
0.000000000000000
  0
LINE
  5
167
100
AcDbEntity
  8
A1
  6
CONTINUOUS
 62
7
100
AcDbLine
 10
44.95724970119526
 20
57.49229843104468
 30
0.000000000000000
 11
42.09144670119526
 21
57.49229843104468
 31
0.000000000000000
  0
LINE
  5
168
100
AcDbEntity
  8
A1
  6
CONTINUOUS
 62
7
100
AcDbLine
 10
46.64480870119525
 20
57.49229843104468
 30
0.000000000000000
 11
46.45724970119526
 21
57.49229843104468
 31
0.000000000000000
  0
LINE
  5
169
100
AcDbEntity
  8
A1
  6
CONTINUOUS
 62
7
100
AcDbLine
 10
46.45724970119526
 20
60.49229843104468
 30
0.000000000000000
 11
46.64480870119525
 21
60.49229843104468
 31
0.000000000000000
  0
LINE
  5
16A
100
AcDbEntity
  8
A1
  6
CONTINUOUS
 62
7
100
AcDbLine
 10
42.09144670119526
 20
60.49229843104468
 30
0.000000000000000
 11
44.95724970119526
 21
60.49229843104468
 31
0.000000000000000
  0
ELLIPSE
  5
16B
100
AcDbEntity
  8
A1
  6
CONTINUOUS
 62
7
100
AcDbEllipse
 10
65.95724970119525
 20
159.7381403569014
 30
0.000000000000000
 11
2.000000000000000
 21
0.000000000000000
 31
0.000000000000000
210
0.000000000000000
220
0.000000000000000
230
1.000000000000000
 40
0.8797590000000001
 41
0.000000000000000
 42
0.2526802551420625
  0
LINE
  5
16C
100
AcDbEntity
  8
A1
  6
CONTINUOUS
 62
7
100
AcDbLine
 10
44.95724970119525
 20
158.9664243569014
 30
0.000000000000000
 11
44.95724970119525
 21
159.2053633569014
 31
0.000000000000000
  0
LINE
  5
16D
100
AcDbEntity
  8
A1
  6
CONTINUOUS
 62
7
100
AcDbLine
 10
65.95724970119525
 20
114.3092843569014
 30
0.000000000000000
 11
65.95724970119525
 21
115.5473223569014
 31
0.000000000000000
  0
LINE
  5
16E
100
AcDbEntity
  8
A1
  6
CONTINUOUS
 62
7
100
AcDbLine
 10
46.95724970119525
 20
114.3092843569014
 30
0.000000000000000
 11
46.95724970119525
 21
115.5473223569014
 31
0.000000000000000
  0
LINE
  5
16F
100
AcDbEntity
  8
A1
  6
CONTINUOUS
 62
7
100
AcDbLine
 10
65.95724970119525
 20
115.5473223569014
 30
0.000000000000000
 11
65.95724970119525
 21
127.3649903569014
 31
0.000000000000000
  0
LINE
  5
170
100
AcDbEntity
  8
A1
  6
CONTINUOUS
 62
7
100
AcDbLine
 10
46.95724970119525
 20
115.5473223569014
 30
0.000000000000000
 11
46.95724970119525
 21
127.3649903569014
 31
0.000000000000000
  0
LINE
  5
171
100
AcDbEntity
  8
A1
  6
CONTINUOUS
 62
7
100
AcDbLine
 10
44.95724970119525
 20
128.6736093569014
 30
0.000000000000000
 11
44.95724970119525
 21
159.7102850060391
 31
0.000000000000000
  0
LINE
  5
172
100
AcDbEntity
  8
A1
  6
CONTINUOUS
 62
7
100
AcDbLine
 10
46.95724970119525
 20
128.6736093569014
 30
0.000000000000000
 11
44.95724970119525
 21
128.6736093569014
 31
0.000000000000000
  0
LINE
  5
173
100
AcDbEntity
  8
A1
  6
CONTINUOUS
 62
7
100
AcDbLine
 10
46.95724970119525
 20
127.8024033569014
 30
0.000000000000000
 11
46.95724970119525
 21
128.6736093569014
 31
0.000000000000000
  0
LINE
  5
174
100
AcDbEntity
  8
A1
  6
CONTINUOUS
 62
7
100
AcDbLine
 10
44.95724970119525
 20
162.9763853569014
 30
0.000000000000000
 11
44.95724970119525
 21
165.7561853569014
 31
0.000000000000000
  0
LINE
  5
175
100
AcDbEntity
  8
A1
  6
CONTINUOUS
 62
7
100
AcDbLine
 10
67.95724970119525
 20
166.1736093569014
 30
0.000000000000000
 11
67.95724970119525
 21
165.1736093569014
 31
0.000000000000000
  0
LINE
  5
176
100
AcDbEntity
  8
A1
  6
CONTINUOUS
 62
7
100
AcDbLine
 10
67.95724970119525
 20
166.1736093569014
 30
0.000000000000000
 11
44.95724970119525
 21
166.1736093569014
 31
0.000000000000000
  0
LINE
  5
177
100
AcDbEntity
  8
A1
  6
CONTINUOUS
 62
7
100
AcDbLine
 10
44.95724970119525
 20
165.7561853569014
 30
0.000000000000000
 11
44.95724970119525
 21
166.1736093569014
 31
0.000000000000000
  0
LINE
  5
178
100
AcDbEntity
  8
A1
  6
CONTINUOUS
 62
7
100
AcDbLine
 10
65.95724970119525
 20
127.3649903569014
 30
0.000000000000000
 11
65.95724970119525
 21
128.4990243569014
 31
0.000000000000000
  0
LINE
  5
179
100
AcDbEntity
  8
A1
  6
CONTINUOUS
 62
7
100
AcDbLine
 10
46.95724970119525
 20
127.3649903569014
 30
0.000000000000000
 11
46.95724970119525
 21
127.8024033569014
 31
0.000000000000000
  0
LINE
  5
17A
100
AcDbEntity
  8
A1
  6
CONTINUOUS
 62
7
100
AcDbLine
 10
65.95724970119525
 20
127.3649903569014
 30
0.000000000000000
 11
46.95724970119525
 21
127.3649903569014
 31
0.000000000000000
  0
LINE
  5
17B
100
AcDbEntity
  8
A1
  6
CONTINUOUS
 62
7
100
AcDbLine
 10
65.95724970119525
 20
128.4990243569014
 30
0.000000000000000
 11
65.95724970119525
 21
128.6736093569014
 31
0.000000000000000
  0
LINE
  5
17C
100
AcDbEntity
  8
A1
  6
CONTINUOUS
 62
7
100
AcDbLine
 10
65.95724970119525
 20
161.1736093569014
 30
0.000000000000000
 11
47.95724970119525
 21
161.1736093569014
 31
0.000000000000000
  0
LINE
  5
17D
100
AcDbEntity
  8
A1
  6
CONTINUOUS
 62
7
100
AcDbLine
 10
47.95724970119525
 20
161.1736093569014
 30
0.000000000000000
 11
47.95724970119525
 21
128.4990243569014
 31
0.000000000000000
  0
LINE
  5
17E
100
AcDbEntity
  8
A1
  6
CONTINUOUS
 62
7
100
AcDbLine
 10
65.95724970119525
 20
128.4990243569014
 30
0.000000000000000
 11
47.95724970119525
 21
128.4990243569014
 31
0.000000000000000
  0
LINE
  5
17F
100
AcDbEntity
  8
A1
  6
CONTINUOUS
 62
7
100
AcDbLine
 10
67.95724970119525
 20
165.1736093569014
 30
0.000000000000000
 11
67.95724970119525
 21
162.9763853569014
 31
0.000000000000000
  0
LINE
  5
180
100
AcDbEntity
  8
A1
  6
CONTINUOUS
 62
7
100
AcDbLine
 10
65.95724970119525
 20
128.6736093569014
 30
0.000000000000000
 11
65.95724970119525
 21
161.1736093569014
 31
0.000000000000000
  0
LINE
  5
181
100
AcDbEntity
  8
A1
  6
CONTINUOUS
 62
7
100
AcDbLine
 10
67.95724970119525
 20
128.6736093569014
 30
0.000000000000000
 11
65.95724970119525
 21
128.6736093569014
 31
0.000000000000000
  0
LINE
  5
182
100
AcDbEntity
  8
A1
  6
CONTINUOUS
 62
7
100
AcDbLine
 10
67.95724970119525
 20
159.7381403569014
 30
0.000000000000000
 11
67.95724970119525
 21
128.6736093569014
 31
0.000000000000000
  0
LINE
  5
183
100
AcDbEntity
  8
A1
  6
CONTINUOUS
 62
7
100
AcDbLine
 10
67.89374070119524
 20
161.1736093569014
 30
0.000000000000000
 11
67.89374070119524
 21
160.1780193569014
 31
0.000000000000000
  0
ARC
  5
184
100
AcDbEntity
  8
A1
  6
CONTINUOUS
 62
7
100
AcDbCircle
 10
45.45724970119525
 20
146.8736093569014
 30
0.000000000000000
 40
1.000000000000000
100
AcDbArc
 50
120.0000000000000
 51
180.0000000000000
  0
ARC
  5
185
100
AcDbEntity
  8
A1
  6
CONTINUOUS
 62
7
100
AcDbCircle
 10
67.45724970119525
 20
146.8736093569014
 30
0.000000000000000
 40
1.000000000000000
100
AcDbArc
 50
0.000000000000000
 51
59.99999999999999
  0
ARC
  5
186
100
AcDbEntity
  8
A1
  6
CONTINUOUS
 62
7
100
AcDbCircle
 10
49.95724970119525
 20
110.8736093569014
 30
0.000000000000000
 40
3.000000000000000
100
AcDbArc
 50
180.0000000000000
 51
254.9451590000000
  0
ARC
  5
187
100
AcDbEntity
  8
A1
  6
CONTINUOUS
 62
7
100
AcDbCircle
 10
62.95724970119525
 20
110.8736093569014
 30
0.000000000000000
 40
3.000000000000000
100
AcDbArc
 50
285.5207640000000
 51
360.0000000000000
  0
ARC
  5
188
100
AcDbEntity
  8
A1
  6
CONTINUOUS
 62
7
100
AcDbCircle
 10
67.45724970119525
 20
130.8736093569015
 30
0.000000000000000
 40
1.000000000000000
100
AcDbArc
 50
300.0000000000001
 51
360.0000000000000
  0
ARC
  5
189
100
AcDbEntity
  8
A1
  6
CONTINUOUS
 62
7
100
AcDbCircle
 10
45.45724970119525
 20
130.8736093569015
 30
0.000000000000000
 40
1.000000000000000
100
AcDbArc
 50
180.0000000000000
 51
240.0000000000000
  0
ARC
  5
18A
100
AcDbEntity
  8
A1
  6
CONTINUOUS
 62
7
100
AcDbCircle
 10
67.70724970119525
 20
160.1736093569014
 30
0.000000000000000
 40
1.000000000000000
100
AcDbArc
 50
284.4775120000000
 51
360.0000000000000
  0
ARC
  5
18B
100
AcDbEntity
  8
A1
  6
CONTINUOUS
 62
7
100
AcDbCircle
 10
67.70724970119525
 20
163.1736093569014
 30
0.000000000000000
 40
1.000000000000000
100
AcDbArc
 50
0.000000000000000
 51
75.52248800000000
  0
ARC
  5
18C
100
AcDbEntity
  8
A1
  6
CONTINUOUS
 62
7
100
AcDbCircle
 10
45.20724970119525
 20
163.1736093569014
 30
0.000000000000000
 40
1.000000000000000
100
AcDbArc
 50
104.4775120000000
 51
180.0000000000000
  0
ARC
  5
18D
100
AcDbEntity
  8
A1
  6
CONTINUOUS
 62
7
100
AcDbCircle
 10
45.20724970119525
 20
160.1736093569014
 30
0.000000000000000
 40
1.000000000000000
100
AcDbArc
 50
180.0000000000000
 51
255.5224878140701
  0
LINE
  5
18E
100
AcDbEntity
  8
A1
  6
CONTINUOUS
 62
7
100
AcDbLine
 10
46.95724970119525
 20
110.8736093569014
 30
0.000000000000000
 11
46.95724970119525
 21
114.3092843569014
 31
0.000000000000000
  0
LINE
  5
18F
100
AcDbEntity
  8
A1
  6
CONTINUOUS
 62
7
100
AcDbLine
 10
65.95724970119525
 20
110.8736093569014
 30
0.000000000000000
 11
65.95724970119525
 21
114.3092843569014
 31
0.000000000000000
  0
LINE
  5
190
100
AcDbEntity
  8
A1
  6
CONTINUOUS
 62
7
100
AcDbLine
 10
68.45724970119525
 20
135.1224573569014
 30
0.000000000000000
 11
68.45724970119525
 21
130.8736093569015
 31
0.000000000000000
  0
LINE
  5
191
100
AcDbEntity
  8
A1
  6
CONTINUOUS
 62
7
100
AcDbLine
 10
68.45724970119525
 20
146.8736093569014
 30
0.000000000000000
 11
68.45724970119525
 21
138.3914353569014
 31
0.000000000000000
  0
LINE
  5
192
100
AcDbEntity
  8
A1
  6
CONTINUOUS
 62
7
100
AcDbLine
 10
44.45724970119525
 20
135.1258203569014
 30
0.000000000000000
 11
44.45724970119525
 21
130.8736093569015
 31
0.000000000000000
  0
LINE
  5
193
100
AcDbEntity
  8
A1
  6
CONTINUOUS
 62
7
100
AcDbLine
 10
44.45724970119525
 20
146.8736093569014
 30
0.000000000000000
 11
44.45724970119525
 21
138.4009183569014
 31
0.000000000000000
  0
LINE
  5
194
100
AcDbEntity
  8
A1
  6
CONTINUOUS
 62
7
100
AcDbLine
 10
68.70724970119525
 20
160.1736093569014
 30
0.000000000000000
 11
68.70724970119525
 21
163.1736093569014
 31
0.000000000000000
  0
LINE
  5
195
100
AcDbEntity
  8
A1
  6
CONTINUOUS
 62
7
100
AcDbLine
 10
44.20724970119525
 20
160.1736093569014
 30
0.000000000000000
 11
44.20724970119525
 21
163.1736093569014
 31
0.000000000000000
  0
ARC
  5
196
100
AcDbEntity
  8
A1
  6
CONTINUOUS
 62
7
100
AcDbCircle
 10
45.51160170119525
 20
140.1004303569014
 30
0.000000000000000
 40
2.000000000000000
100
AcDbArc
 50
190.8014810000000
 51
253.9082570000000
  0
ARC
  5
197
100
AcDbEntity
  8
A1
  6
CONTINUOUS
 62
7
100
AcDbCircle
 10
42.72030970119525
 20
192.2193503569014
 30
0.000000000000000
 40
1.500000000000000
100
AcDbArc
 50
151.2777320000000
 51
167.7943050000000
  0
ARC
  5
198
100
AcDbEntity
  8
A1
  6
CONTINUOUS
 62
7
100
AcDbCircle
 10
44.03574870119527
 20
191.4985033569014
 30
0.000000000000000
 40
3.000000000000000
100
AcDbArc
 50
90.00000000000000
 51
151.2777320000000
  0
ARC
  5
199
100
AcDbEntity
  8
A1
  6
CONTINUOUS
 62
7
100
AcDbCircle
 10
67.41833770119527
 20
140.1004303569014
 30
0.000000000000000
 40
2.000000000000000
100
AcDbArc
 50
285.6318880000000
 51
349.1985190000000
  0
ARC
  5
19A
100
AcDbEntity
  8
A1
  6
CONTINUOUS
 62
7
100
AcDbCircle
 10
172.0531817011953
 20
164.2431363569014
 30
0.000000000000000
 40
133.8240730000000
100
AcDbArc
 50
167.7943050000000
 51
190.8427000000000
  0
ARC
  5
19B
100
AcDbEntity
  8
A1
  6
CONTINUOUS
 62
7
100
AcDbCircle
 10
67.40097670119528
 20
140.0096133569014
 30
0.000000000000000
 40
5.000000000000000
100
AcDbArc
 50
276.3876330000000
 51
349.1573000000001
  0
ARC
  5
19C
100
AcDbEntity
  8
A1
  6
CONTINUOUS
 62
7
100
AcDbCircle
 10
45.52896270119530
 20
140.0096133569014
 30
0.000000000000000
 40
5.000000000000000
100
AcDbArc
 50
190.8427000000000
 51
263.4342910000000
  0
ARC
  5
19D
100
AcDbEntity
  8
A1
  6
CONTINUOUS
 62
7
100
AcDbCircle
 10
-59.12324229880474
 20
164.2431363569014
 30
0.000000000000000
 40
133.8240730000000
100
AcDbArc
 50
349.1573000000001
 51
372.2829250000000
  0
ARC
  5
19E
100
AcDbEntity
  8
A1
  6
CONTINUOUS
 62
7
100
AcDbCircle
 10
68.89419070119524
 20
191.4985033569014
 30
0.000000000000000
 40
3.000000000000000
100
AcDbArc
 50
23.87509900000000
 51
90.00000000000000
  0
ARC
  5
19F
100
AcDbEntity
  8
A1
  6
CONTINUOUS
 62
7
100
AcDbCircle
 10
68.08014970119527
 20
190.4985033569014
 30
0.000000000000000
 40
1.000000000000000
100
AcDbArc
 50
31.84564500000000
 51
90.00000000000000
  0
ARC
  5
1A0
100
AcDbEntity
  8
A1
  6
CONTINUOUS
 62
7
100
AcDbCircle
 10
-59.12019829880472
 20
164.2423363569014
 30
0.000000000000000
 40
130.8209330000000
100
AcDbArc
 50
349.1985190000000
 51
371.8141200000001
  0
ARC
  5
1A1
100
AcDbEntity
  8
A1
  6
CONTINUOUS
 62
7
100
AcDbCircle
 10
44.84978870119525
 20
190.4985033569014
 30
0.000000000000000
 40
1.000000000000000
100
AcDbArc
 50
90.00000000000000
 51
148.1451930000000
  0
ARC
  5
1A2
100
AcDbEntity
  8
A1
  6
CONTINUOUS
 62
7
100
AcDbCircle
 10
172.0501377011953
 20
164.2423363569014
 30
0.000000000000000
 40
130.8209330000000
100
AcDbArc
 50
168.1858800000000
 51
190.8014810000000
  0
LINE
  5
1A3
100
AcDbEntity
  8
A1
  6
CONTINUOUS
 62
7
100
AcDbLine
 10
44.84978870119525
 20
191.4985033569014
 30
0.000000000000000
 11
68.08014970119527
 21
191.4985033569014
 31
0.000000000000000
  0
LINE
  5
1A4
100
AcDbEntity
  8
A1
  6
CONTINUOUS
 62
7
100
AcDbLine
 10
68.89419070119524
 20
194.4985033569014
 30
0.000000000000000
 11
44.03574870119527
 21
194.4985033569014
 31
0.000000000000000
  0
LINE
  5
1A5
100
AcDbEntity
  8
A4
  6
CENTER
 62
1
100
AcDbLine
 10
56.45724970119526
 20
69.33772067038798
 30
0.000000000000000
 11
56.45724970119526
 21
50.29229843104468
 31
0.000000000000000
  0
LINE
  5
1A6
100
AcDbEntity
  8
A4
  6
CENTER
 62
1
100
AcDbLine
 10
270.4341062993177
 20
114.4736093569014
 30
0.000000000000000
 11
262.2341062993177
 21
114.4736093569014
 31
0.000000000000000
  0
LINE
  5
1A7
100
AcDbEntity
  8
A4
  6
CENTER
 62
1
100
AcDbLine
 10
270.4341062993177
 20
128.4736093569014
 30
0.000000000000000
 11
262.2341062993177
 21
128.4736093569014
 31
0.000000000000000
  0
LINE
  5
1A8
100
AcDbEntity
  8
A4
  6
CENTER
 62
1
100
AcDbLine
 10
160.0486871659882
 20
136.1736093569014
 30
0.000000000000000
 11
152.3486871659882
 21
136.1736093569014
 31
0.000000000000000
  0
LINE
  5
1A9
100
AcDbEntity
  8
A4
  6
CENTER
 62
1
100
AcDbLine
 10
156.1986871659882
 20
132.3236093569014
 30
0.000000000000000
 11
156.1986871659882
 21
138.0096133569014
 31
0.000000000000000
  0
LINE
  5
1AA
100
AcDbEntity
  8
A4
  6
CENTER
 62
1
100
AcDbLine
 10
159.1986871659882
 20
192.9985033569014
 30
0.000000000000000
 11
153.1986871659882
 21
192.9985033569014
 31
0.000000000000000
  0
LINE
  5
1AB
100
AcDbEntity
  8
A4
  6
CENTER
 62
1
100
AcDbLine
 10
156.1986871659882
 20
195.9985033569014
 30
0.000000000000000
 11
156.1986871659882
 21
191.4985033569014
 31
0.000000000000000
  0
LINE
  5
1AC
100
AcDbEntity
  8
A4
  6
CENTER
 62
1
100
AcDbLine
 10
270.4341062993177
 20
142.4736093569014
 30
0.000000000000000
 11
262.2341062993177
 21
142.4736093569014
 31
0.000000000000000
  0
LINE
  5
1AD
100
AcDbEntity
  8
A4
  6
CENTER
 62
1
100
AcDbLine
 10
56.45724970119525
 20
246.5541098904931
 30
0.000000000000000
 11
56.45724970119525
 21
264.8964740469629
 31
0.000000000000000
  0
LINE
  5
1AE
100
AcDbEntity
  8
A1
  6
CONTINUOUS
 62
7
100
AcDbLine
 10
47.95724970119522
 20
161.1736093569014
 30
0.000000000000000
 11
44.95724970119523
 21
166.1736093569014
 31
0.000000000000000
  0
LINE
  5
1AF
100
AcDbEntity
  8
A1
  6
CONTINUOUS
 62
7
100
AcDbLine
 10
65.95724970119528
 20
161.1736093569014
 30
0.000000000000000
 11
67.95724970119529
 21
166.1736093569014
 31
0.000000000000000
  0
LINE
  5
1B0
100
AcDbEntity
  8
A1
  6
CONTINUOUS
 62
7
100
AcDbLine
 10
67.95724970119521
 20
162.9763853569014
 30
0.000000000000000
 11
67.89374070119520
 21
161.1736093569014
 31
0.000000000000000
  0
LINE
  5
1B1
100
AcDbEntity
  8
A4
  6
CENTER
 62
1
100
AcDbLine
 10
246.6788674083720
 20
192.9985033569014
 30
0.000000000000000
 11
285.4086640182703
 21
192.9985033569014
 31
0.000000000000000
  0
LINE
  5
1B2
100
AcDbEntity
  8
A4
  6
CENTER
 62
1
100
AcDbLine
 10
43.33434870119524
 20
255.0541098904931
 30
0.000000000000000
 11
69.56470970119526
 21
255.0541098904931
 31
0.000000000000000
  0
LINE
  5
1B3
100
AcDbEntity
  8
A4
  6
CENTER
 62
1
100
AcDbLine
 10
36.80201081024964
 20
255.0541098904931
 30
0.000000000000000
 11
44.20486970119524
 21
255.0541098904931
 31
0.000000000000000
  0
LINE
  5
1B4
100
AcDbEntity
  8
A4
  6
CENTER
 62
1
100
AcDbLine
 10
68.69418970119526
 20
255.0541098904931
 30
0.000000000000000
 11
75.53180742014794
 21
255.0541098904931
 31
0.000000000000000
  0
LINE
  5
1B5
100
AcDbEntity
  8
A4
  6
CENTER
 62
1
100
AcDbLine
 10
56.45724970119525
 20
103.7312079991032
 30
0.000000000000000
 11
56.45724970119525
 21
195.9985033569014
 31
0.000000000000000
  0
LINE
  5
1B6
100
AcDbEntity
  8
A1
  6
CONTINUOUS
 62
7
100
AcDbLine
 10
44.95724970119525
 20
162.9763853569015
 30
0.000000000000000
 11
45.02075870119526
 21
161.1736093569015
 31
0.000000000000000
  0
LINE
  5
1B7
100
AcDbEntity
  8
A1
  6
CONTINUOUS
 62
7
100
AcDbLine
 10
44.95724970119525
 20
165.1736093569014
 30
0.000000000000000
 11
44.95724970119525
 21
162.9763853569014
 31
0.000000000000000
  0
LINE
  5
1B8
100
AcDbEntity
  8
A1
  6
CONTINUOUS
 62
7
100
AcDbLine
 10
45.02075870119526
 20
161.1736093569014
 30
0.000000000000000
 11
45.02075870119526
 21
160.1780193569014
 31
0.000000000000000
  0
ELLIPSE
  5
1B9
100
AcDbEntity
  8
A1
  6
CONTINUOUS
 62
7
100
AcDbEllipse
 10
46.95724970119525
 20
159.7381403569014
 30
0.000000000000000
 11
-2.000000000000000
 21
0.000000000000000
 31
0.000000000000000
210
0.000000000000000
220
0.000000000000000
230
1.000000000000000
 40
0.8797590000000001
 41
6.030505052037509
 42
0.000000000000000
  0
LINE
  5
1BA
100
AcDbEntity
  8
A1
  6
CONTINUOUS
 62
7
100
AcDbLine
 10
44.95724970119525
 20
159.7381403569014
 30
0.000000000000000
 11
44.95724970119525
 21
128.6736093569014
 31
0.000000000000000
  0
LINE
  5
1BB
100
AcDbEntity
  8
A4
  6
CENTER
 62
1
100
AcDbLine
 10
266.3341062993177
 20
103.7312079991032
 30
0.000000000000000
 11
266.3341062993177
 21
195.9985033569014
 31
0.000000000000000
  0
ARC
  5
1BC
100
AcDbEntity
  8
A1
  6
CONTINUOUS
 62
7
100
AcDbCircle
 10
56.50763475329492
 20
51.21518210841809
 30
0.000000000000000
 40
13.44711632262654
100
AcDbArc
 50
45.35401705419957
 51
135.2526611777827
  0
ARC
  5
1BD
100
AcDbEntity
  8
A1
  6
CONTINUOUS
 62
7
100
AcDbCircle
 10
56.45724970119528
 20
51.72506102971811
 30
0.000000000000000
 40
14.06723740132654
100
AcDbArc
 50
47.52036966417158
 51
132.4796303358284
  0
ARC
  5
1BE
100
AcDbEntity
  8
A1
  6
CONTINUOUS
 62
7
100
AcDbCircle
 10
266.3341062993177
 20
114.3476834309754
 30
0.000000000000000
 40
9.174074074074014
100
AcDbArc
 50
224.8855067305886
 51
315.1144932694115
  0
ARC
  5
1BF
100
AcDbEntity
  8
A1
  6
CONTINUOUS
 62
7
100
AcDbCircle
 10
56.45724970119520
 20
116.1528642670531
 30
0.000000000000000
 40
9.550460910151685
100
AcDbArc
 50
185.8924297025428
 51
354.1075702974605
  0
ARC
  5
1C0
100
AcDbEntity
  8
A1
  6
CONTINUOUS
 62
7
100
AcDbCircle
 10
56.45724970119525
 20
115.1858300553520
 30
0.000000000000000
 40
9.573426698450533
100
AcDbArc
 50
187.1008263916961
 51
352.8991736083040
  0
LINE
  5
1C1
100
AcDbEntity
  8
A4
  6
CENTER
 62
1
100
AcDbLine
 10
37.15304053355692
 20
192.9985033569014
 30
0.000000000000000
 11
75.99741724454228
 21
192.9985033569014
 31
0.000000000000000
  0
LINE
  5
1C2
100
AcDbEntity
  8
A4
  6
CENTER
 62
1
100
AcDbLine
 10
44.24888670119529
 20
136.1736093570341
 30
0.000000000000000
 11
70.24888670132080
 21
136.1736093570341
 31
0.000000000000000
  0
LINE
  5
1C3
100
AcDbEntity
  8
A4
  6
CENTER
 62
1
100
AcDbLine
 10
252.9076373380690
 20
136.1736093569450
 30
0.000000000000000
 11
280.2749712606044
 21
136.1736093569450
 31
0.000000000000000
  0
LINE
  5
1C4
100
AcDbEntity
  8
A4
  6
CENTER
 62
1
100
AcDbLine
 10
159.8986871659993
 20
114.4736093569252
 30
0.000000000000000
 11
164.8986871659882
 21
114.4736093569252
 31
0.000000000000000
  0
LINE
  5
1C5
100
AcDbEntity
  8
A4
  6
CENTER
 62
1
100
AcDbLine
 10
159.8986871659993
 20
128.3736093569105
 30
0.000000000000000
 11
164.8986871659882
 21
128.3736093569105
 31
0.000000000000000
  0
LINE
  5
1C6
100
AcDbEntity
  8
A4
  6
CENTER
 62
1
100
AcDbLine
 10
159.8986871659993
 20
142.4736093568970
 30
0.000000000000000
 11
164.8986871659882
 21
142.4736093568970
 31
0.000000000000000
  0
LINE
  5
1C7
100
AcDbEntity
  8
A4
  6
CENTER
 62
1
100
AcDbLine
 10
36.80201081024964
 20
58.99229843104468
 30
0.000000000000000
 11
75.53180742014794
 21
58.99229843104468
 31
0.000000000000000
  0
CIRCLE
  5
1C8
100
AcDbEntity
  8
A1
  6
CONTINUOUS
 62
7
100
AcDbCircle
 10
90.61851656046062
 20
205.4980803569015
 30
0.000000000000000
 40
2.650000000000000
  0
CIRCLE
  5
1C9
100
AcDbEntity
  8
A1
  6
CONTINUOUS
 62
7
100
AcDbCircle
 10
115.6185165604606
 20
205.4980803569015
 30
0.000000000000000
 40
2.650000000000000
  0
ELLIPSE
  5
1CA
100
AcDbEntity
  8
A1
  6
CONTINUOUS
 62
7
100
AcDbEllipse
 10
94.61851656046062
 20
197.0877243569014
 30
0.000000000000000
 11
2.000000000000000
 21
0.000000000000000
 31
0.000000000000000
210
0.000000000000000
220
0.000000000000000
230
1.000000000000000
 40
0.9051780000000000
 41
1.570796326794897
 42
3.141592632516369
  0
ELLIPSE
  5
1CB
100
AcDbEntity
  8
A1
  6
CONTINUOUS
 62
7
100
AcDbEllipse
 10
111.6185165604606
 20
197.0877243569014
 30
0.000000000000000
 11
2.000000000000000
 21
0.000000000000000
 31
0.000000000000000
210
0.000000000000000
220
0.000000000000000
230
1.000000000000000
 40
0.9051780000000000
 41
0.000000000000000
 42
1.570796326794897
  0
ELLIPSE
  5
1CC
100
AcDbEntity
  8
A1
  6
CONTINUOUS
 62
7
100
AcDbEllipse
 10
111.6185165604606
 20
196.2083043569014
 30
0.000000000000000
 11
2.000000000000000
 21
0.000000000000000
 31
0.000000000000000
210
0.000000000000000
220
0.000000000000000
230
1.000000000000000
 40
0.9048880000000000
 41
0.000000000000000
 42
1.570796326794897
  0
ELLIPSE
  5
1CD
100
AcDbEntity
  8
A1
  6
CONTINUOUS
 62
7
100
AcDbEllipse
 10
94.61851656046062
 20
196.2083043569014
 30
0.000000000000000
 11
2.000000000000000
 21
0.000000000000000
 31
0.000000000000000
210
0.000000000000000
220
0.000000000000000
230
1.000000000000000
 40
0.9048880000000000
 41
1.570796326794897
 42
3.141592632516369
  0
ARC
  5
1CE
100
AcDbEntity
  8
A1
  6
CONTINUOUS
 62
7
100
AcDbCircle
 10
91.61851656046062
 20
196.9122943569014
 30
0.000000000000000
 40
1.000000000000000
100
AcDbArc
 50
0.000000000000000
 51
60.72238700000000
  0
ARC
  5
1CF
100
AcDbEntity
  8
A1
  6
CONTINUOUS
 62
7
100
AcDbCircle
 10
115.6185165604606
 20
205.4980803569015
 30
0.000000000000000
 40
6.000000000000000
100
AcDbArc
 50
299.2776130000000
 51
450.0000000000000
  0
ARC
  5
1D0
100
AcDbEntity
  8
A1
  6
CONTINUOUS
 62
7
100
AcDbCircle
 10
114.6185165604606
 20
196.9122943569014
 30
0.000000000000000
 40
1.000000000000000
100
AcDbArc
 50
119.2776130000000
 51
180.0000000000000
  0
ARC
  5
1D1
100
AcDbEntity
  8
A1
  6
CONTINUOUS
 62
7
100
AcDbCircle
 10
90.61851656046062
 20
205.4980803569015
 30
0.000000000000000
 40
6.000000000000000
100
AcDbArc
 50
90.00000000000000
 51
240.7223870000000
  0
LINE
  5
1D2
100
AcDbEntity
  8
A1
  6
CONTINUOUS
 62
7
100
AcDbLine
 10
92.10755756046059
 20
197.7845543569014
 30
0.000000000000000
 11
87.68426656046060
 21
200.2645183569014
 31
0.000000000000000
  0
LINE
  5
1D3
100
AcDbEntity
  8
A1
  6
CONTINUOUS
 62
7
100
AcDbLine
 10
90.61851656046062
 20
211.4980803569015
 30
0.000000000000000
 11
115.6185165604606
 21
211.4980803569015
 31
0.000000000000000
  0
LINE
  5
1D4
100
AcDbEntity
  8
A1
  6
CONTINUOUS
 62
7
100
AcDbLine
 10
118.5527665604607
 20
200.2645183569015
 30
0.000000000000000
 11
114.1294745604607
 21
197.7845543569015
 31
0.000000000000000
  0
LINE
  5
1D5
100
AcDbEntity
  8
A1
  6
CONTINUOUS
 62
7
100
AcDbLine
 10
113.6185165604606
 20
192.6562723569014
 30
0.000000000000000
 11
113.6185165604606
 21
189.4985033569014
 31
0.000000000000000
  0
LINE
  5
1D6
100
AcDbEntity
  8
A1
  6
CONTINUOUS
 62
7
100
AcDbLine
 10
92.61851656046062
 20
189.4985033569014
 30
0.000000000000000
 11
113.6185165604606
 21
189.4985033569014
 31
0.000000000000000
  0
LINE
  5
1D7
100
AcDbEntity
  8
A1
  6
CONTINUOUS
 62
7
100
AcDbLine
 10
92.61851656046062
 20
189.4985033569014
 30
0.000000000000000
 11
92.61851656046062
 21
192.6562723569014
 31
0.000000000000000
  0
LINE
  5
1D8
100
AcDbEntity
  8
A1
  6
CONTINUOUS
 62
7
100
AcDbLine
 10
94.61851656046062
 20
198.8980803569014
 30
0.000000000000000
 11
111.6185165604606
 21
198.8980803569014
 31
0.000000000000000
  0
LINE
  5
1D9
100
AcDbEntity
  8
A1
  6
CONTINUOUS
 62
7
100
AcDbLine
 10
92.61851656046062
 20
196.2083043569014
 30
0.000000000000000
 11
92.61851656046062
 21
197.0877243569014
 31
0.000000000000000
  0
LINE
  5
1DA
100
AcDbEntity
  8
A1
  6
CONTINUOUS
 62
7
100
AcDbLine
 10
94.61851656046062
 20
198.8980803569014
 30
0.000000000000000
 11
94.61851656046062
 21
198.0180803569014
 31
0.000000000000000
  0
LINE
  5
1DB
100
AcDbEntity
  8
A1
  6
CONTINUOUS
 62
7
100
AcDbLine
 10
111.6185165604606
 20
198.0180803569014
 30
0.000000000000000
 11
111.6185165604606
 21
198.8980803569014
 31
0.000000000000000
  0
LINE
  5
1DC
100
AcDbEntity
  8
A1
  6
CONTINUOUS
 62
7
100
AcDbLine
 10
113.6185165604606
 20
197.0877243569014
 30
0.000000000000000
 11
113.6185165604606
 21
196.2083043569014
 31
0.000000000000000
  0
LINE
  5
1DD
100
AcDbEntity
  8
A1
  6
CONTINUOUS
 62
7
100
AcDbLine
 10
113.6185165604606
 20
196.2083043569014
 30
0.000000000000000
 11
113.6185165604606
 21
192.6562723569014
 31
0.000000000000000
  0
LINE
  5
1DE
100
AcDbEntity
  8
A1
  6
CONTINUOUS
 62
7
100
AcDbLine
 10
94.61851656046062
 20
198.0180803569014
 30
0.000000000000000
 11
111.6185165604606
 21
198.0180803569014
 31
0.000000000000000
  0
LINE
  5
1DF
100
AcDbEntity
  8
A1
  6
CONTINUOUS
 62
7
100
AcDbLine
 10
92.61851656046062
 20
196.2083043569014
 30
0.000000000000000
 11
92.61851656046062
 21
192.6562723569014
 31
0.000000000000000
  0
ARC
  5
1E0
100
AcDbEntity
  8
A1
  6
CONTINUOUS
 62
7
100
AcDbCircle
 10
193.1378646494251
 20
194.9985033569046
 30
0.000000000000000
 40
5.500000000000000
100
AcDbArc
 50
205.2051200000000
 51
360.0000000000000
  0
ARC
  5
1E1
100
AcDbEntity
  8
A1
  6
CONTINUOUS
 62
7
100
AcDbCircle
 10
193.1378646494251
 20
194.9972003569046
 30
0.000000000000000
 40
3.500000000000000
100
AcDbArc
 50
205.1672930000000
 51
360.0000000000000
  0
LINE
  5
1E2
100
AcDbEntity
  8
A1
  6
CONTINUOUS
 62
7
100
AcDbLine
 10
196.6378646494251
 20
196.9122943569046
 30
0.000000000000000
 11
196.6378646494251
 21
194.9972003569046
 31
0.000000000000000
  0
LINE
  5
1E3
100
AcDbEntity
  8
A1
  6
CONTINUOUS
 62
7
100
AcDbLine
 10
198.6378646494251
 20
196.9122943569046
 30
0.000000000000000
 11
198.6378646494251
 21
194.9985033569046
 31
0.000000000000000
  0
LINE
  5
1E4
100
AcDbEntity
  8
A1
  6
CONTINUOUS
 62
7
100
AcDbLine
 10
186.4896776494252
 20
196.2083043569047
 30
0.000000000000000
 11
188.1615246494252
 21
192.6562723569047
 31
0.000000000000000
  0
LINE
  5
1E5
100
AcDbEntity
  8
A1
  6
CONTINUOUS
 62
7
100
AcDbLine
 10
189.9701196494251
 20
193.5087813569046
 30
0.000000000000000
 11
188.2884916494251
 21
197.0877243569046
 31
0.000000000000000
  0
LINE
  5
1E6
100
AcDbEntity
  8
A1
  6
CONTINUOUS
 62
7
100
AcDbLine
 10
186.4896776494252
 20
196.2083043569046
 30
0.000000000000000
 11
185.6378646494252
 21
198.0180803569046
 31
0.000000000000000
  0
LINE
  5
1E7
100
AcDbEntity
  8
A1
  6
CONTINUOUS
 62
7
100
AcDbLine
 10
187.4378646494252
 20
198.8980803569046
 30
0.000000000000000
 11
188.2884916494252
 21
197.0877243569047
 31
0.000000000000000
  0
LINE
  5
1E8
100
AcDbEntity
  8
A1
  6
CONTINUOUS
 62
7
100
AcDbLine
 10
185.6378646494252
 20
198.0180803569046
 30
0.000000000000000
 11
187.4378646494252
 21
198.8980803569046
 31
0.000000000000000
  0
LINE
  5
1E9
100
AcDbEntity
  8
A1
  6
CONTINUOUS
 62
7
100
AcDbLine
 10
188.2884916494251
 20
197.0877243569046
 30
0.000000000000000
 11
186.4896776494251
 21
196.2083043569046
 31
0.000000000000000
  0
LINE
  5
1EA
100
AcDbEntity
  8
A1
  6
CONTINUOUS
 62
7
100
AcDbLine
 10
196.6378646494251
 20
196.9122943569046
 30
0.000000000000000
 11
196.6378646494251
 21
197.7845543569046
 31
0.000000000000000
  0
LINE
  5
1EB
100
AcDbEntity
  8
A1
  6
CONTINUOUS
 62
7
100
AcDbLine
 10
198.6378646494251
 20
196.9122943569046
 30
0.000000000000000
 11
198.6378646494251
 21
197.7845543569046
 31
0.000000000000000
  0
LINE
  5
1EC
100
AcDbEntity
  8
A1
  6
CONTINUOUS
 62
7
100
AcDbLine
 10
198.6378646494251
 20
196.9122943569046
 30
0.000000000000000
 11
196.6378646494251
 21
196.9122943569046
 31
0.000000000000000
  0
LINE
  5
1ED
100
AcDbEntity
  8
A1
  6
CONTINUOUS
 62
7
100
AcDbLine
 10
196.6378646494251
 20
200.2645183569046
 30
0.000000000000000
 11
196.6378646494251
 21
197.7845543569046
 31
0.000000000000000
  0
LINE
  5
1EE
100
AcDbEntity
  8
A1
  6
CONTINUOUS
 62
7
100
AcDbLine
 10
198.6378646494251
 20
200.2645183569046
 30
0.000000000000000
 11
198.6378646494251
 21
197.7845543569046
 31
0.000000000000000
  0
LINE
  5
1EF
100
AcDbEntity
  8
A1
  6
CONTINUOUS
 62
7
100
AcDbLine
 10
198.6378646494251
 20
197.7845543569046
 30
0.000000000000000
 11
196.6378646494251
 21
197.7845543569046
 31
0.000000000000000
  0
LINE
  5
1F0
100
AcDbEntity
  8
A1
  6
CONTINUOUS
 62
7
100
AcDbLine
 10
196.6378646494251
 20
200.2645183569046
 30
0.000000000000000
 11
196.6378646494251
 21
211.4980803569046
 31
0.000000000000000
  0
LINE
  5
1F1
100
AcDbEntity
  8
A1
  6
CONTINUOUS
 62
7
100
AcDbLine
 10
198.6378646494251
 20
200.2645183569046
 30
0.000000000000000
 11
196.6378646494251
 21
200.2645183569046
 31
0.000000000000000
  0
LINE
  5
1F2
100
AcDbEntity
  8
A1
  6
CONTINUOUS
 62
7
100
AcDbLine
 10
198.6378646494251
 20
200.2645183569046
 30
0.000000000000000
 11
198.6378646494251
 21
211.4980803569046
 31
0.000000000000000
  0
LINE
  5
1F3
100
AcDbEntity
  8
A1
  6
CONTINUOUS
 62
7
100
AcDbLine
 10
198.6378646494251
 20
211.4980803569046
 30
0.000000000000000
 11
196.6378646494251
 21
211.4980803569046
 31
0.000000000000000
  0
ELLIPSE
  5
1F4
100
AcDbEntity
  8
A1
  6
CONTINUOUS
 62
7
100
AcDbEllipse
 10
94.61851656046062
 20
248.5287606791196
 30
0.000000000000000
 11
-2.000000000000000
 21
0.000000000000000
 31
0.000000000000000
210
0.000000000000000
220
0.000000000000000
230
1.000000000000000
 40
0.4259070000000001
 41
0.000000000000000
 42
1.570796326794897
  0
ELLIPSE
  5
1F5
100
AcDbEntity
  8
A1
  6
CONTINUOUS
 62
7
100
AcDbEllipse
 10
94.61851656046062
 20
250.3275736791196
 30
0.000000000000000
 11
-2.000000000000000
 21
0.000000000000000
 31
0.000000000000000
210
0.000000000000000
220
0.000000000000000
230
1.000000000000000
 40
0.4253140000000000
 41
0.000000000000000
 42
1.570796326794897
  0
ELLIPSE
  5
1F6
100
AcDbEntity
  8
A1
  6
CONTINUOUS
 62
7
100
AcDbEllipse
 10
111.6185165604606
 20
250.3275736791196
 30
0.000000000000000
 11
-2.000000000000000
 21
0.000000000000000
 31
0.000000000000000
210
0.000000000000000
220
0.000000000000000
230
1.000000000000000
 40
0.4253140000000000
 41
1.570796326794897
 42
3.141592632516369
  0
ELLIPSE
  5
1F7
100
AcDbEntity
  8
A1
  6
CONTINUOUS
 62
7
100
AcDbEllipse
 10
111.6185165604606
 20
248.5287606791196
 30
0.000000000000000
 11
-2.000000000000000
 21
0.000000000000000
 31
0.000000000000000
210
0.000000000000000
220
0.000000000000000
230
1.000000000000000
 40
0.4259070000000001
 41
1.570796326794897
 42
3.141592653589793
  0
LINE
  5
1F8
100
AcDbEntity
  8
A1
  6
CONTINUOUS
 62
7
100
AcDbLine
 10
113.6185165604606
 20
252.0092016791196
 30
0.000000000000000
 11
113.6185165604606
 21
258.6769466791196
 31
0.000000000000000
  0
LINE
  5
1F9
100
AcDbEntity
  8
A1
  6
CONTINUOUS
 62
7
100
AcDbLine
 10
92.61851656046062
 20
258.6769466791196
 30
0.000000000000000
 11
92.61851656046062
 21
252.0092016791196
 31
0.000000000000000
  0
LINE
  5
1FA
100
AcDbEntity
  8
A1
  6
CONTINUOUS
 62
7
100
AcDbLine
 10
94.61851656046062
 20
247.6769466791196
 30
0.000000000000000
 11
111.6185165604606
 21
247.6769466791196
 31
0.000000000000000
  0
LINE
  5
1FB
100
AcDbEntity
  8
A1
  6
CONTINUOUS
 62
7
100
AcDbLine
 10
92.61851656046062
 20
248.5287606791196
 30
0.000000000000000
 11
92.61851656046062
 21
250.3275736791196
 31
0.000000000000000
  0
LINE
  5
1FC
100
AcDbEntity
  8
A1
  6
CONTINUOUS
 62
7
100
AcDbLine
 10
94.61851656046062
 20
249.4769466791196
 30
0.000000000000000
 11
94.61851656046062
 21
247.6769466791196
 31
0.000000000000000
  0
LINE
  5
1FD
100
AcDbEntity
  8
A1
  6
CONTINUOUS
 62
7
100
AcDbLine
 10
94.61851656046062
 20
249.4769466791196
 30
0.000000000000000
 11
111.6185165604606
 21
249.4769466791196
 31
0.000000000000000
  0
LINE
  5
1FE
100
AcDbEntity
  8
A1
  6
CONTINUOUS
 62
7
100
AcDbLine
 10
113.6185165604606
 20
252.0092016791196
 30
0.000000000000000
 11
113.6185165604606
 21
250.3275736791196
 31
0.000000000000000
  0
LINE
  5
1FF
100
AcDbEntity
  8
A1
  6
CONTINUOUS
 62
7
100
AcDbLine
 10
92.61851656046062
 20
252.0092016791196
 30
0.000000000000000
 11
92.61851656046062
 21
250.3275736791196
 31
0.000000000000000
  0
LINE
  5
200
100
AcDbEntity
  8
A1
  6
CONTINUOUS
 62
7
100
AcDbLine
 10
111.6185165604606
 20
247.6769466791196
 30
0.000000000000000
 11
111.6185165604606
 21
249.4769466791196
 31
0.000000000000000
  0
LINE
  5
201
100
AcDbEntity
  8
A1
  6
CONTINUOUS
 62
7
100
AcDbLine
 10
113.6185165604606
 20
250.3275736791196
 30
0.000000000000000
 11
113.6185165604606
 21
248.5287606791196
 31
0.000000000000000
  0
LINE
  5
202
100
AcDbEntity
  8
A1
  6
CONTINUOUS
 62
7
100
AcDbLine
 10
90.61851656046062
 20
260.6769466791196
 30
0.000000000000000
 11
84.61851656046062
 21
260.6769466791196
 31
0.000000000000000
  0
LINE
  5
203
100
AcDbEntity
  8
A1
  6
CONTINUOUS
 62
7
100
AcDbLine
 10
90.61851656046062
 20
258.6769466791196
 30
0.000000000000000
 11
84.61851656046062
 21
258.6769466791196
 31
0.000000000000000
  0
LINE
  5
204
100
AcDbEntity
  8
A1
  6
CONTINUOUS
 62
7
100
AcDbLine
 10
84.61851656046062
 20
260.6769466791196
 30
0.000000000000000
 11
84.61851656046062
 21
258.6769466791196
 31
0.000000000000000
  0
LINE
  5
205
100
AcDbEntity
  8
A1
  6
CONTINUOUS
 62
7
100
AcDbLine
 10
121.6185165604606
 20
258.6769466791196
 30
0.000000000000000
 11
121.6185165604606
 21
260.6769466791196
 31
0.000000000000000
  0
LINE
  5
206
100
AcDbEntity
  8
A1
  6
CONTINUOUS
 62
7
100
AcDbLine
 10
121.6185165604606
 20
258.6769466791196
 30
0.000000000000000
 11
115.6185165604606
 21
258.6769466791196
 31
0.000000000000000
  0
LINE
  5
207
100
AcDbEntity
  8
A1
  6
CONTINUOUS
 62
7
100
AcDbLine
 10
121.6185165604606
 20
260.6769466791196
 30
0.000000000000000
 11
115.6185165604606
 21
260.6769466791196
 31
0.000000000000000
  0
LINE
  5
208
100
AcDbEntity
  8
A1
  6
CONTINUOUS
 62
7
100
AcDbLine
 10
90.61851656046062
 20
258.6769466791196
 30
0.000000000000000
 11
115.6185165604606
 21
258.6769466791196
 31
0.000000000000000
  0
LINE
  5
209
100
AcDbEntity
  8
A1
  6
CONTINUOUS
 62
7
100
AcDbLine
 10
115.6185165604606
 20
260.6769466791196
 30
0.000000000000000
 11
115.6185165604606
 21
258.6769466791196
 31
0.000000000000000
  0
LINE
  5
20A
100
AcDbEntity
  8
A1
  6
CONTINUOUS
 62
7
100
AcDbLine
 10
90.61851656046062
 20
260.6769466791196
 30
0.000000000000000
 11
115.6185165604606
 21
260.6769466791196
 31
0.000000000000000
  0
LINE
  5
20B
100
AcDbEntity
  8
A1
  6
CONTINUOUS
 62
7
100
AcDbLine
 10
90.61851656046062
 20
260.6769466791196
 30
0.000000000000000
 11
90.61851656046062
 21
258.6769466791196
 31
0.000000000000000
  0
LINE
  5
20C
100
AcDbEntity
  8
A4
  6
CENTER
 62
1
100
AcDbLine
 10
119.7685165604606
 20
205.4980803569015
 30
0.000000000000000
 11
111.4685165604606
 21
205.4980803569015
 31
0.000000000000000
  0
LINE
  5
20D
100
AcDbEntity
  8
A4
  6
CENTER
 62
1
100
AcDbLine
 10
115.6185165604606
 20
209.6480803569015
 30
0.000000000000000
 11
115.6185165604606
 21
201.3480803569014
 31
0.000000000000000
  0
LINE
  5
20E
100
AcDbEntity
  8
A4
  6
CENTER
 62
1
100
AcDbLine
 10
194.9475006211381
 20
205.4980803569015
 30
0.000000000000000
 11
200.1378646494297
 21
205.4980803569015
 31
0.000000000000000
  0
LINE
  5
20F
100
AcDbEntity
  8
A4
  6
CENTER
 62
1
100
AcDbLine
 10
90.61851656045562
 20
257.6175055053923
 30
0.000000000000000
 11
90.61851656045562
 21
262.1769466791715
 31
0.000000000000000
  0
LINE
  5
210
100
AcDbEntity
  8
A4
  6
CENTER
 62
1
100
AcDbLine
 10
115.6185165604556
 20
257.6175055053923
 30
0.000000000000000
 11
115.6185165604556
 21
262.1769466791715
 31
0.000000000000000
  0
LINE
  5
211
100
AcDbEntity
  8
A4
  6
CENTER
 62
1
100
AcDbLine
 10
90.29351656046062
 20
202.8480803569018
 30
0.000000000000000
 11
90.29351656046062
 21
202.8680851097575
 31
0.000000000000000
  0
LINE
  5
212
100
AcDbEntity
  8
A4
  6
CENTER
 62
1
100
AcDbLine
 10
90.61851656046062
 20
201.3480803569014
 30
0.000000000000000
 11
90.61851656046062
 21
209.6480803569015
 31
0.000000000000000
  0
LINE
  5
213
100
AcDbEntity
  8
A4
  6
CENTER
 62
1
100
AcDbLine
 10
86.46851656046061
 20
205.4980803569015
 30
0.000000000000000
 11
94.76851656046063
 21
205.4980803569015
 31
0.000000000000000
  0
LINE
  5
214
100
AcDbEntity
  8
A4
  6
CENTER
 62
1
100
AcDbLine
 10
103.1185165604606
 20
187.9985033569014
 30
0.000000000000000
 11
103.1185165604606
 21
213.9564816874083
 31
0.000000000000000
  0
LINE
  5
215
100
AcDbEntity
  8
A4
  6
CENTER
 62
1
100
AcDbLine
 10
103.1185165604606
 20
246.2793912921084
 30
0.000000000000000
 11
103.1185165604606
 21
263.0759867169569
 31
0.000000000000000
  0
ENDSEC
  0
SECTION
  2
OBJECTS
  0
DICTIONARY
  5
242
100
AcDbDictionary
  3
ACAD_GROUP
350
243
  3
ACAD_LAYOUT
350
244
  3
ACAD_MLINESTYLE
350
245
  0
DICTIONARY
  5
243
102
{ACAD_REACTORS
330
242
102
}
330
242
100
AcDbDictionary
  0
DICTIONARY
  5
244
102
{ACAD_REACTORS
330
242
102
}
330
242
100
AcDbDictionary
  3
Model
350
246
  3
ﾚｲｱｳﾄ1
350
247
  3
ﾚｲｱｳﾄ2
350
248
  0
DICTIONARY
  5
245
102
{ACAD_REACTORS
330
242
102
}
330
242
100
AcDbDictionary
  3
STANDARD
350
249
  0
LAYOUT
  5
246
102
{ACAD_REACTORS
330
244
102
}
330
244
100
AcDbPlotSettings
 70
11952
  4
A3
 44
297.000000
 45
420.000000
 73
  1
 72
  1
100
AcDbLayout
  1
Model
 71
0
330
239
  0
LAYOUT
  5
247
102
{ACAD_REACTORS
330
244
102
}
330
244
100
AcDbPlotSettings
100
AcDbLayout
  1
ﾚｲｱｳﾄ1
 71
1
330
23A
  0
LAYOUT
  5
248
102
{ACAD_REACTORS
330
244
102
}
330
244
100
AcDbPlotSettings
100
AcDbLayout
  1
ﾚｲｱｳﾄ2
 71
2
330
23B
  0
MLINESTYLE
  5
249
102
{ACAD_REACTORS
330
245
102
}
330
245
100
AcDbMlineStyle
  2
STANDARD
 70
     0
  3

 62
   256
 51
90.00
 52
90.00
 71
     2
 49
0.50
 62
   256
  6
BYLAYER
 49
-0.50
 62
   256
  6
BYLAYER
  0
ENDSEC
  0
EOF
