  0
SECTION
  2
HEADER
  9
$ACADVER
  1
AC1032
  9
$DWGCODEPAGE
  3
ANSI_932
  9
$LTSCALE
 40
20.0
  9
$FILLMODE
 70
     1
  9
$CLAYER
  8
0
  9
$PDMODE
 70
     0
  9
$SPLFRAME
 70
     0
  9
$SPLINETYPE
 70
     6
  9
$SPLINESEGS
 70
     8
  9
$DIMASZ
 40
2.000000
  9
$DIMEXE
 40
1.500000
  9
$DIMEXO
 40
0.800000
  9
$DIMTAD
 70
     1
  9
$DIMTIH
 70
     0
  9
$DIMTOH
 70
     0
  9
$DIMTVP
 40
0.500000
  9
$DIMTXT
 40
3.100000
  9
$EXTMIN
 10
0.000000
 20
0.000000
 30
0.000000
  9
$EXTMAX
 10
297.000000
 20
420.000000
 30
0.000000
  9
$MEASUREMENT
 70
  1
  9
$LIMMIN
 10
0.000000
 20
0.000000
  9
$LIMMAX
 10
297.000000
 20
420.000000
  9
$HANDSEED
  5
1FE
  9
$LWDISPLAY
290
     0
  9
$DIMBLK
  1
_OPEN
  9
$DIMDEC
 70
     2
  9
$DIMADEC
 70
     2
  9
$DIMAUNIT
 70
     0
  9
$DIMZIN
 70
     8
  9
$DIMAZIN
 70
     2
  9
$DIMTOFL
 70
     1
  0
ENDSEC
  0
SECTION
  2
CLASSES
  0
ENDSEC
  0
SECTION
  2
TABLES
  0
TABLE
  2
VPORT
  5
1C8
100
AcDbSymbolTable
 70
     1
  0
VPORT
  5
1C9
100
AcDbSymbolTableRecord
100
AcDbViewportTableRecord
  2
*ACTIVE
 70
     0
 12
145.372774
 22
139.324056
 40
242.648110
 41
1.115795
  0
ENDTAB
  0
TABLE
  2
LTYPE
  5
1CA
100
AcDbSymbolTable
 70
     2
  0
LTYPE
  5
1CB
100
AcDbSymbolTableRecord
100
AcDbLinetypeTableRecord
  2
BYBLOCK
 70
     0
  3

 72
    65
 73
     0
 40
0.0
  0
LTYPE
  5
1CC
100
AcDbSymbolTableRecord
100
AcDbLinetypeTableRecord
  2
BYLAYER
 70
     0
  3

 72
    65
 73
     0
 40
0.0
  0
LTYPE
  5
1CD
100
AcDbSymbolTableRecord
100
AcDbLinetypeTableRecord
  2
CONTINUOUS
 70
     0
  3
Solid line (NEC CAE2D for Win R18.0 : 2025.12.18)
 72
    65
 73
     0
 40
0.0
  0
LTYPE
  5
1CE
100
AcDbSymbolTableRecord
100
AcDbLinetypeTableRecord
  2
CENTER
 70
     0
  3
____ _ ____ _ ____ _ ____ _ ____ _ ____
 72
    65
 73
     4
 40
2.0
 49
1.25
 74
     0
 49
-0.25
 74
     0
 49
0.25
 74
     0
 49
-0.25
 74
     0
  0
ENDTAB
  0
TABLE
  2
LAYER
  5
1CF
100
AcDbSymbolTable
 70
    16
  0
LAYER
  5
1D0
100
AcDbSymbolTableRecord
100
AcDbLayerTableRecord
  2
0
 70
     0
 62
     7
  6
CONTINUOUS
370
    -3
390

  0
LAYER
  5
1D1
100
AcDbSymbolTableRecord
100
AcDbLayerTableRecord
  2
A0
 70
     0
 62
     9
  6
CONTINUOUS
370
    -3
390

  0
LAYER
  5
1D2
100
AcDbSymbolTableRecord
100
AcDbLayerTableRecord
  2
A1
 70
     0
 62
    12
  6
CONTINUOUS
370
    -3
390

  0
LAYER
  5
1D3
100
AcDbSymbolTableRecord
100
AcDbLayerTableRecord
  2
A2
 70
     0
 62
     9
  6
CONTINUOUS
370
    -3
390

  0
LAYER
  5
1D4
100
AcDbSymbolTableRecord
100
AcDbLayerTableRecord
  2
A4
 70
     0
 62
     9
  6
CONTINUOUS
370
    -3
390

  0
LAYER
  5
1D5
100
AcDbSymbolTableRecord
100
AcDbLayerTableRecord
  2
A5
 70
     0
 62
     8
  6
CONTINUOUS
370
    -3
390

  0
LAYER
  5
1D6
100
AcDbSymbolTableRecord
100
AcDbLayerTableRecord
  2
A6
 70
     0
 62
    12
  6
CONTINUOUS
370
    -3
390

  0
LAYER
  5
1D7
100
AcDbSymbolTableRecord
100
AcDbLayerTableRecord
  2
A7
 70
     0
 62
    12
  6
CONTINUOUS
370
    -3
390

  0
LAYER
  5
1D8
100
AcDbSymbolTableRecord
100
AcDbLayerTableRecord
  2
A8
 70
     0
 62
    10
  6
CONTINUOUS
370
    -3
390

  0
LAYER
  5
1D9
100
AcDbSymbolTableRecord
100
AcDbLayerTableRecord
  2
A9
 70
     0
 62
     9
  6
CONTINUOUS
370
    -3
390

  0
LAYER
  5
1DA
100
AcDbSymbolTableRecord
100
AcDbLayerTableRecord
  2
A10
 70
     0
 62
     6
  6
CONTINUOUS
370
    -3
390

  0
LAYER
  5
1DB
100
AcDbSymbolTableRecord
100
AcDbLayerTableRecord
  2
A20
 70
     0
 62
     1
  6
CONTINUOUS
370
    -3
390

  0
LAYER
  5
1DC
100
AcDbSymbolTableRecord
100
AcDbLayerTableRecord
  2
A30
 70
     0
 62
     1
  6
CONTINUOUS
370
    -3
390

  0
LAYER
  5
1DD
100
AcDbSymbolTableRecord
100
AcDbLayerTableRecord
  2
A40
 70
     0
 62
     9
  6
CONTINUOUS
370
    -3
390

  0
LAYER
  5
1DE
100
AcDbSymbolTableRecord
100
AcDbLayerTableRecord
  2
A50
 70
     0
 62
    12
  6
CONTINUOUS
370
    -3
390

  0
LAYER
  5
1DF
100
AcDbSymbolTableRecord
100
AcDbLayerTableRecord
  2
A1023
 70
     0
 62
    16
  6
CONTINUOUS
370
    -3
390

  0
ENDTAB
  0
TABLE
  2
STYLE
  5
1E0
100
AcDbSymbolTable
 70
     4
  0
STYLE
  5
1E1
100
AcDbSymbolTableRecord
100
AcDbTextStyleTableRecord
  2
STANDARD
 70
    64
 40
0.0
 41
1.0
 50
0.0
 71
     0
 42
3.000000000000000
  3
TXT
  4

  0
STYLE
  5
1E2
100
AcDbSymbolTableRecord
100
AcDbTextStyleTableRecord
  2
ANKTATE
 70
    68
 40
0.0
 41
1.0
 50
0.0
 71
     0
 42
3.000000000000000
  3
TXT
  4

  0
STYLE
  5
1E3
100
AcDbSymbolTableRecord
100
AcDbTextStyleTableRecord
  2
KNJYOKO
 70
    64
 40
0.0
 41
1.0
 50
0.0
 71
     0
 42
3.000000000000000
  3
TXT
  4
BIGFONT
  0
STYLE
  5
1E4
100
AcDbSymbolTableRecord
100
AcDbTextStyleTableRecord
  2
KNJTATE
 70
    68
 40
0.0
 41
1.0
 50
0.0
 71
     0
 42
3.000000000000000
  3
TXT
  4
BIGFONT
  0
ENDTAB
  0
TABLE
  2
VIEW
  5
1E5
100
AcDbSymbolTable
 70
     0
  0
ENDTAB
  0
TABLE
  2
UCS
  5
1E6
100
AcDbSymbolTable
 70
     0
  0
ENDTAB
  0
TABLE
  2
APPID
  5
1E7
100
AcDbSymbolTable
 70
     1
  0
APPID
  5
1E8
100
AcDbSymbolTableRecord
100
AcDbRegAppTableRecord
  2
ACAD
 70
     0
  0
ENDTAB
  0
TABLE
  2
DIMSTYLE
  5
1E9
100
AcDbSymbolTable
 70
     2
100
AcDbDimStyleTable
  0
DIMSTYLE
105
1EA
100
AcDbSymbolTableRecord
100
AcDbDimStyleTableRecord
  2
STANDARD
 70
     0
 41
2.000000
 44
1.500000
 42
0.800000
145
0.661290
140
3.100000
144
1.000000
146
0.645161
340
1E1
  0
DIMSTYLE
105
1EB
100
AcDbSymbolTableRecord
100
AcDbDimStyleTableRecord
  2
A001
 70
     0
 41
2.000000
 44
1.500000
 42
0.800000
145
0.661290
140
3.100000
144
1.000000
146
0.645161
 77
     1
 73
     0
 74
     0
271
     2
179
     2
275
     0
 78
     8
 79
     2
172
     1
340
1E1
  0
ENDTAB
  0
TABLE
  2
BLOCK_RECORD
  5
1EC
100
AcDbSymbolTable
 70
    12
  0
BLOCK_RECORD
  5
1ED
100
AcDbSymbolTableRecord
100
AcDbBlockTableRecord
  2
*MODEL_SPACE
  0
BLOCK_RECORD
  5
1EE
100
AcDbSymbolTableRecord
100
AcDbBlockTableRecord
  2
*PAPER_SPACE
  0
BLOCK_RECORD
  5
1EF
100
AcDbSymbolTableRecord
100
AcDbBlockTableRecord
  2
*PAPER_SPACE0
  0
BLOCK_RECORD
  5
1
100
AcDbSymbolTableRecord
100
AcDbBlockTableRecord
  2
_NONE
  0
BLOCK_RECORD
  5
4
100
AcDbSymbolTableRecord
100
AcDbBlockTableRecord
  2
_CLOSED
  0
BLOCK_RECORD
  5
B
100
AcDbSymbolTableRecord
100
AcDbBlockTableRecord
  2
_DOT
  0
BLOCK_RECORD
  5
13
100
AcDbSymbolTableRecord
100
AcDbBlockTableRecord
  2
_OPEN
  0
BLOCK_RECORD
  5
19
100
AcDbSymbolTableRecord
100
AcDbBlockTableRecord
  2
_ORIGIN
  0
BLOCK_RECORD
  5
1E
100
AcDbSymbolTableRecord
100
AcDbBlockTableRecord
  2
_OPEN30
  0
BLOCK_RECORD
  5
24
100
AcDbSymbolTableRecord
100
AcDbBlockTableRecord
  2
_BOXFILLED
  0
BLOCK_RECORD
  5
29
100
AcDbSymbolTableRecord
100
AcDbBlockTableRecord
  2
_BOXBLANK
  0
BLOCK_RECORD
  5
31
100
AcDbSymbolTableRecord
100
AcDbBlockTableRecord
  2
_OBLIQUE
  0
BLOCK_RECORD
  5
35
100
AcDbSymbolTableRecord
100
AcDbBlockTableRecord
  2
_OPEN90
  0
BLOCK_RECORD
  5
3B
100
AcDbSymbolTableRecord
100
AcDbBlockTableRecord
  2
_CLOSEDBLANK
  0
BLOCK_RECORD
  5
41
100
AcDbSymbolTableRecord
100
AcDbBlockTableRecord
  2
_DOTBLANK
  0
ENDTAB
  0
ENDSEC
  0
SECTION
  2
BLOCKS
  0
BLOCK
  5
1F0
100
AcDbEntity
  8
0
100
AcDbBlockBegin
  2
*MODEL_SPACE
 70
     0
 10
0.0
 20
0.0
 30
0.0
  3
*MODEL_SPACE
  1

  0
ENDBLK
  5
1F1
100
AcDbEntity
  8
0
100
AcDbBlockEnd
  0
BLOCK
  5
1F2
100
AcDbEntity
  8
0
100
AcDbBlockBegin
  2
*PAPER_SPACE
 70
     0
 10
0.0
 20
0.0
 30
0.0
  3
*PAPER_SPACE
  1

  0
ENDBLK
  5
1F3
100
AcDbEntity
  8
0
100
AcDbBlockEnd
  0
BLOCK
  5
1F4
100
AcDbEntity
  8
0
100
AcDbBlockBegin
  2
*PAPER_SPACE0
 70
     0
 10
0.0
 20
0.0
 30
0.0
  3
*PAPER_SPACE0
  1

  0
ENDBLK
  5
1F5
100
AcDbEntity
  8
0
100
AcDbBlockEnd
  0
BLOCK
  5
2
330
1
100
AcDbEntity
  8
0
100
AcDbBlockBegin
  2
_NONE
 70
     0
 10
0.0
 20
0.0
 30
0.0
  3
_NONE
  1

  0
ENDBLK
  5
3
330
1
100
AcDbEntity
  8
0
100
AcDbBlockEnd
  0
BLOCK
  5
5
330
4
100
AcDbEntity
  8
0
100
AcDbBlockBegin
  2
_CLOSED
 70
     0
 10
0.0
 20
0.0
 30
0.0
  3
_CLOSED
  1

  0
LINE
  5
6
330
4
100
AcDbEntity
  8
0
  6
BYBLOCK
 62
     0
370
    -2
100
AcDbLine
 10
-1.0
 20
0.166667
 30
0.0
 11
0.0
 21
0.0
 31
0.0
  0
LINE
  5
7
330
4
100
AcDbEntity
  8
0
  6
BYBLOCK
 62
     0
370
    -2
100
AcDbLine
 10
0.0
 20
0.0
 30
0.0
 11
-1.0
 21
-0.166667
 31
0.0
  0
LINE
  5
8
330
4
100
AcDbEntity
  8
0
  6
BYBLOCK
 62
     0
370
    -2
100
AcDbLine
 10
-1.0
 20
0.166667
 30
0.0
 11
-1.0
 21
-0.166667
 31
0.0
  0
LINE
  5
9
330
4
100
AcDbEntity
  8
0
  6
BYBLOCK
 62
     0
370
    -2
100
AcDbLine
 10
0.0
 20
0.0
 30
0.0
 11
-1.0
 21
0.0
 31
0.0
  0
ENDBLK
  5
A
330
4
100
AcDbEntity
  8
0
100
AcDbBlockEnd
  0
BLOCK
  5
C
330
B
100
AcDbEntity
  8
0
100
AcDbBlockBegin
  2
_DOT
 70
     0
 10
0.0
 20
0.0
 30
0.0
  3
_DOT
  1

  0
POLYLINE
  5
D
330
B
100
AcDbEntity
  8
0
  6
BYBLOCK
 62
     0
370
    -2
100
AcDb2dPolyline
 66
     1
 10
0.0
 20
0.0
 30
0.0
 70
     1
 40
0.5
 41
0.5
  0
VERTEX
  5
E
330
B
100
AcDbEntity
  8
0
  6
BYBLOCK
 62
     0
370
    -2
100
AcDbVertex
100
AcDb2dVertex
 10
-0.25
 20
0.0
 30
0.0
 42
1.0
  0
VERTEX
  5
F
330
B
100
AcDbEntity
  8
0
  6
BYBLOCK
 62
     0
370
    -2
100
AcDbVertex
100
AcDb2dVertex
 10
0.25
 20
0.0
 30
0.0
 42
1.0
  0
SEQEND
  5
10
330
B
100
AcDbEntity
  8
0
  6
BYBLOCK
 62
     0
370
    -2
  0
LINE
  5
11
330
B
100
AcDbEntity
  8
0
  6
BYBLOCK
 62
     0
370
    -2
100
AcDbLine
 10
-0.5
 20
0.0
 30
0.0
 11
-1.0
 21
0.0
 31
0.0
  0
ENDBLK
  5
12
330
B
100
AcDbEntity
  8
0
100
AcDbBlockEnd
  0
BLOCK
  5
14
330
13
100
AcDbEntity
  8
0
100
AcDbBlockBegin
  2
_OPEN
 70
     0
 10
0.0
 20
0.0
 30
0.0
  3
_OPEN
  1

  0
LINE
  5
15
330
13
100
AcDbEntity
  8
0
  6
BYBLOCK
 62
     0
370
    -2
100
AcDbLine
 10
-1.0
 20
0.166667
 30
0.0
 11
0.0
 21
0.0
 31
0.0
  0
LINE
  5
16
330
13
100
AcDbEntity
  8
0
  6
BYBLOCK
 62
     0
370
    -2
100
AcDbLine
 10
0.0
 20
0.0
 30
0.0
 11
-1.0
 21
-0.166667
 31
0.0
  0
LINE
  5
17
330
13
100
AcDbEntity
  8
0
  6
BYBLOCK
 62
     0
370
    -2
100
AcDbLine
 10
0.0
 20
0.0
 30
0.0
 11
-1.0
 21
0.0
 31
0.0
  0
ENDBLK
  5
18
330
13
100
AcDbEntity
  8
0
100
AcDbBlockEnd
  0
BLOCK
  5
1A
330
19
100
AcDbEntity
  8
0
100
AcDbBlockBegin
  2
_ORIGIN
 70
     0
 10
0.0
 20
0.0
 30
0.0
  3
_ORIGIN
  1

  0
CIRCLE
  5
1B
330
19
100
AcDbEntity
  8
0
  6
BYBLOCK
 62
     0
370
    -2
100
AcDbCircle
 10
0.0
 20
0.0
 30
0.0
 40
0.5
  0
LINE
  5
1C
330
19
100
AcDbEntity
  8
0
  6
BYBLOCK
 62
     0
370
    -2
100
AcDbLine
 10
0.0
 20
0.0
 30
0.0
 11
-1.0
 21
0.0
 31
0.0
  0
ENDBLK
  5
1D
330
19
100
AcDbEntity
  8
0
100
AcDbBlockEnd
  0
BLOCK
  5
1F
330
1E
100
AcDbEntity
  8
0
100
AcDbBlockBegin
  2
_OPEN30
 70
     0
 10
0.0
 20
0.0
 30
0.0
  3
_OPEN30
  1

  0
LINE
  5
20
330
1E
100
AcDbEntity
  8
0
  6
BYBLOCK
 62
     0
370
    -2
100
AcDbLine
 10
-1.0
 20
0.267949
 30
0.0
 11
0.0
 21
0.0
 31
0.0
  0
LINE
  5
21
330
1E
100
AcDbEntity
  8
0
  6
BYBLOCK
 62
     0
370
    -2
100
AcDbLine
 10
0.0
 20
0.0
 30
0.0
 11
-1.0
 21
-0.267949
 31
0.0
  0
LINE
  5
22
330
1E
100
AcDbEntity
  8
0
  6
BYBLOCK
 62
     0
370
    -2
100
AcDbLine
 10
0.0
 20
0.0
 30
0.0
 11
-1.0
 21
0.0
 31
0.0
  0
ENDBLK
  5
23
330
1E
100
AcDbEntity
  8
0
100
AcDbBlockEnd
  0
BLOCK
  5
25
330
24
100
AcDbEntity
  8
0
100
AcDbBlockBegin
  2
_BOXFILLED
 70
     0
 10
0.0
 20
0.0
 30
0.0
  3
_BOXFILLED
  1

  0
SOLID
  5
26
330
24
100
AcDbEntity
  8
0
  6
BYBLOCK
 62
     0
370
    -2
100
AcDbTrace
 10
-0.5
 20
0.5
 30
0.0
 11
0.5
 21
0.5
 31
0.0
 12
-0.5
 22
-0.5
 32
0.0
 13
0.5
 23
-0.5
 33
0.0
  0
LINE
  5
27
330
24
100
AcDbEntity
  8
0
  6
BYBLOCK
 62
     0
370
    -2
100
AcDbLine
 10
-0.5
 20
0.0
 30
0.0
 11
-1.0
 21
0.0
 31
0.0
  0
ENDBLK
  5
28
330
24
100
AcDbEntity
  8
0
100
AcDbBlockEnd
  0
BLOCK
  5
2A
330
29
100
AcDbEntity
  8
0
100
AcDbBlockBegin
  2
_BOXBLANK
 70
     0
 10
0.0
 20
0.0
 30
0.0
  3
_BOXBLANK
  1

  0
LINE
  5
2B
330
29
100
AcDbEntity
  8
0
  6
BYBLOCK
 62
     0
370
    -2
100
AcDbLine
 10
-0.5
 20
-0.5
 30
0.0
 11
0.5
 21
-0.5
 31
0.0
  0
LINE
  5
2C
330
29
100
AcDbEntity
  8
0
  6
BYBLOCK
 62
     0
370
    -2
100
AcDbLine
 10
0.5
 20
-0.5
 30
0.0
 11
0.5
 21
0.5
 31
0.0
  0
LINE
  5
2D
330
29
100
AcDbEntity
  8
0
  6
BYBLOCK
 62
     0
370
    -2
100
AcDbLine
 10
0.5
 20
0.5
 30
0.0
 11
-0.5
 21
0.5
 31
0.0
  0
LINE
  5
2E
330
29
100
AcDbEntity
  8
0
  6
BYBLOCK
 62
     0
370
    -2
100
AcDbLine
 10
-0.5
 20
0.5
 30
0.0
 11
-0.5
 21
-0.5
 31
0.0
  0
LINE
  5
2F
330
29
100
AcDbEntity
  8
0
  6
BYBLOCK
 62
     0
370
    -2
100
AcDbLine
 10
-0.5
 20
0.0
 30
0.0
 11
-1.0
 21
0.0
 31
0.0
  0
ENDBLK
  5
30
330
29
100
AcDbEntity
  8
0
100
AcDbBlockEnd
  0
BLOCK
  5
32
330
31
100
AcDbEntity
  8
0
100
AcDbBlockBegin
  2
_OBLIQUE
 70
     0
 10
0.0
 20
0.0
 30
0.0
  3
_OBLIQUE
  1

  0
LINE
  5
33
330
31
100
AcDbEntity
  8
0
  6
BYBLOCK
 62
     0
370
    -2
100
AcDbLine
 10
-0.5
 20
-0.5
 30
0.0
 11
0.5
 21
0.5
 31
0.0
  0
ENDBLK
  5
34
330
31
100
AcDbEntity
  8
0
100
AcDbBlockEnd
  0
BLOCK
  5
36
330
35
100
AcDbEntity
  8
0
100
AcDbBlockBegin
  2
_OPEN90
 70
     0
 10
0.0
 20
0.0
 30
0.0
  3
_OPEN90
  1

  0
LINE
  5
37
330
35
100
AcDbEntity
  8
0
  6
BYBLOCK
 62
     0
370
    -2
100
AcDbLine
 10
-0.5
 20
0.5
 30
0.0
 11
0.0
 21
0.0
 31
0.0
  0
LINE
  5
38
330
35
100
AcDbEntity
  8
0
  6
BYBLOCK
 62
     0
370
    -2
100
AcDbLine
 10
0.0
 20
0.0
 30
0.0
 11
-0.5
 21
-0.5
 31
0.0
  0
LINE
  5
39
330
35
100
AcDbEntity
  8
0
  6
BYBLOCK
 62
     0
370
    -2
100
AcDbLine
 10
0.0
 20
0.0
 30
0.0
 11
-1.0
 21
0.0
 31
0.0
  0
ENDBLK
  5
3A
330
35
100
AcDbEntity
  8
0
100
AcDbBlockEnd
  0
BLOCK
  5
3C
330
3B
100
AcDbEntity
  8
0
100
AcDbBlockBegin
  2
_CLOSEDBLANK
 70
     0
 10
0.0
 20
0.0
 30
0.0
  3
_CLOSEDBLANK
  1

  0
LINE
  5
3D
330
3B
100
AcDbEntity
  8
0
  6
BYBLOCK
 62
     0
370
    -2
100
AcDbLine
 10
-1.0
 20
0.1666666666666666
 30
0.0
 11
0.0
 21
0.0
 31
0.0
  0
LINE
  5
3E
330
3B
100
AcDbEntity
  8
0
  6
BYBLOCK
 62
     0
370
    -2
100
AcDbLine
 10
0.0
 20
0.0
 30
0.0
 11
-1.0
 21
-0.1666666666666666
 31
0.0
  0
LINE
  5
3F
330
3B
100
AcDbEntity
  8
0
  6
BYBLOCK
 62
     0
370
    -2
100
AcDbLine
 10
-1.0
 20
0.1666666666666666
 30
0.0
 11
-1.0
 21
-0.1666666666666666
 31
0.0
  0
ENDBLK
  5
40
330
3B
100
AcDbEntity
  8
0
100
AcDbBlockEnd
  0
BLOCK
  5
42
330
41
100
AcDbEntity
  8
0
100
AcDbBlockBegin
  2
_DOTBLANK
 70
     0
 10
0.0
 20
0.0
 30
0.0
  3
_DOTBLANK
  1

  0
CIRCLE
  5
43
330
41
100
AcDbEntity
  8
0
  6
BYBLOCK
 62
     0
370
    -2
100
AcDbCircle
 10
0.0
 20
0.0
 30
0.0
 40
0.5
  0
LINE
  5
44
330
41
100
AcDbEntity
  8
0
  6
BYBLOCK
 62
     0
370
    -2
100
AcDbLine
 10
-0.5
 20
0.0
 30
0.0
 11
-1.0
 21
0.0
 31
0.0
  0
ENDBLK
  5
45
330
41
100
AcDbEntity
  8
0
100
AcDbBlockEnd
  0
ENDSEC
  0
SECTION
  2
ENTITIES
  0
MTEXT
  5
46
100
AcDbEntity
  8
A8
  6
CONTINUOUS
 62
3
100
AcDbMText
 10
9.999997526638502
 20
18.00000076076889
 30
0.000000000000000
 40
3.000000000000000
 41
0.000000000000000
 44
0.6739999771118164
 71
     7
 72
     1
  1
{\H0.94x;{TYPE No.TL-448SUS-1-H\P}
 11
1.000000000000000
 21
0.000000000000000
 31
0.000000000000000
  7
STANDARD
  0
POINT
  5
47
100
AcDbEntity
  8
A0
  6
CONTINUOUS
 62
3
100
AcDbPoint
 10
9.999997526638502
 20
18.00000076076889
 30
0.000000000000000
  0
LINE
  5
48
100
AcDbEntity
  8
A1
  6
CONTINUOUS
 62
7
100
AcDbLine
 10
271.1709927549952
 20
124.4252465469018
 30
0.000000000000000
 11
271.6709927549952
 21
124.4252465469018
 31
0.000000000000000
  0
LINE
  5
49
100
AcDbEntity
  8
A1
  6
CONTINUOUS
 62
7
100
AcDbLine
 10
252.1709927549952
 20
124.4252465469018
 30
0.000000000000000
 11
251.6709927549952
 21
124.4252465469018
 31
0.000000000000000
  0
LINE
  5
4A
100
AcDbEntity
  8
A1
  6
CONTINUOUS
 62
7
100
AcDbLine
 10
259.0711177549952
 20
124.2506615469018
 30
0.000000000000000
 11
264.2708687549951
 21
124.2506615469018
 31
0.000000000000000
  0
LINE
  5
4B
100
AcDbEntity
  8
A1
  6
CONTINUOUS
 62
7
100
AcDbLine
 10
273.1709927549952
 20
160.4252465469018
 30
0.000000000000000
 11
273.1709927549952
 21
161.9252465469018
 31
0.000000000000000
  0
LINE
  5
4C
100
AcDbEntity
  8
A1
  6
CONTINUOUS
 62
7
100
AcDbLine
 10
250.1709927549952
 20
161.9252465469018
 30
0.000000000000000
 11
273.1709927549952
 21
161.9252465469018
 31
0.000000000000000
  0
LINE
  5
4D
100
AcDbEntity
  8
A1
  6
CONTINUOUS
 62
7
100
AcDbLine
 10
250.1709927549952
 20
161.9252465469018
 30
0.000000000000000
 11
250.1709927549952
 21
160.4252465469018
 31
0.000000000000000
  0
LINE
  5
4E
100
AcDbEntity
  8
A1
  6
CONTINUOUS
 62
7
100
AcDbLine
 10
271.6709927549952
 20
160.4252465469018
 30
0.000000000000000
 11
273.1709927549952
 21
160.4252465469018
 31
0.000000000000000
  0
LINE
  5
4F
100
AcDbEntity
  8
A1
  6
CONTINUOUS
 62
7
100
AcDbLine
 10
251.6709927549952
 20
160.4252465469018
 30
0.000000000000000
 11
271.6709927549952
 21
160.4252465469018
 31
0.000000000000000
  0
LINE
  5
50
100
AcDbEntity
  8
A1
  6
CONTINUOUS
 62
7
100
AcDbLine
 10
250.1709927549952
 20
160.4252465469018
 30
0.000000000000000
 11
251.6709927549952
 21
160.4252465469018
 31
0.000000000000000
  0
LINE
  5
51
100
AcDbEntity
  8
A1
  6
CONTINUOUS
 62
7
100
AcDbLine
 10
251.6709927549952
 20
124.4252465469018
 30
0.000000000000000
 11
251.6709927549952
 21
125.6252465469018
 31
0.000000000000000
  0
LINE
  5
52
100
AcDbEntity
  8
A1
  6
CONTINUOUS
 62
7
100
AcDbLine
 10
250.1709927549952
 20
124.4252465469018
 30
0.000000000000000
 11
250.1709927549952
 21
125.7592215469018
 31
0.000000000000000
  0
LINE
  5
53
100
AcDbEntity
  8
A1
  6
CONTINUOUS
 62
7
100
AcDbLine
 10
250.1709927549952
 20
124.4252465469018
 30
0.000000000000000
 11
251.6709927549952
 21
124.4252465469018
 31
0.000000000000000
  0
LINE
  5
54
100
AcDbEntity
  8
A1
  6
CONTINUOUS
 62
7
100
AcDbLine
 10
273.1709927549952
 20
143.4912725469018
 30
0.000000000000000
 11
273.1709927549952
 21
144.8252465469018
 31
0.000000000000000
  0
LINE
  5
55
100
AcDbEntity
  8
A1
  6
CONTINUOUS
 62
7
100
AcDbLine
 10
271.6709927549952
 20
125.6252465469018
 30
0.000000000000000
 11
271.6709927549952
 21
124.4252465469018
 31
0.000000000000000
  0
LINE
  5
56
100
AcDbEntity
  8
A1
  6
CONTINUOUS
 62
7
100
AcDbLine
 10
273.1709927549952
 20
125.7592215469018
 30
0.000000000000000
 11
273.1709927549952
 21
124.4252465469018
 31
0.000000000000000
  0
LINE
  5
57
100
AcDbEntity
  8
A1
  6
CONTINUOUS
 62
7
100
AcDbLine
 10
271.6709927549952
 20
124.4252465469018
 30
0.000000000000000
 11
273.1709927549952
 21
124.4252465469018
 31
0.000000000000000
  0
LINE
  5
58
100
AcDbEntity
  8
A1
  6
CONTINUOUS
 62
7
100
AcDbLine
 10
250.1709927549952
 20
144.8252465469018
 30
0.000000000000000
 11
250.1709927549952
 21
143.4912725469018
 31
0.000000000000000
  0
LINE
  5
59
100
AcDbEntity
  8
A1
  6
CONTINUOUS
 62
7
100
AcDbLine
 10
251.6709927549952
 20
154.4252465469018
 30
0.000000000000000
 11
251.6709927549952
 21
160.4252465469018
 31
0.000000000000000
  0
LINE
  5
5A
100
AcDbEntity
  8
A1
  6
CONTINUOUS
 62
7
100
AcDbLine
 10
250.1709927549952
 20
154.4252465469018
 30
0.000000000000000
 11
250.1709927549952
 21
160.4252465469018
 31
0.000000000000000
  0
LINE
  5
5B
100
AcDbEntity
  8
A1
  6
CONTINUOUS
 62
7
100
AcDbLine
 10
251.6709927549952
 20
160.4252465469018
 30
0.000000000000000
 11
250.1709927549952
 21
160.4252465469018
 31
0.000000000000000
  0
LINE
  5
5C
100
AcDbEntity
  8
A1
  6
CONTINUOUS
 62
7
100
AcDbLine
 10
273.1709927549952
 20
160.4252465469018
 30
0.000000000000000
 11
271.6709927549952
 21
160.4252465469018
 31
0.000000000000000
  0
LINE
  5
5D
100
AcDbEntity
  8
A1
  6
CONTINUOUS
 62
7
100
AcDbLine
 10
273.1709927549952
 20
160.4252465469018
 30
0.000000000000000
 11
273.1709927549952
 21
154.4252465469018
 31
0.000000000000000
  0
LINE
  5
5E
100
AcDbEntity
  8
A1
  6
CONTINUOUS
 62
7
100
AcDbLine
 10
271.6709927549952
 20
160.4252465469018
 30
0.000000000000000
 11
271.6709927549952
 21
154.4252465469018
 31
0.000000000000000
  0
LINE
  5
5F
100
AcDbEntity
  8
A1
  6
CONTINUOUS
 62
7
100
AcDbLine
 10
251.6709927549952
 20
154.4252465469018
 30
0.000000000000000
 11
251.6709927549952
 21
148.1659055469018
 31
0.000000000000000
  0
LINE
  5
60
100
AcDbEntity
  8
A1
  6
CONTINUOUS
 62
7
100
AcDbLine
 10
250.1709927549952
 20
154.4252465469018
 30
0.000000000000000
 11
250.1709927549952
 21
148.1659055469018
 31
0.000000000000000
  0
LINE
  5
61
100
AcDbEntity
  8
A1
  6
CONTINUOUS
 62
7
100
AcDbLine
 10
250.1709927549952
 20
154.4252465469018
 30
0.000000000000000
 11
251.6709927549952
 21
154.4252465469018
 31
0.000000000000000
  0
LINE
  5
62
100
AcDbEntity
  8
A1
  6
CONTINUOUS
 62
7
100
AcDbLine
 10
251.6709927549952
 20
145.5646775469018
 30
0.000000000000000
 11
251.6709927549952
 21
148.1659055469018
 31
0.000000000000000
  0
LINE
  5
63
100
AcDbEntity
  8
A1
  6
CONTINUOUS
 62
7
100
AcDbLine
 10
250.1709927549952
 20
144.8252465469018
 30
0.000000000000000
 11
250.1709927549952
 21
148.1659055469018
 31
0.000000000000000
  0
LINE
  5
64
100
AcDbEntity
  8
A1
  6
CONTINUOUS
 62
7
100
AcDbLine
 10
250.1709927549952
 20
148.1659055469018
 30
0.000000000000000
 11
251.6709927549952
 21
148.1659055469018
 31
0.000000000000000
  0
LINE
  5
65
100
AcDbEntity
  8
A1
  6
CONTINUOUS
 62
7
100
AcDbLine
 10
250.1709927549952
 20
144.8252465469018
 30
0.000000000000000
 11
251.6709927549952
 21
144.8252465469018
 31
0.000000000000000
  0
LINE
  5
66
100
AcDbEntity
  8
A1
  6
CONTINUOUS
 62
7
100
AcDbLine
 10
271.6709927549952
 20
148.1659055469018
 30
0.000000000000000
 11
271.6709927549952
 21
154.4252465469018
 31
0.000000000000000
  0
LINE
  5
67
100
AcDbEntity
  8
A1
  6
CONTINUOUS
 62
7
100
AcDbLine
 10
273.1709927549952
 20
148.1659055469018
 30
0.000000000000000
 11
273.1709927549952
 21
154.4252465469018
 31
0.000000000000000
  0
LINE
  5
68
100
AcDbEntity
  8
A1
  6
CONTINUOUS
 62
7
100
AcDbLine
 10
271.6709927549952
 20
154.4252465469018
 30
0.000000000000000
 11
273.1709927549952
 21
154.4252465469018
 31
0.000000000000000
  0
LINE
  5
69
100
AcDbEntity
  8
A1
  6
CONTINUOUS
 62
7
100
AcDbLine
 10
271.6709927549952
 20
148.1659055469018
 30
0.000000000000000
 11
271.6709927549952
 21
145.5646775469018
 31
0.000000000000000
  0
LINE
  5
6A
100
AcDbEntity
  8
A1
  6
CONTINUOUS
 62
7
100
AcDbLine
 10
273.1709927549952
 20
148.1659055469018
 30
0.000000000000000
 11
273.1709927549952
 21
144.8252465469018
 31
0.000000000000000
  0
LINE
  5
6B
100
AcDbEntity
  8
A1
  6
CONTINUOUS
 62
7
100
AcDbLine
 10
271.6709927549952
 20
148.1659055469018
 30
0.000000000000000
 11
273.1709927549952
 21
148.1659055469018
 31
0.000000000000000
  0
LINE
  5
6C
100
AcDbEntity
  8
A1
  6
CONTINUOUS
 62
7
100
AcDbLine
 10
271.6709927549952
 20
144.8252465469018
 30
0.000000000000000
 11
273.1709927549952
 21
144.8252465469018
 31
0.000000000000000
  0
CIRCLE
  5
6D
100
AcDbEntity
  8
A1
  6
CONTINUOUS
 62
7
100
AcDbCircle
 10
261.6709927549952
 20
110.2252465469018
 30
0.000000000000000
 40
2.600000000000000
  0
CIRCLE
  5
6E
100
AcDbEntity
  8
A1
  6
CONTINUOUS
 62
7
100
AcDbCircle
 10
261.6709927549952
 20
124.2252465469018
 30
0.000000000000000
 40
2.600000000000000
  0
CIRCLE
  5
6F
100
AcDbEntity
  8
A1
  6
CONTINUOUS
 62
7
100
AcDbCircle
 10
261.6709927549952
 20
138.2252465469018
 30
0.000000000000000
 40
2.600000000000000
  0
ARC
  5
70
100
AcDbEntity
  8
A1
  6
CONTINUOUS
 62
7
100
AcDbCircle
 10
250.4209927549952
 20
155.9252465469018
 30
0.000000000000000
 40
1.000000000000000
100
AcDbArc
 50
180.0000000000000
 51
255.5224880000000
  0
ARC
  5
71
100
AcDbEntity
  8
A1
  6
CONTINUOUS
 62
7
100
AcDbCircle
 10
272.9209927549952
 20
155.9252465469018
 30
0.000000000000000
 40
1.000000000000000
100
AcDbArc
 50
284.4775120000000
 51
360.0000000000000
  0
ARC
  5
72
100
AcDbEntity
  8
A1
  6
CONTINUOUS
 62
7
100
AcDbCircle
 10
272.9209927549952
 20
158.9252465469018
 30
0.000000000000000
 40
1.000000000000000
100
AcDbArc
 50
0.000000000000000
 51
75.52248800000000
  0
ARC
  5
73
100
AcDbEntity
  8
A1
  6
CONTINUOUS
 62
7
100
AcDbCircle
 10
250.4209927549952
 20
158.9252465469018
 30
0.000000000000000
 40
1.000000000000000
100
AcDbArc
 50
104.4775120000000
 51
180.0000000000000
  0
ARC
  5
74
100
AcDbEntity
  8
A1
  6
CONTINUOUS
 62
7
100
AcDbCircle
 10
250.6709927549952
 20
126.6252465469018
 30
0.000000000000000
 40
1.000000000000000
100
AcDbArc
 50
180.0000000000000
 51
270.0000000000000
  0
ARC
  5
75
100
AcDbEntity
  8
A1
  6
CONTINUOUS
 62
7
100
AcDbCircle
 10
272.6709927549952
 20
142.6252465469018
 30
0.000000000000000
 40
1.000000000000000
100
AcDbArc
 50
0.000000000000000
 51
73.80371000000000
  0
ARC
  5
76
100
AcDbEntity
  8
A1
  6
CONTINUOUS
 62
7
100
AcDbCircle
 10
272.6709927549952
 20
126.6252465469018
 30
0.000000000000000
 40
1.000000000000000
100
AcDbArc
 50
270.0000000000000
 51
360.0000000000000
  0
ARC
  5
77
100
AcDbEntity
  8
A1
  6
CONTINUOUS
 62
7
100
AcDbCircle
 10
250.6709927549952
 20
142.6252465469018
 30
0.000000000000000
 40
1.000000000000000
100
AcDbArc
 50
106.1962900000000
 51
180.0000000000000
  0
ARC
  5
78
100
AcDbEntity
  8
A1
  6
CONTINUOUS
 62
7
100
AcDbCircle
 10
268.1709927549952
 20
106.6252465469018
 30
0.000000000000000
 40
3.000000000000000
100
AcDbArc
 50
270.0000000000000
 51
360.0000000000000
  0
ARC
  5
79
100
AcDbEntity
  8
A1
  6
CONTINUOUS
 62
7
100
AcDbCircle
 10
255.1709927549952
 20
106.6252465469018
 30
0.000000000000000
 40
3.000000000000000
100
AcDbArc
 50
180.0000000000000
 51
270.0000000000000
  0
LINE
  5
7A
100
AcDbEntity
  8
A1
  6
CONTINUOUS
 62
7
100
AcDbLine
 10
249.4209927549952
 20
158.9252465469018
 30
0.000000000000000
 11
249.4209927549952
 21
155.9252465469018
 31
0.000000000000000
  0
LINE
  5
7B
100
AcDbEntity
  8
A1
  6
CONTINUOUS
 62
7
100
AcDbLine
 10
273.9209927549952
 20
158.9252465469018
 30
0.000000000000000
 11
273.9209927549952
 21
155.9252465469018
 31
0.000000000000000
  0
LINE
  5
7C
100
AcDbEntity
  8
A1
  6
CONTINUOUS
 62
7
100
AcDbLine
 10
251.6709927549952
 20
159.9252465469018
 30
0.000000000000000
 11
271.6709927549952
 21
159.9252465469018
 31
0.000000000000000
  0
LINE
  5
7D
100
AcDbEntity
  8
A1
  6
CONTINUOUS
 62
7
100
AcDbLine
 10
251.6709927549952
 20
145.0130365469018
 30
0.000000000000000
 11
251.6709927549952
 21
145.5646775469018
 31
0.000000000000000
  0
LINE
  5
7E
100
AcDbEntity
  8
A1
  6
CONTINUOUS
 62
7
100
AcDbLine
 10
271.6709927549952
 20
145.0130365469018
 30
0.000000000000000
 11
271.6709927549952
 21
145.5646775469018
 31
0.000000000000000
  0
LINE
  5
7F
100
AcDbEntity
  8
A1
  6
CONTINUOUS
 62
7
100
AcDbLine
 10
251.6709927549952
 20
154.9252465469018
 30
0.000000000000000
 11
271.6709927549952
 21
154.9252465469018
 31
0.000000000000000
  0
LINE
  5
80
100
AcDbEntity
  8
A1
  6
CONTINUOUS
 62
7
100
AcDbLine
 10
252.1709927549952
 20
125.6252465469018
 30
0.000000000000000
 11
252.1709927549952
 21
106.6252465469018
 31
0.000000000000000
  0
LINE
  5
81
100
AcDbEntity
  8
A1
  6
CONTINUOUS
 62
7
100
AcDbLine
 10
250.6709927549952
 20
125.6252465469018
 30
0.000000000000000
 11
252.1709927549952
 21
125.6252465469018
 31
0.000000000000000
  0
LINE
  5
82
100
AcDbEntity
  8
A1
  6
CONTINUOUS
 62
7
100
AcDbLine
 10
272.6709927549952
 20
125.6252465469018
 30
0.000000000000000
 11
271.1709927549952
 21
125.6252465469018
 31
0.000000000000000
  0
LINE
  5
83
100
AcDbEntity
  8
A1
  6
CONTINUOUS
 62
7
100
AcDbLine
 10
271.1709927549952
 20
125.6252465469018
 30
0.000000000000000
 11
271.1709927549952
 21
106.6252465469018
 31
0.000000000000000
  0
LINE
  5
84
100
AcDbEntity
  8
A1
  6
CONTINUOUS
 62
7
100
AcDbLine
 10
255.1709927549952
 20
103.6252465469018
 30
0.000000000000000
 11
268.1709927549952
 21
103.6252465469018
 31
0.000000000000000
  0
LINE
  5
85
100
AcDbEntity
  8
A1
  6
CONTINUOUS
 62
7
100
AcDbLine
 10
273.6709927549952
 20
126.6252465469018
 30
0.000000000000000
 11
273.6709927549952
 21
142.6252465469018
 31
0.000000000000000
  0
LINE
  5
86
100
AcDbEntity
  8
A1
  6
CONTINUOUS
 62
7
100
AcDbLine
 10
249.6709927549952
 20
126.6252465469018
 30
0.000000000000000
 11
249.6709927549952
 21
142.6252465469018
 31
0.000000000000000
  0
LINE
  5
87
100
AcDbEntity
  8
A1
  6
CONTINUOUS
 62
7
100
AcDbLine
 10
250.3920637549951
 20
143.5855585469018
 30
0.000000000000000
 11
272.9499217549952
 21
143.5855585469018
 31
0.000000000000000
  0
LINE
  5
88
100
AcDbEntity
  8
A1
  6
CONTINUOUS
 62
7
100
AcDbLine
 10
272.6709927549952
 20
143.6252465469018
 30
0.000000000000000
 11
271.6709927549952
 21
143.6252465469018
 31
0.000000000000000
  0
LINE
  5
89
100
AcDbEntity
  8
A1
  6
CONTINUOUS
 62
7
100
AcDbLine
 10
271.6709927549952
 20
143.6252465469018
 30
0.000000000000000
 11
271.6709927549952
 21
145.0130365469018
 31
0.000000000000000
  0
LINE
  5
8A
100
AcDbEntity
  8
A1
  6
CONTINUOUS
 62
7
100
AcDbLine
 10
251.6709927549952
 20
145.0130365469018
 30
0.000000000000000
 11
271.6709927549952
 21
145.0130365469018
 31
0.000000000000000
  0
LINE
  5
8B
100
AcDbEntity
  8
A1
  6
CONTINUOUS
 62
7
100
AcDbLine
 10
251.6709927549952
 20
143.6252465469018
 30
0.000000000000000
 11
251.6709927549952
 21
145.0130365469018
 31
0.000000000000000
  0
LINE
  5
8C
100
AcDbEntity
  8
A1
  6
CONTINUOUS
 62
7
100
AcDbLine
 10
250.6709927549952
 20
143.6252465469018
 30
0.000000000000000
 11
251.6709927549952
 21
143.6252465469018
 31
0.000000000000000
  0
ARC
  5
8D
100
AcDbEntity
  8
A1
  6
CONTINUOUS
 62
7
100
AcDbCircle
 10
274.0924937549952
 20
187.2501405469018
 30
0.000000000000000
 40
3.000000000000000
100
AcDbArc
 50
28.72226800000000
 51
90.00000000000000
  0
ARC
  5
8E
100
AcDbEntity
  8
A1
  6
CONTINUOUS
 62
7
100
AcDbCircle
 10
250.7272657549952
 20
135.7612505469018
 30
0.000000000000000
 40
5.000000000000000
100
AcDbArc
 50
190.8427000000000
 51
257.8041250000000
  0
ARC
  5
8F
100
AcDbEntity
  8
A1
  6
CONTINUOUS
 62
7
100
AcDbCircle
 10
272.5992797549952
 20
135.7612505469018
 30
0.000000000000000
 40
5.000000000000000
100
AcDbArc
 50
282.3769620000000
 51
349.1573000000001
  0
ARC
  5
90
100
AcDbEntity
  8
A1
  6
CONTINUOUS
 62
7
100
AcDbCircle
 10
146.0750607549951
 20
159.9947735469018
 30
0.000000000000000
 40
133.8240730000000
100
AcDbArc
 50
349.1573000000001
 51
372.2056950000000
  0
ARC
  5
91
100
AcDbEntity
  8
A1
  6
CONTINUOUS
 62
7
100
AcDbCircle
 10
272.6166407549952
 20
135.8520675469018
 30
0.000000000000000
 40
2.000000000000000
100
AcDbArc
 50
301.8148600000000
 51
349.1985190000000
  0
ARC
  5
92
100
AcDbEntity
  8
A1
  6
CONTINUOUS
 62
7
100
AcDbCircle
 10
275.4079327549952
 20
187.9709875469018
 30
0.000000000000000
 40
1.500000000000000
100
AcDbArc
 50
12.20569500000000
 51
28.72226800000000
  0
ARC
  5
93
100
AcDbEntity
  8
A1
  6
CONTINUOUS
 62
7
100
AcDbCircle
 10
250.7099047549951
 20
135.8520675469018
 30
0.000000000000000
 40
2.000000000000000
100
AcDbArc
 50
190.8014810000000
 51
238.7042440000000
  0
ARC
  5
94
100
AcDbEntity
  8
A1
  6
CONTINUOUS
 62
7
100
AcDbCircle
 10
377.2514847549951
 20
159.9947735469018
 30
0.000000000000000
 40
133.8240730000000
100
AcDbArc
 50
167.7170730000000
 51
190.8427000000000
  0
ARC
  5
95
100
AcDbEntity
  8
A1
  6
CONTINUOUS
 62
7
100
AcDbCircle
 10
249.2340517549952
 20
187.2501405469018
 30
0.000000000000000
 40
3.000000000000000
100
AcDbArc
 50
90.00000000000000
 51
156.1222580000000
  0
ARC
  5
96
100
AcDbEntity
  8
A1
  6
CONTINUOUS
 62
7
100
AcDbCircle
 10
377.2484407549952
 20
159.9939735469018
 30
0.000000000000000
 40
130.8209330000000
100
AcDbArc
 50
168.1858800000000
 51
190.8014810000000
  0
ARC
  5
97
100
AcDbEntity
  8
A1
  6
CONTINUOUS
 62
7
100
AcDbCircle
 10
250.0480917549951
 20
186.2501405469018
 30
0.000000000000000
 40
1.000000000000000
100
AcDbArc
 50
90.00000000000000
 51
148.1402760000000
  0
ARC
  5
98
100
AcDbEntity
  8
A1
  6
CONTINUOUS
 62
7
100
AcDbCircle
 10
273.2784527549952
 20
186.2501405469018
 30
0.000000000000000
 40
1.000000000000000
100
AcDbArc
 50
31.84970900000000
 51
90.00000000000000
  0
ARC
  5
99
100
AcDbEntity
  8
A1
  6
CONTINUOUS
 62
7
100
AcDbCircle
 10
146.0781047549952
 20
159.9939735469018
 30
0.000000000000000
 40
130.8209330000000
100
AcDbArc
 50
349.1985190000000
 51
371.8141200000001
  0
LINE
  5
9A
100
AcDbEntity
  8
A1
  6
CONTINUOUS
 62
7
100
AcDbLine
 10
274.0924937549952
 20
190.2501405469018
 30
0.000000000000000
 11
249.2340517549952
 21
190.2501405469018
 31
0.000000000000000
  0
LINE
  5
9B
100
AcDbEntity
  8
A1
  6
CONTINUOUS
 62
7
100
AcDbLine
 10
250.0480917549951
 20
187.2501405469018
 30
0.000000000000000
 11
273.2784527549952
 21
187.2501405469018
 31
0.000000000000000
  0
ARC
  5
9C
100
AcDbEntity
  8
A1
  6
CONTINUOUS
 62
7
100
AcDbCircle
 10
42.29413415687276
 20
257.6057500804934
 30
0.000000000000000
 40
1.999998000000000
100
AcDbArc
 50
89.99992899999998
 51
180.0000710000000
  0
ARC
  5
9D
100
AcDbEntity
  8
A1
  6
CONTINUOUS
 62
7
100
AcDbCircle
 10
60.29411415687275
 20
256.6057250804935
 30
0.000000000000000
 40
3.000022000000000
100
AcDbArc
 50
0.0004220000000000000
 51
89.99957800000000
  0
LINE
  5
9E
100
AcDbEntity
  8
A1
  6
CONTINUOUS
 62
7
100
AcDbLine
 10
41.79413615687275
 20
243.8057470804934
 30
0.000000000000000
 11
41.79413615687275
 21
249.3057470804934
 31
0.000000000000000
  0
LINE
  5
9F
100
AcDbEntity
  8
A1
  6
CONTINUOUS
 62
7
100
AcDbLine
 10
40.29413615687275
 20
243.8057470804934
 30
0.000000000000000
 11
40.29413615687275
 21
249.3057470804934
 31
0.000000000000000
  0
LINE
  5
A0
100
AcDbEntity
  8
A1
  6
CONTINUOUS
 62
7
100
AcDbLine
 10
40.29413615687275
 20
243.8057470804934
 30
0.000000000000000
 11
41.79413615687275
 21
243.8057470804934
 31
0.000000000000000
  0
LINE
  5
A1
100
AcDbEntity
  8
A1
  6
CONTINUOUS
 62
7
100
AcDbLine
 10
61.79413615687275
 20
249.3057470804934
 30
0.000000000000000
 11
61.79413615687275
 21
243.8057470804934
 31
0.000000000000000
  0
LINE
  5
A2
100
AcDbEntity
  8
A1
  6
CONTINUOUS
 62
7
100
AcDbLine
 10
63.29413615687275
 20
249.3057470804934
 30
0.000000000000000
 11
63.29413615687275
 21
243.8057470804934
 31
0.000000000000000
  0
LINE
  5
A3
100
AcDbEntity
  8
A1
  6
CONTINUOUS
 62
7
100
AcDbLine
 10
61.79413615687275
 20
243.8057470804934
 30
0.000000000000000
 11
63.29413615687275
 21
243.8057470804934
 31
0.000000000000000
  0
LINE
  5
A4
100
AcDbEntity
  8
A1
  6
CONTINUOUS
 62
7
100
AcDbLine
 10
40.29413615687275
 20
254.6057470804934
 30
0.000000000000000
 11
40.29413615687275
 21
257.6057470804934
 31
0.000000000000000
  0
LINE
  5
A5
100
AcDbEntity
  8
A1
  6
CONTINUOUS
 62
7
100
AcDbLine
 10
42.29413615687275
 20
259.6057470804934
 30
0.000000000000000
 11
60.29413615687275
 21
259.6057470804934
 31
0.000000000000000
  0
LINE
  5
A6
100
AcDbEntity
  8
A1
  6
CONTINUOUS
 62
7
100
AcDbLine
 10
63.29413615687275
 20
256.6057470804934
 30
0.000000000000000
 11
63.29413615687275
 21
254.6057470804934
 31
0.000000000000000
  0
LINE
  5
A7
100
AcDbEntity
  8
A1
  6
CONTINUOUS
 62
7
100
AcDbLine
 10
40.29413615687275
 20
254.6057470804934
 30
0.000000000000000
 11
40.29413615687275
 21
252.3057470804934
 31
0.000000000000000
  0
LINE
  5
A8
100
AcDbEntity
  8
A1
  6
CONTINUOUS
 62
7
100
AcDbLine
 10
63.29413615687275
 20
252.3057470804934
 30
0.000000000000000
 11
63.29413615687275
 21
254.6057470804934
 31
0.000000000000000
  0
LINE
  5
A9
100
AcDbEntity
  8
A1
  6
CONTINUOUS
 62
7
100
AcDbLine
 10
40.29413615687275
 20
254.6057470804934
 30
0.000000000000000
 11
63.29413615687275
 21
254.6057470804934
 31
0.000000000000000
  0
LINE
  5
AA
100
AcDbEntity
  8
A1
  6
CONTINUOUS
 62
7
100
AcDbLine
 10
40.79413615687275
 20
243.8057470804934
 30
0.000000000000000
 11
40.79413615687275
 21
243.6061410804934
 31
0.000000000000000
  0
LINE
  5
AB
100
AcDbEntity
  8
A1
  6
CONTINUOUS
 62
7
100
AcDbLine
 10
39.79413615687275
 20
245.6057470804934
 30
0.000000000000000
 11
40.29413615687275
 21
245.6057470804934
 31
0.000000000000000
  0
LINE
  5
AC
100
AcDbEntity
  8
A1
  6
CONTINUOUS
 62
7
100
AcDbLine
 10
39.79413615687275
 20
243.6057470804934
 30
0.000000000000000
 11
39.79413615687275
 21
245.6057470804934
 31
0.000000000000000
  0
LINE
  5
AD
100
AcDbEntity
  8
A1
  6
CONTINUOUS
 62
7
100
AcDbLine
 10
40.51520715687275
 20
243.6057470804934
 30
0.000000000000000
 11
39.79413615687275
 21
243.6057470804934
 31
0.000000000000000
  0
LINE
  5
AE
100
AcDbEntity
  8
A1
  6
CONTINUOUS
 62
7
100
AcDbLine
 10
63.79413615687275
 20
243.6057470804934
 30
0.000000000000000
 11
63.07306515687276
 21
243.6057470804934
 31
0.000000000000000
  0
LINE
  5
AF
100
AcDbEntity
  8
A1
  6
CONTINUOUS
 62
7
100
AcDbLine
 10
63.79413615687275
 20
245.6057470804934
 30
0.000000000000000
 11
63.79413615687275
 21
243.6057470804934
 31
0.000000000000000
  0
LINE
  5
B0
100
AcDbEntity
  8
A1
  6
CONTINUOUS
 62
7
100
AcDbLine
 10
63.29413615687275
 20
245.6057470804934
 30
0.000000000000000
 11
63.79413615687275
 21
245.6057470804934
 31
0.000000000000000
  0
LINE
  5
B1
100
AcDbEntity
  8
A1
  6
CONTINUOUS
 62
7
100
AcDbLine
 10
62.79413615687275
 20
243.6061410804934
 30
0.000000000000000
 11
62.79413615687275
 21
243.8057470804934
 31
0.000000000000000
  0
LINE
  5
B2
100
AcDbEntity
  8
A1
  6
CONTINUOUS
 62
7
100
AcDbLine
 10
41.79413615687275
 20
243.6061410804934
 30
0.000000000000000
 11
41.79413615687275
 21
243.8057470804934
 31
0.000000000000000
  0
LINE
  5
B3
100
AcDbEntity
  8
A1
  6
CONTINUOUS
 62
7
100
AcDbLine
 10
61.79413615687275
 20
243.6061410804934
 30
0.000000000000000
 11
61.79413615687275
 21
243.8057470804934
 31
0.000000000000000
  0
LINE
  5
B4
100
AcDbEntity
  8
A1
  6
CONTINUOUS
 62
7
100
AcDbLine
 10
40.51520715687275
 20
243.6057470804934
 30
0.000000000000000
 11
63.07306515687276
 21
243.6057470804934
 31
0.000000000000000
  0
LINE
  5
B5
100
AcDbEntity
  8
A1
  6
CONTINUOUS
 62
7
100
AcDbLine
 10
62.79413615687275
 20
243.6061410804934
 30
0.000000000000000
 11
61.79413615687275
 21
243.6061410804934
 31
0.000000000000000
  0
LINE
  5
B6
100
AcDbEntity
  8
A1
  6
CONTINUOUS
 62
7
100
AcDbLine
 10
40.79413615687275
 20
243.6061410804934
 30
0.000000000000000
 11
41.79413615687275
 21
243.6061410804934
 31
0.000000000000000
  0
LINE
  5
B7
100
AcDbEntity
  8
A1
  6
CONTINUOUS
 62
7
100
AcDbLine
 10
41.79413615687275
 20
244.2049240804934
 30
0.000000000000000
 11
61.79413615687275
 21
244.2049240804934
 31
0.000000000000000
  0
LINE
  5
B8
100
AcDbEntity
  8
A1
  6
CONTINUOUS
 62
7
100
AcDbLine
 10
63.29413615687275
 20
256.3057470804935
 30
0.000000000000000
 11
64.04413615687275
 21
256.3057470804935
 31
0.000000000000000
  0
LINE
  5
B9
100
AcDbEntity
  8
A1
  6
CONTINUOUS
 62
7
100
AcDbLine
 10
64.04413615687275
 20
254.3057470804934
 30
0.000000000000000
 11
63.29413615687275
 21
254.3057470804934
 31
0.000000000000000
  0
LINE
  5
BA
100
AcDbEntity
  8
A1
  6
CONTINUOUS
 62
7
100
AcDbLine
 10
64.04413615687275
 20
256.3057470804935
 30
0.000000000000000
 11
64.04413615687275
 21
254.3057470804934
 31
0.000000000000000
  0
LINE
  5
BB
100
AcDbEntity
  8
A1
  6
CONTINUOUS
 62
7
100
AcDbLine
 10
39.54413615687275
 20
256.3057470804935
 30
0.000000000000000
 11
40.29413615687275
 21
256.3057470804935
 31
0.000000000000000
  0
LINE
  5
BC
100
AcDbEntity
  8
A1
  6
CONTINUOUS
 62
7
100
AcDbLine
 10
39.54413615687275
 20
254.3057470804934
 30
0.000000000000000
 11
39.54413615687275
 21
256.3057470804935
 31
0.000000000000000
  0
LINE
  5
BD
100
AcDbEntity
  8
A1
  6
CONTINUOUS
 62
7
100
AcDbLine
 10
40.29413615687275
 20
254.3057470804934
 30
0.000000000000000
 11
39.54413615687275
 21
254.3057470804934
 31
0.000000000000000
  0
ARC
  5
BE
100
AcDbEntity
  8
A1
  6
CONTINUOUS
 62
7
100
AcDbCircle
 10
68.52227715687275
 20
250.8057470804934
 30
0.000000000000000
 40
1.500000000000000
100
AcDbArc
 50
270.0000000000000
 51
450.0000000000000
  0
ARC
  5
BF
100
AcDbEntity
  8
A1
  6
CONTINUOUS
 62
7
100
AcDbCircle
 10
35.05055515687275
 20
250.8057470804934
 30
0.000000000000000
 40
1.500000000000000
100
AcDbArc
 50
90.00000000000000
 51
270.0000000000000
  0
LINE
  5
C0
100
AcDbEntity
  8
A1
  6
CONTINUOUS
 62
7
100
AcDbLine
 10
65.53107615687276
 20
252.3057470804934
 30
0.000000000000000
 11
68.52227715687275
 21
252.3057470804934
 31
0.000000000000000
  0
LINE
  5
C1
100
AcDbEntity
  8
A1
  6
CONTINUOUS
 62
7
100
AcDbLine
 10
68.52227715687275
 20
249.3057470804934
 30
0.000000000000000
 11
65.53107615687276
 21
249.3057470804934
 31
0.000000000000000
  0
LINE
  5
C2
100
AcDbEntity
  8
A1
  6
CONTINUOUS
 62
7
100
AcDbLine
 10
38.04175615687274
 20
249.3057470804934
 30
0.000000000000000
 11
35.05055515687275
 21
249.3057470804934
 31
0.000000000000000
  0
LINE
  5
C3
100
AcDbEntity
  8
A1
  6
CONTINUOUS
 62
7
100
AcDbLine
 10
35.05055515687275
 20
252.3057470804934
 30
0.000000000000000
 11
38.04175615687274
 21
252.3057470804934
 31
0.000000000000000
  0
LINE
  5
C4
100
AcDbEntity
  8
A1
  6
CONTINUOUS
 62
7
100
AcDbLine
 10
63.40159615687276
 20
252.3057470804934
 30
0.000000000000000
 11
64.21563715687276
 21
252.3057470804934
 31
0.000000000000000
  0
LINE
  5
C5
100
AcDbEntity
  8
A1
  6
CONTINUOUS
 62
7
100
AcDbLine
 10
64.21563715687276
 20
249.3057470804934
 30
0.000000000000000
 11
63.40159615687276
 21
249.3057470804934
 31
0.000000000000000
  0
LINE
  5
C6
100
AcDbEntity
  8
A1
  6
CONTINUOUS
 62
7
100
AcDbLine
 10
40.17123515687274
 20
249.3057470804934
 30
0.000000000000000
 11
39.35719515687276
 21
249.3057470804934
 31
0.000000000000000
  0
LINE
  5
C7
100
AcDbEntity
  8
A1
  6
CONTINUOUS
 62
7
100
AcDbLine
 10
39.35719515687276
 20
252.3057470804934
 30
0.000000000000000
 11
40.17123515687274
 21
252.3057470804934
 31
0.000000000000000
  0
LINE
  5
C8
100
AcDbEntity
  8
A1
  6
CONTINUOUS
 62
7
100
AcDbLine
 10
63.40159615687276
 20
252.3057470804934
 30
0.000000000000000
 11
40.17123515687274
 21
252.3057470804934
 31
0.000000000000000
  0
LINE
  5
C9
100
AcDbEntity
  8
A1
  6
CONTINUOUS
 62
7
100
AcDbLine
 10
40.17123515687274
 20
249.3057470804934
 30
0.000000000000000
 11
63.40159615687276
 21
249.3057470804934
 31
0.000000000000000
  0
LINE
  5
CA
100
AcDbEntity
  8
A1
  6
CONTINUOUS
 62
7
100
AcDbLine
 10
39.35719515687276
 20
249.3057470804934
 30
0.000000000000000
 11
38.04175615687274
 21
249.3057470804934
 31
0.000000000000000
  0
LINE
  5
CB
100
AcDbEntity
  8
A1
  6
CONTINUOUS
 62
7
100
AcDbLine
 10
39.35719515687276
 20
252.3057470804934
 30
0.000000000000000
 11
39.35719515687276
 21
249.3057470804934
 31
0.000000000000000
  0
LINE
  5
CC
100
AcDbEntity
  8
A1
  6
CONTINUOUS
 62
7
100
AcDbLine
 10
38.04175615687274
 20
252.3057470804934
 30
0.000000000000000
 11
39.35719515687276
 21
252.3057470804934
 31
0.000000000000000
  0
LINE
  5
CD
100
AcDbEntity
  8
A1
  6
CONTINUOUS
 62
7
100
AcDbLine
 10
65.53107615687276
 20
249.3057470804934
 30
0.000000000000000
 11
64.21563715687276
 21
249.3057470804934
 31
0.000000000000000
  0
LINE
  5
CE
100
AcDbEntity
  8
A1
  6
CONTINUOUS
 62
7
100
AcDbLine
 10
64.21563715687276
 20
252.3057470804934
 30
0.000000000000000
 11
65.53107615687276
 21
252.3057470804934
 31
0.000000000000000
  0
LINE
  5
CF
100
AcDbEntity
  8
A1
  6
CONTINUOUS
 62
7
100
AcDbLine
 10
64.21563715687276
 20
249.3057470804934
 30
0.000000000000000
 11
64.21563715687276
 21
252.3057470804934
 31
0.000000000000000
  0
ARC
  5
D0
100
AcDbEntity
  8
A1
  6
CONTINUOUS
 62
7
100
AcDbCircle
 10
133.4355736216657
 20
111.7762885469018
 30
0.000000000000000
 40
15.00000000000000
100
AcDbArc
 50
358.1764330000000
 51
409.1148070000000
  0
ARC
  5
D1
100
AcDbEntity
  8
A1
  6
CONTINUOUS
 62
7
100
AcDbCircle
 10
133.4355736216657
 20
111.7762885469018
 30
0.000000000000000
 40
16.50000000000000
100
AcDbArc
 50
354.0326550000000
 51
409.1148070000000
  0
ARC
  5
D2
100
AcDbEntity
  8
A1
  6
CONTINUOUS
 62
7
100
AcDbCircle
 10
144.2355736216657
 20
124.2506615469018
 30
0.000000000000000
 40
1.500000000000000
100
AcDbArc
 50
180.0000000000000
 51
229.1148070000000
  0
ARC
  5
D3
100
AcDbEntity
  8
A1
  6
CONTINUOUS
 62
7
100
AcDbCircle
 10
133.4355736216657
 20
111.7762885469018
 30
0.000000000000000
 40
16.50000000000000
100
AcDbArc
 50
318.8799519999999
 51
354.0326550000000
  0
ARC
  5
D4
100
AcDbEntity
  8
A1
  6
CONTINUOUS
 62
7
100
AcDbCircle
 10
133.4355736216657
 20
111.7762885469018
 30
0.000000000000000
 40
15.00000000000000
100
AcDbArc
 50
318.8799519999999
 51
358.1764330000000
  0
ARC
  5
D5
100
AcDbEntity
  8
A1
  6
CONTINUOUS
 62
7
100
AcDbCircle
 10
147.7355736216657
 20
156.9252465469018
 30
0.000000000000000
 40
3.500000000000000
100
AcDbArc
 50
90.00000000000000
 51
148.9972810000000
  0
ARC
  5
D6
100
AcDbEntity
  8
A1
  6
CONTINUOUS
 62
7
100
AcDbCircle
 10
147.7355736216657
 20
156.9252465469018
 30
0.000000000000000
 40
5.000000000000000
100
AcDbArc
 50
90.00000000000000
 51
126.8698980000000
  0
ARC
  5
D7
100
AcDbEntity
  8
A1
  6
CONTINUOUS
 62
7
100
AcDbCircle
 10
147.7355736216657
 20
156.9252465469018
 30
0.000000000000000
 40
3.500000000000000
100
AcDbArc
 50
148.9972810000000
 51
180.0000000000000
  0
ARC
  5
D8
100
AcDbEntity
  8
A1
  6
CONTINUOUS
 62
7
100
AcDbCircle
 10
147.7355736216657
 20
156.9252465469018
 30
0.000000000000000
 40
5.000000000000000
100
AcDbArc
 50
126.8698980000000
 51
180.0000000000000
  0
ARC
  5
D9
100
AcDbEntity
  8
A1
  6
CONTINUOUS
 62
7
100
AcDbCircle
 10
151.5355736216657
 20
131.9252465469018
 30
0.000000000000000
 40
2.350000000000000
100
AcDbArc
 50
129.6650130000000
 51
410.3349870000000
  0
ARC
  5
DA
100
AcDbEntity
  8
A1
  6
CONTINUOUS
 62
7
100
AcDbCircle
 10
153.7355736216657
 20
127.4252465469018
 30
0.000000000000000
 40
3.000000000000000
100
AcDbArc
 50
270.0000000000000
 51
360.0000000000000
  0
ARC
  5
DB
100
AcDbEntity
  8
A1
  6
CONTINUOUS
 62
7
100
AcDbCircle
 10
154.5355736216657
 20
148.1659055469018
 30
0.000000000000000
 40
4.000000000000000
100
AcDbArc
 50
303.3670130000000
 51
360.0000000000000
  0
ARC
  5
DC
100
AcDbEntity
  8
A1
  6
CONTINUOUS
 62
7
100
AcDbCircle
 10
152.5355736216657
 20
154.4252465469018
 30
0.000000000000000
 40
6.000000000000000
100
AcDbArc
 50
0.000000000000000
 51
85.21980800000000
  0
ARC
  5
DD
100
AcDbEntity
  8
A1
  6
CONTINUOUS
 62
7
100
AcDbCircle
 10
147.0355736216657
 20
157.4252465469018
 30
0.000000000000000
 40
3.000000000000000
100
AcDbArc
 50
220.8773270000000
 51
360.0000000000000
  0
LINE
  5
DE
100
AcDbEntity
  8
A1
  6
CONTINUOUS
 62
7
100
AcDbLine
 10
144.2355736216657
 20
124.2506615469018
 30
0.000000000000000
 11
144.2355736216657
 21
124.4252465469018
 31
0.000000000000000
  0
LINE
  5
DF
100
AcDbEntity
  8
A1
  6
CONTINUOUS
 62
7
100
AcDbLine
 10
142.7355736216657
 20
124.2506615469018
 30
0.000000000000000
 11
142.7355736216657
 21
124.4252465469018
 31
0.000000000000000
  0
LINE
  5
E0
100
AcDbEntity
  8
A1
  6
CONTINUOUS
 62
7
100
AcDbLine
 10
149.8461656216656
 20
110.0609215469017
 30
0.000000000000000
 11
148.4279766216657
 21
111.2989595469018
 31
0.000000000000000
  0
LINE
  5
E1
100
AcDbEntity
  8
A1
  6
CONTINUOUS
 62
7
100
AcDbLine
 10
144.7355736216657
 20
101.9117055469018
 30
0.000000000000000
 11
145.8655736216657
 21
100.9252465469017
 31
0.000000000000000
  0
LINE
  5
E2
100
AcDbEntity
  8
A1
  6
CONTINUOUS
 62
7
100
AcDbLine
 10
150.0355736216657
 20
160.4252465469018
 30
0.000000000000000
 11
147.7355736216657
 21
160.4252465469018
 31
0.000000000000000
  0
LINE
  5
E3
100
AcDbEntity
  8
A1
  6
CONTINUOUS
 62
7
100
AcDbLine
 10
147.7355736216657
 20
161.9252465469018
 30
0.000000000000000
 11
150.0355736216657
 21
161.9252465469018
 31
0.000000000000000
  0
LINE
  5
E4
100
AcDbEntity
  8
A1
  6
CONTINUOUS
 62
7
100
AcDbLine
 10
144.2355736216657
 20
155.9296565469018
 30
0.000000000000000
 11
144.7355736216657
 21
155.4897775469017
 31
0.000000000000000
  0
LINE
  5
E5
100
AcDbEntity
  8
A1
  6
CONTINUOUS
 62
7
100
AcDbLine
 10
144.7355736216657
 20
160.9252465469018
 30
0.000000000000000
 11
144.7355736216657
 21
158.7280225469018
 31
0.000000000000000
  0
LINE
  5
E6
100
AcDbEntity
  8
A1
  6
CONTINUOUS
 62
7
100
AcDbLine
 10
142.7355736216657
 20
124.4252465469018
 30
0.000000000000000
 11
142.7355736216657
 21
156.9252465469018
 31
0.000000000000000
  0
LINE
  5
E7
100
AcDbEntity
  8
A1
  6
CONTINUOUS
 62
7
100
AcDbLine
 10
144.7355736216657
 20
124.4252465469018
 30
0.000000000000000
 11
142.7355736216657
 21
124.4252465469018
 31
0.000000000000000
  0
LINE
  5
E8
100
AcDbEntity
  8
A1
  6
CONTINUOUS
 62
7
100
AcDbLine
 10
144.2355736216657
 20
156.9252465469018
 30
0.000000000000000
 11
144.2355736216657
 21
155.9296565469018
 31
0.000000000000000
  0
LINE
  5
E9
100
AcDbEntity
  8
A1
  6
CONTINUOUS
 62
7
100
AcDbLine
 10
144.7355736216657
 20
155.4897775469018
 30
0.000000000000000
 11
144.7672356216657
 21
155.4619215469018
 31
0.000000000000000
  0
LINE
  5
EA
100
AcDbEntity
  8
A1
  6
CONTINUOUS
 62
7
100
AcDbLine
 10
144.7355736216657
 20
155.4897775469018
 30
0.000000000000000
 11
144.7355736216657
 21
124.4252465469018
 31
0.000000000000000
  0
LINE
  5
EB
100
AcDbEntity
  8
A1
  6
CONTINUOUS
 62
7
100
AcDbLine
 10
153.7355736216657
 20
124.4252465469018
 30
0.000000000000000
 11
144.7355736216657
 21
124.4252465469018
 31
0.000000000000000
  0
LINE
  5
EC
100
AcDbEntity
  8
A1
  6
CONTINUOUS
 62
7
100
AcDbLine
 10
156.7355736216657
 20
144.8252465469018
 30
0.000000000000000
 11
156.7355736216657
 21
143.4912725469018
 31
0.000000000000000
  0
LINE
  5
ED
100
AcDbEntity
  8
A1
  6
CONTINUOUS
 62
7
100
AcDbLine
 10
158.5355736216657
 20
154.4252465469018
 30
0.000000000000000
 11
158.5355736216657
 21
148.1659055469018
 31
0.000000000000000
  0
ARC
  5
EE
100
AcDbEntity
  8
A1
  6
CONTINUOUS
 62
7
100
AcDbCircle
 10
156.7355736216657
 20
143.5855585469018
 30
0.000000000000000
 40
2.000000000000000
100
AcDbArc
 50
1.137059000000000
 51
45.53996900000000
  0
ARC
  5
EF
100
AcDbEntity
  8
A1
  6
CONTINUOUS
 62
7
100
AcDbCircle
 10
148.0355736216657
 20
154.9252465469018
 30
0.000000000000000
 40
2.000000000000000
100
AcDbArc
 50
180.0000000000000
 51
189.7430870000000
  0
LINE
  5
F0
100
AcDbEntity
  8
A1
  6
CONTINUOUS
 62
7
100
AcDbLine
 10
158.7355736216657
 20
106.6252465469018
 30
0.000000000000000
 11
158.7355736216657
 21
103.6252465469018
 31
0.000000000000000
  0
LINE
  5
F1
100
AcDbEntity
  8
A1
  6
CONTINUOUS
 62
7
100
AcDbLine
 10
156.7355736216657
 20
103.6252465469018
 30
0.000000000000000
 11
156.7355736216657
 21
106.6252465469018
 31
0.000000000000000
  0
LINE
  5
F2
100
AcDbEntity
  8
A1
  6
CONTINUOUS
 62
7
100
AcDbLine
 10
158.7355736216657
 20
103.6252465469018
 30
0.000000000000000
 11
156.7355736216657
 21
103.6252465469018
 31
0.000000000000000
  0
LINE
  5
F3
100
AcDbEntity
  8
A1
  6
CONTINUOUS
 62
7
100
AcDbLine
 10
158.7355736216657
 20
125.6252465469018
 30
0.000000000000000
 11
158.7355736216657
 21
106.6252465469018
 31
0.000000000000000
  0
LINE
  5
F4
100
AcDbEntity
  8
A1
  6
CONTINUOUS
 62
7
100
AcDbLine
 10
156.7355736216657
 20
106.6252465469018
 30
0.000000000000000
 11
156.7355736216657
 21
125.6252465469018
 31
0.000000000000000
  0
LINE
  5
F5
100
AcDbEntity
  8
A1
  6
CONTINUOUS
 62
7
100
AcDbLine
 10
156.7355736216657
 20
106.6252465469018
 30
0.000000000000000
 11
158.7355736216657
 21
106.6252465469018
 31
0.000000000000000
  0
LINE
  5
F6
100
AcDbEntity
  8
A1
  6
CONTINUOUS
 62
7
100
AcDbLine
 10
148.2729396216657
 20
154.6923135469018
 30
0.000000000000000
 11
148.0355736216657
 21
154.9252465469018
 31
0.000000000000000
  0
LINE
  5
F7
100
AcDbEntity
  8
A1
  6
CONTINUOUS
 62
7
100
AcDbLine
 10
158.1363966216657
 20
145.0130365469018
 30
0.000000000000000
 11
157.5742596216657
 21
145.5646775469018
 31
0.000000000000000
  0
LINE
  5
F8
100
AcDbEntity
  8
A1
  6
CONTINUOUS
 62
7
100
AcDbLine
 10
158.7355736216657
 20
143.5855585469018
 30
0.000000000000000
 11
158.7355736216657
 21
142.6252465469018
 31
0.000000000000000
  0
LINE
  5
F9
100
AcDbEntity
  8
A1
  6
CONTINUOUS
 62
7
100
AcDbLine
 10
156.7355736216657
 20
142.6252465469018
 30
0.000000000000000
 11
156.7355736216657
 21
143.4912725469018
 31
0.000000000000000
  0
LINE
  5
FA
100
AcDbEntity
  8
A1
  6
CONTINUOUS
 62
7
100
AcDbLine
 10
156.7355736216657
 20
143.6252465469018
 30
0.000000000000000
 11
158.7351796216657
 21
143.6252465469018
 31
0.000000000000000
  0
LINE
  5
FB
100
AcDbEntity
  8
A1
  6
CONTINUOUS
 62
7
100
AcDbLine
 10
158.7355736216657
 20
126.6252465469018
 30
0.000000000000000
 11
158.7355736216657
 21
125.6252465469018
 31
0.000000000000000
  0
LINE
  5
FC
100
AcDbEntity
  8
A1
  6
CONTINUOUS
 62
7
100
AcDbLine
 10
156.7355736216657
 20
125.6252465469018
 30
0.000000000000000
 11
156.7355736216657
 21
126.6252465469018
 31
0.000000000000000
  0
LINE
  5
FD
100
AcDbEntity
  8
A1
  6
CONTINUOUS
 62
7
100
AcDbLine
 10
158.7355736216657
 20
125.6252465469018
 30
0.000000000000000
 11
156.7355736216657
 21
125.6252465469018
 31
0.000000000000000
  0
LINE
  5
FE
100
AcDbEntity
  8
A1
  6
CONTINUOUS
 62
7
100
AcDbLine
 10
158.7355736216657
 20
126.6252465469018
 30
0.000000000000000
 11
158.7355736216657
 21
142.6252465469018
 31
0.000000000000000
  0
LINE
  5
FF
100
AcDbEntity
  8
A1
  6
CONTINUOUS
 62
7
100
AcDbLine
 10
156.7355736216657
 20
142.6252465469018
 30
0.000000000000000
 11
156.7355736216657
 21
126.6252465469018
 31
0.000000000000000
  0
LINE
  5
100
100
AcDbEntity
  8
A1
  6
CONTINUOUS
 62
7
100
AcDbLine
 10
156.7355736216657
 20
126.6252465469018
 30
0.000000000000000
 11
158.7355736216657
 21
126.6252465469018
 31
0.000000000000000
  0
LINE
  5
101
100
AcDbEntity
  8
A1
  6
CONTINUOUS
 62
7
100
AcDbLine
 10
158.7355736216657
 20
142.6252465469018
 30
0.000000000000000
 11
156.7355736216657
 21
142.6252465469018
 31
0.000000000000000
  0
LINE
  5
102
100
AcDbEntity
  8
A1
  6
CONTINUOUS
 62
7
100
AcDbLine
 10
146.0355736216657
 20
158.9252465469018
 30
0.000000000000000
 11
146.0355736216657
 21
159.9252465469018
 31
0.000000000000000
  0
LINE
  5
103
100
AcDbEntity
  8
A1
  6
CONTINUOUS
 62
7
100
AcDbLine
 10
148.0355736216657
 20
159.9252465469018
 30
0.000000000000000
 11
148.0355736216657
 21
158.9252465469018
 31
0.000000000000000
  0
LINE
  5
104
100
AcDbEntity
  8
A1
  6
CONTINUOUS
 62
7
100
AcDbLine
 10
146.0355736216657
 20
159.9252465469018
 30
0.000000000000000
 11
148.0355736216657
 21
159.9252465469018
 31
0.000000000000000
  0
LINE
  5
105
100
AcDbEntity
  8
A1
  6
CONTINUOUS
 62
7
100
AcDbLine
 10
146.0355736216657
 20
155.9252465469018
 30
0.000000000000000
 11
146.0355736216657
 21
158.9252465469018
 31
0.000000000000000
  0
LINE
  5
106
100
AcDbEntity
  8
A1
  6
CONTINUOUS
 62
7
100
AcDbLine
 10
148.0355736216657
 20
158.9252465469018
 30
0.000000000000000
 11
148.0355736216657
 21
155.9252465469018
 31
0.000000000000000
  0
LINE
  5
107
100
AcDbEntity
  8
A1
  6
CONTINUOUS
 62
7
100
AcDbLine
 10
148.0355736216657
 20
158.9252465469018
 30
0.000000000000000
 11
146.0355736216657
 21
158.9252465469018
 31
0.000000000000000
  0
LINE
  5
108
100
AcDbEntity
  8
A1
  6
CONTINUOUS
 62
7
100
AcDbLine
 10
148.0355736216657
 20
155.9252465469018
 30
0.000000000000000
 11
148.0355736216657
 21
154.9252465469018
 31
0.000000000000000
  0
LINE
  5
109
100
AcDbEntity
  8
A1
  6
CONTINUOUS
 62
7
100
AcDbLine
 10
146.0355736216657
 20
155.9252465469018
 30
0.000000000000000
 11
148.0355736216657
 21
155.9252465469018
 31
0.000000000000000
  0
LINE
  5
10A
100
AcDbEntity
  8
A1
  6
CONTINUOUS
 62
7
100
AcDbLine
 10
146.0355736216657
 20
154.9252465469018
 30
0.000000000000000
 11
146.0355736216657
 21
155.9252465469018
 31
0.000000000000000
  0
LINE
  5
10B
100
AcDbEntity
  8
A1
  6
CONTINUOUS
 62
7
100
AcDbLine
 10
148.0355736216657
 20
154.9252465469018
 30
0.000000000000000
 11
146.0355736216657
 21
154.9252465469018
 31
0.000000000000000
  0
ARC
  5
10C
100
AcDbEntity
  8
A1
  6
CONTINUOUS
 62
7
100
AcDbCircle
 10
151.5355736216657
 20
188.7501405469018
 30
0.000000000000000
 40
1.500000000000000
100
AcDbArc
 50
0.000000000000000
 51
180.0000000000000
  0
ARC
  5
10D
100
AcDbEntity
  8
A1
  6
CONTINUOUS
 62
7
100
AcDbCircle
 10
151.5355736216657
 20
132.2612505469018
 30
0.000000000000000
 40
1.500000000000000
100
AcDbArc
 50
180.0000000000000
 51
360.0000000000000
  0
LINE
  5
10E
100
AcDbEntity
  8
A1
  6
CONTINUOUS
 62
7
100
AcDbLine
 10
150.0355736216657
 20
187.9709875469018
 30
0.000000000000000
 11
150.0355736216657
 21
188.7501405469018
 31
0.000000000000000
  0
LINE
  5
10F
100
AcDbEntity
  8
A1
  6
CONTINUOUS
 62
7
100
AcDbLine
 10
153.0355736216657
 20
188.7501405469018
 30
0.000000000000000
 11
153.0355736216657
 21
187.9709875469018
 31
0.000000000000000
  0
LINE
  5
110
100
AcDbEntity
  8
A1
  6
CONTINUOUS
 62
7
100
AcDbLine
 10
153.0355736216657
 20
135.1028535469018
 30
0.000000000000000
 11
153.0355736216657
 21
132.2612505469018
 31
0.000000000000000
  0
LINE
  5
111
100
AcDbEntity
  8
A1
  6
CONTINUOUS
 62
7
100
AcDbLine
 10
150.0355736216657
 20
132.2612505469018
 30
0.000000000000000
 11
150.0355736216657
 21
135.1028535469018
 31
0.000000000000000
  0
LINE
  5
112
100
AcDbEntity
  8
A1
  6
CONTINUOUS
 62
7
100
AcDbLine
 10
153.0355736216657
 20
187.9709875469018
 30
0.000000000000000
 11
153.0355736216657
 21
135.1961435469018
 31
0.000000000000000
  0
LINE
  5
113
100
AcDbEntity
  8
A1
  6
CONTINUOUS
 62
7
100
AcDbLine
 10
150.0355736216657
 20
135.1961385469018
 30
0.000000000000000
 11
150.0355736216657
 21
187.9709875469018
 31
0.000000000000000
  0
LINE
  5
114
100
AcDbEntity
  8
A1
  6
CONTINUOUS
 62
7
100
AcDbLine
 10
153.0355736216657
 20
135.1961435469018
 30
0.000000000000000
 11
153.0355736216657
 21
135.1028535469018
 31
0.000000000000000
  0
ARC
  5
115
100
AcDbEntity
  8
A1
  6
CONTINUOUS
 62
7
100
AcDbCircle
 10
43.29413615687278
 20
60.54393562104502
 30
0.000000000000000
 40
3.000000000000000
100
AcDbArc
 50
109.4712210000000
 51
180.0000000000000
  0
ARC
  5
116
100
AcDbEntity
  8
A1
  6
CONTINUOUS
 62
7
100
AcDbCircle
 10
61.29413615687278
 20
61.54393562104502
 30
0.000000000000000
 40
2.000000000000000
100
AcDbArc
 50
0.000000000000000
 51
90.00000000000000
  0
ARC
  5
117
100
AcDbEntity
  8
A1
  6
CONTINUOUS
 62
7
100
AcDbCircle
 10
43.29413615687278
 20
60.54393562104502
 30
0.000000000000000
 40
3.000000000000000
100
AcDbArc
 50
90.00000000000000
 51
109.4712210000000
  0
LINE
  5
118
100
AcDbEntity
  8
A1
  6
CONTINUOUS
 62
7
100
AcDbLine
 10
40.29413615687276
 20
49.54393562104502
 30
0.000000000000000
 11
40.29413615687276
 21
52.54393562104502
 31
0.000000000000000
  0
LINE
  5
119
100
AcDbEntity
  8
A1
  6
CONTINUOUS
 62
7
100
AcDbLine
 10
41.79413615687276
 20
49.54393562104502
 30
0.000000000000000
 11
41.79413615687276
 21
52.54393562104502
 31
0.000000000000000
  0
LINE
  5
11A
100
AcDbEntity
  8
A1
  6
CONTINUOUS
 62
7
100
AcDbLine
 10
63.29413615687276
 20
52.54393562104502
 30
0.000000000000000
 11
63.29413615687276
 21
49.54393562104502
 31
0.000000000000000
  0
LINE
  5
11B
100
AcDbEntity
  8
A1
  6
CONTINUOUS
 62
7
100
AcDbLine
 10
61.79413615687276
 20
52.54393562104502
 30
0.000000000000000
 11
61.79413615687276
 21
49.54393562104502
 31
0.000000000000000
  0
LINE
  5
11C
100
AcDbEntity
  8
A1
  6
CONTINUOUS
 62
7
100
AcDbLine
 10
42.29413615687276
 20
62.04393562104502
 30
0.000000000000000
 11
41.79413615687276
 21
62.04393562104502
 31
0.000000000000000
  0
LINE
  5
11D
100
AcDbEntity
  8
A1
  6
CONTINUOUS
 62
7
100
AcDbLine
 10
40.29413615687276
 20
60.54393562104502
 30
0.000000000000000
 11
40.29413615687276
 21
52.54393562104502
 31
0.000000000000000
  0
LINE
  5
11E
100
AcDbEntity
  8
A1
  6
CONTINUOUS
 62
7
100
AcDbLine
 10
41.79413615687276
 20
52.54393562104502
 30
0.000000000000000
 11
40.29413615687276
 21
52.54393562104502
 31
0.000000000000000
  0
LINE
  5
11F
100
AcDbEntity
  8
A1
  6
CONTINUOUS
 62
7
100
AcDbLine
 10
41.79413615687276
 20
62.04393562104502
 30
0.000000000000000
 11
41.79413615687276
 21
52.54393562104502
 31
0.000000000000000
  0
LINE
  5
120
100
AcDbEntity
  8
A1
  6
CONTINUOUS
 62
7
100
AcDbLine
 10
61.29413615687276
 20
62.04393562104502
 30
0.000000000000000
 11
61.79413615687276
 21
62.04393562104502
 31
0.000000000000000
  0
LINE
  5
121
100
AcDbEntity
  8
A1
  6
CONTINUOUS
 62
7
100
AcDbLine
 10
63.29413615687276
 20
52.54393562104502
 30
0.000000000000000
 11
63.29413615687276
 21
61.54393562104502
 31
0.000000000000000
  0
LINE
  5
122
100
AcDbEntity
  8
A1
  6
CONTINUOUS
 62
7
100
AcDbLine
 10
61.79413615687276
 20
52.54393562104502
 30
0.000000000000000
 11
61.79413615687276
 21
62.04393562104502
 31
0.000000000000000
  0
LINE
  5
123
100
AcDbEntity
  8
A1
  6
CONTINUOUS
 62
7
100
AcDbLine
 10
63.29413615687276
 20
52.54393562104502
 30
0.000000000000000
 11
61.79413615687276
 21
52.54393562104502
 31
0.000000000000000
  0
LINE
  5
124
100
AcDbEntity
  8
A1
  6
CONTINUOUS
 62
7
100
AcDbLine
 10
42.29413615687276
 20
63.02575362104501
 30
0.000000000000000
 11
42.29413615687276
 21
63.37236262104501
 31
0.000000000000000
  0
LINE
  5
125
100
AcDbEntity
  8
A1
  6
CONTINUOUS
 62
7
100
AcDbLine
 10
61.29413615687276
 20
63.02575362104501
 30
0.000000000000000
 11
61.29413615687276
 21
63.54393562104502
 31
0.000000000000000
  0
LINE
  5
126
100
AcDbEntity
  8
A1
  6
CONTINUOUS
 62
7
100
AcDbLine
 10
61.29413615687276
 20
63.54393562104502
 30
0.000000000000000
 11
43.29413615687276
 21
63.54393562104502
 31
0.000000000000000
  0
LINE
  5
127
100
AcDbEntity
  8
A1
  6
CONTINUOUS
 62
7
100
AcDbLine
 10
61.29413615687276
 20
57.85153162104502
 30
0.000000000000000
 11
61.29413615687276
 21
63.02575362104501
 31
0.000000000000000
  0
LINE
  5
128
100
AcDbEntity
  8
A1
  6
CONTINUOUS
 62
7
100
AcDbLine
 10
61.29413615687276
 20
63.02575362104501
 30
0.000000000000000
 11
42.29413615687276
 21
63.02575362104501
 31
0.000000000000000
  0
LINE
  5
129
100
AcDbEntity
  8
A1
  6
CONTINUOUS
 62
7
100
AcDbLine
 10
42.29413615687276
 20
57.85153162104502
 30
0.000000000000000
 11
42.29413615687276
 21
63.02575362104501
 31
0.000000000000000
  0
LINE
  5
12A
100
AcDbEntity
  8
A1
  6
CONTINUOUS
 62
7
100
AcDbLine
 10
61.29413615687276
 20
56.43334362104500
 30
0.000000000000000
 11
61.29413615687276
 21
57.85153162104502
 31
0.000000000000000
  0
LINE
  5
12B
100
AcDbEntity
  8
A1
  6
CONTINUOUS
 62
7
100
AcDbLine
 10
42.29413615687276
 20
56.43334362104500
 30
0.000000000000000
 11
42.29413615687276
 21
57.85153162104502
 31
0.000000000000000
  0
LINE
  5
12C
100
AcDbEntity
  8
A1
  6
CONTINUOUS
 62
7
100
AcDbLine
 10
42.29413615687276
 20
56.34393562104501
 30
0.000000000000000
 11
61.29413615687276
 21
56.34393562104501
 31
0.000000000000000
  0
LINE
  5
12D
100
AcDbEntity
  8
A1
  6
CONTINUOUS
 62
7
100
AcDbLine
 10
61.29413615687276
 20
56.34393562104501
 30
0.000000000000000
 11
61.29413615687276
 21
56.43334362104500
 31
0.000000000000000
  0
LINE
  5
12E
100
AcDbEntity
  8
A1
  6
CONTINUOUS
 62
7
100
AcDbLine
 10
42.29413615687276
 20
56.34393562104501
 30
0.000000000000000
 11
42.29413615687276
 21
56.43334362104500
 31
0.000000000000000
  0
LINE
  5
12F
100
AcDbEntity
  8
A1
  6
CONTINUOUS
 62
7
100
AcDbLine
 10
64.04413615687277
 20
58.24393562104502
 30
0.000000000000000
 11
63.29413615687276
 21
58.24393562104502
 31
0.000000000000000
  0
LINE
  5
130
100
AcDbEntity
  8
A1
  6
CONTINUOUS
 62
7
100
AcDbLine
 10
64.04413615687277
 20
60.24393562104502
 30
0.000000000000000
 11
64.04413615687277
 21
58.24393562104502
 31
0.000000000000000
  0
LINE
  5
131
100
AcDbEntity
  8
A1
  6
CONTINUOUS
 62
7
100
AcDbLine
 10
63.29413615687276
 20
60.24393562104502
 30
0.000000000000000
 11
64.04413615687277
 21
60.24393562104502
 31
0.000000000000000
  0
LINE
  5
132
100
AcDbEntity
  8
A1
  6
CONTINUOUS
 62
7
100
AcDbLine
 10
40.29413615687276
 20
58.24393562104502
 30
0.000000000000000
 11
39.54413615687276
 21
58.24393562104502
 31
0.000000000000000
  0
LINE
  5
133
100
AcDbEntity
  8
A1
  6
CONTINUOUS
 62
7
100
AcDbLine
 10
39.54413615687276
 20
60.24393562104502
 30
0.000000000000000
 11
40.29413615687276
 21
60.24393562104502
 31
0.000000000000000
  0
LINE
  5
134
100
AcDbEntity
  8
A1
  6
CONTINUOUS
 62
7
100
AcDbLine
 10
39.54413615687276
 20
58.24393562104502
 30
0.000000000000000
 11
39.54413615687276
 21
60.24393562104502
 31
0.000000000000000
  0
LINE
  5
135
100
AcDbEntity
  8
A1
  6
CONTINUOUS
 62
7
100
AcDbLine
 10
42.29413615687276
 20
60.24393562104502
 30
0.000000000000000
 11
41.79413615687276
 21
60.24393562104502
 31
0.000000000000000
  0
LINE
  5
136
100
AcDbEntity
  8
A1
  6
CONTINUOUS
 62
7
100
AcDbLine
 10
61.79413615687276
 20
60.24393562104502
 30
0.000000000000000
 11
61.29413615687276
 21
60.24393562104502
 31
0.000000000000000
  0
LINE
  5
137
100
AcDbEntity
  8
A1
  6
CONTINUOUS
 62
7
100
AcDbLine
 10
42.29413615687276
 20
59.64475862104502
 30
0.000000000000000
 11
41.79413615687276
 21
59.64475862104502
 31
0.000000000000000
  0
LINE
  5
138
100
AcDbEntity
  8
A1
  6
CONTINUOUS
 62
7
100
AcDbLine
 10
61.79413615687276
 20
59.64475862104502
 30
0.000000000000000
 11
61.29413615687276
 21
59.64475862104502
 31
0.000000000000000
  0
LINE
  5
139
100
AcDbEntity
  8
A1
  6
CONTINUOUS
 62
7
100
AcDbLine
 10
61.29413615687276
 20
49.54393562104502
 30
0.000000000000000
 11
62.79413615687276
 21
49.54393562104502
 31
0.000000000000000
  0
LINE
  5
13A
100
AcDbEntity
  8
A1
  6
CONTINUOUS
 62
7
100
AcDbLine
 10
62.79413615687276
 20
47.54393562104502
 30
0.000000000000000
 11
61.29413615687276
 21
47.54393562104502
 31
0.000000000000000
  0
LINE
  5
13B
100
AcDbEntity
  8
A1
  6
CONTINUOUS
 62
7
100
AcDbLine
 10
39.79413615687276
 20
49.54393562104502
 30
0.000000000000000
 11
40.79413615687276
 21
49.54393562104502
 31
0.000000000000000
  0
LINE
  5
13C
100
AcDbEntity
  8
A1
  6
CONTINUOUS
 62
7
100
AcDbLine
 10
40.79413615687276
 20
47.54393562104502
 30
0.000000000000000
 11
39.79413615687276
 21
47.54393562104502
 31
0.000000000000000
  0
LINE
  5
13D
100
AcDbEntity
  8
A1
  6
CONTINUOUS
 62
7
100
AcDbLine
 10
39.79413615687276
 20
47.54393562104502
 30
0.000000000000000
 11
39.79413615687276
 21
49.54393562104502
 31
0.000000000000000
  0
LINE
  5
13E
100
AcDbEntity
  8
A1
  6
CONTINUOUS
 62
7
100
AcDbLine
 10
62.79413615687276
 20
49.54393562104502
 30
0.000000000000000
 11
63.79413615687276
 21
49.54393562104502
 31
0.000000000000000
  0
LINE
  5
13F
100
AcDbEntity
  8
A1
  6
CONTINUOUS
 62
7
100
AcDbLine
 10
63.79413615687276
 20
47.54393562104502
 30
0.000000000000000
 11
62.79413615687276
 21
47.54393562104502
 31
0.000000000000000
  0
LINE
  5
140
100
AcDbEntity
  8
A1
  6
CONTINUOUS
 62
7
100
AcDbLine
 10
63.79413615687276
 20
49.54393562104502
 30
0.000000000000000
 11
63.79413615687276
 21
47.54393562104502
 31
0.000000000000000
  0
LINE
  5
141
100
AcDbEntity
  8
A1
  6
CONTINUOUS
 62
7
100
AcDbLine
 10
62.79413615687276
 20
47.54393562104502
 30
0.000000000000000
 11
62.79413615687276
 21
49.54393562104502
 31
0.000000000000000
  0
LINE
  5
142
100
AcDbEntity
  8
A1
  6
CONTINUOUS
 62
7
100
AcDbLine
 10
42.29413615687276
 20
49.54393562104502
 30
0.000000000000000
 11
40.79413615687276
 21
49.54393562104502
 31
0.000000000000000
  0
LINE
  5
143
100
AcDbEntity
  8
A1
  6
CONTINUOUS
 62
7
100
AcDbLine
 10
40.79413615687276
 20
47.54393562104502
 30
0.000000000000000
 11
42.29413615687276
 21
47.54393562104502
 31
0.000000000000000
  0
LINE
  5
144
100
AcDbEntity
  8
A1
  6
CONTINUOUS
 62
7
100
AcDbLine
 10
40.79413615687276
 20
49.54393562104502
 30
0.000000000000000
 11
40.79413615687276
 21
47.54393562104502
 31
0.000000000000000
  0
LINE
  5
145
100
AcDbEntity
  8
A1
  6
CONTINUOUS
 62
7
100
AcDbLine
 10
42.29413615687276
 20
49.54393562104502
 30
0.000000000000000
 11
45.29413615687276
 21
49.54393562104502
 31
0.000000000000000
  0
LINE
  5
146
100
AcDbEntity
  8
A1
  6
CONTINUOUS
 62
7
100
AcDbLine
 10
45.29413615687276
 20
47.54393562104502
 30
0.000000000000000
 11
42.29413615687276
 21
47.54393562104502
 31
0.000000000000000
  0
LINE
  5
147
100
AcDbEntity
  8
A1
  6
CONTINUOUS
 62
7
100
AcDbLine
 10
42.29413615687276
 20
47.54393562104502
 30
0.000000000000000
 11
42.29413615687276
 21
49.54393562104502
 31
0.000000000000000
  0
LINE
  5
148
100
AcDbEntity
  8
A1
  6
CONTINUOUS
 62
7
100
AcDbLine
 10
58.29413615687276
 20
49.54393562104502
 30
0.000000000000000
 11
61.29413615687276
 21
49.54393562104502
 31
0.000000000000000
  0
LINE
  5
149
100
AcDbEntity
  8
A1
  6
CONTINUOUS
 62
7
100
AcDbLine
 10
61.29413615687276
 20
47.54393562104502
 30
0.000000000000000
 11
58.29413615687276
 21
47.54393562104502
 31
0.000000000000000
  0
LINE
  5
14A
100
AcDbEntity
  8
A1
  6
CONTINUOUS
 62
7
100
AcDbLine
 10
61.29413615687276
 20
49.54393562104502
 30
0.000000000000000
 11
61.29413615687276
 21
47.54393562104502
 31
0.000000000000000
  0
LINE
  5
14B
100
AcDbEntity
  8
A1
  6
CONTINUOUS
 62
7
100
AcDbLine
 10
58.29413615687276
 20
49.54393562104502
 30
0.000000000000000
 11
45.29413615687276
 21
49.54393562104502
 31
0.000000000000000
  0
LINE
  5
14C
100
AcDbEntity
  8
A1
  6
CONTINUOUS
 62
7
100
AcDbLine
 10
45.29413615687276
 20
49.54393562104502
 30
0.000000000000000
 11
45.29413615687276
 21
47.54393562104502
 31
0.000000000000000
  0
LINE
  5
14D
100
AcDbEntity
  8
A1
  6
CONTINUOUS
 62
7
100
AcDbLine
 10
58.29413615687276
 20
47.54393562104502
 30
0.000000000000000
 11
45.29413615687276
 21
47.54393562104502
 31
0.000000000000000
  0
LINE
  5
14E
100
AcDbEntity
  8
A1
  6
CONTINUOUS
 62
7
100
AcDbLine
 10
58.29413615687276
 20
47.54393562104502
 30
0.000000000000000
 11
58.29413615687276
 21
49.54393562104502
 31
0.000000000000000
  0
ELLIPSE
  5
14F
100
AcDbEntity
  8
A1
  6
CONTINUOUS
 62
7
100
AcDbEllipse
 10
55.59842215687277
 20
54.74393562104503
 30
0.000000000000000
 11
0.000000000000000
 21
1.500000000000000
 31
0.000000000000000
210
0.000000000000000
220
0.000000000000000
230
1.000000000000000
 40
0.1977100000000000
 41
0.000000000000000
 42
3.141592638688632
  0
ELLIPSE
  5
150
100
AcDbEntity
  8
A1
  6
CONTINUOUS
 62
7
100
AcDbEllipse
 10
48.00529015687277
 20
54.74393562104503
 30
0.000000000000000
 11
0.000000000000000
 21
1.500000000000000
 31
0.000000000000000
210
0.000000000000000
220
0.000000000000000
230
1.000000000000000
 40
0.1977100000000000
 41
3.141592638688632
 42
0.000000000000000
  0
ELLIPSE
  5
151
100
AcDbEntity
  8
A1
  6
CONTINUOUS
 62
7
100
AcDbEllipse
 10
61.62201715687277
 20
54.74393562104503
 30
0.000000000000000
 11
0.000000000000000
 21
-1.500000000000000
 31
0.000000000000000
210
0.000000000000000
220
0.000000000000000
230
1.000000000000000
 40
0.3188130000000000
 41
3.141592653589793
 42
0.000000000000000
  0
ELLIPSE
  5
152
100
AcDbEntity
  8
A1
  6
CONTINUOUS
 62
7
100
AcDbEllipse
 10
66.17537915687276
 20
54.74393562104503
 30
0.000000000000000
 11
0.000000000000000
 21
-1.500000000000000
 31
0.000000000000000
210
0.000000000000000
220
0.000000000000000
230
1.000000000000000
 40
0.9821470000000000
 41
0.000000000000000
 42
3.141592653589793
  0
ELLIPSE
  5
153
100
AcDbEntity
  8
A1
  6
CONTINUOUS
 62
7
100
AcDbEllipse
 10
37.42833315687278
 20
54.74393562104503
 30
0.000000000000000
 11
0.000000000000000
 21
1.500000000000000
 31
0.000000000000000
210
0.000000000000000
220
0.000000000000000
230
1.000000000000000
 40
0.9821470000000000
 41
0.000000000000000
 42
3.141592653589793
  0
ELLIPSE
  5
154
100
AcDbEntity
  8
A1
  6
CONTINUOUS
 62
7
100
AcDbEllipse
 10
41.98169515687277
 20
54.74393562104503
 30
0.000000000000000
 11
0.000000000000000
 21
-1.500000000000000
 31
0.000000000000000
210
0.000000000000000
220
0.000000000000000
230
1.000000000000000
 40
0.3188130000000000
 41
0.000000000000000
 42
3.141592653589793
  0
ARC
  5
155
100
AcDbEntity
  8
A1
  6
CONTINUOUS
 62
7
100
AcDbCircle
 10
68.53771715687279
 20
54.74393562104503
 30
0.000000000000000
 40
1.500000000000000
100
AcDbArc
 50
270.0000000000000
 51
450.0000000000000
  0
ARC
  5
156
100
AcDbEntity
  8
A1
  6
CONTINUOUS
 62
7
100
AcDbCircle
 10
35.06599515687279
 20
54.74393562104503
 30
0.000000000000000
 40
1.500000000000000
100
AcDbArc
 50
90.00000000000000
 51
270.0000000000000
  0
LINE
  5
157
100
AcDbEntity
  8
A1
  6
CONTINUOUS
 62
7
100
AcDbLine
 10
66.17537915687274
 20
56.24393562104502
 30
0.000000000000000
 11
66.19321115687274
 21
56.24393562104502
 31
0.000000000000000
  0
LINE
  5
158
100
AcDbEntity
  8
A1
  6
CONTINUOUS
 62
7
100
AcDbLine
 10
66.19321315687273
 20
53.24393562104502
 30
0.000000000000000
 11
66.17537915687274
 21
53.24393562104502
 31
0.000000000000000
  0
LINE
  5
159
100
AcDbEntity
  8
A1
  6
CONTINUOUS
 62
7
100
AcDbLine
 10
66.19321115687274
 20
56.24393562104502
 30
0.000000000000000
 11
68.53771715687276
 21
56.24393562104502
 31
0.000000000000000
  0
LINE
  5
15A
100
AcDbEntity
  8
A1
  6
CONTINUOUS
 62
7
100
AcDbLine
 10
68.53771715687276
 20
53.24393562104502
 30
0.000000000000000
 11
66.19321315687273
 21
53.24393562104502
 31
0.000000000000000
  0
LINE
  5
15B
100
AcDbEntity
  8
A1
  6
CONTINUOUS
 62
7
100
AcDbLine
 10
37.42833315687276
 20
53.24393562104502
 30
0.000000000000000
 11
37.41050015687276
 21
53.24393562104502
 31
0.000000000000000
  0
LINE
  5
15C
100
AcDbEntity
  8
A1
  6
CONTINUOUS
 62
7
100
AcDbLine
 10
37.41050015687276
 20
56.24393562104502
 30
0.000000000000000
 11
37.42833315687276
 21
56.24393562104502
 31
0.000000000000000
  0
LINE
  5
15D
100
AcDbEntity
  8
A1
  6
CONTINUOUS
 62
7
100
AcDbLine
 10
37.41050015687276
 20
53.24393562104502
 30
0.000000000000000
 11
35.06599515687277
 21
53.24393562104502
 31
0.000000000000000
  0
LINE
  5
15E
100
AcDbEntity
  8
A1
  6
CONTINUOUS
 62
7
100
AcDbLine
 10
35.06599515687277
 20
56.24393562104502
 30
0.000000000000000
 11
37.41050015687276
 21
56.24393562104502
 31
0.000000000000000
  0
LINE
  5
15F
100
AcDbEntity
  8
A1
  6
CONTINUOUS
 62
7
100
AcDbLine
 10
61.62201715687275
 20
53.24393562104502
 30
0.000000000000000
 11
55.59842215687275
 21
53.24393562104502
 31
0.000000000000000
  0
LINE
  5
160
100
AcDbEntity
  8
A1
  6
CONTINUOUS
 62
7
100
AcDbLine
 10
55.59842215687275
 20
56.24393562104502
 30
0.000000000000000
 11
61.62201715687275
 21
56.24393562104502
 31
0.000000000000000
  0
LINE
  5
161
100
AcDbEntity
  8
A1
  6
CONTINUOUS
 62
7
100
AcDbLine
 10
41.98169515687275
 20
56.24393562104502
 30
0.000000000000000
 11
48.00529015687275
 21
56.24393562104502
 31
0.000000000000000
  0
LINE
  5
162
100
AcDbEntity
  8
A1
  6
CONTINUOUS
 62
7
100
AcDbLine
 10
48.00529015687275
 20
53.24393562104502
 30
0.000000000000000
 11
41.98169515687275
 21
53.24393562104502
 31
0.000000000000000
  0
LINE
  5
163
100
AcDbEntity
  8
A1
  6
CONTINUOUS
 62
7
100
AcDbLine
 10
61.79413615687276
 20
53.24393562104502
 30
0.000000000000000
 11
61.62201715687275
 21
53.24393562104502
 31
0.000000000000000
  0
LINE
  5
164
100
AcDbEntity
  8
A1
  6
CONTINUOUS
 62
7
100
AcDbLine
 10
66.17537915687274
 20
53.24393562104502
 30
0.000000000000000
 11
63.29413615687276
 21
53.24393562104502
 31
0.000000000000000
  0
LINE
  5
165
100
AcDbEntity
  8
A1
  6
CONTINUOUS
 62
7
100
AcDbLine
 10
63.29413615687276
 20
56.24393562104502
 30
0.000000000000000
 11
66.17537915687274
 21
56.24393562104502
 31
0.000000000000000
  0
LINE
  5
166
100
AcDbEntity
  8
A1
  6
CONTINUOUS
 62
7
100
AcDbLine
 10
61.62201715687275
 20
56.24393562104502
 30
0.000000000000000
 11
61.79413615687276
 21
56.24393562104502
 31
0.000000000000000
  0
LINE
  5
167
100
AcDbEntity
  8
A1
  6
CONTINUOUS
 62
7
100
AcDbLine
 10
40.29413615687276
 20
53.24393562104502
 30
0.000000000000000
 11
37.42833315687276
 21
53.24393562104502
 31
0.000000000000000
  0
LINE
  5
168
100
AcDbEntity
  8
A1
  6
CONTINUOUS
 62
7
100
AcDbLine
 10
41.98169515687275
 20
53.24393562104502
 30
0.000000000000000
 11
41.79413615687276
 21
53.24393562104502
 31
0.000000000000000
  0
LINE
  5
169
100
AcDbEntity
  8
A1
  6
CONTINUOUS
 62
7
100
AcDbLine
 10
41.79413615687276
 20
56.24393562104502
 30
0.000000000000000
 11
41.98169515687275
 21
56.24393562104502
 31
0.000000000000000
  0
LINE
  5
16A
100
AcDbEntity
  8
A1
  6
CONTINUOUS
 62
7
100
AcDbLine
 10
37.42833315687276
 20
56.24393562104502
 30
0.000000000000000
 11
40.29413615687276
 21
56.24393562104502
 31
0.000000000000000
  0
ELLIPSE
  5
16B
100
AcDbEntity
  8
A1
  6
CONTINUOUS
 62
7
100
AcDbEllipse
 10
61.29413615687275
 20
155.4897775469018
 30
0.000000000000000
 11
2.000000000000000
 21
0.000000000000000
 31
0.000000000000000
210
0.000000000000000
220
0.000000000000000
230
1.000000000000000
 40
0.8797590000000001
 41
0.000000000000000
 42
0.2526802551420768
  0
LINE
  5
16C
100
AcDbEntity
  8
A1
  6
CONTINUOUS
 62
7
100
AcDbLine
 10
40.29413615687275
 20
154.7180615469018
 30
0.000000000000000
 11
40.29413615687275
 21
154.9570005469018
 31
0.000000000000000
  0
LINE
  5
16D
100
AcDbEntity
  8
A1
  6
CONTINUOUS
 62
7
100
AcDbLine
 10
61.29413615687275
 20
110.0609215469018
 30
0.000000000000000
 11
61.29413615687275
 21
111.2989595469018
 31
0.000000000000000
  0
LINE
  5
16E
100
AcDbEntity
  8
A1
  6
CONTINUOUS
 62
7
100
AcDbLine
 10
42.29413615687275
 20
110.0609215469018
 30
0.000000000000000
 11
42.29413615687275
 21
111.2989595469018
 31
0.000000000000000
  0
LINE
  5
16F
100
AcDbEntity
  8
A1
  6
CONTINUOUS
 62
7
100
AcDbLine
 10
61.29413615687275
 20
111.2989595469018
 30
0.000000000000000
 11
61.29413615687275
 21
123.1166275469018
 31
0.000000000000000
  0
LINE
  5
170
100
AcDbEntity
  8
A1
  6
CONTINUOUS
 62
7
100
AcDbLine
 10
42.29413615687275
 20
111.2989595469018
 30
0.000000000000000
 11
42.29413615687275
 21
123.1166275469018
 31
0.000000000000000
  0
LINE
  5
171
100
AcDbEntity
  8
A1
  6
CONTINUOUS
 62
7
100
AcDbLine
 10
40.29413615687275
 20
124.4252465469018
 30
0.000000000000000
 11
40.29413615687275
 21
155.4619221960395
 31
0.000000000000000
  0
LINE
  5
172
100
AcDbEntity
  8
A1
  6
CONTINUOUS
 62
7
100
AcDbLine
 10
42.29413615687275
 20
124.4252465469018
 30
0.000000000000000
 11
40.29413615687275
 21
124.4252465469018
 31
0.000000000000000
  0
LINE
  5
173
100
AcDbEntity
  8
A1
  6
CONTINUOUS
 62
7
100
AcDbLine
 10
42.29413615687275
 20
123.5540405469018
 30
0.000000000000000
 11
42.29413615687275
 21
124.4252465469018
 31
0.000000000000000
  0
LINE
  5
174
100
AcDbEntity
  8
A1
  6
CONTINUOUS
 62
7
100
AcDbLine
 10
40.29413615687275
 20
158.7280225469017
 30
0.000000000000000
 11
40.29413615687275
 21
161.5078225469018
 31
0.000000000000000
  0
LINE
  5
175
100
AcDbEntity
  8
A1
  6
CONTINUOUS
 62
7
100
AcDbLine
 10
63.29413615687275
 20
161.9252465469018
 30
0.000000000000000
 11
63.29413615687275
 21
160.9252465469018
 31
0.000000000000000
  0
LINE
  5
176
100
AcDbEntity
  8
A1
  6
CONTINUOUS
 62
7
100
AcDbLine
 10
63.29413615687275
 20
161.9252465469018
 30
0.000000000000000
 11
40.29413615687275
 21
161.9252465469018
 31
0.000000000000000
  0
LINE
  5
177
100
AcDbEntity
  8
A1
  6
CONTINUOUS
 62
7
100
AcDbLine
 10
40.29413615687275
 20
161.5078225469018
 30
0.000000000000000
 11
40.29413615687275
 21
161.9252465469018
 31
0.000000000000000
  0
LINE
  5
178
100
AcDbEntity
  8
A1
  6
CONTINUOUS
 62
7
100
AcDbLine
 10
61.29413615687275
 20
123.1166275469018
 30
0.000000000000000
 11
61.29413615687275
 21
124.2506615469018
 31
0.000000000000000
  0
LINE
  5
179
100
AcDbEntity
  8
A1
  6
CONTINUOUS
 62
7
100
AcDbLine
 10
42.29413615687275
 20
123.1166275469018
 30
0.000000000000000
 11
42.29413615687275
 21
123.5540405469018
 31
0.000000000000000
  0
LINE
  5
17A
100
AcDbEntity
  8
A1
  6
CONTINUOUS
 62
7
100
AcDbLine
 10
61.29413615687275
 20
123.1166275469018
 30
0.000000000000000
 11
42.29413615687275
 21
123.1166275469018
 31
0.000000000000000
  0
LINE
  5
17B
100
AcDbEntity
  8
A1
  6
CONTINUOUS
 62
7
100
AcDbLine
 10
61.29413615687275
 20
124.2506615469018
 30
0.000000000000000
 11
61.29413615687275
 21
124.4252465469018
 31
0.000000000000000
  0
LINE
  5
17C
100
AcDbEntity
  8
A1
  6
CONTINUOUS
 62
7
100
AcDbLine
 10
61.29413615687275
 20
156.9252465469018
 30
0.000000000000000
 11
43.29413615687275
 21
156.9252465469018
 31
0.000000000000000
  0
LINE
  5
17D
100
AcDbEntity
  8
A1
  6
CONTINUOUS
 62
7
100
AcDbLine
 10
43.29413615687275
 20
156.9252465469018
 30
0.000000000000000
 11
43.29413615687275
 21
124.2506615469018
 31
0.000000000000000
  0
LINE
  5
17E
100
AcDbEntity
  8
A1
  6
CONTINUOUS
 62
7
100
AcDbLine
 10
61.29413615687275
 20
124.2506615469018
 30
0.000000000000000
 11
43.29413615687275
 21
124.2506615469018
 31
0.000000000000000
  0
LINE
  5
17F
100
AcDbEntity
  8
A1
  6
CONTINUOUS
 62
7
100
AcDbLine
 10
63.29413615687275
 20
160.9252465469018
 30
0.000000000000000
 11
63.29413615687275
 21
158.7280225469018
 31
0.000000000000000
  0
LINE
  5
180
100
AcDbEntity
  8
A1
  6
CONTINUOUS
 62
7
100
AcDbLine
 10
61.29413615687275
 20
124.4252465469018
 30
0.000000000000000
 11
61.29413615687275
 21
156.9252465469018
 31
0.000000000000000
  0
LINE
  5
181
100
AcDbEntity
  8
A1
  6
CONTINUOUS
 62
7
100
AcDbLine
 10
63.29413615687275
 20
124.4252465469018
 30
0.000000000000000
 11
61.29413615687275
 21
124.4252465469018
 31
0.000000000000000
  0
LINE
  5
182
100
AcDbEntity
  8
A1
  6
CONTINUOUS
 62
7
100
AcDbLine
 10
63.29413615687275
 20
155.4897775469018
 30
0.000000000000000
 11
63.29413615687275
 21
124.4252465469018
 31
0.000000000000000
  0
LINE
  5
183
100
AcDbEntity
  8
A1
  6
CONTINUOUS
 62
7
100
AcDbLine
 10
63.23062715687274
 20
156.9252465469018
 30
0.000000000000000
 11
63.23062715687274
 21
155.9296565469018
 31
0.000000000000000
  0
ARC
  5
184
100
AcDbEntity
  8
A1
  6
CONTINUOUS
 62
7
100
AcDbCircle
 10
40.79413615687275
 20
142.6252465469018
 30
0.000000000000000
 40
1.000000000000000
100
AcDbArc
 50
120.0000000000000
 51
180.0000000000000
  0
ARC
  5
185
100
AcDbEntity
  8
A1
  6
CONTINUOUS
 62
7
100
AcDbCircle
 10
62.79413615687275
 20
142.6252465469018
 30
0.000000000000000
 40
1.000000000000000
100
AcDbArc
 50
0.000000000000000
 51
59.99999999999999
  0
ARC
  5
186
100
AcDbEntity
  8
A1
  6
CONTINUOUS
 62
7
100
AcDbCircle
 10
45.29413615687275
 20
106.6252465469018
 30
0.000000000000000
 40
3.000000000000000
100
AcDbArc
 50
180.0000000000000
 51
254.9451590000000
  0
ARC
  5
187
100
AcDbEntity
  8
A1
  6
CONTINUOUS
 62
7
100
AcDbCircle
 10
58.29413615687275
 20
106.6252465469018
 30
0.000000000000000
 40
3.000000000000000
100
AcDbArc
 50
285.5207640000000
 51
360.0000000000000
  0
ARC
  5
188
100
AcDbEntity
  8
A1
  6
CONTINUOUS
 62
7
100
AcDbCircle
 10
62.79413615687275
 20
126.6252465469018
 30
0.000000000000000
 40
1.000000000000000
100
AcDbArc
 50
300.0000000000001
 51
360.0000000000000
  0
ARC
  5
189
100
AcDbEntity
  8
A1
  6
CONTINUOUS
 62
7
100
AcDbCircle
 10
40.79413615687275
 20
126.6252465469018
 30
0.000000000000000
 40
1.000000000000000
100
AcDbArc
 50
180.0000000000000
 51
240.0000000000000
  0
ARC
  5
18A
100
AcDbEntity
  8
A1
  6
CONTINUOUS
 62
7
100
AcDbCircle
 10
63.04413615687275
 20
155.9252465469018
 30
0.000000000000000
 40
1.000000000000000
100
AcDbArc
 50
284.4775120000000
 51
360.0000000000000
  0
ARC
  5
18B
100
AcDbEntity
  8
A1
  6
CONTINUOUS
 62
7
100
AcDbCircle
 10
63.04413615687275
 20
158.9252465469018
 30
0.000000000000000
 40
1.000000000000000
100
AcDbArc
 50
0.000000000000000
 51
75.52248800000000
  0
ARC
  5
18C
100
AcDbEntity
  8
A1
  6
CONTINUOUS
 62
7
100
AcDbCircle
 10
40.54413615687275
 20
158.9252465469018
 30
0.000000000000000
 40
1.000000000000000
100
AcDbArc
 50
104.4775120000000
 51
180.0000000000000
  0
ARC
  5
18D
100
AcDbEntity
  8
A1
  6
CONTINUOUS
 62
7
100
AcDbCircle
 10
40.54413615687275
 20
155.9252465469018
 30
0.000000000000000
 40
1.000000000000000
100
AcDbArc
 50
180.0000000000000
 51
255.5224878140701
  0
LINE
  5
18E
100
AcDbEntity
  8
A1
  6
CONTINUOUS
 62
7
100
AcDbLine
 10
42.29413615687275
 20
106.6252465469018
 30
0.000000000000000
 11
42.29413615687275
 21
110.0609215469018
 31
0.000000000000000
  0
LINE
  5
18F
100
AcDbEntity
  8
A1
  6
CONTINUOUS
 62
7
100
AcDbLine
 10
61.29413615687275
 20
106.6252465469018
 30
0.000000000000000
 11
61.29413615687275
 21
110.0609215469018
 31
0.000000000000000
  0
LINE
  5
190
100
AcDbEntity
  8
A1
  6
CONTINUOUS
 62
7
100
AcDbLine
 10
63.79413615687275
 20
130.8740945469018
 30
0.000000000000000
 11
63.79413615687275
 21
126.6252465469018
 31
0.000000000000000
  0
LINE
  5
191
100
AcDbEntity
  8
A1
  6
CONTINUOUS
 62
7
100
AcDbLine
 10
63.79413615687275
 20
142.6252465469018
 30
0.000000000000000
 11
63.79413615687275
 21
134.1430725469018
 31
0.000000000000000
  0
LINE
  5
192
100
AcDbEntity
  8
A1
  6
CONTINUOUS
 62
7
100
AcDbLine
 10
39.79413615687275
 20
130.8774575469018
 30
0.000000000000000
 11
39.79413615687275
 21
126.6252465469018
 31
0.000000000000000
  0
LINE
  5
193
100
AcDbEntity
  8
A1
  6
CONTINUOUS
 62
7
100
AcDbLine
 10
39.79413615687275
 20
142.6252465469018
 30
0.000000000000000
 11
39.79413615687275
 21
134.1525555469018
 31
0.000000000000000
  0
LINE
  5
194
100
AcDbEntity
  8
A1
  6
CONTINUOUS
 62
7
100
AcDbLine
 10
64.04413615687275
 20
155.9252465469018
 30
0.000000000000000
 11
64.04413615687275
 21
158.9252465469018
 31
0.000000000000000
  0
LINE
  5
195
100
AcDbEntity
  8
A1
  6
CONTINUOUS
 62
7
100
AcDbLine
 10
39.54413615687275
 20
155.9252465469018
 30
0.000000000000000
 11
39.54413615687275
 21
158.9252465469018
 31
0.000000000000000
  0
ARC
  5
196
100
AcDbEntity
  8
A1
  6
CONTINUOUS
 62
7
100
AcDbCircle
 10
40.84848815687275
 20
135.8520675469018
 30
0.000000000000000
 40
2.000000000000000
100
AcDbArc
 50
190.8014810000000
 51
253.9082570000000
  0
ARC
  5
197
100
AcDbEntity
  8
A1
  6
CONTINUOUS
 62
7
100
AcDbCircle
 10
38.05719615687275
 20
187.9709875469018
 30
0.000000000000000
 40
1.500000000000000
100
AcDbArc
 50
151.2777320000000
 51
167.7943050000000
  0
ARC
  5
198
100
AcDbEntity
  8
A1
  6
CONTINUOUS
 62
7
100
AcDbCircle
 10
39.37263515687278
 20
187.2501405469018
 30
0.000000000000000
 40
3.000000000000000
100
AcDbArc
 50
90.00000000000000
 51
151.2777320000000
  0
ARC
  5
199
100
AcDbEntity
  8
A1
  6
CONTINUOUS
 62
7
100
AcDbCircle
 10
62.75522415687277
 20
135.8520675469018
 30
0.000000000000000
 40
2.000000000000000
100
AcDbArc
 50
285.6318880000000
 51
349.1985190000000
  0
ARC
  5
19A
100
AcDbEntity
  8
A1
  6
CONTINUOUS
 62
7
100
AcDbCircle
 10
167.3900681568728
 20
159.9947735469018
 30
0.000000000000000
 40
133.8240730000000
100
AcDbArc
 50
167.7943050000000
 51
190.8427000000000
  0
ARC
  5
19B
100
AcDbEntity
  8
A1
  6
CONTINUOUS
 62
7
100
AcDbCircle
 10
62.73786315687278
 20
135.7612505469018
 30
0.000000000000000
 40
5.000000000000000
100
AcDbArc
 50
276.3876330000000
 51
349.1573000000001
  0
ARC
  5
19C
100
AcDbEntity
  8
A1
  6
CONTINUOUS
 62
7
100
AcDbCircle
 10
40.86584915687280
 20
135.7612505469018
 30
0.000000000000000
 40
5.000000000000000
100
AcDbArc
 50
190.8427000000000
 51
263.4342910000000
  0
ARC
  5
19D
100
AcDbEntity
  8
A1
  6
CONTINUOUS
 62
7
100
AcDbCircle
 10
-63.78635584312724
 20
159.9947735469018
 30
0.000000000000000
 40
133.8240730000000
100
AcDbArc
 50
349.1573000000001
 51
372.2829250000000
  0
ARC
  5
19E
100
AcDbEntity
  8
A1
  6
CONTINUOUS
 62
7
100
AcDbCircle
 10
64.23107715687274
 20
187.2501405469018
 30
0.000000000000000
 40
3.000000000000000
100
AcDbArc
 50
23.87509900000000
 51
90.00000000000000
  0
ARC
  5
19F
100
AcDbEntity
  8
A1
  6
CONTINUOUS
 62
7
100
AcDbCircle
 10
63.41703615687277
 20
186.2501405469018
 30
0.000000000000000
 40
1.000000000000000
100
AcDbArc
 50
31.84564500000000
 51
90.00000000000000
  0
ARC
  5
1A0
100
AcDbEntity
  8
A1
  6
CONTINUOUS
 62
7
100
AcDbCircle
 10
-63.78331184312722
 20
159.9939735469018
 30
0.000000000000000
 40
130.8209330000000
100
AcDbArc
 50
349.1985190000000
 51
371.8141200000001
  0
ARC
  5
1A1
100
AcDbEntity
  8
A1
  6
CONTINUOUS
 62
7
100
AcDbCircle
 10
40.18667515687275
 20
186.2501405469018
 30
0.000000000000000
 40
1.000000000000000
100
AcDbArc
 50
90.00000000000000
 51
148.1451930000000
  0
ARC
  5
1A2
100
AcDbEntity
  8
A1
  6
CONTINUOUS
 62
7
100
AcDbCircle
 10
167.3870241568728
 20
159.9939735469018
 30
0.000000000000000
 40
130.8209330000000
100
AcDbArc
 50
168.1858800000000
 51
190.8014810000000
  0
LINE
  5
1A3
100
AcDbEntity
  8
A1
  6
CONTINUOUS
 62
7
100
AcDbLine
 10
40.18667515687275
 20
187.2501405469018
 30
0.000000000000000
 11
63.41703615687277
 21
187.2501405469018
 31
0.000000000000000
  0
LINE
  5
1A4
100
AcDbEntity
  8
A1
  6
CONTINUOUS
 62
7
100
AcDbLine
 10
64.23107715687274
 20
190.2501405469018
 30
0.000000000000000
 11
39.37263515687278
 21
190.2501405469018
 31
0.000000000000000
  0
LINE
  5
1A5
100
AcDbEntity
  8
A4
  6
CENTER
 62
1
100
AcDbLine
 10
51.79413615687276
 20
65.08935786038832
 30
0.000000000000000
 11
51.79413615687276
 21
46.04393562104502
 31
0.000000000000000
  0
LINE
  5
1A6
100
AcDbEntity
  8
A4
  6
CENTER
 62
1
100
AcDbLine
 10
265.7709927549952
 20
110.2252465469018
 30
0.000000000000000
 11
257.5709927549951
 21
110.2252465469018
 31
0.000000000000000
  0
LINE
  5
1A7
100
AcDbEntity
  8
A4
  6
CENTER
 62
1
100
AcDbLine
 10
265.7709927549952
 20
124.2252465469018
 30
0.000000000000000
 11
257.5709927549951
 21
124.2252465469018
 31
0.000000000000000
  0
LINE
  5
1A8
100
AcDbEntity
  8
A4
  6
CENTER
 62
1
100
AcDbLine
 10
155.3855736216657
 20
131.9252465469018
 30
0.000000000000000
 11
147.6855736216657
 21
131.9252465469018
 31
0.000000000000000
  0
LINE
  5
1A9
100
AcDbEntity
  8
A4
  6
CENTER
 62
1
100
AcDbLine
 10
151.5355736216657
 20
128.0752465469018
 30
0.000000000000000
 11
151.5355736216657
 21
133.7612505469018
 31
0.000000000000000
  0
LINE
  5
1AA
100
AcDbEntity
  8
A4
  6
CENTER
 62
1
100
AcDbLine
 10
154.5355736216657
 20
188.7501405469018
 30
0.000000000000000
 11
148.5355736216657
 21
188.7501405469018
 31
0.000000000000000
  0
LINE
  5
1AB
100
AcDbEntity
  8
A4
  6
CENTER
 62
1
100
AcDbLine
 10
151.5355736216657
 20
191.7501405469018
 30
0.000000000000000
 11
151.5355736216657
 21
187.2501405469018
 31
0.000000000000000
  0
LINE
  5
1AC
100
AcDbEntity
  8
A4
  6
CENTER
 62
1
100
AcDbLine
 10
265.7709927549952
 20
138.2252465469018
 30
0.000000000000000
 11
257.5709927549951
 21
138.2252465469018
 31
0.000000000000000
  0
LINE
  5
1AD
100
AcDbEntity
  8
A4
  6
CENTER
 62
1
100
AcDbLine
 10
51.79413615687275
 20
242.3057470804934
 30
0.000000000000000
 11
51.79413615687275
 21
260.6481112369632
 31
0.000000000000000
  0
LINE
  5
1AE
100
AcDbEntity
  8
A1
  6
CONTINUOUS
 62
7
100
AcDbLine
 10
43.29413615687270
 20
156.9252465469017
 30
0.000000000000000
 11
40.29413615687272
 21
161.9252465469017
 31
0.000000000000000
  0
LINE
  5
1AF
100
AcDbEntity
  8
A1
  6
CONTINUOUS
 62
7
100
AcDbLine
 10
61.29413615687278
 20
156.9252465469018
 30
0.000000000000000
 11
63.29413615687278
 21
161.9252465469018
 31
0.000000000000000
  0
LINE
  5
1B0
100
AcDbEntity
  8
A1
  6
CONTINUOUS
 62
7
100
AcDbLine
 10
63.29413615687271
 20
158.7280225469017
 30
0.000000000000000
 11
63.23062715687270
 21
156.9252465469017
 31
0.000000000000000
  0
LINE
  5
1B1
100
AcDbEntity
  8
A4
  6
CENTER
 62
1
100
AcDbLine
 10
242.0157538640495
 20
188.7501405469018
 30
0.000000000000000
 11
280.7455504739478
 21
188.7501405469018
 31
0.000000000000000
  0
LINE
  5
1B2
100
AcDbEntity
  8
A4
  6
CENTER
 62
1
100
AcDbLine
 10
38.67123515687274
 20
250.8057470804934
 30
0.000000000000000
 11
64.90159615687276
 21
250.8057470804934
 31
0.000000000000000
  0
LINE
  5
1B3
100
AcDbEntity
  8
A4
  6
CENTER
 62
1
100
AcDbLine
 10
32.13889726592714
 20
250.8057470804934
 30
0.000000000000000
 11
39.54175615687274
 21
250.8057470804934
 31
0.000000000000000
  0
LINE
  5
1B4
100
AcDbEntity
  8
A4
  6
CENTER
 62
1
100
AcDbLine
 10
64.03107615687276
 20
250.8057470804934
 30
0.000000000000000
 11
70.86869387582544
 21
250.8057470804934
 31
0.000000000000000
  0
LINE
  5
1B5
100
AcDbEntity
  8
A4
  6
CENTER
 62
1
100
AcDbLine
 10
51.79413615687275
 20
99.48284518910359
 30
0.000000000000000
 11
51.79413615687275
 21
191.7501405469018
 31
0.000000000000000
  0
LINE
  5
1B6
100
AcDbEntity
  8
A1
  6
CONTINUOUS
 62
7
100
AcDbLine
 10
40.29413615687276
 20
158.7280225469018
 30
0.000000000000000
 11
40.35764515687277
 21
156.9252465469018
 31
0.000000000000000
  0
LINE
  5
1B7
100
AcDbEntity
  8
A1
  6
CONTINUOUS
 62
7
100
AcDbLine
 10
40.29413615687275
 20
160.9252465469018
 30
0.000000000000000
 11
40.29413615687275
 21
158.7280225469018
 31
0.000000000000000
  0
LINE
  5
1B8
100
AcDbEntity
  8
A1
  6
CONTINUOUS
 62
7
100
AcDbLine
 10
40.35764515687276
 20
156.9252465469018
 30
0.000000000000000
 11
40.35764515687276
 21
155.9296565469018
 31
0.000000000000000
  0
ELLIPSE
  5
1B9
100
AcDbEntity
  8
A1
  6
CONTINUOUS
 62
7
100
AcDbEllipse
 10
42.29413615687275
 20
155.4897775469018
 30
0.000000000000000
 11
-2.000000000000000
 21
0.000000000000000
 31
0.000000000000000
210
0.000000000000000
220
0.000000000000000
230
1.000000000000000
 40
0.8797590000000001
 41
6.030505052037509
 42
0.000000000000000
  0
LINE
  5
1BA
100
AcDbEntity
  8
A1
  6
CONTINUOUS
 62
7
100
AcDbLine
 10
40.29413615687275
 20
155.4897775469018
 30
0.000000000000000
 11
40.29413615687275
 21
124.4252465469018
 31
0.000000000000000
  0
LINE
  5
1BB
100
AcDbEntity
  8
A4
  6
CENTER
 62
1
100
AcDbLine
 10
261.6709927549952
 20
99.48284518910359
 30
0.000000000000000
 11
261.6709927549952
 21
191.7501405469018
 31
0.000000000000000
  0
ARC
  5
1BC
100
AcDbEntity
  8
A1
  6
CONTINUOUS
 62
7
100
AcDbCircle
 10
51.84452120897242
 20
46.96681929841843
 30
0.000000000000000
 40
13.44711632262654
100
AcDbArc
 50
45.35401705419957
 51
135.2526611777827
  0
ARC
  5
1BD
100
AcDbEntity
  8
A1
  6
CONTINUOUS
 62
7
100
AcDbCircle
 10
51.79413615687278
 20
47.47669821971844
 30
0.000000000000000
 40
14.06723740132654
100
AcDbArc
 50
47.52036966417158
 51
132.4796303358284
  0
ARC
  5
1BE
100
AcDbEntity
  8
A1
  6
CONTINUOUS
 62
7
100
AcDbCircle
 10
261.6709927549952
 20
110.0993206209758
 30
0.000000000000000
 40
9.174074074074014
100
AcDbArc
 50
224.8855067305886
 51
315.1144932694115
  0
ARC
  5
1BF
100
AcDbEntity
  8
A1
  6
CONTINUOUS
 62
7
100
AcDbCircle
 10
51.79413615687270
 20
111.9045014570535
 30
0.000000000000000
 40
9.550460910151685
100
AcDbArc
 50
185.8924297025428
 51
354.1075702974605
  0
ARC
  5
1C0
100
AcDbEntity
  8
A1
  6
CONTINUOUS
 62
7
100
AcDbCircle
 10
51.79413615687275
 20
110.9374672453523
 30
0.000000000000000
 40
9.573426698450533
100
AcDbArc
 50
187.1008263916961
 51
352.8991736083040
  0
LINE
  5
1C1
100
AcDbEntity
  8
A4
  6
CENTER
 62
1
100
AcDbLine
 10
32.48992698923442
 20
188.7501405469018
 30
0.000000000000000
 11
71.33430370021978
 21
188.7501405469018
 31
0.000000000000000
  0
LINE
  5
1C2
100
AcDbEntity
  8
A4
  6
CENTER
 62
1
100
AcDbLine
 10
39.58577315687279
 20
131.9252465470344
 30
0.000000000000000
 11
65.58577315699830
 21
131.9252465470344
 31
0.000000000000000
  0
LINE
  5
1C3
100
AcDbEntity
  8
A4
  6
CENTER
 62
1
100
AcDbLine
 10
248.2445237937465
 20
131.9252465469453
 30
0.000000000000000
 11
275.6118577162819
 21
131.9252465469453
 31
0.000000000000000
  0
LINE
  5
1C4
100
AcDbEntity
  8
A4
  6
CENTER
 62
1
100
AcDbLine
 10
155.2355736216768
 20
110.2252465469255
 30
0.000000000000000
 11
160.2355736216657
 21
110.2252465469255
 31
0.000000000000000
  0
LINE
  5
1C5
100
AcDbEntity
  8
A4
  6
CENTER
 62
1
100
AcDbLine
 10
155.2355736216768
 20
124.1252465469108
 30
0.000000000000000
 11
160.2355736216657
 21
124.1252465469108
 31
0.000000000000000
  0
LINE
  5
1C6
100
AcDbEntity
  8
A4
  6
CENTER
 62
1
100
AcDbLine
 10
155.2355736216768
 20
138.2252465468974
 30
0.000000000000000
 11
160.2355736216657
 21
138.2252465468974
 31
0.000000000000000
  0
LINE
  5
1C7
100
AcDbEntity
  8
A4
  6
CENTER
 62
1
100
AcDbLine
 10
32.13889726592714
 20
54.74393562104502
 30
0.000000000000000
 11
70.86869387582544
 21
54.74393562104502
 31
0.000000000000000
  0
ENDSEC
  0
SECTION
  2
OBJECTS
  0
DICTIONARY
  5
1F6
100
AcDbDictionary
  3
ACAD_GROUP
350
1F7
  3
ACAD_LAYOUT
350
1F8
  3
ACAD_MLINESTYLE
350
1F9
  0
DICTIONARY
  5
1F7
102
{ACAD_REACTORS
330
1F6
102
}
330
1F6
100
AcDbDictionary
  0
DICTIONARY
  5
1F8
102
{ACAD_REACTORS
330
1F6
102
}
330
1F6
100
AcDbDictionary
  3
Model
350
1FA
  3
ﾚｲｱｳﾄ1
350
1FB
  3
ﾚｲｱｳﾄ2
350
1FC
  0
DICTIONARY
  5
1F9
102
{ACAD_REACTORS
330
1F6
102
}
330
1F6
100
AcDbDictionary
  3
STANDARD
350
1FD
  0
LAYOUT
  5
1FA
102
{ACAD_REACTORS
330
1F8
102
}
330
1F8
100
AcDbPlotSettings
 70
11952
  4
A3
 44
297.000000
 45
420.000000
 73
  1
 72
  1
100
AcDbLayout
  1
Model
 71
0
330
1ED
  0
LAYOUT
  5
1FB
102
{ACAD_REACTORS
330
1F8
102
}
330
1F8
100
AcDbPlotSettings
100
AcDbLayout
  1
ﾚｲｱｳﾄ1
 71
1
330
1EE
  0
LAYOUT
  5
1FC
102
{ACAD_REACTORS
330
1F8
102
}
330
1F8
100
AcDbPlotSettings
100
AcDbLayout
  1
ﾚｲｱｳﾄ2
 71
2
330
1EF
  0
MLINESTYLE
  5
1FD
102
{ACAD_REACTORS
330
1F9
102
}
330
1F9
100
AcDbMlineStyle
  2
STANDARD
 70
     0
  3

 62
   256
 51
90.00
 52
90.00
 71
     2
 49
0.50
 62
   256
  6
BYLAYER
 49
-0.50
 62
   256
  6
BYLAYER
  0
ENDSEC
  0
EOF
