  0
SECTION
  2
HEADER
  9
$ACADVER
  1
AC1032
  9
$DWGCODEPAGE
  3
ANSI_932
  9
$LTSCALE
 40
20.0
  9
$FILLMODE
 70
     1
  9
$CLAYER
  8
0
  9
$PDMODE
 70
     0
  9
$SPLFRAME
 70
     0
  9
$SPLINETYPE
 70
     6
  9
$SPLINESEGS
 70
     8
  9
$DIMASZ
 40
2.000000
  9
$DIMEXE
 40
1.500000
  9
$DIMEXO
 40
0.800000
  9
$DIMTAD
 70
     1
  9
$DIMTIH
 70
     0
  9
$DIMTOH
 70
     0
  9
$DIMTVP
 40
0.500000
  9
$DIMTXT
 40
3.100000
  9
$EXTMIN
 10
0.000000
 20
0.000000
 30
0.000000
  9
$EXTMAX
 10
297.000000
 20
420.000000
 30
0.000000
  9
$MEASUREMENT
 70
  1
  9
$LIMMIN
 10
0.000000
 20
0.000000
  9
$LIMMAX
 10
297.000000
 20
420.000000
  9
$HANDSEED
  5
268
  9
$LWDISPLAY
290
     0
  9
$DIMBLK
  1
_OPEN
  9
$DIMDEC
 70
     2
  9
$DIMADEC
 70
     2
  9
$DIMAUNIT
 70
     0
  9
$DIMZIN
 70
     8
  9
$DIMAZIN
 70
     2
  9
$DIMTOFL
 70
     1
  0
ENDSEC
  0
SECTION
  2
CLASSES
  0
ENDSEC
  0
SECTION
  2
TABLES
  0
TABLE
  2
VPORT
  5
232
100
AcDbSymbolTable
 70
     1
  0
VPORT
  5
233
100
AcDbSymbolTableRecord
100
AcDbViewportTableRecord
  2
*ACTIVE
 70
     0
 12
95.751503
 22
125.597973
 40
215.195945
 41
0.796962
  0
ENDTAB
  0
TABLE
  2
LTYPE
  5
234
100
AcDbSymbolTable
 70
     2
  0
LTYPE
  5
235
100
AcDbSymbolTableRecord
100
AcDbLinetypeTableRecord
  2
BYBLOCK
 70
     0
  3

 72
    65
 73
     0
 40
0.0
  0
LTYPE
  5
236
100
AcDbSymbolTableRecord
100
AcDbLinetypeTableRecord
  2
BYLAYER
 70
     0
  3

 72
    65
 73
     0
 40
0.0
  0
LTYPE
  5
237
100
AcDbSymbolTableRecord
100
AcDbLinetypeTableRecord
  2
CONTINUOUS
 70
     0
  3
Solid line (NEC CAE2D for Win R18.0 : 2026.01.30)
 72
    65
 73
     0
 40
0.0
  0
LTYPE
  5
238
100
AcDbSymbolTableRecord
100
AcDbLinetypeTableRecord
  2
CENTER
 70
     0
  3
____ _ ____ _ ____ _ ____ _ ____ _ ____
 72
    65
 73
     4
 40
2.0
 49
1.25
 74
     0
 49
-0.25
 74
     0
 49
0.25
 74
     0
 49
-0.25
 74
     0
  0
ENDTAB
  0
TABLE
  2
LAYER
  5
239
100
AcDbSymbolTable
 70
    16
  0
LAYER
  5
23A
100
AcDbSymbolTableRecord
100
AcDbLayerTableRecord
  2
0
 70
     0
 62
     7
  6
CONTINUOUS
370
    -3
390

  0
LAYER
  5
23B
100
AcDbSymbolTableRecord
100
AcDbLayerTableRecord
  2
A0
 70
     0
 62
     9
  6
CONTINUOUS
370
    -3
390

  0
LAYER
  5
23C
100
AcDbSymbolTableRecord
100
AcDbLayerTableRecord
  2
A1
 70
     0
 62
    12
  6
CONTINUOUS
370
    -3
390

  0
LAYER
  5
23D
100
AcDbSymbolTableRecord
100
AcDbLayerTableRecord
  2
A2
 70
     0
 62
     9
  6
CONTINUOUS
370
    -3
390

  0
LAYER
  5
23E
100
AcDbSymbolTableRecord
100
AcDbLayerTableRecord
  2
A4
 70
     0
 62
     9
  6
CONTINUOUS
370
    -3
390

  0
LAYER
  5
23F
100
AcDbSymbolTableRecord
100
AcDbLayerTableRecord
  2
A5
 70
     0
 62
     8
  6
CONTINUOUS
370
    -3
390

  0
LAYER
  5
240
100
AcDbSymbolTableRecord
100
AcDbLayerTableRecord
  2
A6
 70
     0
 62
    12
  6
CONTINUOUS
370
    -3
390

  0
LAYER
  5
241
100
AcDbSymbolTableRecord
100
AcDbLayerTableRecord
  2
A7
 70
     0
 62
    12
  6
CONTINUOUS
370
    -3
390

  0
LAYER
  5
242
100
AcDbSymbolTableRecord
100
AcDbLayerTableRecord
  2
A8
 70
     0
 62
    10
  6
CONTINUOUS
370
    -3
390

  0
LAYER
  5
243
100
AcDbSymbolTableRecord
100
AcDbLayerTableRecord
  2
A9
 70
     0
 62
     9
  6
CONTINUOUS
370
    -3
390

  0
LAYER
  5
244
100
AcDbSymbolTableRecord
100
AcDbLayerTableRecord
  2
A10
 70
     0
 62
     6
  6
CONTINUOUS
370
    -3
390

  0
LAYER
  5
245
100
AcDbSymbolTableRecord
100
AcDbLayerTableRecord
  2
A20
 70
     0
 62
     1
  6
CONTINUOUS
370
    -3
390

  0
LAYER
  5
246
100
AcDbSymbolTableRecord
100
AcDbLayerTableRecord
  2
A30
 70
     0
 62
     1
  6
CONTINUOUS
370
    -3
390

  0
LAYER
  5
247
100
AcDbSymbolTableRecord
100
AcDbLayerTableRecord
  2
A40
 70
     0
 62
     9
  6
CONTINUOUS
370
    -3
390

  0
LAYER
  5
248
100
AcDbSymbolTableRecord
100
AcDbLayerTableRecord
  2
A50
 70
     0
 62
    12
  6
CONTINUOUS
370
    -3
390

  0
LAYER
  5
249
100
AcDbSymbolTableRecord
100
AcDbLayerTableRecord
  2
A1023
 70
     0
 62
    16
  6
CONTINUOUS
370
    -3
390

  0
ENDTAB
  0
TABLE
  2
STYLE
  5
24A
100
AcDbSymbolTable
 70
     4
  0
STYLE
  5
24B
100
AcDbSymbolTableRecord
100
AcDbTextStyleTableRecord
  2
STANDARD
 70
    64
 40
0.0
 41
1.0
 50
0.0
 71
     0
 42
3.000000000000000
  3
TXT
  4

  0
STYLE
  5
24C
100
AcDbSymbolTableRecord
100
AcDbTextStyleTableRecord
  2
ANKTATE
 70
    68
 40
0.0
 41
1.0
 50
0.0
 71
     0
 42
3.000000000000000
  3
TXT
  4

  0
STYLE
  5
24D
100
AcDbSymbolTableRecord
100
AcDbTextStyleTableRecord
  2
KNJYOKO
 70
    64
 40
0.0
 41
1.0
 50
0.0
 71
     0
 42
3.000000000000000
  3
TXT
  4
BIGFONT
  0
STYLE
  5
24E
100
AcDbSymbolTableRecord
100
AcDbTextStyleTableRecord
  2
KNJTATE
 70
    68
 40
0.0
 41
1.0
 50
0.0
 71
     0
 42
3.000000000000000
  3
TXT
  4
BIGFONT
  0
ENDTAB
  0
TABLE
  2
VIEW
  5
24F
100
AcDbSymbolTable
 70
     0
  0
ENDTAB
  0
TABLE
  2
UCS
  5
250
100
AcDbSymbolTable
 70
     0
  0
ENDTAB
  0
TABLE
  2
APPID
  5
251
100
AcDbSymbolTable
 70
     1
  0
APPID
  5
252
100
AcDbSymbolTableRecord
100
AcDbRegAppTableRecord
  2
ACAD
 70
     0
  0
ENDTAB
  0
TABLE
  2
DIMSTYLE
  5
253
100
AcDbSymbolTable
 70
     2
100
AcDbDimStyleTable
  0
DIMSTYLE
105
254
100
AcDbSymbolTableRecord
100
AcDbDimStyleTableRecord
  2
STANDARD
 70
     0
 41
2.000000
 44
1.500000
 42
0.800000
145
0.661290
140
3.100000
144
1.000000
146
0.645161
340
24B
  0
DIMSTYLE
105
255
100
AcDbSymbolTableRecord
100
AcDbDimStyleTableRecord
  2
A001
 70
     0
 41
2.000000
 44
1.500000
 42
0.800000
145
0.661290
140
3.100000
144
1.000000
146
0.645161
 77
     1
 73
     0
 74
     0
271
     2
179
     2
275
     0
 78
     8
 79
     2
172
     1
340
24B
  0
ENDTAB
  0
TABLE
  2
BLOCK_RECORD
  5
256
100
AcDbSymbolTable
 70
    12
  0
BLOCK_RECORD
  5
257
100
AcDbSymbolTableRecord
100
AcDbBlockTableRecord
  2
*MODEL_SPACE
  0
BLOCK_RECORD
  5
258
100
AcDbSymbolTableRecord
100
AcDbBlockTableRecord
  2
*PAPER_SPACE
  0
BLOCK_RECORD
  5
259
100
AcDbSymbolTableRecord
100
AcDbBlockTableRecord
  2
*PAPER_SPACE0
  0
BLOCK_RECORD
  5
1
100
AcDbSymbolTableRecord
100
AcDbBlockTableRecord
  2
_NONE
  0
BLOCK_RECORD
  5
4
100
AcDbSymbolTableRecord
100
AcDbBlockTableRecord
  2
_CLOSED
  0
BLOCK_RECORD
  5
B
100
AcDbSymbolTableRecord
100
AcDbBlockTableRecord
  2
_DOT
  0
BLOCK_RECORD
  5
13
100
AcDbSymbolTableRecord
100
AcDbBlockTableRecord
  2
_OPEN
  0
BLOCK_RECORD
  5
19
100
AcDbSymbolTableRecord
100
AcDbBlockTableRecord
  2
_ORIGIN
  0
BLOCK_RECORD
  5
1E
100
AcDbSymbolTableRecord
100
AcDbBlockTableRecord
  2
_OPEN30
  0
BLOCK_RECORD
  5
24
100
AcDbSymbolTableRecord
100
AcDbBlockTableRecord
  2
_BOXFILLED
  0
BLOCK_RECORD
  5
29
100
AcDbSymbolTableRecord
100
AcDbBlockTableRecord
  2
_BOXBLANK
  0
BLOCK_RECORD
  5
31
100
AcDbSymbolTableRecord
100
AcDbBlockTableRecord
  2
_OBLIQUE
  0
BLOCK_RECORD
  5
35
100
AcDbSymbolTableRecord
100
AcDbBlockTableRecord
  2
_OPEN90
  0
BLOCK_RECORD
  5
3B
100
AcDbSymbolTableRecord
100
AcDbBlockTableRecord
  2
_CLOSEDBLANK
  0
BLOCK_RECORD
  5
41
100
AcDbSymbolTableRecord
100
AcDbBlockTableRecord
  2
_DOTBLANK
  0
ENDTAB
  0
ENDSEC
  0
SECTION
  2
BLOCKS
  0
BLOCK
  5
25A
100
AcDbEntity
  8
0
100
AcDbBlockBegin
  2
*MODEL_SPACE
 70
     0
 10
0.0
 20
0.0
 30
0.0
  3
*MODEL_SPACE
  1

  0
ENDBLK
  5
25B
100
AcDbEntity
  8
0
100
AcDbBlockEnd
  0
BLOCK
  5
25C
100
AcDbEntity
  8
0
100
AcDbBlockBegin
  2
*PAPER_SPACE
 70
     0
 10
0.0
 20
0.0
 30
0.0
  3
*PAPER_SPACE
  1

  0
ENDBLK
  5
25D
100
AcDbEntity
  8
0
100
AcDbBlockEnd
  0
BLOCK
  5
25E
100
AcDbEntity
  8
0
100
AcDbBlockBegin
  2
*PAPER_SPACE0
 70
     0
 10
0.0
 20
0.0
 30
0.0
  3
*PAPER_SPACE0
  1

  0
ENDBLK
  5
25F
100
AcDbEntity
  8
0
100
AcDbBlockEnd
  0
BLOCK
  5
2
330
1
100
AcDbEntity
  8
0
100
AcDbBlockBegin
  2
_NONE
 70
     0
 10
0.0
 20
0.0
 30
0.0
  3
_NONE
  1

  0
ENDBLK
  5
3
330
1
100
AcDbEntity
  8
0
100
AcDbBlockEnd
  0
BLOCK
  5
5
330
4
100
AcDbEntity
  8
0
100
AcDbBlockBegin
  2
_CLOSED
 70
     0
 10
0.0
 20
0.0
 30
0.0
  3
_CLOSED
  1

  0
LINE
  5
6
330
4
100
AcDbEntity
  8
0
  6
BYBLOCK
 62
     0
370
    -2
100
AcDbLine
 10
-1.0
 20
0.166667
 30
0.0
 11
0.0
 21
0.0
 31
0.0
  0
LINE
  5
7
330
4
100
AcDbEntity
  8
0
  6
BYBLOCK
 62
     0
370
    -2
100
AcDbLine
 10
0.0
 20
0.0
 30
0.0
 11
-1.0
 21
-0.166667
 31
0.0
  0
LINE
  5
8
330
4
100
AcDbEntity
  8
0
  6
BYBLOCK
 62
     0
370
    -2
100
AcDbLine
 10
-1.0
 20
0.166667
 30
0.0
 11
-1.0
 21
-0.166667
 31
0.0
  0
LINE
  5
9
330
4
100
AcDbEntity
  8
0
  6
BYBLOCK
 62
     0
370
    -2
100
AcDbLine
 10
0.0
 20
0.0
 30
0.0
 11
-1.0
 21
0.0
 31
0.0
  0
ENDBLK
  5
A
330
4
100
AcDbEntity
  8
0
100
AcDbBlockEnd
  0
BLOCK
  5
C
330
B
100
AcDbEntity
  8
0
100
AcDbBlockBegin
  2
_DOT
 70
     0
 10
0.0
 20
0.0
 30
0.0
  3
_DOT
  1

  0
POLYLINE
  5
D
330
B
100
AcDbEntity
  8
0
  6
BYBLOCK
 62
     0
370
    -2
100
AcDb2dPolyline
 66
     1
 10
0.0
 20
0.0
 30
0.0
 70
     1
 40
0.5
 41
0.5
  0
VERTEX
  5
E
330
B
100
AcDbEntity
  8
0
  6
BYBLOCK
 62
     0
370
    -2
100
AcDbVertex
100
AcDb2dVertex
 10
-0.25
 20
0.0
 30
0.0
 42
1.0
  0
VERTEX
  5
F
330
B
100
AcDbEntity
  8
0
  6
BYBLOCK
 62
     0
370
    -2
100
AcDbVertex
100
AcDb2dVertex
 10
0.25
 20
0.0
 30
0.0
 42
1.0
  0
SEQEND
  5
10
330
B
100
AcDbEntity
  8
0
  6
BYBLOCK
 62
     0
370
    -2
  0
LINE
  5
11
330
B
100
AcDbEntity
  8
0
  6
BYBLOCK
 62
     0
370
    -2
100
AcDbLine
 10
-0.5
 20
0.0
 30
0.0
 11
-1.0
 21
0.0
 31
0.0
  0
ENDBLK
  5
12
330
B
100
AcDbEntity
  8
0
100
AcDbBlockEnd
  0
BLOCK
  5
14
330
13
100
AcDbEntity
  8
0
100
AcDbBlockBegin
  2
_OPEN
 70
     0
 10
0.0
 20
0.0
 30
0.0
  3
_OPEN
  1

  0
LINE
  5
15
330
13
100
AcDbEntity
  8
0
  6
BYBLOCK
 62
     0
370
    -2
100
AcDbLine
 10
-1.0
 20
0.166667
 30
0.0
 11
0.0
 21
0.0
 31
0.0
  0
LINE
  5
16
330
13
100
AcDbEntity
  8
0
  6
BYBLOCK
 62
     0
370
    -2
100
AcDbLine
 10
0.0
 20
0.0
 30
0.0
 11
-1.0
 21
-0.166667
 31
0.0
  0
LINE
  5
17
330
13
100
AcDbEntity
  8
0
  6
BYBLOCK
 62
     0
370
    -2
100
AcDbLine
 10
0.0
 20
0.0
 30
0.0
 11
-1.0
 21
0.0
 31
0.0
  0
ENDBLK
  5
18
330
13
100
AcDbEntity
  8
0
100
AcDbBlockEnd
  0
BLOCK
  5
1A
330
19
100
AcDbEntity
  8
0
100
AcDbBlockBegin
  2
_ORIGIN
 70
     0
 10
0.0
 20
0.0
 30
0.0
  3
_ORIGIN
  1

  0
CIRCLE
  5
1B
330
19
100
AcDbEntity
  8
0
  6
BYBLOCK
 62
     0
370
    -2
100
AcDbCircle
 10
0.0
 20
0.0
 30
0.0
 40
0.5
  0
LINE
  5
1C
330
19
100
AcDbEntity
  8
0
  6
BYBLOCK
 62
     0
370
    -2
100
AcDbLine
 10
0.0
 20
0.0
 30
0.0
 11
-1.0
 21
0.0
 31
0.0
  0
ENDBLK
  5
1D
330
19
100
AcDbEntity
  8
0
100
AcDbBlockEnd
  0
BLOCK
  5
1F
330
1E
100
AcDbEntity
  8
0
100
AcDbBlockBegin
  2
_OPEN30
 70
     0
 10
0.0
 20
0.0
 30
0.0
  3
_OPEN30
  1

  0
LINE
  5
20
330
1E
100
AcDbEntity
  8
0
  6
BYBLOCK
 62
     0
370
    -2
100
AcDbLine
 10
-1.0
 20
0.267949
 30
0.0
 11
0.0
 21
0.0
 31
0.0
  0
LINE
  5
21
330
1E
100
AcDbEntity
  8
0
  6
BYBLOCK
 62
     0
370
    -2
100
AcDbLine
 10
0.0
 20
0.0
 30
0.0
 11
-1.0
 21
-0.267949
 31
0.0
  0
LINE
  5
22
330
1E
100
AcDbEntity
  8
0
  6
BYBLOCK
 62
     0
370
    -2
100
AcDbLine
 10
0.0
 20
0.0
 30
0.0
 11
-1.0
 21
0.0
 31
0.0
  0
ENDBLK
  5
23
330
1E
100
AcDbEntity
  8
0
100
AcDbBlockEnd
  0
BLOCK
  5
25
330
24
100
AcDbEntity
  8
0
100
AcDbBlockBegin
  2
_BOXFILLED
 70
     0
 10
0.0
 20
0.0
 30
0.0
  3
_BOXFILLED
  1

  0
SOLID
  5
26
330
24
100
AcDbEntity
  8
0
  6
BYBLOCK
 62
     0
370
    -2
100
AcDbTrace
 10
-0.5
 20
0.5
 30
0.0
 11
0.5
 21
0.5
 31
0.0
 12
-0.5
 22
-0.5
 32
0.0
 13
0.5
 23
-0.5
 33
0.0
  0
LINE
  5
27
330
24
100
AcDbEntity
  8
0
  6
BYBLOCK
 62
     0
370
    -2
100
AcDbLine
 10
-0.5
 20
0.0
 30
0.0
 11
-1.0
 21
0.0
 31
0.0
  0
ENDBLK
  5
28
330
24
100
AcDbEntity
  8
0
100
AcDbBlockEnd
  0
BLOCK
  5
2A
330
29
100
AcDbEntity
  8
0
100
AcDbBlockBegin
  2
_BOXBLANK
 70
     0
 10
0.0
 20
0.0
 30
0.0
  3
_BOXBLANK
  1

  0
LINE
  5
2B
330
29
100
AcDbEntity
  8
0
  6
BYBLOCK
 62
     0
370
    -2
100
AcDbLine
 10
-0.5
 20
-0.5
 30
0.0
 11
0.5
 21
-0.5
 31
0.0
  0
LINE
  5
2C
330
29
100
AcDbEntity
  8
0
  6
BYBLOCK
 62
     0
370
    -2
100
AcDbLine
 10
0.5
 20
-0.5
 30
0.0
 11
0.5
 21
0.5
 31
0.0
  0
LINE
  5
2D
330
29
100
AcDbEntity
  8
0
  6
BYBLOCK
 62
     0
370
    -2
100
AcDbLine
 10
0.5
 20
0.5
 30
0.0
 11
-0.5
 21
0.5
 31
0.0
  0
LINE
  5
2E
330
29
100
AcDbEntity
  8
0
  6
BYBLOCK
 62
     0
370
    -2
100
AcDbLine
 10
-0.5
 20
0.5
 30
0.0
 11
-0.5
 21
-0.5
 31
0.0
  0
LINE
  5
2F
330
29
100
AcDbEntity
  8
0
  6
BYBLOCK
 62
     0
370
    -2
100
AcDbLine
 10
-0.5
 20
0.0
 30
0.0
 11
-1.0
 21
0.0
 31
0.0
  0
ENDBLK
  5
30
330
29
100
AcDbEntity
  8
0
100
AcDbBlockEnd
  0
BLOCK
  5
32
330
31
100
AcDbEntity
  8
0
100
AcDbBlockBegin
  2
_OBLIQUE
 70
     0
 10
0.0
 20
0.0
 30
0.0
  3
_OBLIQUE
  1

  0
LINE
  5
33
330
31
100
AcDbEntity
  8
0
  6
BYBLOCK
 62
     0
370
    -2
100
AcDbLine
 10
-0.5
 20
-0.5
 30
0.0
 11
0.5
 21
0.5
 31
0.0
  0
ENDBLK
  5
34
330
31
100
AcDbEntity
  8
0
100
AcDbBlockEnd
  0
BLOCK
  5
36
330
35
100
AcDbEntity
  8
0
100
AcDbBlockBegin
  2
_OPEN90
 70
     0
 10
0.0
 20
0.0
 30
0.0
  3
_OPEN90
  1

  0
LINE
  5
37
330
35
100
AcDbEntity
  8
0
  6
BYBLOCK
 62
     0
370
    -2
100
AcDbLine
 10
-0.5
 20
0.5
 30
0.0
 11
0.0
 21
0.0
 31
0.0
  0
LINE
  5
38
330
35
100
AcDbEntity
  8
0
  6
BYBLOCK
 62
     0
370
    -2
100
AcDbLine
 10
0.0
 20
0.0
 30
0.0
 11
-0.5
 21
-0.5
 31
0.0
  0
LINE
  5
39
330
35
100
AcDbEntity
  8
0
  6
BYBLOCK
 62
     0
370
    -2
100
AcDbLine
 10
0.0
 20
0.0
 30
0.0
 11
-1.0
 21
0.0
 31
0.0
  0
ENDBLK
  5
3A
330
35
100
AcDbEntity
  8
0
100
AcDbBlockEnd
  0
BLOCK
  5
3C
330
3B
100
AcDbEntity
  8
0
100
AcDbBlockBegin
  2
_CLOSEDBLANK
 70
     0
 10
0.0
 20
0.0
 30
0.0
  3
_CLOSEDBLANK
  1

  0
LINE
  5
3D
330
3B
100
AcDbEntity
  8
0
  6
BYBLOCK
 62
     0
370
    -2
100
AcDbLine
 10
-1.0
 20
0.1666666666666666
 30
0.0
 11
0.0
 21
0.0
 31
0.0
  0
LINE
  5
3E
330
3B
100
AcDbEntity
  8
0
  6
BYBLOCK
 62
     0
370
    -2
100
AcDbLine
 10
0.0
 20
0.0
 30
0.0
 11
-1.0
 21
-0.1666666666666666
 31
0.0
  0
LINE
  5
3F
330
3B
100
AcDbEntity
  8
0
  6
BYBLOCK
 62
     0
370
    -2
100
AcDbLine
 10
-1.0
 20
0.1666666666666666
 30
0.0
 11
-1.0
 21
-0.1666666666666666
 31
0.0
  0
ENDBLK
  5
40
330
3B
100
AcDbEntity
  8
0
100
AcDbBlockEnd
  0
BLOCK
  5
42
330
41
100
AcDbEntity
  8
0
100
AcDbBlockBegin
  2
_DOTBLANK
 70
     0
 10
0.0
 20
0.0
 30
0.0
  3
_DOTBLANK
  1

  0
CIRCLE
  5
43
330
41
100
AcDbEntity
  8
0
  6
BYBLOCK
 62
     0
370
    -2
100
AcDbCircle
 10
0.0
 20
0.0
 30
0.0
 40
0.5
  0
LINE
  5
44
330
41
100
AcDbEntity
  8
0
  6
BYBLOCK
 62
     0
370
    -2
100
AcDbLine
 10
-0.5
 20
0.0
 30
0.0
 11
-1.0
 21
0.0
 31
0.0
  0
ENDBLK
  5
45
330
41
100
AcDbEntity
  8
0
100
AcDbBlockEnd
  0
ENDSEC
  0
SECTION
  2
ENTITIES
  0
MTEXT
  5
46
100
AcDbEntity
  8
A8
  6
CONTINUOUS
 62
3
100
AcDbMText
 10
9.999997526638502
 20
18.00000076076889
 30
0.000000000000000
 40
3.000000000000000
 41
0.000000000000000
 44
0.6739999771118164
 71
     7
 72
     1
  1
{\H0.94x;{TYPE No.TL-448SUS-2}}
 11
1.000000000000000
 21
0.000000000000000
 31
0.000000000000000
  7
STANDARD
  0
POINT
  5
47
100
AcDbEntity
  8
A0
  6
CONTINUOUS
 62
3
100
AcDbPoint
 10
9.999997526638502
 20
18.00000076076889
 30
0.000000000000000
  0
POINT
  5
48
100
AcDbEntity
  8
A10
  6
CONTINUOUS
 62
3
100
AcDbPoint
 10
50.00000000000000
 20
50.00000000000000
 30
0.000000000000000
  0
ARC
  5
49
100
AcDbEntity
  8
A1
  6
CONTINUOUS
 62
7
100
AcDbCircle
 10
97.67985323150450
 20
132.9133809493421
 30
0.000000000000000
 40
14.00000000000000
100
AcDbArc
 50
11.66750951765406
 51
43.38701203907448
  0
ARC
  5
4A
100
AcDbEntity
  8
A1
  6
CONTINUOUS
 62
7
100
AcDbCircle
 10
97.67985323150450
 20
132.9133809493421
 30
0.000000000000000
 40
15.50000000000000
100
AcDbArc
 50
6.822201599431211
 51
43.38701203907461
  0
ARC
  5
4B
100
AcDbEntity
  8
A1
  6
CONTINUOUS
 62
7
100
AcDbCircle
 10
108.9441744801951
 20
143.5606842138453
 30
0.000000000000000
 40
1.500000000000000
100
AcDbArc
 50
179.9999999999997
 51
223.3870120390763
  0
ARC
  5
4C
100
AcDbEntity
  8
A1
  6
CONTINUOUS
 62
7
100
AcDbCircle
 10
97.67955709219174
 20
132.9134144463073
 30
0.000000000000000
 40
15.50029006360340
100
AcDbArc
 50
340.2712079756520
 51
366.8219486236964
  0
ARC
  5
4D
100
AcDbEntity
  8
A1
  6
CONTINUOUS
 62
7
100
AcDbCircle
 10
97.67934733131997
 20
132.9134114012863
 30
0.000000000000000
 40
14.00048928936290
100
AcDbArc
 50
341.4436674835475
 51
371.6669687792688
  0
ARC
  5
4E
100
AcDbEntity
  8
A1
  6
CONTINUOUS
 62
7
100
AcDbCircle
 10
111.9441744801952
 20
165.1962285287871
 30
0.000000000000000
 40
3.000000000000000
100
AcDbArc
 50
89.99999999999970
 51
179.9999999999997
  0
ARC
  5
4F
100
AcDbEntity
  8
A1
  6
CONTINUOUS
 62
7
100
AcDbCircle
 10
111.9441744801952
 20
165.1962285287869
 30
0.000000000000000
 40
4.500000000000000
100
AcDbArc
 50
89.99999999999970
 51
131.8103148957783
  0
ARC
  5
50
100
AcDbEntity
  8
A1
  6
CONTINUOUS
 62
7
100
AcDbCircle
 10
110.9441744801952
 20
166.1962285287871
 30
0.000000000000000
 40
2.000000000000000
100
AcDbArc
 50
269.9999999999997
 51
359.9999999999997
  0
ARC
  5
51
100
AcDbEntity
  8
A1
  6
CONTINUOUS
 62
7
100
AcDbCircle
 10
115.4441744801951
 20
149.6962285287870
 30
0.000000000000000
 40
1.850000000000022
100
AcDbArc
 50
179.9999999999997
 51
417.2795566336275
  0
ARC
  5
52
100
AcDbEntity
  8
A1
  6
CONTINUOUS
 62
7
100
AcDbCircle
 10
115.4441744801951
 20
149.6962285287870
 30
0.000000000000000
 40
1.850000000000022
100
AcDbArc
 50
122.7204433663782
 51
179.9999999999997
  0
ARC
  5
53
100
AcDbEntity
  8
A1
  6
CONTINUOUS
 62
7
100
AcDbCircle
 10
113.9441744801952
 20
167.1962285287871
 30
0.000000000000000
 40
1.000000000000000
100
AcDbArc
 50
89.99999999999970
 51
179.9999999999997
  0
ARC
  5
54
100
AcDbEntity
  8
A1
  6
CONTINUOUS
 62
7
100
AcDbCircle
 10
115.9441744801951
 20
146.6962285287868
 30
0.000000000000000
 40
3.000000000000000
100
AcDbArc
 50
269.9999999999997
 51
359.9999999999997
  0
ARC
  5
55
100
AcDbEntity
  8
A1
  6
CONTINUOUS
 62
7
100
AcDbCircle
 10
108.9861345886455
 20
165.6962285287871
 30
0.000000000000000
 40
1.500000000000000
100
AcDbArc
 50
268.3970328155365
 51
269.9999999999997
  0
ARC
  5
56
100
AcDbEntity
  8
A1
  6
CONTINUOUS
 62
7
100
AcDbCircle
 10
115.2441744801953
 20
163.1962285287869
 30
0.000000000000000
 40
5.000000000000000
100
AcDbArc
 50
359.9999999999997
 51
436.1134596373732
  0
ARC
  5
57
100
AcDbEntity
  8
A1
  6
CONTINUOUS
 62
7
100
AcDbCircle
 10
111.9442563958637
 20
165.1961918949863
 30
0.000000000000000
 40
4.500081915817640
100
AcDbArc
 50
131.8107813233243
 51
179.9995335724537
  0
LINE
  5
58
100
AcDbEntity
  8
A1
  6
CONTINUOUS
 62
7
100
AcDbLine
 10
108.9441744801951
 20
143.5606842138453
 30
0.000000000000000
 11
108.9441744802067
 21
143.6962285287869
 31
0.000000000000000
  0
LINE
  5
59
100
AcDbEntity
  8
A1
  6
CONTINUOUS
 62
7
100
AcDbLine
 10
107.4441744801951
 20
143.6962285287869
 30
0.000000000000000
 11
107.4441744801951
 21
143.5606842138453
 31
0.000000000000000
  0
LINE
  5
5A
100
AcDbEntity
  8
A1
  6
CONTINUOUS
 62
7
100
AcDbLine
 10
112.2699960992356
 20
127.6810075777824
 30
0.000000000000000
 11
110.9519683584842
 21
128.4579393262013
 31
0.000000000000000
  0
LINE
  5
5B
100
AcDbEntity
  8
A1
  6
CONTINUOUS
 62
7
100
AcDbLine
 10
111.9441744801952
 20
169.6962285287869
 30
0.000000000000000
 11
113.4441744801952
 21
169.6962285287869
 31
0.000000000000000
  0
LINE
  5
5C
100
AcDbEntity
  8
A1
  6
CONTINUOUS
 62
7
100
AcDbLine
 10
113.4441744801952
 20
168.1962285287870
 30
0.000000000000000
 11
111.9441744801952
 21
168.1962285287871
 31
0.000000000000000
  0
LINE
  5
5D
100
AcDbEntity
  8
A1
  6
CONTINUOUS
 62
7
100
AcDbLine
 10
113.4441744801952
 20
169.6962285287869
 30
0.000000000000000
 11
113.4441744801952
 21
168.1962285287870
 31
0.000000000000000
  0
LINE
  5
5E
100
AcDbEntity
  8
A1
  6
CONTINUOUS
 62
7
100
AcDbLine
 10
120.2441744801951
 20
157.9962285287868
 30
0.000000000000000
 11
118.9441744801951
 21
156.6962285287869
 31
0.000000000000000
  0
LINE
  5
5F
100
AcDbEntity
  8
A1
  6
CONTINUOUS
 62
7
100
AcDbLine
 10
108.9861345886454
 20
164.1962285287871
 30
0.000000000000000
 11
110.9441744801952
 21
164.1962285287871
 31
0.000000000000000
  0
LINE
  5
60
100
AcDbEntity
  8
A1
  6
CONTINUOUS
 62
7
100
AcDbLine
 10
120.2441744801953
 20
163.1962285287869
 30
0.000000000000000
 11
120.2441744801952
 21
157.9962285287869
 31
0.000000000000000
  0
LINE
  5
61
100
AcDbEntity
  8
A1
  6
CONTINUOUS
 62
7
100
AcDbLine
 10
113.9441744801952
 20
168.1962285287870
 30
0.000000000000000
 11
114.4441744801951
 21
168.1962285287870
 31
0.000000000000000
  0
LINE
  5
62
100
AcDbEntity
  8
A1
  6
CONTINUOUS
 62
7
100
AcDbLine
 10
115.9441744801951
 20
143.6962285287868
 30
0.000000000000000
 11
108.9441744801951
 21
143.6962285287868
 31
0.000000000000000
  0
LINE
  5
63
100
AcDbEntity
  8
A1
  6
CONTINUOUS
 62
7
100
AcDbLine
 10
112.9441744801952
 20
166.1962285287871
 30
0.000000000000000
 11
112.9441744801952
 21
167.1962285287871
 31
0.000000000000000
  0
LINE
  5
64
100
AcDbEntity
  8
A1
  6
CONTINUOUS
 62
7
100
AcDbLine
 10
118.9441744801951
 20
156.6962285287870
 30
0.000000000000000
 11
118.9441744801951
 21
154.6962285287871
 31
0.000000000000000
  0
LINE
  5
65
100
AcDbEntity
  8
A1
  6
CONTINUOUS
 62
7
100
AcDbLine
 10
108.9441744801952
 20
165.1962285287871
 30
0.000000000000000
 11
108.9441744801952
 21
164.1968155272098
 31
0.000000000000000
  0
LINE
  5
66
100
AcDbEntity
  8
A1
  6
CONTINUOUS
 62
7
100
AcDbLine
 10
107.4441744801951
 20
143.6962285287869
 30
0.000000000000000
 11
108.9441744801951
 21
143.6962285287868
 31
0.000000000000000
  0
LINE
  5
67
100
AcDbEntity
  8
A1
  6
CONTINUOUS
 62
7
100
AcDbLine
 10
107.4441744801952
 20
165.1962285287869
 30
0.000000000000000
 11
107.4441744801951
 21
143.6962285287869
 31
0.000000000000000
  0
LINE
  5
68
100
AcDbEntity
  8
A1
  6
CONTINUOUS
 62
7
100
AcDbLine
 10
108.9441744801952
 20
165.1962285287871
 30
0.000000000000000
 11
108.9441744801952
 21
168.5503304950366
 31
0.000000000000000
  0
LINE
  5
69
100
AcDbEntity
  8
A1
  6
CONTINUOUS
 62
7
100
AcDbLine
 10
108.9441744801951
 20
143.6962285287868
 30
0.000000000000000
 11
108.9441744801952
 21
164.1968155272098
 31
0.000000000000000
  0
ARC
  5
6A
100
AcDbEntity
  8
A1
  6
CONTINUOUS
 62
7
100
AcDbCircle
 10
118.9441744801950
 20
155.1546452687871
 30
0.000000000000000
 40
1.500000000000000
100
AcDbArc
 50
359.9999999999997
 51
409.9999999974594
  0
ARC
  5
6B
100
AcDbEntity
  8
A1
  6
CONTINUOUS
 62
7
100
AcDbCircle
 10
110.3941744801677
 20
167.4962285288145
 30
0.000000000000000
 40
0.1999999999726656
100
AcDbArc
 50
89.99999999219669
 51
180.0000000078274
  0
ARC
  5
6C
100
AcDbEntity
  8
A1
  6
CONTINUOUS
 62
7
100
AcDbCircle
 10
111.4941744802440
 20
167.4962285288362
 30
0.000000000000000
 40
0.1999999999509718
100
AcDbArc
 50
359.9999999859543
 51
450.0000000140446
  0
LINE
  5
6D
100
AcDbEntity
  8
A1
  6
CONTINUOUS
 62
7
100
AcDbLine
 10
120.4441744801950
 20
154.6962285287871
 30
0.000000000000000
 11
120.4441744801950
 21
155.1546452687871
 31
0.000000000000000
  0
LINE
  5
6E
100
AcDbEntity
  8
A1
  6
CONTINUOUS
 62
7
100
AcDbLine
 10
119.9083558947250
 20
156.3037119333622
 30
0.000000000000000
 11
119.1706590418953
 21
156.9227130904872
 31
0.000000000000000
  0
LINE
  5
6F
100
AcDbEntity
  8
A1
  6
CONTINUOUS
 62
7
100
AcDbLine
 10
118.9441744802020
 20
134.1962285287872
 30
0.000000000000000
 11
118.9441744802019
 21
131.1962285287872
 31
0.000000000000000
  0
LINE
  5
70
100
AcDbEntity
  8
A1
  6
CONTINUOUS
 62
7
100
AcDbLine
 10
120.4441744801949
 20
131.1962285287872
 30
0.000000000000000
 11
120.4441744801949
 21
134.1962285287872
 31
0.000000000000000
  0
LINE
  5
71
100
AcDbEntity
  8
A1
  6
CONTINUOUS
 62
7
100
AcDbLine
 10
118.9441744801949
 20
131.1962285287872
 30
0.000000000000000
 11
120.4441744801949
 21
131.1962285287872
 31
0.000000000000000
  0
LINE
  5
72
100
AcDbEntity
  8
A1
  6
CONTINUOUS
 62
7
100
AcDbLine
 10
118.9441744801949
 20
134.1962285287872
 30
0.000000000000000
 11
118.9441744802020
 21
144.1962285287872
 31
0.000000000000000
  0
LINE
  5
73
100
AcDbEntity
  8
A1
  6
CONTINUOUS
 62
7
100
AcDbLine
 10
120.4441744801950
 20
144.1962285287872
 30
0.000000000000000
 11
120.4441744801949
 21
134.1962285287872
 31
0.000000000000000
  0
LINE
  5
74
100
AcDbEntity
  8
A1
  6
CONTINUOUS
 62
7
100
AcDbLine
 10
120.4441744801949
 20
134.1962285287872
 30
0.000000000000000
 11
118.9441744801949
 21
134.1962285287872
 31
0.000000000000000
  0
LINE
  5
75
100
AcDbEntity
  8
A1
  6
CONTINUOUS
 62
7
100
AcDbLine
 10
110.1941744801817
 20
164.1962285287871
 30
0.000000000000000
 11
110.1941744801817
 21
164.6962285287871
 31
0.000000000000000
  0
LINE
  5
76
100
AcDbEntity
  8
A1
  6
CONTINUOUS
 62
7
100
AcDbLine
 10
111.6941744802030
 20
164.6962285287871
 30
0.000000000000000
 11
111.6941744802030
 21
164.3421789070163
 31
0.000000000000000
  0
LINE
  5
77
100
AcDbEntity
  8
A1
  6
CONTINUOUS
 62
7
100
AcDbLine
 10
118.9441744802021
 20
154.6962285287871
 30
0.000000000000000
 11
118.9441744802021
 21
154.1962285287871
 31
0.000000000000000
  0
LINE
  5
78
100
AcDbEntity
  8
A1
  6
CONTINUOUS
 62
7
100
AcDbLine
 10
120.4441744801950
 20
154.1962285287871
 30
0.000000000000000
 11
120.4441744801950
 21
154.6962285287871
 31
0.000000000000000
  0
LINE
  5
79
100
AcDbEntity
  8
A1
  6
CONTINUOUS
 62
7
100
AcDbLine
 10
120.4441744801950
 20
154.6962285287871
 30
0.000000000000000
 11
118.9441744801950
 21
154.6962285287871
 31
0.000000000000000
  0
LINE
  5
7A
100
AcDbEntity
  8
A1
  6
CONTINUOUS
 62
7
100
AcDbLine
 10
110.1941744801951
 20
167.1962285287871
 30
0.000000000000000
 11
110.1941744801951
 21
165.1962285287871
 31
0.000000000000000
  0
LINE
  5
7B
100
AcDbEntity
  8
A1
  6
CONTINUOUS
 62
7
100
AcDbLine
 10
111.6941744801951
 20
165.1962285287871
 30
0.000000000000000
 11
111.6941744801951
 21
167.1962285287871
 31
0.000000000000000
  0
LINE
  5
7C
100
AcDbEntity
  8
A1
  6
CONTINUOUS
 62
7
100
AcDbLine
 10
110.1941744801951
 20
165.1962285287871
 30
0.000000000000000
 11
110.1941744801951
 21
164.6962285287871
 31
0.000000000000000
  0
LINE
  5
7D
100
AcDbEntity
  8
A1
  6
CONTINUOUS
 62
7
100
AcDbLine
 10
111.6941744801951
 20
164.6962285287871
 30
0.000000000000000
 11
111.6941744801951
 21
165.1962285287871
 31
0.000000000000000
  0
LINE
  5
7E
100
AcDbEntity
  8
A1
  6
CONTINUOUS
 62
7
100
AcDbLine
 10
110.1941744801951
 20
164.6962285287871
 30
0.000000000000000
 11
111.6941744801951
 21
164.6962285287871
 31
0.000000000000000
  0
LINE
  5
7F
100
AcDbEntity
  8
A1
  6
CONTINUOUS
 62
7
100
AcDbLine
 10
111.6941744801951
 20
165.1962285287871
 30
0.000000000000000
 11
110.1941744801951
 21
165.1962285287871
 31
0.000000000000000
  0
LINE
  5
80
100
AcDbEntity
  8
A1
  6
CONTINUOUS
 62
7
100
AcDbLine
 10
118.9441744801950
 20
154.1962285287871
 30
0.000000000000000
 11
118.9441744801950
 21
144.6962285287872
 31
0.000000000000000
  0
LINE
  5
81
100
AcDbEntity
  8
A1
  6
CONTINUOUS
 62
7
100
AcDbLine
 10
118.9441744801950
 20
154.1962285287871
 30
0.000000000000000
 11
120.4441744801950
 21
154.1962285287871
 31
0.000000000000000
  0
LINE
  5
82
100
AcDbEntity
  8
A1
  6
CONTINUOUS
 62
7
100
AcDbLine
 10
120.4441744801950
 20
144.6962285287872
 30
0.000000000000000
 11
120.4441744801950
 21
154.1962285287871
 31
0.000000000000000
  0
LINE
  5
83
100
AcDbEntity
  8
A1
  6
CONTINUOUS
 62
7
100
AcDbLine
 10
118.9441744801950
 20
144.6962285287872
 30
0.000000000000000
 11
118.9441744801950
 21
144.1962285287872
 31
0.000000000000000
  0
LINE
  5
84
100
AcDbEntity
  8
A1
  6
CONTINUOUS
 62
7
100
AcDbLine
 10
120.4441744801950
 20
144.1962285287872
 30
0.000000000000000
 11
120.4441744801950
 21
144.6962285287872
 31
0.000000000000000
  0
LINE
  5
85
100
AcDbEntity
  8
A1
  6
CONTINUOUS
 62
7
100
AcDbLine
 10
118.9441744801950
 20
144.1962285287872
 30
0.000000000000000
 11
120.4441744801950
 21
144.1962285287872
 31
0.000000000000000
  0
LINE
  5
86
100
AcDbEntity
  8
A1
  6
CONTINUOUS
 62
7
100
AcDbLine
 10
120.4441744801950
 20
144.6962285287872
 30
0.000000000000000
 11
118.9441744801950
 21
144.6962285287872
 31
0.000000000000000
  0
LINE
  5
87
100
AcDbEntity
  8
A1
  6
CONTINUOUS
 62
7
100
AcDbLine
 10
110.1941744801951
 20
167.4962285287872
 30
0.000000000000000
 11
110.1941744801951
 21
167.1962285287871
 31
0.000000000000000
  0
LINE
  5
88
100
AcDbEntity
  8
A1
  6
CONTINUOUS
 62
7
100
AcDbLine
 10
111.6941744801951
 20
167.1962285287871
 30
0.000000000000000
 11
111.6941744801951
 21
167.4962285287872
 31
0.000000000000000
  0
LINE
  5
89
100
AcDbEntity
  8
A1
  6
CONTINUOUS
 62
7
100
AcDbLine
 10
110.1941744801951
 20
167.1962285287871
 30
0.000000000000000
 11
111.6941744801951
 21
167.1962285287871
 31
0.000000000000000
  0
LINE
  5
8A
100
AcDbEntity
  8
A1
  6
CONTINUOUS
 62
7
100
AcDbLine
 10
111.4941744801951
 20
167.6962285287871
 30
0.000000000000000
 11
110.3941744801950
 21
167.6962285287871
 31
0.000000000000000
  0
ARC
  5
8B
100
AcDbEntity
  8
A1
  6
CONTINUOUS
 62
7
100
AcDbCircle
 10
115.4441744801952
 20
184.0744573978150
 30
0.000000000000000
 40
1.000000000000000
100
AcDbArc
 50
359.9999999999997
 51
539.9999999999997
  0
ARC
  5
8C
100
AcDbEntity
  8
A1
  6
CONTINUOUS
 62
7
100
AcDbCircle
 10
115.4441744801950
 20
150.0747298950086
 30
0.000000000000000
 40
1.000000000000000
100
AcDbArc
 50
179.9999999999997
 51
359.9999999999997
  0
LINE
  5
8D
100
AcDbEntity
  8
A1
  6
CONTINUOUS
 62
7
100
AcDbLine
 10
116.4441744801952
 20
184.0744573978150
 30
0.000000000000000
 11
116.4441744801952
 21
182.9000697713515
 31
0.000000000000000
  0
LINE
  5
8E
100
AcDbEntity
  8
A1
  6
CONTINUOUS
 62
7
100
AcDbLine
 10
114.4441744801952
 20
182.9000697713515
 30
0.000000000000000
 11
114.4441744801952
 21
184.0744573978150
 31
0.000000000000000
  0
LINE
  5
8F
100
AcDbEntity
  8
A1
  6
CONTINUOUS
 62
7
100
AcDbLine
 10
116.4441744801950
 20
151.3185525379663
 30
0.000000000000000
 11
116.4441744801950
 21
150.0747298950086
 31
0.000000000000000
  0
LINE
  5
90
100
AcDbEntity
  8
A1
  6
CONTINUOUS
 62
7
100
AcDbLine
 10
114.4441744801950
 20
150.0747298950086
 30
0.000000000000000
 11
114.4441744801950
 21
151.3185525379663
 31
0.000000000000000
  0
LINE
  5
91
100
AcDbEntity
  8
A1
  6
CONTINUOUS
 62
7
100
AcDbLine
 10
116.4441744801952
 20
182.9000697713516
 30
0.000000000000000
 11
116.4441744801950
 21
151.3185525379664
 31
0.000000000000000
  0
LINE
  5
92
100
AcDbEntity
  8
A1
  6
CONTINUOUS
 62
7
100
AcDbLine
 10
114.4441744801950
 20
151.3185525379664
 30
0.000000000000000
 11
114.4441744801952
 21
182.9000697713516
 31
0.000000000000000
  0
SPLINE
  5
93
100
AcDbEntity
  8
A1
  6
CONTINUOUS
 62
7
100
AcDbSpline
210
0.000000000000000
220
0.000000000000000
230
1.000000000000000
 70
     8
 71
     3
 72
    47
 73
    43
 74
     0
 42
1.000000000000000e-07
 43
1.000000000000000e-07
 12
0.001481548270191979
 22
-0.9999989025069453
 32
0.000000000000000
 13
0.001360922988368429
 23
0.9999990739439681
 33
0.000000000000000
 40
0.000000000000000
 40
0.000000000000000
 40
0.000000000000000
 40
0.000000000000000
 40
0.6101640211695925
 40
1.222184011534176
 40
1.851374954545205
 40
2.480497115359376
 40
3.093811871971650
 40
3.705684420933644
 40
4.338961166106652
 40
4.970450437069306
 40
5.504084243234129
 40
6.037135376833859
 40
6.586978182021693
 40
7.137227051736778
 40
7.649884416876353
 40
8.163539964424517
 40
8.692912700136906
 40
9.223466916024869
 40
9.605837073035527
 40
9.988638942274694
 40
10.37743035640145
 40
10.76638392216893
 40
11.29420174580045
 40
11.82161919472218
 40
12.36345313787303
 40
12.90420063294008
 40
13.42865287246476
 40
13.95194230456546
 40
14.48967827178762
 40
15.02666523136479
 40
15.54263775397137
 40
16.05875307411474
 40
16.59073675797480
 40
17.12371584506454
 40
17.63857833114133
 40
18.15467641149261
 40
18.68555669799025
 40
19.21736460319391
 40
19.79040366664691
 40
20.36335275566165
 40
20.94902150826396
 40
21.53294613490656
 40
21.53294613490656
 40
21.53294613490656
 40
21.53294613490656
 10
58.86725470722973
 20
134.7546061808686
 30
0.000000000000000
 10
58.86755603637977
 20
134.5512183970290
 30
0.000000000000000
 10
58.85479838080823
 20
134.1437008019991
 30
0.000000000000000
 10
58.79639983130323
 20
133.5289072630028
 30
0.000000000000000
 10
58.69279526773673
 20
132.9135251706316
 30
0.000000000000000
 10
58.54174647556147
 20
132.3075059215523
 30
0.000000000000000
 10
58.34251071398518
 20
131.7216184763857
 30
0.000000000000000
 10
58.09287569676292
 20
131.1537503494582
 30
0.000000000000000
 10
57.78780413361912
 20
130.6065070001895
 30
0.000000000000000
 10
57.44526384900269
 20
130.1132701959541
 30
0.000000000000000
 10
57.07917654753794
 20
129.6806088206579
 30
0.000000000000000
 10
56.69618827255388
 20
129.3005788707160
 30
0.000000000000000
 10
56.27624872528037
 20
128.9529897434639
 30
0.000000000000000
 10
55.83242675909776
 20
128.6483482574918
 30
0.000000000000000
 10
55.37446793286944
 20
128.3893722531095
 30
0.000000000000000
 10
54.90326359326764
 20
128.1715030748560
 30
0.000000000000000
 10
54.41014157365686
 20
127.9910131908524
 30
0.000000000000000
 10
53.94622974981331
 20
127.8627632418471
 30
0.000000000000000
 10
53.52275323374008
 20
127.7767148834086
 30
0.000000000000000
 10
53.14183861070418
 20
127.7217122778685
 30
0.000000000000000
 10
52.75620407967864
 20
127.6884614649947
 30
0.000000000000000
 10
52.32097261759606
 20
127.6759461430068
 30
0.000000000000000
 10
51.83943451633510
 20
127.6947565901587
 30
0.000000000000000
 10
51.31016988333226
 20
127.7568229105324
 30
0.000000000000000
 10
50.78328369355094
 20
127.8619006176688
 30
0.000000000000000
 10
50.26764410221909
 20
128.0092852073961
 30
0.000000000000000
 10
49.77171595311782
 20
128.1964822460271
 30
0.000000000000000
 10
49.29365998607841
 20
128.4232171761159
 30
0.000000000000000
 10
48.83304456087666
 20
128.6920816207285
 30
0.000000000000000
 10
48.39950898824267
 20
128.9985531506144
 30
0.000000000000000
 10
47.99987520289818
 20
129.3369418163277
 30
0.000000000000000
 10
47.63147648159187
 20
129.7067421404131
 30
0.000000000000000
 10
47.29283106254479
 20
130.1114374894997
 30
0.000000000000000
 10
46.99026743626109
 20
130.5432326888583
 30
0.000000000000000
 10
46.72735243757074
 20
130.9940324205427
 30
0.000000000000000
 10
46.50070357019661
 20
131.4632910285532
 30
0.000000000000000
 10
46.30873347424381
 20
131.9538341713643
 30
0.000000000000000
 10
46.14759018081600
 20
132.4752031783538
 30
0.000000000000000
 10
46.02161792682568
 20
133.0206071870255
 30
0.000000000000000
 10
45.93115647775440
 20
133.5911463515954
 30
0.000000000000000
 10
45.87865147278947
 20
134.1699939768362
 30
0.000000000000000
 10
45.86698981508044
 20
134.5599648189034
 30
0.000000000000000
 10
45.86725470722973
 20
134.7546061808686
 30
0.000000000000000
  0
SPLINE
  5
94
100
AcDbEntity
  8
A1
  6
CONTINUOUS
 62
7
100
AcDbSpline
210
0.000000000000000
220
0.000000000000000
230
1.000000000000000
 70
     8
 71
     3
 72
    48
 73
    44
 74
     0
 42
1.000000000000000e-07
 43
1.000000000000000e-07
 12
0.001716743779695662
 22
-0.9999985263943927
 32
0.000000000000000
 13
0.0007632822195660083
 23
0.9999997086999883
 33
0.000000000000000
 40
0.000000000000000
 40
0.000000000000000
 40
0.000000000000000
 40
0.000000000000000
 40
0.6230551305799631
 40
1.250567364886502
 40
1.897878392018524
 40
2.547052509750628
 40
3.181775560363857
 40
3.815955071905683
 40
4.474521063027536
 40
5.131353602161810
 40
5.667462015008636
 40
6.202770692809322
 40
6.755019484080658
 40
7.307332058939630
 40
7.815853001305923
 40
8.325096045824749
 40
8.849600131218505
 40
9.375088440224292
 40
9.766606144203946
 40
10.15853061457927
 40
10.55690975949727
 40
10.95544480865121
 40
11.48044243643723
 40
12.00508807167033
 40
12.54414514727796
 40
13.08227033991027
 40
13.60440876156651
 40
14.12561844754191
 40
14.66155833335223
 40
15.19704822864776
 40
15.71065334010392
 40
16.22463123426533
 40
16.75465665585147
 40
17.28572344710176
 40
17.79734374351495
 40
18.30992492531568
 40
18.83655594654975
 40
19.36344015250272
 40
19.90699411981210
 40
20.44938229423686
 40
21.00106414690822
 40
21.54976076759189
 40
21.91123447057284
 40
21.91123447057284
 40
21.91123447057284
 40
21.91123447057284
 10
58.86725470722973
 20
135.7446286542569
 30
0.000000000000000
 10
58.86761124923635
 20
135.5369439167761
 30
0.000000000000000
 10
58.85560383839686
 20
135.1199795576480
 30
0.000000000000000
 10
58.80032670152940
 20
134.4893802353868
 30
0.000000000000000
 10
58.70072796027185
 20
133.8552598850898
 30
0.000000000000000
 10
58.55353116707266
 20
133.2278934511210
 30
0.000000000000000
 10
58.35683723098683
 20
132.6187652785647
 30
0.000000000000000
 10
58.10737316939429
 20
132.0257487707675
 30
0.000000000000000
 10
57.79901886444858
 20
131.4525044485654
 30
0.000000000000000
 10
57.45295170672290
 20
130.9401099150279
 30
0.000000000000000
 10
57.08543657287498
 20
130.4955631498244
 30
0.000000000000000
 10
56.70509217317016
 20
130.1095258727690
 30
0.000000000000000
 10
56.28715939510897
 20
129.7560191547969
 30
0.000000000000000
 10
55.84623084820618
 20
129.4469790267426
 30
0.000000000000000
 10
55.39253236334815
 20
129.1849079282684
 30
0.000000000000000
 10
54.92734331950928
 20
128.9647392481540
 30
0.000000000000000
 10
54.44028960650209
 20
128.7816445024433
 30
0.000000000000000
 10
53.97773100328106
 20
128.6495458823574
 30
0.000000000000000
 10
53.55056373475165
 20
128.5595093773652
 30
0.000000000000000
 10
53.16073651032565
 20
128.5011481636236
 30
0.000000000000000
 10
52.76579292505284
 20
128.4658540738183
 30
0.000000000000000
 10
52.32510622056668
 20
128.4527225430226
 30
0.000000000000000
 10
51.84223810825705
 20
128.4716950919902
 30
0.000000000000000
 10
51.31578287543871
 20
128.5338017193523
 30
0.000000000000000
 10
50.79168692426612
 20
128.6389631117979
 30
0.000000000000000
 10
50.27876213367475
 20
128.7865053371517
 30
0.000000000000000
 10
49.78542946174031
 20
128.9739658572061
 30
0.000000000000000
 10
49.30984578532440
 20
129.2011060205607
 30
0.000000000000000
 10
48.85163433213557
 20
129.4705402645774
 30
0.000000000000000
 10
48.42073723306635
 20
129.7774750070856
 30
0.000000000000000
 10
48.02390292156005
 20
130.1160626521672
 30
0.000000000000000
 10
47.65834276354360
 20
130.4856352610714
 30
0.000000000000000
 10
47.32225090751916
 20
130.8898370613541
 30
0.000000000000000
 10
47.02203890713173
 20
131.3203612968916
 30
0.000000000000000
 10
46.76103338931276
 20
131.7688995562558
 30
0.000000000000000
 10
46.53562032759021
 20
132.2346471402557
 30
0.000000000000000
 10
46.34373544623560
 20
132.7206396889449
 30
0.000000000000000
 10
46.18353262507878
 20
133.2287560890086
 30
0.000000000000000
 10
46.05703213725178
 20
133.7516813247698
 30
0.000000000000000
 10
45.96264714708943
 20
134.2896802145989
 30
0.000000000000000
 10
45.90047415394565
 20
134.8340399054319
 30
0.000000000000000
 10
45.87214490927525
 20
135.3207303830999
 30
0.000000000000000
 10
45.86716273841310
 20
135.6241374550608
 30
0.000000000000000
 10
45.86725470722988
 20
135.7446286542887
 30
0.000000000000000
  0
SPLINE
  5
95
100
AcDbEntity
  8
A1
  6
CONTINUOUS
 62
7
100
AcDbSpline
210
0.000000000000000
220
0.000000000000000
230
1.000000000000000
 70
     8
 71
     3
 72
    19
 73
    15
 74
     0
 42
1.000000000000000e-07
 43
1.000000000000000e-07
 12
0.02715670627304689
 22
-0.9996311886413878
 32
0.000000000000000
 13
0.5000138787236210
 23
-0.8660173907555873
 33
0.000000000000000
 40
0.000000000000000
 40
0.000000000000000
 40
0.000000000000000
 40
0.000000000000000
 40
0.2627948500310529
 40
0.5559426858345677
 40
0.8095487284416385
 40
1.075735574842617
 40
1.360092348754135
 40
1.653612201660675
 40
2.072900269286612
 40
2.502648216088778
 40
2.951809214694201
 40
3.405487292533226
 40
3.689167198478098
 40
3.702584031752327
 40
3.702584031752327
 40
3.702584031752327
 40
3.702584031752327
 10
44.36725470722993
 20
168.5503304950375
 30
0.000000000000000
 10
44.36963358808072
 20
168.4627645189357
 30
0.000000000000000
 10
44.38593897286302
 20
168.2773772857421
 30
0.000000000000000
 10
44.45227600833448
 20
168.0150160695464
 30
0.000000000000000
 10
44.53787668168133
 20
167.7578478020532
 30
0.000000000000000
 10
44.63662992359014
 20
167.5085124232491
 30
0.000000000000000
 10
44.75057798731424
 20
167.2512137295999
 30
0.000000000000000
 10
44.89462747716235
 20
166.9516142196782
 30
0.000000000000000
 10
45.06909653406098
 20
166.6130210280001
 30
0.000000000000000
 10
45.27579050172383
 20
166.2328196993782
 30
0.000000000000000
 10
45.49352964228331
 20
165.8456402452595
 30
0.000000000000000
 10
45.69039193788598
 20
165.5026067204496
 30
0.000000000000000
 10
45.81549405617457
 20
165.2858612335794
 30
0.000000000000000
 10
45.86501850628133
 20
165.2001015991025
 30
0.000000000000000
 10
45.86725470722988
 20
165.1962285287877
 30
0.000000000000000
  0
SPLINE
  5
96
100
AcDbEntity
  8
A1
  6
CONTINUOUS
 62
7
100
AcDbSpline
210
0.000000000000000
220
0.000000000000000
230
1.000000000000000
 70
     8
 71
     3
 72
    17
 73
    13
 74
     0
 42
1.000000000000000e-07
 43
1.000000000000000e-07
 12
0.5000138787272590
 22
0.8660173907483113
 32
0.000000000000000
 13
0.02735699188599483
 23
0.9996257274576692
 33
0.000000000000000
 40
0.000000000000000
 40
0.000000000000000
 40
0.000000000000000
 40
0.000000000000000
 40
0.01341683345554900
 40
0.2970967394258608
 40
0.8926189869044256
 40
1.480241692221113
 40
2.048962211596353
 40
2.433161095225895
 40
2.801309188010592
 40
3.146578005595192
 40
3.436921600556079
 40
3.702518364893475
 40
3.702518364893475
 40
3.702518364893475
 40
3.702518364893475
 10
58.86725470722990
 20
165.1962285287877
 30
0.000000000000000
 10
58.86949090820869
 20
165.2001015991548
 30
0.000000000000000
 10
58.91901553320190
 20
165.2858611360547
 30
0.000000000000000
 10
59.06773039290056
 20
165.5435691905562
 30
0.000000000000000
 10
59.31109606042378
 20
165.9676478564237
 30
0.000000000000000
 10
59.59467151893031
 20
166.4781607526923
 30
0.000000000000000
 10
59.83220201296359
 20
166.9335606654868
 30
0.000000000000000
 10
60.02188662908372
 20
167.3310499591999
 30
0.000000000000000
 10
60.16480023375249
 20
167.6680948447974
 30
0.000000000000000
 10
60.27441240921371
 20
167.9844523089722
 30
0.000000000000000
 10
60.34837837143766
 20
168.2764388000608
 30
0.000000000000000
 10
60.36483273105432
 20
168.4618313754504
 30
0.000000000000000
 10
60.36725470722996
 20
168.5503304950375
 30
0.000000000000000
  0
LINE
  5
97
100
AcDbEntity
  8
A1
  6
CONTINUOUS
 62
7
100
AcDbLine
 10
58.86725470722973
 20
134.7546061808686
 30
0.000000000000000
 11
58.86725470722973
 21
135.7446286542569
 31
0.000000000000000
  0
LINE
  5
98
100
AcDbEntity
  8
A1
  6
CONTINUOUS
 62
7
100
AcDbLine
 10
45.86725470722973
 20
134.7546061808686
 30
0.000000000000000
 11
45.86725470722987
 21
135.7446286542887
 31
0.000000000000000
  0
LINE
  5
99
100
AcDbEntity
  8
A1
  6
CONTINUOUS
 62
7
100
AcDbLine
 10
58.86725470722990
 20
142.5303000269586
 30
0.000000000000000
 11
58.86725470722990
 21
135.7446286542503
 31
0.000000000000000
  0
LINE
  5
9A
100
AcDbEntity
  8
A1
  6
CONTINUOUS
 62
7
100
AcDbLine
 10
45.86725470722988
 20
142.5303000269586
 30
0.000000000000000
 11
45.86725470722988
 21
135.7446286542887
 31
0.000000000000000
  0
LINE
  5
9B
100
AcDbEntity
  8
A1
  6
CONTINUOUS
 62
7
100
AcDbLine
 10
58.86725470722990
 20
143.6962285287877
 30
0.000000000000000
 11
58.86725470722990
 21
143.5606842138461
 31
0.000000000000000
  0
LINE
  5
9C
100
AcDbEntity
  8
A1
  6
CONTINUOUS
 62
7
100
AcDbLine
 10
45.86725470722988
 20
143.6962285287877
 30
0.000000000000000
 11
45.86725470722988
 21
143.5606842138461
 31
0.000000000000000
  0
LINE
  5
9D
100
AcDbEntity
  8
A1
  6
CONTINUOUS
 62
7
100
AcDbLine
 10
58.86725470722990
 20
143.5606842138461
 30
0.000000000000000
 11
58.86725470722990
 21
142.5303000269587
 31
0.000000000000000
  0
LINE
  5
9E
100
AcDbEntity
  8
A1
  6
CONTINUOUS
 62
7
100
AcDbLine
 10
45.86725470722988
 20
143.5606842138461
 30
0.000000000000000
 11
45.86725470722988
 21
142.5303000269587
 31
0.000000000000000
  0
LINE
  5
9F
100
AcDbEntity
  8
A1
  6
CONTINUOUS
 62
7
100
AcDbLine
 10
58.86725470722990
 20
143.5606842138461
 30
0.000000000000000
 11
45.86725470722988
 21
143.5606842138461
 31
0.000000000000000
  0
LINE
  5
A0
100
AcDbEntity
  8
A1
  6
CONTINUOUS
 62
7
100
AcDbLine
 10
58.86725470722990
 20
142.5303000269586
 30
0.000000000000000
 11
45.86725470722988
 21
142.5303000269586
 31
0.000000000000000
  0
LINE
  5
A1
100
AcDbEntity
  8
A1
  6
CONTINUOUS
 62
7
100
AcDbLine
 10
58.86725470722990
 20
143.6962285287877
 30
0.000000000000000
 11
58.86725470722990
 21
165.1962285287877
 31
0.000000000000000
  0
LINE
  5
A2
100
AcDbEntity
  8
A1
  6
CONTINUOUS
 62
7
100
AcDbLine
 10
60.36725470722993
 20
143.6962285287877
 30
0.000000000000000
 11
58.86725470722990
 21
143.6962285287877
 31
0.000000000000000
  0
LINE
  5
A3
100
AcDbEntity
  8
A1
  6
CONTINUOUS
 62
7
100
AcDbLine
 10
60.36725470722996
 20
164.1962285287879
 30
0.000000000000000
 11
60.36725470722996
 21
143.6962285287877
 31
0.000000000000000
  0
LINE
  5
A4
100
AcDbEntity
  8
A1
  6
CONTINUOUS
 62
7
100
AcDbLine
 10
60.36725470722996
 20
164.1962285287879
 30
0.000000000000000
 11
60.36725470722996
 21
165.1962285287879
 31
0.000000000000000
  0
LINE
  5
A5
100
AcDbEntity
  8
A1
  6
CONTINUOUS
 62
7
100
AcDbLine
 10
60.36725470722996
 20
168.5503304950375
 30
0.000000000000000
 11
60.36725470722996
 21
165.1962285287879
 31
0.000000000000000
  0
LINE
  5
A6
100
AcDbEntity
  8
A1
  6
CONTINUOUS
 62
7
100
AcDbLine
 10
45.86725470722988
 20
143.6962285287877
 30
0.000000000000000
 11
44.36725470722993
 21
143.6962285287877
 31
0.000000000000000
  0
LINE
  5
A7
100
AcDbEntity
  8
A1
  6
CONTINUOUS
 62
7
100
AcDbLine
 10
45.86725470722988
 20
165.1962285287877
 30
0.000000000000000
 11
45.86725470722988
 21
143.6962285287877
 31
0.000000000000000
  0
LINE
  5
A8
100
AcDbEntity
  8
A1
  6
CONTINUOUS
 62
7
100
AcDbLine
 10
44.36725470722993
 20
165.1962285287879
 30
0.000000000000000
 11
44.36725470722993
 21
168.5503304950375
 31
0.000000000000000
  0
LINE
  5
A9
100
AcDbEntity
  8
A1
  6
CONTINUOUS
 62
7
100
AcDbLine
 10
44.36725470722993
 20
165.1962285287879
 30
0.000000000000000
 11
44.36725470722993
 21
164.1968155272106
 31
0.000000000000000
  0
LINE
  5
AA
100
AcDbEntity
  8
A1
  6
CONTINUOUS
 62
7
100
AcDbLine
 10
44.36725470722993
 20
143.6962285287877
 30
0.000000000000000
 11
44.36725470722993
 21
164.1968155272106
 31
0.000000000000000
  0
LINE
  5
AB
100
AcDbEntity
  8
A1
  6
CONTINUOUS
 62
7
100
AcDbLine
 10
44.36725470722993
 20
168.5503304950375
 30
0.000000000000000
 11
44.36725470722993
 21
169.6962285287877
 31
0.000000000000000
  0
LINE
  5
AC
100
AcDbEntity
  8
A1
  6
CONTINUOUS
 62
7
100
AcDbLine
 10
58.86725470722990
 20
165.1962285287877
 30
0.000000000000000
 11
45.86725470722988
 21
165.1962285287877
 31
0.000000000000000
  0
LINE
  5
AD
100
AcDbEntity
  8
A1
  6
CONTINUOUS
 62
7
100
AcDbLine
 10
60.36725470722996
 20
169.6962285287877
 30
0.000000000000000
 11
60.36725470722996
 21
168.5503304950375
 31
0.000000000000000
  0
LINE
  5
AE
100
AcDbEntity
  8
A1
  6
CONTINUOUS
 62
7
100
AcDbLine
 10
60.36725470722996
 20
169.6962285287877
 30
0.000000000000000
 11
44.36725470722993
 21
169.6962285287877
 31
0.000000000000000
  0
ARC
  5
AF
100
AcDbEntity
  8
A1
  6
CONTINUOUS
 62
7
100
AcDbCircle
 10
60.36725470722993
 20
154.1962285287880
 30
0.000000000000000
 40
0.5000000000000000
100
AcDbArc
 50
0.000000000000000
 51
90.00000000000463
  0
ARC
  5
B0
100
AcDbEntity
  8
A1
  6
CONTINUOUS
 62
7
100
AcDbCircle
 10
44.36725470722993
 20
154.1962285287880
 30
0.000000000000000
 40
0.5000000000000000
100
AcDbArc
 50
90.00000000000632
 51
180.0000000000000
  0
ARC
  5
B1
100
AcDbEntity
  8
A1
  6
CONTINUOUS
 62
7
100
AcDbCircle
 10
44.36725470722993
 20
144.6962285287881
 30
0.000000000000000
 40
0.5000000000000000
100
AcDbArc
 50
180.0000000000000
 51
269.9999999999937
  0
ARC
  5
B2
100
AcDbEntity
  8
A1
  6
CONTINUOUS
 62
7
100
AcDbCircle
 10
60.36725470722993
 20
144.6962285287881
 30
0.000000000000000
 40
0.5000000000000000
100
AcDbArc
 50
269.9999999999953
 51
360.0000000000000
  0
ARC
  5
B3
100
AcDbEntity
  8
A1
  6
CONTINUOUS
 62
7
100
AcDbCircle
 10
44.36725470722988
 20
167.1962285287879
 30
0.000000000000000
 40
0.5000000000000000
100
AcDbArc
 50
143.1301023541543
 51
180.0000000000000
  0
ARC
  5
B4
100
AcDbEntity
  8
A1
  6
CONTINUOUS
 62
7
100
AcDbCircle
 10
60.36725470722993
 20
167.1962285287879
 30
0.000000000000000
 40
0.5000000000000000
100
AcDbArc
 50
0.000000000000000
 51
36.86989764585083
  0
ARC
  5
B5
100
AcDbEntity
  8
A1
  6
CONTINUOUS
 62
7
100
AcDbCircle
 10
44.36725470722993
 20
165.1962285287880
 30
0.000000000000000
 40
0.5000000000000000
100
AcDbArc
 50
180.0000000000000
 51
270.0000000000000
  0
ARC
  5
B6
100
AcDbEntity
  8
A1
  6
CONTINUOUS
 62
7
100
AcDbCircle
 10
60.36725470722993
 20
165.1962285287880
 30
0.000000000000000
 40
0.5000000000000000
100
AcDbArc
 50
270.0000000000000
 51
360.0000000000000
  0
ARC
  5
B7
100
AcDbEntity
  8
A1
  6
CONTINUOUS
 62
7
100
AcDbCircle
 10
44.36725470722376
 20
167.1962285288002
 30
0.000000000000000
 40
0.4999999999877929
100
AcDbArc
 50
89.99999999930067
 51
143.1301023548538
  0
ARC
  5
B8
100
AcDbEntity
  8
A1
  6
CONTINUOUS
 62
7
100
AcDbCircle
 10
60.36725470724028
 20
167.1962285288088
 30
0.000000000000000
 40
0.4999999999791690
100
AcDbArc
 50
36.86989764465230
 51
90.00000000118956
  0
LINE
  5
B9
100
AcDbEntity
  8
A1
  6
CONTINUOUS
 62
7
100
AcDbLine
 10
43.86725470722993
 20
149.1227345927878
 30
0.000000000000000
 11
43.86725470722993
 21
144.6962285287881
 31
0.000000000000000
  0
LINE
  5
BA
100
AcDbEntity
  8
A1
  6
CONTINUOUS
 62
7
100
AcDbLine
 10
43.86725470722993
 20
154.1962285287880
 30
0.000000000000000
 11
43.86725470722993
 21
151.1259610501205
 31
0.000000000000000
  0
LINE
  5
BB
100
AcDbEntity
  8
A1
  6
CONTINUOUS
 62
7
100
AcDbLine
 10
60.86725470722993
 20
149.1232321848084
 30
0.000000000000000
 11
60.86725470722993
 21
144.6962285287881
 31
0.000000000000000
  0
LINE
  5
BC
100
AcDbEntity
  8
A1
  6
CONTINUOUS
 62
7
100
AcDbLine
 10
60.86725470722993
 20
154.1962285287880
 30
0.000000000000000
 11
60.86725470722993
 21
151.1264586421410
 31
0.000000000000000
  0
LINE
  5
BD
100
AcDbEntity
  8
A1
  6
CONTINUOUS
 62
7
100
AcDbLine
 10
43.86725470722993
 20
167.1962285287879
 30
0.000000000000000
 11
43.86725470722993
 21
165.1962285287880
 31
0.000000000000000
  0
LINE
  5
BE
100
AcDbEntity
  8
A1
  6
CONTINUOUS
 62
7
100
AcDbLine
 10
60.86725470722993
 20
167.1962285287879
 30
0.000000000000000
 11
60.86725470722993
 21
165.1962285287880
 31
0.000000000000000
  0
LINE
  5
BF
100
AcDbEntity
  8
A1
  6
CONTINUOUS
 62
7
100
AcDbLine
 10
44.36725470722993
 20
167.4962285287880
 30
0.000000000000000
 11
43.96725470722987
 21
167.4962285287880
 31
0.000000000000000
  0
LINE
  5
C0
100
AcDbEntity
  8
A1
  6
CONTINUOUS
 62
7
100
AcDbLine
 10
60.76725470722985
 20
167.4962285287880
 30
0.000000000000000
 11
60.36725470722996
 21
167.4962285287880
 31
0.000000000000000
  0
ARC
  5
C1
100
AcDbEntity
  8
A1
  6
CONTINUOUS
 62
7
100
AcDbCircle
 10
43.50439484475811
 20
182.0744573978159
 30
0.000000000000000
 40
3.000000000000000
100
AcDbArc
 50
90.00000000000000
 51
155.6187626069750
  0
ARC
  5
C2
100
AcDbEntity
  8
A1
  6
CONTINUOUS
 62
7
100
AcDbCircle
 10
43.50439484475811
 20
182.0744573978159
 30
0.000000000000000
 40
1.000000000000000
100
AcDbArc
 50
90.00000000000000
 51
155.6187626069753
  0
ARC
  5
C3
100
AcDbEntity
  8
A1
  6
CONTINUOUS
 62
7
100
AcDbCircle
 10
42.93730215362999
 20
152.0747298950095
 30
0.000000000000000
 40
3.000000000000000
100
AcDbArc
 50
202.2153411554076
 51
273.2523269657892
  0
ARC
  5
C4
100
AcDbEntity
  8
A1
  6
CONTINUOUS
 62
7
100
AcDbCircle
 10
42.93730215362999
 20
152.0747298950095
 30
0.000000000000000
 40
1.000000000000000
100
AcDbArc
 50
202.2153411554075
 51
273.2523245509526
  0
ARC
  5
C5
100
AcDbEntity
  8
A1
  6
CONTINUOUS
 62
7
100
AcDbCircle
 10
78.05300520121961
 20
166.4161522829004
 30
0.000000000000000
 40
40.93137219551113
100
AcDbArc
 50
155.6187626069764
 51
202.2153411554014
  0
ARC
  5
C6
100
AcDbEntity
  8
A1
  6
CONTINUOUS
 62
7
100
AcDbCircle
 10
78.05300520121961
 20
166.4161522829004
 30
0.000000000000000
 40
38.93137219551113
100
AcDbArc
 50
155.6187626069764
 51
180.0000000000000
  0
ARC
  5
C7
100
AcDbEntity
  8
A1
  6
CONTINUOUS
 62
7
100
AcDbCircle
 10
78.05300520121961
 20
166.4161522829004
 30
0.000000000000000
 40
38.93137219551113
100
AcDbArc
 50
180.0000000000000
 51
202.2153411554014
  0
ARC
  5
C8
100
AcDbEntity
  8
A1
  6
CONTINUOUS
 62
7
100
AcDbCircle
 10
61.80596385778702
 20
152.0747298950095
 30
0.000000000000000
 40
3.000000000000000
100
AcDbArc
 50
266.7476730342108
 51
337.7846588445925
  0
ARC
  5
C9
100
AcDbEntity
  8
A1
  6
CONTINUOUS
 62
7
100
AcDbCircle
 10
61.80596385778702
 20
152.0747298950095
 30
0.000000000000000
 40
1.000000000000000
100
AcDbArc
 50
266.7476754490474
 51
337.7846588445925
  0
ARC
  5
CA
100
AcDbEntity
  8
A1
  6
CONTINUOUS
 62
7
100
AcDbCircle
 10
61.23887116665890
 20
182.0744573978159
 30
0.000000000000000
 40
3.000000000000000
100
AcDbArc
 50
24.38123739302495
 51
90.00000000000000
  0
ARC
  5
CB
100
AcDbEntity
  8
A1
  6
CONTINUOUS
 62
7
100
AcDbCircle
 10
61.23887116665890
 20
182.0744573978159
 30
0.000000000000000
 40
1.000000000000000
100
AcDbArc
 50
24.38123739302464
 51
90.00000000000000
  0
ARC
  5
CC
100
AcDbEntity
  8
A1
  6
CONTINUOUS
 62
7
100
AcDbCircle
 10
26.69026081019743
 20
166.4161522829004
 30
0.000000000000000
 40
40.93137219551113
100
AcDbArc
 50
0.000000000000000
 51
24.38123739302367
  0
ARC
  5
CD
100
AcDbEntity
  8
A1
  6
CONTINUOUS
 62
7
100
AcDbCircle
 10
26.69026081019743
 20
166.4161522829004
 30
0.000000000000000
 40
40.93137219551113
100
AcDbArc
 50
337.7846588445986
 51
360.0000000000000
  0
ARC
  5
CE
100
AcDbEntity
  8
A1
  6
CONTINUOUS
 62
7
100
AcDbCircle
 10
26.69026081019743
 20
166.4161522829004
 30
0.000000000000000
 40
38.93137219551113
100
AcDbArc
 50
337.7846588445986
 51
384.3812373930237
  0
LINE
  5
CF
100
AcDbEntity
  8
A1
  6
CONTINUOUS
 62
7
100
AcDbLine
 10
43.10750215986537
 20
149.0795617932365
 30
0.000000000000000
 11
44.36725470722993
 21
149.1511470013418
 31
0.000000000000000
  0
LINE
  5
D0
100
AcDbEntity
  8
A1
  6
CONTINUOUS
 62
7
100
AcDbLine
 10
44.36725470722993
 20
151.1543734586745
 30
0.000000000000000
 11
42.99403544696284
 21
151.0763405253606
 31
0.000000000000000
  0
LINE
  5
D1
100
AcDbEntity
  8
A1
  6
CONTINUOUS
 62
7
100
AcDbLine
 10
61.74923056445422
 20
151.0763405253606
 30
0.000000000000000
 11
60.36725470722997
 21
151.1548710506950
 31
0.000000000000000
  0
LINE
  5
D2
100
AcDbEntity
  8
A1
  6
CONTINUOUS
 62
7
100
AcDbLine
 10
60.36725470722993
 20
149.1516445933624
 30
0.000000000000000
 11
61.63576385155167
 21
149.0795617932365
 31
0.000000000000000
  0
LINE
  5
D3
100
AcDbEntity
  8
A1
  6
CONTINUOUS
 62
7
100
AcDbLine
 10
61.23887116665890
 20
185.0744573978159
 30
0.000000000000000
 11
43.50439484475811
 21
185.0744573978159
 31
0.000000000000000
  0
LINE
  5
D4
100
AcDbEntity
  8
A1
  6
CONTINUOUS
 62
7
100
AcDbLine
 10
43.50439484475811
 20
183.0744573978159
 30
0.000000000000000
 11
61.23887116665890
 21
183.0744573978159
 31
0.000000000000000
  0
ARC
  5
D5
100
AcDbEntity
  8
A1
  6
CONTINUOUS
 62
7
100
AcDbCircle
 10
58.86725470723050
 20
230.3200790993378
 30
0.000000000000000
 40
1.499999999999438
100
AcDbArc
 50
359.9999999999787
 51
450.0000000000193
  0
ARC
  5
D6
100
AcDbEntity
  8
A1
  6
CONTINUOUS
 62
7
100
AcDbCircle
 10
45.86724253677133
 20
230.3200912697958
 30
0.000000000000000
 40
1.499987829590788
100
AcDbArc
 50
89.99953511895158
 51
180.0004648810463
  0
LINE
  5
D7
100
AcDbEntity
  8
A1
  6
CONTINUOUS
 62
7
100
AcDbLine
 10
45.86725470723000
 20
219.0200790993372
 30
0.000000000000000
 11
45.86725470723000
 21
222.8200790993373
 31
0.000000000000000
  0
LINE
  5
D8
100
AcDbEntity
  8
A1
  6
CONTINUOUS
 62
7
100
AcDbLine
 10
44.36725470722995
 20
219.0200790993372
 30
0.000000000000000
 11
44.36725470722995
 21
222.8200790993373
 31
0.000000000000000
  0
LINE
  5
D9
100
AcDbEntity
  8
A1
  6
CONTINUOUS
 62
7
100
AcDbLine
 10
44.36725470722995
 20
219.0200790993372
 30
0.000000000000000
 11
45.86725470723000
 21
219.0200790993372
 31
0.000000000000000
  0
LINE
  5
DA
100
AcDbEntity
  8
A1
  6
CONTINUOUS
 62
7
100
AcDbLine
 10
60.36725470722995
 20
222.8200790993373
 30
0.000000000000000
 11
60.36725470722995
 21
219.0200790993372
 31
0.000000000000000
  0
LINE
  5
DB
100
AcDbEntity
  8
A1
  6
CONTINUOUS
 62
7
100
AcDbLine
 10
58.86725470723000
 20
222.8200790993373
 30
0.000000000000000
 11
58.86725470723000
 21
219.0200790993372
 31
0.000000000000000
  0
LINE
  5
DC
100
AcDbEntity
  8
A1
  6
CONTINUOUS
 62
7
100
AcDbLine
 10
58.86725470723000
 20
219.0200790993372
 30
0.000000000000000
 11
60.36725470722995
 21
219.0200790993372
 31
0.000000000000000
  0
LINE
  5
DD
100
AcDbEntity
  8
A1
  6
CONTINUOUS
 62
7
100
AcDbLine
 10
60.36725470722995
 20
225.3200790993372
 30
0.000000000000000
 11
60.36725470722995
 21
224.8200790993373
 31
0.000000000000000
  0
LINE
  5
DE
100
AcDbEntity
  8
A1
  6
CONTINUOUS
 62
7
100
AcDbLine
 10
58.86725470723000
 20
225.3200790993372
 30
0.000000000000000
 11
58.86725470723000
 21
224.8200790993373
 31
0.000000000000000
  0
LINE
  5
DF
100
AcDbEntity
  8
A1
  6
CONTINUOUS
 62
7
100
AcDbLine
 10
45.86725470723000
 20
224.8200790993373
 30
0.000000000000000
 11
45.86725470723000
 21
225.3200790993372
 31
0.000000000000000
  0
LINE
  5
E0
100
AcDbEntity
  8
A1
  6
CONTINUOUS
 62
7
100
AcDbLine
 10
44.36725470722995
 20
224.8200790993373
 30
0.000000000000000
 11
44.36725470722995
 21
225.3200790993372
 31
0.000000000000000
  0
LINE
  5
E1
100
AcDbEntity
  8
A1
  6
CONTINUOUS
 62
7
100
AcDbLine
 10
60.36725470722995
 20
225.8200790993372
 30
0.000000000000000
 11
60.36725470722995
 21
225.3200790993372
 31
0.000000000000000
  0
LINE
  5
E2
100
AcDbEntity
  8
A1
  6
CONTINUOUS
 62
7
100
AcDbLine
 10
58.86725470723000
 20
225.8200790993372
 30
0.000000000000000
 11
58.86725470723000
 21
225.3200790993372
 31
0.000000000000000
  0
LINE
  5
E3
100
AcDbEntity
  8
A1
  6
CONTINUOUS
 62
7
100
AcDbLine
 10
58.86725470723000
 20
225.3200790993372
 30
0.000000000000000
 11
60.36725470722995
 21
225.3200790993372
 31
0.000000000000000
  0
LINE
  5
E4
100
AcDbEntity
  8
A1
  6
CONTINUOUS
 62
7
100
AcDbLine
 10
45.86725470723000
 20
225.3200790993372
 30
0.000000000000000
 11
45.86725470723000
 21
225.8200790993372
 31
0.000000000000000
  0
LINE
  5
E5
100
AcDbEntity
  8
A1
  6
CONTINUOUS
 62
7
100
AcDbLine
 10
44.36725470722995
 20
225.3200790993372
 30
0.000000000000000
 11
44.36725470722995
 21
225.8200790993372
 31
0.000000000000000
  0
LINE
  5
E6
100
AcDbEntity
  8
A1
  6
CONTINUOUS
 62
7
100
AcDbLine
 10
44.36725470722995
 20
225.3200790993372
 30
0.000000000000000
 11
45.86725470723000
 21
225.3200790993372
 31
0.000000000000000
  0
LINE
  5
E7
100
AcDbEntity
  8
A1
  6
CONTINUOUS
 62
7
100
AcDbLine
 10
44.36725470722995
 20
227.3200790993372
 30
0.000000000000000
 11
44.36725470722995
 21
230.3200790993372
 31
0.000000000000000
  0
LINE
  5
E8
100
AcDbEntity
  8
A1
  6
CONTINUOUS
 62
7
100
AcDbLine
 10
60.36725470722995
 20
230.3200790993372
 30
0.000000000000000
 11
60.36725470722995
 21
227.3200790993372
 31
0.000000000000000
  0
LINE
  5
E9
100
AcDbEntity
  8
A1
  6
CONTINUOUS
 62
7
100
AcDbLine
 10
45.86725470723000
 20
231.8200790993372
 30
0.000000000000000
 11
58.86725470723000
 21
231.8200790993372
 31
0.000000000000000
  0
LINE
  5
EA
100
AcDbEntity
  8
A1
  6
CONTINUOUS
 62
7
100
AcDbLine
 10
60.36725470722995
 20
227.3200790993372
 30
0.000000000000000
 11
60.36725470722995
 21
225.8200790993372
 31
0.000000000000000
  0
LINE
  5
EB
100
AcDbEntity
  8
A1
  6
CONTINUOUS
 62
7
100
AcDbLine
 10
44.36725470722995
 20
227.3200790993372
 30
0.000000000000000
 11
60.36725470722995
 21
227.3200790993372
 31
0.000000000000000
  0
LINE
  5
EC
100
AcDbEntity
  8
A1
  6
CONTINUOUS
 62
7
100
AcDbLine
 10
44.36725470722995
 20
225.8200790993372
 30
0.000000000000000
 11
44.36725470722995
 21
227.3200790993372
 31
0.000000000000000
  0
LINE
  5
ED
100
AcDbEntity
  8
A1
  6
CONTINUOUS
 62
7
100
AcDbLine
 10
44.36725470722995
 20
225.8200790993372
 30
0.000000000000000
 11
60.36725470722995
 21
225.8200790993372
 31
0.000000000000000
  0
SPLINE
  5
EE
100
AcDbEntity
  8
A1
  6
CONTINUOUS
 62
7
100
AcDbSpline
210
0.000000000000000
220
0.000000000000000
230
1.000000000000000
 70
     8
 71
     3
 72
    12
 73
     8
 74
     0
 42
1.000000000000000e-07
 43
1.000000000000000e-07
 12
0.9924400810173211
 22
-0.1227301331819035
 32
0.000000000000000
 13
0.8451198109578399
 23
-0.5345769403502345
 33
0.000000000000000
 40
0.000000000000000
 40
0.000000000000000
 40
0.000000000000000
 40
0.000000000000000
 40
0.06953948251043041
 40
0.1928805451414076
 40
0.3915833765803906
 40
0.4459577830562094
 40
0.4504303216958576
 40
0.4504303216958576
 40
0.4504303216958576
 40
0.4504303216958576
 10
43.96725470723001
 20
229.0700790993374
 30
0.000000000000000
 10
43.99025929711553
 20
229.0672342360208
 30
0.000000000000000
 10
44.05395773569742
 20
229.0548783731470
 30
0.000000000000000
 10
44.16993094180873
 20
228.9920750357366
 30
0.000000000000000
 10
44.27685891896829
 20
228.9273209737720
 30
0.000000000000000
 10
44.34941947178569
 20
228.8813650854756
 30
0.000000000000000
 10
44.36599476356011
 20
228.8708760713446
 30
0.000000000000000
 10
44.36725470722999
 20
228.8700790993374
 30
0.000000000000000
  0
SPLINE
  5
EF
100
AcDbEntity
  8
A1
  6
CONTINUOUS
 62
7
100
AcDbSpline
210
0.000000000000000
220
0.000000000000000
230
1.000000000000000
 70
     8
 71
     3
 72
    12
 73
     8
 74
     0
 42
1.000000000000000e-07
 43
1.000000000000000e-07
 12
0.8451198109469260
 22
0.5345769403793383
 32
0.000000000000000
 13
0.9924400810168663
 23
0.1227301331800845
 33
0.000000000000000
 40
0.000000000000000
 40
0.000000000000000
 40
0.000000000000000
 40
0.000000000000000
 40
0.004472538639624200
 40
0.05884694511547020
 40
0.2575497765544532
 40
0.3808908391854243
 40
0.4504303216958733
 40
0.4504303216958733
 40
0.4504303216958733
 40
0.4504303216958733
 10
60.36725470722999
 20
228.8700790993374
 30
0.000000000000000
 10
60.36851465089984
 20
228.8708760713446
 30
0.000000000000000
 10
60.38508994267423
 20
228.8813650854755
 30
0.000000000000000
 10
60.45765049549161
 20
228.9273209737722
 30
0.000000000000000
 10
60.56457847265128
 20
228.9920750357365
 30
0.000000000000000
 10
60.68055167876253
 20
229.0548783731471
 30
0.000000000000000
 10
60.74425011734445
 20
229.0672342360207
 30
0.000000000000000
 10
60.76725470722997
 20
229.0700790993373
 30
0.000000000000000
  0
SPLINE
  5
F0
100
AcDbEntity
  8
A1
  6
CONTINUOUS
 62
7
100
AcDbSpline
210
0.000000000000000
220
0.000000000000000
230
1.000000000000000
 70
     8
 71
     3
 72
    12
 73
     8
 74
     0
 42
1.000000000000000e-07
 43
1.000000000000000e-07
 12
-0.9924400810173211
 22
0.1227301331800845
 32
0.000000000000000
 13
-0.8451198109396501
 23
0.5345769403502345
 33
0.000000000000000
 40
0.000000000000000
 40
0.000000000000000
 40
0.000000000000000
 40
0.000000000000000
 40
0.06953948251042751
 40
0.1928805451413986
 40
0.3915833765803816
 40
0.4459577830562396
 40
0.4504303216958518
 40
0.4504303216958518
 40
0.4504303216958518
 40
0.4504303216958518
 10
60.76725470722994
 20
227.5700790993374
 30
0.000000000000000
 10
60.74425011734442
 20
227.5729239626540
 30
0.000000000000000
 10
60.68055167876255
 20
227.5852798255278
 30
0.000000000000000
 10
60.56457847265122
 20
227.6480831629383
 30
0.000000000000000
 10
60.45765049549175
 20
227.7128372249027
 30
0.000000000000000
 10
60.38508994267417
 20
227.7587931131993
 30
0.000000000000000
 10
60.36851465089984
 20
227.7692821273302
 30
0.000000000000000
 10
60.36725470722999
 20
227.7700790993374
 30
0.000000000000000
  0
SPLINE
  5
F1
100
AcDbEntity
  8
A1
  6
CONTINUOUS
 62
7
100
AcDbSpline
210
0.000000000000000
220
0.000000000000000
230
1.000000000000000
 70
     8
 71
     3
 72
    12
 73
     8
 74
     0
 42
1.000000000000000e-07
 43
1.000000000000000e-07
 12
-0.8451198109578399
 22
-0.5345769403502345
 32
0.000000000000000
 13
-0.9924400810159568
 23
-0.1227301331855415
 33
0.000000000000000
 40
0.000000000000000
 40
0.000000000000000
 40
0.000000000000000
 40
0.000000000000000
 40
0.004472538639648200
 40
0.05884694511546700
 40
0.2575497765544573
 40
0.3808908391854284
 40
0.4504303216959429
 40
0.4504303216959429
 40
0.4504303216959429
 40
0.4504303216959429
 10
44.36725470722999
 20
227.7700790993374
 30
0.000000000000000
 10
44.36599476356011
 20
227.7692821273302
 30
0.000000000000000
 10
44.34941947178569
 20
227.7587931131993
 30
0.000000000000000
 10
44.27685891896829
 20
227.7128372249027
 30
0.000000000000000
 10
44.16993094180864
 20
227.6480831629382
 30
0.000000000000000
 10
44.05395773569742
 20
227.5852798255279
 30
0.000000000000000
 10
43.99025929711547
 20
227.5729239626540
 30
0.000000000000000
 10
43.96725470722996
 20
227.5700790993373
 30
0.000000000000000
  0
LINE
  5
F2
100
AcDbEntity
  8
A1
  6
CONTINUOUS
 62
7
100
AcDbLine
 10
44.36725470723000
 20
218.8200790993373
 30
0.000000000000000
 11
43.86725470722995
 21
218.8200790993373
 31
0.000000000000000
  0
LINE
  5
F3
100
AcDbEntity
  8
A1
  6
CONTINUOUS
 62
7
100
AcDbLine
 10
43.86725470722995
 20
220.3200790993373
 30
0.000000000000000
 11
44.36725470723000
 21
220.3200790993373
 31
0.000000000000000
  0
LINE
  5
F4
100
AcDbEntity
  8
A1
  6
CONTINUOUS
 62
7
100
AcDbLine
 10
43.86725470722995
 20
218.8200790993373
 30
0.000000000000000
 11
43.86725470722995
 21
220.3200790993373
 31
0.000000000000000
  0
LINE
  5
F5
100
AcDbEntity
  8
A1
  6
CONTINUOUS
 62
7
100
AcDbLine
 10
44.36725470723000
 20
218.8200790993373
 30
0.000000000000000
 11
46.11725470722995
 21
218.8200790993373
 31
0.000000000000000
  0
LINE
  5
F6
100
AcDbEntity
  8
A1
  6
CONTINUOUS
 62
7
100
AcDbLine
 10
46.11725470722995
 20
220.3200790993303
 30
0.000000000000000
 11
45.86725470722995
 21
220.3200790993373
 31
0.000000000000000
  0
LINE
  5
F7
100
AcDbEntity
  8
A1
  6
CONTINUOUS
 62
7
100
AcDbLine
 10
44.36725470723000
 20
219.0200790993372
 30
0.000000000000000
 11
44.36725470723000
 21
218.8200790993373
 31
0.000000000000000
  0
LINE
  5
F8
100
AcDbEntity
  8
A1
  6
CONTINUOUS
 62
7
100
AcDbLine
 10
60.86725470722995
 20
218.8200790993373
 30
0.000000000000000
 11
60.36725470723000
 21
218.8200790993373
 31
0.000000000000000
  0
LINE
  5
F9
100
AcDbEntity
  8
A1
  6
CONTINUOUS
 62
7
100
AcDbLine
 10
60.36725470723000
 20
220.3200790993303
 30
0.000000000000000
 11
60.86725470722995
 21
220.3200790993303
 31
0.000000000000000
  0
LINE
  5
FA
100
AcDbEntity
  8
A1
  6
CONTINUOUS
 62
7
100
AcDbLine
 10
60.86725470722995
 20
220.3200790993373
 30
0.000000000000000
 11
60.86725470722995
 21
218.8200790993373
 31
0.000000000000000
  0
LINE
  5
FB
100
AcDbEntity
  8
A1
  6
CONTINUOUS
 62
7
100
AcDbLine
 10
60.36725470723000
 20
218.8200790993373
 30
0.000000000000000
 11
58.61725470722995
 21
218.8200790993373
 31
0.000000000000000
  0
LINE
  5
FC
100
AcDbEntity
  8
A1
  6
CONTINUOUS
 62
7
100
AcDbLine
 10
58.61725470722995
 20
220.3200790993303
 30
0.000000000000000
 11
58.86725470723000
 21
220.3200790993373
 31
0.000000000000000
  0
LINE
  5
FD
100
AcDbEntity
  8
A1
  6
CONTINUOUS
 62
7
100
AcDbLine
 10
60.36725470723000
 20
218.8200790993373
 30
0.000000000000000
 11
60.36725470723000
 21
219.0200790993372
 31
0.000000000000000
  0
LINE
  5
FE
100
AcDbEntity
  8
A1
  6
CONTINUOUS
 62
7
100
AcDbLine
 10
58.61725470722997
 20
219.3558976847566
 30
0.000000000000000
 11
58.61725470722997
 21
218.8200790993373
 31
0.000000000000000
  0
LINE
  5
FF
100
AcDbEntity
  8
A1
  6
CONTINUOUS
 62
7
100
AcDbLine
 10
46.11725470722989
 20
219.3558976847566
 30
0.000000000000000
 11
46.11725470722989
 21
218.8200790993373
 31
0.000000000000000
  0
LINE
  5
100
100
AcDbEntity
  8
A1
  6
CONTINUOUS
 62
7
100
AcDbLine
 10
46.11725470722989
 20
218.8200790993373
 30
0.000000000000000
 11
58.61725470722997
 21
218.8200790993373
 31
0.000000000000000
  0
LINE
  5
101
100
AcDbEntity
  8
A1
  6
CONTINUOUS
 62
7
100
AcDbLine
 10
58.61725470722997
 20
224.8200790993373
 30
0.000000000000000
 11
58.61725470722997
 21
225.8200790993372
 31
0.000000000000000
  0
LINE
  5
102
100
AcDbEntity
  8
A1
  6
CONTINUOUS
 62
7
100
AcDbLine
 10
58.61725470722997
 20
219.3558976848074
 30
0.000000000000000
 11
58.61725470722997
 21
222.8200790993373
 31
0.000000000000000
  0
LINE
  5
103
100
AcDbEntity
  8
A1
  6
CONTINUOUS
 62
7
100
AcDbLine
 10
46.11725470722989
 20
224.8200790993373
 30
0.000000000000000
 11
46.11725470722989
 21
225.8200790993372
 31
0.000000000000000
  0
LINE
  5
104
100
AcDbEntity
  8
A1
  6
CONTINUOUS
 62
7
100
AcDbLine
 10
46.11725470722989
 20
219.3558976848074
 30
0.000000000000000
 11
46.11725470722989
 21
222.8200790993373
 31
0.000000000000000
  0
LINE
  5
105
100
AcDbEntity
  8
A1
  6
CONTINUOUS
 62
7
100
AcDbLine
 10
46.11725470722989
 20
219.3558976848074
 30
0.000000000000000
 11
58.61725470722997
 21
219.3558976848074
 31
0.000000000000000
  0
LINE
  5
106
100
AcDbEntity
  8
A1
  6
CONTINUOUS
 62
7
100
AcDbLine
 10
60.36725470722995
 20
229.0700790993373
 30
0.000000000000000
 11
60.76725470722998
 21
229.0700790993373
 31
0.000000000000000
  0
LINE
  5
107
100
AcDbEntity
  8
A1
  6
CONTINUOUS
 62
7
100
AcDbLine
 10
43.96725470723003
 20
229.0700790993374
 30
0.000000000000000
 11
44.36725470722995
 21
229.0700790993374
 31
0.000000000000000
  0
LINE
  5
108
100
AcDbEntity
  8
A1
  6
CONTINUOUS
 62
7
100
AcDbLine
 10
43.86725470722995
 20
229.0700790993373
 30
0.000000000000000
 11
43.96725470722997
 21
229.0700790993373
 31
0.000000000000000
  0
LINE
  5
109
100
AcDbEntity
  8
A1
  6
CONTINUOUS
 62
7
100
AcDbLine
 10
43.86725470722995
 20
227.5700790993373
 30
0.000000000000000
 11
43.86725470722995
 21
229.0700790993373
 31
0.000000000000000
  0
LINE
  5
10A
100
AcDbEntity
  8
A1
  6
CONTINUOUS
 62
7
100
AcDbLine
 10
43.96725470722997
 20
227.5700790993373
 30
0.000000000000000
 11
43.86725470722995
 21
227.5700790993373
 31
0.000000000000000
  0
LINE
  5
10B
100
AcDbEntity
  8
A1
  6
CONTINUOUS
 62
7
100
AcDbLine
 10
60.86725470723000
 20
227.5700790993373
 30
0.000000000000000
 11
60.76725470722998
 21
227.5700790993373
 31
0.000000000000000
  0
LINE
  5
10C
100
AcDbEntity
  8
A1
  6
CONTINUOUS
 62
7
100
AcDbLine
 10
60.86725470722995
 20
229.0700790993373
 30
0.000000000000000
 11
60.86725470722995
 21
227.5700790993373
 31
0.000000000000000
  0
LINE
  5
10D
100
AcDbEntity
  8
A1
  6
CONTINUOUS
 62
7
100
AcDbLine
 10
60.76725470722998
 20
229.0700790993373
 30
0.000000000000000
 11
60.86725470723000
 21
229.0700790993373
 31
0.000000000000000
  0
LINE
  5
10E
100
AcDbEntity
  8
A1
  6
CONTINUOUS
 62
7
100
AcDbLine
 10
60.36725470722995
 20
227.5700790993374
 30
0.000000000000000
 11
60.76725470722995
 21
227.5700790993374
 31
0.000000000000000
  0
LINE
  5
10F
100
AcDbEntity
  8
A1
  6
CONTINUOUS
 62
7
100
AcDbLine
 10
43.96725470722994
 20
227.5700790993373
 30
0.000000000000000
 11
44.36725470722992
 21
227.5700790993374
 31
0.000000000000000
  0
ARC
  5
110
100
AcDbEntity
  8
A1
  6
CONTINUOUS
 62
7
100
AcDbCircle
 10
66.61287640875139
 20
223.8200790993373
 30
0.000000000000000
 40
1.000000000000000
100
AcDbArc
 50
270.0000000000000
 51
450.0000000000000
  0
ARC
  5
111
100
AcDbEntity
  8
A1
  6
CONTINUOUS
 62
7
100
AcDbCircle
 10
38.11287640875130
 20
223.8200790993373
 30
0.000000000000000
 40
1.000000000000000
100
AcDbArc
 50
90.00000000000000
 51
270.0000000000000
  0
LINE
  5
112
100
AcDbEntity
  8
A1
  6
CONTINUOUS
 62
7
100
AcDbLine
 10
63.05175235166165
 20
222.8200790993373
 30
0.000000000000000
 11
66.61287640875140
 21
222.8200790993373
 31
0.000000000000000
  0
LINE
  5
113
100
AcDbEntity
  8
A1
  6
CONTINUOUS
 62
7
100
AcDbLine
 10
66.61287640875140
 20
224.8200790993373
 30
0.000000000000000
 11
63.05175235166165
 21
224.8200790993373
 31
0.000000000000000
  0
LINE
  5
114
100
AcDbEntity
  8
A1
  6
CONTINUOUS
 62
7
100
AcDbLine
 10
38.11287640875132
 20
222.8200790993373
 30
0.000000000000000
 11
41.67400046584110
 21
222.8200790993373
 31
0.000000000000000
  0
LINE
  5
115
100
AcDbEntity
  8
A1
  6
CONTINUOUS
 62
7
100
AcDbLine
 10
41.67400046584110
 20
224.8200790993373
 30
0.000000000000000
 11
38.11287640875132
 21
224.8200790993373
 31
0.000000000000000
  0
LINE
  5
116
100
AcDbEntity
  8
A1
  6
CONTINUOUS
 62
7
100
AcDbLine
 10
61.23011456970177
 20
222.8200790993373
 30
0.000000000000000
 11
63.05175235166156
 21
222.8200790993373
 31
0.000000000000000
  0
LINE
  5
117
100
AcDbEntity
  8
A1
  6
CONTINUOUS
 62
7
100
AcDbLine
 10
63.05175235166156
 20
224.8200790993373
 30
0.000000000000000
 11
61.23011456970177
 21
224.8200790993373
 31
0.000000000000000
  0
LINE
  5
118
100
AcDbEntity
  8
A1
  6
CONTINUOUS
 62
7
100
AcDbLine
 10
41.67400046584119
 20
222.8200790993373
 30
0.000000000000000
 11
43.49563824780098
 21
222.8200790993373
 31
0.000000000000000
  0
LINE
  5
119
100
AcDbEntity
  8
A1
  6
CONTINUOUS
 62
7
100
AcDbLine
 10
43.49563824780098
 20
224.8200790993373
 30
0.000000000000000
 11
41.67400046584119
 21
224.8200790993373
 31
0.000000000000000
  0
LINE
  5
11A
100
AcDbEntity
  8
A1
  6
CONTINUOUS
 62
7
100
AcDbLine
 10
43.49563824780098
 20
222.8200790993373
 30
0.000000000000000
 11
61.23011456970177
 21
222.8200790993373
 31
0.000000000000000
  0
LINE
  5
11B
100
AcDbEntity
  8
A1
  6
CONTINUOUS
 62
7
100
AcDbLine
 10
61.23011456970177
 20
224.8200790993373
 30
0.000000000000000
 11
43.49563824780098
 21
224.8200790993373
 31
0.000000000000000
  0
SPLINE
  5
11C
100
AcDbEntity
  8
A1
  6
CONTINUOUS
 62
7
100
AcDbSpline
210
0.000000000000000
220
0.000000000000000
230
1.000000000000000
 70
     8
 71
     3
 72
    47
 73
    43
 74
     0
 42
1.000000000000000e-07
 43
1.000000000000000e-07
 12
-0.001559965012233988
 22
-0.9999987832538864
 32
0.000000000000000
 13
-0.001453618476034535
 23
0.9999989434961662
 33
0.000000000000000
 40
0.000000000000000
 40
0.000000000000000
 40
0.000000000000000
 40
0.000000000000000
 40
0.6083915706794824
 40
1.222185556776185
 40
1.848983514108863
 40
2.480502643850773
 40
3.091200613561310
 40
3.705696257466196
 40
4.335766164639044
 40
4.970472784550454
 40
5.502099263438400
 40
6.043504446324187
 40
6.584802979898846
 40
7.137254560103276
 40
7.648166667143212
 40
8.169035748060034
 40
8.691065278373655
 40
9.223497407922805
 40
9.605174321626142
 40
9.990801858701607
 40
10.37673818156865
 40
10.76641490400766
 40
11.29242611150186
 40
11.82735747238534
 40
12.36150918879506
 40
12.90423433452577
 40
13.42685508917676
 40
13.95778620976370
 40
14.48768302174451
 40
15.02670279431031
 40
15.54085192651663
 40
16.06452996272839
 40
16.58879941951536
 40
17.12375792005623
 40
17.63693050939431
 40
18.15984800863837
 40
18.68393656286091
 40
19.21740981181696
 40
19.78867203308081
 40
20.36853870817709
 40
20.94752534833106
 40
21.53299320818246
 40
21.53299320818246
 40
21.53299320818246
 40
21.53299320818246
 10
159.7573865187495
 20
134.7546061808677
 30
0.000000000000000
 10
159.7570701622282
 20
134.5518092373939
 30
0.000000000000000
 10
159.7697605597892
 20
134.1442889995026
 30
0.000000000000000
 10
159.8281052223502
 20
133.5302911671766
 30
0.000000000000000
 10
159.9315803274117
 20
132.9142889634861
 30
0.000000000000000
 10
160.0824878701890
 20
132.3091289385546
 30
0.000000000000000
 10
160.2816746266046
 20
131.7223840056764
 30
0.000000000000000
 10
160.5309890121997
 20
131.1555346274667
 30
0.000000000000000
 10
160.8360875442116
 20
130.6073132925977
 30
0.000000000000000
 10
161.1783713108310
 20
130.1146918673969
 30
0.000000000000000
 10
161.5462674865348
 20
129.6793923792310
 30
0.000000000000000
 10
161.9291023612510
 20
129.3002095040383
 30
0.000000000000000
 10
162.3494592049996
 20
128.9521244005966
 30
0.000000000000000
 10
162.7911277374760
 20
128.6490873836334
 30
0.000000000000000
 10
163.2511947479597
 20
128.3886589486174
 30
0.000000000000000
 10
163.7219967735190
 20
128.1713578794861
 30
0.000000000000000
 10
164.2156294746400
 20
127.9906380235910
 30
0.000000000000000
 10
164.6775816882680
 20
127.8629715265008
 30
0.000000000000000
 10
165.1023517148425
 20
127.7765904431672
 30
0.000000000000000
 10
165.4830449050461
 20
127.7217088985513
 30
0.000000000000000
 10
165.8689050464341
 20
127.6884322801905
 30
0.000000000000000
 10
166.3028253979853
 20
127.6759746815124
 30
0.000000000000000
 10
166.7865098024222
 20
127.6947116792173
 30
0.000000000000000
 10
167.3151024315845
 20
127.7570124772324
 30
0.000000000000000
 10
167.8425627111278
 20
127.8621837842939
 30
0.000000000000000
 10
168.3557789405620
 20
128.0089278906076
 30
0.000000000000000
 10
168.8542089881547
 20
128.1968378240448
 30
0.000000000000000
 10
169.3315113378603
 20
128.4236321198958
 30
0.000000000000000
 10
169.7926691562394
 20
128.6927306588345
 30
0.000000000000000
 10
170.2240816412584
 20
128.9978122536098
 30
0.000000000000000
 10
170.6258595065299
 20
129.3376720133602
 30
0.000000000000000
 10
170.9934999504940
 20
129.7073293016500
 30
0.000000000000000
 10
171.3326133190670
 20
130.1123925589043
 30
0.000000000000000
 10
171.6336664953336
 20
130.5422356184387
 30
0.000000000000000
 10
171.8979829915395
 20
130.9949551407303
 30
0.000000000000000
 10
172.1240678211221
 20
131.4638905111757
 30
0.000000000000000
 10
172.3163229391448
 20
131.9549068542734
 30
0.000000000000000
 10
172.4767069464008
 20
132.4741096908483
 30
0.000000000000000
 10
172.6033789512364
 20
133.0216751011309
 30
0.000000000000000
 10
172.6934845693654
 20
133.5917660626256
 30
0.000000000000000
 10
172.7460607842253
 20
134.1711865681613
 30
0.000000000000000
 10
172.7576702010489
 20
134.5594504337670
 30
0.000000000000000
 10
172.7573865187495
 20
134.7546061808677
 30
0.000000000000000
  0
LINE
  5
11D
100
AcDbEntity
  8
A1
  6
CONTINUOUS
 62
7
100
AcDbLine
 10
172.7573865187493
 20
143.5606842138452
 30
0.000000000000000
 11
172.7573865187493
 21
143.6962285287868
 31
0.000000000000000
  0
LINE
  5
11E
100
AcDbEntity
  8
A1
  6
CONTINUOUS
 62
7
100
AcDbLine
 10
159.7573865187493
 20
143.5606842138452
 30
0.000000000000000
 11
159.7573865187493
 21
143.6962285287868
 31
0.000000000000000
  0
LINE
  5
11F
100
AcDbEntity
  8
A1
  6
CONTINUOUS
 62
7
100
AcDbLine
 10
159.7573865187493
 20
134.7546061808692
 30
0.000000000000000
 11
159.7573865187493
 21
143.5606842138452
 31
0.000000000000000
  0
LINE
  5
120
100
AcDbEntity
  8
A1
  6
CONTINUOUS
 62
7
100
AcDbLine
 10
172.7573865187493
 20
134.7546061808692
 30
0.000000000000000
 11
172.7573865187493
 21
143.5606842138452
 31
0.000000000000000
  0
LINE
  5
121
100
AcDbEntity
  8
A1
  6
CONTINUOUS
 62
7
100
AcDbLine
 10
172.5073865187493
 20
143.5606842138452
 30
0.000000000000000
 11
172.7573865187493
 21
143.5606842138452
 31
0.000000000000000
  0
LINE
  5
122
100
AcDbEntity
  8
A1
  6
CONTINUOUS
 62
7
100
AcDbLine
 10
159.7573865187493
 20
143.5606842138452
 30
0.000000000000000
 11
160.0073865187493
 21
143.5606842138452
 31
0.000000000000000
  0
LINE
  5
123
100
AcDbEntity
  8
A1
  6
CONTINUOUS
 62
7
100
AcDbLine
 10
174.2573865187493
 20
169.6962285287869
 30
0.000000000000000
 11
174.2573865187493
 21
168.1962285287870
 31
0.000000000000000
  0
LINE
  5
124
100
AcDbEntity
  8
A1
  6
CONTINUOUS
 62
7
100
AcDbLine
 10
158.2573865187493
 20
169.6962285287869
 30
0.000000000000000
 11
174.2573865187493
 21
169.6962285287869
 31
0.000000000000000
  0
LINE
  5
125
100
AcDbEntity
  8
A1
  6
CONTINUOUS
 62
7
100
AcDbLine
 10
158.2573865187493
 20
168.1962285287870
 30
0.000000000000000
 11
158.2573865187493
 21
169.6962285287869
 31
0.000000000000000
  0
LINE
  5
126
100
AcDbEntity
  8
A1
  6
CONTINUOUS
 62
7
100
AcDbLine
 10
159.7573865187493
 20
168.1962285287870
 30
0.000000000000000
 11
172.7573865187493
 21
168.1962285287870
 31
0.000000000000000
  0
LINE
  5
127
100
AcDbEntity
  8
A1
  6
CONTINUOUS
 62
7
100
AcDbLine
 10
158.2573865187493
 20
154.6962285287871
 30
0.000000000000000
 11
158.2573865187493
 21
156.6962285287870
 31
0.000000000000000
  0
LINE
  5
128
100
AcDbEntity
  8
A1
  6
CONTINUOUS
 62
7
100
AcDbLine
 10
159.7573865187493
 20
154.6962285287871
 30
0.000000000000000
 11
159.7573865187493
 21
156.6962285287870
 31
0.000000000000000
  0
LINE
  5
129
100
AcDbEntity
  8
A1
  6
CONTINUOUS
 62
7
100
AcDbLine
 10
174.2573865187493
 20
144.1962285287872
 30
0.000000000000000
 11
174.2573865187493
 21
143.6962285287868
 31
0.000000000000000
  0
LINE
  5
12A
100
AcDbEntity
  8
A1
  6
CONTINUOUS
 62
7
100
AcDbLine
 10
172.7573865187493
 20
144.1962285287872
 30
0.000000000000000
 11
172.7573865187493
 21
143.6962285287868
 31
0.000000000000000
  0
LINE
  5
12B
100
AcDbEntity
  8
A1
  6
CONTINUOUS
 62
7
100
AcDbLine
 10
172.7573865187493
 20
143.6962285287868
 30
0.000000000000000
 11
174.2573865187493
 21
143.6962285287868
 31
0.000000000000000
  0
LINE
  5
12C
100
AcDbEntity
  8
A1
  6
CONTINUOUS
 62
7
100
AcDbLine
 10
174.2573865187493
 20
156.6962285287870
 30
0.000000000000000
 11
174.2573865187493
 21
154.6962285287871
 31
0.000000000000000
  0
LINE
  5
12D
100
AcDbEntity
  8
A1
  6
CONTINUOUS
 62
7
100
AcDbLine
 10
172.7573865187493
 20
156.6962285287870
 30
0.000000000000000
 11
172.7573865187493
 21
154.6962285287871
 31
0.000000000000000
  0
LINE
  5
12E
100
AcDbEntity
  8
A1
  6
CONTINUOUS
 62
7
100
AcDbLine
 10
158.2573865187493
 20
143.6962285287868
 30
0.000000000000000
 11
158.2573865187493
 21
144.1962285287872
 31
0.000000000000000
  0
LINE
  5
12F
100
AcDbEntity
  8
A1
  6
CONTINUOUS
 62
7
100
AcDbLine
 10
159.7573865187493
 20
143.6962285287868
 30
0.000000000000000
 11
159.7573865187493
 21
144.1962285287872
 31
0.000000000000000
  0
LINE
  5
130
100
AcDbEntity
  8
A1
  6
CONTINUOUS
 62
7
100
AcDbLine
 10
158.2573865187493
 20
143.6962285287868
 30
0.000000000000000
 11
159.7573865187493
 21
143.6962285287868
 31
0.000000000000000
  0
LINE
  5
131
100
AcDbEntity
  8
A1
  6
CONTINUOUS
 62
7
100
AcDbLine
 10
174.2573865187493
 20
157.9962285287869
 30
0.000000000000000
 11
174.2573865187493
 21
156.6962285287870
 31
0.000000000000000
  0
LINE
  5
132
100
AcDbEntity
  8
A1
  6
CONTINUOUS
 62
7
100
AcDbLine
 10
172.7573865187493
 20
157.9962285287869
 30
0.000000000000000
 11
172.7573865187493
 21
156.6962285287870
 31
0.000000000000000
  0
LINE
  5
133
100
AcDbEntity
  8
A1
  6
CONTINUOUS
 62
7
100
AcDbLine
 10
172.7573865187493
 20
156.6962285287870
 30
0.000000000000000
 11
174.2573865187493
 21
156.6962285287870
 31
0.000000000000000
  0
LINE
  5
134
100
AcDbEntity
  8
A1
  6
CONTINUOUS
 62
7
100
AcDbLine
 10
158.2573865187493
 20
156.6962285287870
 30
0.000000000000000
 11
158.2573865187493
 21
157.9962285287869
 31
0.000000000000000
  0
LINE
  5
135
100
AcDbEntity
  8
A1
  6
CONTINUOUS
 62
7
100
AcDbLine
 10
159.7573865187493
 20
156.6962285287870
 30
0.000000000000000
 11
159.7573865187493
 21
157.9962285287869
 31
0.000000000000000
  0
LINE
  5
136
100
AcDbEntity
  8
A1
  6
CONTINUOUS
 62
7
100
AcDbLine
 10
158.2573865187493
 20
156.6962285287870
 30
0.000000000000000
 11
159.7573865187493
 21
156.6962285287870
 31
0.000000000000000
  0
LINE
  5
137
100
AcDbEntity
  8
A1
  6
CONTINUOUS
 62
7
100
AcDbLine
 10
158.2573865187493
 20
163.1962285287869
 30
0.000000000000000
 11
158.2573865187493
 21
168.1962285287869
 31
0.000000000000000
  0
LINE
  5
138
100
AcDbEntity
  8
A1
  6
CONTINUOUS
 62
7
100
AcDbLine
 10
159.7573865187493
 20
163.1962285287869
 30
0.000000000000000
 11
159.7573865187493
 21
168.1962285287869
 31
0.000000000000000
  0
LINE
  5
139
100
AcDbEntity
  8
A1
  6
CONTINUOUS
 62
7
100
AcDbLine
 10
158.2573865187493
 20
168.1962285287869
 30
0.000000000000000
 11
159.7573865187493
 21
168.1962285287869
 31
0.000000000000000
  0
LINE
  5
13A
100
AcDbEntity
  8
A1
  6
CONTINUOUS
 62
7
100
AcDbLine
 10
174.2573865187493
 20
163.1962285287869
 30
0.000000000000000
 11
174.2573865187493
 21
157.9962285287869
 31
0.000000000000000
  0
LINE
  5
13B
100
AcDbEntity
  8
A1
  6
CONTINUOUS
 62
7
100
AcDbLine
 10
172.7573865187493
 20
163.1962285287869
 30
0.000000000000000
 11
172.7573865187493
 21
157.9962285287869
 31
0.000000000000000
  0
LINE
  5
13C
100
AcDbEntity
  8
A1
  6
CONTINUOUS
 62
7
100
AcDbLine
 10
172.7573865187493
 20
157.9962285287869
 30
0.000000000000000
 11
174.2573865187493
 21
157.9962285287869
 31
0.000000000000000
  0
LINE
  5
13D
100
AcDbEntity
  8
A1
  6
CONTINUOUS
 62
7
100
AcDbLine
 10
159.7573865187493
 20
157.9962285287869
 30
0.000000000000000
 11
159.7573865187493
 21
163.1962285287869
 31
0.000000000000000
  0
LINE
  5
13E
100
AcDbEntity
  8
A1
  6
CONTINUOUS
 62
7
100
AcDbLine
 10
158.2573865187493
 20
163.1962285287869
 30
0.000000000000000
 11
159.7573865187493
 21
163.1962285287869
 31
0.000000000000000
  0
LINE
  5
13F
100
AcDbEntity
  8
A1
  6
CONTINUOUS
 62
7
100
AcDbLine
 10
158.2573865187493
 20
157.9962285287869
 30
0.000000000000000
 11
158.2573865187493
 21
163.1962285287869
 31
0.000000000000000
  0
LINE
  5
140
100
AcDbEntity
  8
A1
  6
CONTINUOUS
 62
7
100
AcDbLine
 10
158.2573865187493
 20
157.9962285287869
 30
0.000000000000000
 11
159.7573865187493
 21
157.9962285287869
 31
0.000000000000000
  0
LINE
  5
141
100
AcDbEntity
  8
A1
  6
CONTINUOUS
 62
7
100
AcDbLine
 10
174.2573865187493
 20
168.1962285287869
 30
0.000000000000000
 11
174.2573865187493
 21
163.1962285287869
 31
0.000000000000000
  0
LINE
  5
142
100
AcDbEntity
  8
A1
  6
CONTINUOUS
 62
7
100
AcDbLine
 10
172.7573865187493
 20
168.1962285287870
 30
0.000000000000000
 11
174.2573865187493
 21
168.1962285287870
 31
0.000000000000000
  0
LINE
  5
143
100
AcDbEntity
  8
A1
  6
CONTINUOUS
 62
7
100
AcDbLine
 10
172.7573865187493
 20
168.1962285287869
 30
0.000000000000000
 11
172.7573865187493
 21
163.1962285287869
 31
0.000000000000000
  0
LINE
  5
144
100
AcDbEntity
  8
A1
  6
CONTINUOUS
 62
7
100
AcDbLine
 10
172.7573865187493
 20
163.1962285287869
 30
0.000000000000000
 11
174.2573865187493
 21
163.1962285287869
 31
0.000000000000000
  0
CIRCLE
  5
145
100
AcDbEntity
  8
A1
  6
CONTINUOUS
 62
7
100
AcDbCircle
 10
166.2573865187493
 20
149.1962285287872
 30
0.000000000000000
 40
1.650000000000000
  0
CIRCLE
  5
146
100
AcDbEntity
  8
A1
  6
CONTINUOUS
 62
7
100
AcDbCircle
 10
166.2573865187493
 20
135.1962285287872
 30
0.000000000000000
 40
1.650000000000000
  0
ARC
  5
147
100
AcDbEntity
  8
A1
  6
CONTINUOUS
 62
7
100
AcDbCircle
 10
174.2573865187596
 20
167.1962285288077
 30
0.000000000000000
 40
0.4999999999794645
100
AcDbArc
 50
36.86989764466767
 51
90.00000000117166
  0
ARC
  5
148
100
AcDbEntity
  8
A1
  6
CONTINUOUS
 62
7
100
AcDbCircle
 10
158.2573865187433
 20
167.1962285287992
 30
0.000000000000000
 40
0.4999999999879314
100
AcDbArc
 50
89.99999999930446
 51
143.1301023548472
  0
ARC
  5
149
100
AcDbEntity
  8
A1
  6
CONTINUOUS
 62
7
100
AcDbCircle
 10
174.2573865187493
 20
165.1962285287871
 30
0.000000000000000
 40
0.5000000000000000
100
AcDbArc
 50
270.0000000000063
 51
360.0000000000000
  0
ARC
  5
14A
100
AcDbEntity
  8
A1
  6
CONTINUOUS
 62
7
100
AcDbCircle
 10
174.2573865187493
 20
167.1962285287871
 30
0.000000000000000
 40
0.5000000000000000
100
AcDbArc
 50
0.000000000000000
 51
36.86989764584808
  0
ARC
  5
14B
100
AcDbEntity
  8
A1
  6
CONTINUOUS
 62
7
100
AcDbCircle
 10
158.2573865187493
 20
167.1962285287871
 30
0.000000000000000
 40
0.5000000000000000
100
AcDbArc
 50
143.1301023541544
 51
180.0000000000000
  0
ARC
  5
14C
100
AcDbEntity
  8
A1
  6
CONTINUOUS
 62
7
100
AcDbCircle
 10
158.2573865187493
 20
165.1962285287871
 30
0.000000000000000
 40
0.5000000000000000
100
AcDbArc
 50
180.0000000000000
 51
270.0000000000047
  0
ARC
  5
14D
100
AcDbEntity
  8
A1
  6
CONTINUOUS
 62
7
100
AcDbCircle
 10
159.5073865187493
 20
164.1962285287871
 30
0.000000000000000
 40
0.5000000000000000
100
AcDbArc
 50
2.036000000000000e-13
 51
59.99999999999367
  0
ARC
  5
14E
100
AcDbEntity
  8
A1
  6
CONTINUOUS
 62
7
100
AcDbCircle
 10
173.0073865187493
 20
164.1962285287871
 30
0.000000000000000
 40
0.5000000000000000
100
AcDbArc
 50
119.9999999999919
 51
180.0000000000000
  0
ARC
  5
14F
100
AcDbEntity
  8
A1
  6
CONTINUOUS
 62
7
100
AcDbCircle
 10
174.2573865187493
 20
154.1962285287871
 30
0.000000000000000
 40
0.5000000000000000
100
AcDbArc
 50
0.000000000000000
 51
89.99999999999369
  0
ARC
  5
150
100
AcDbEntity
  8
A1
  6
CONTINUOUS
 62
7
100
AcDbCircle
 10
174.2573865187493
 20
144.6962285287872
 30
0.000000000000000
 40
0.5000000000000000
100
AcDbArc
 50
270.0000000000063
 51
360.0000000000000
  0
ARC
  5
151
100
AcDbEntity
  8
A1
  6
CONTINUOUS
 62
7
100
AcDbCircle
 10
158.2573865187493
 20
154.1962285287871
 30
0.000000000000000
 40
0.5000000000000000
100
AcDbArc
 50
89.99999999999551
 51
180.0000000000000
  0
ARC
  5
152
100
AcDbEntity
  8
A1
  6
CONTINUOUS
 62
7
100
AcDbCircle
 10
158.2573865187493
 20
144.6962285287872
 30
0.000000000000000
 40
0.5000000000000000
100
AcDbArc
 50
180.0000000000000
 51
270.0000000000047
  0
ARC
  5
153
100
AcDbEntity
  8
A1
  6
CONTINUOUS
 62
7
100
AcDbCircle
 10
163.0073865187493
 20
134.1962285287872
 30
0.000000000000000
 40
3.000000000000000
100
AcDbArc
 50
180.0000000000000
 51
270.0000000000000
  0
ARC
  5
154
100
AcDbEntity
  8
A1
  6
CONTINUOUS
 62
7
100
AcDbCircle
 10
169.5073865187493
 20
134.1962285287872
 30
0.000000000000000
 40
3.000000000000000
100
AcDbArc
 50
270.0000000000007
 51
360.0000000000000
  0
LINE
  5
155
100
AcDbEntity
  8
A1
  6
CONTINUOUS
 62
7
100
AcDbLine
 10
159.7573865187493
 20
167.6962285287871
 30
0.000000000000000
 11
172.7573865187493
 21
167.6962285287871
 31
0.000000000000000
  0
LINE
  5
156
100
AcDbEntity
  8
A1
  6
CONTINUOUS
 62
7
100
AcDbLine
 10
160.0073865187493
 20
163.1962285286615
 30
0.000000000000000
 11
160.0073865187493
 21
164.1962285287871
 31
0.000000000000000
  0
LINE
  5
157
100
AcDbEntity
  8
A1
  6
CONTINUOUS
 62
7
100
AcDbLine
 10
172.5073865187493
 20
163.1962285286615
 30
0.000000000000000
 11
172.5073865187493
 21
164.1962285287871
 31
0.000000000000000
  0
LINE
  5
158
100
AcDbEntity
  8
A1
  6
CONTINUOUS
 62
7
100
AcDbLine
 10
174.7573865187493
 20
165.1962285287871
 30
0.000000000000000
 11
174.7573865187493
 21
167.1962285287871
 31
0.000000000000000
  0
LINE
  5
159
100
AcDbEntity
  8
A1
  6
CONTINUOUS
 62
7
100
AcDbLine
 10
174.2573865187493
 20
167.4962285287871
 30
0.000000000000000
 11
174.6573865187494
 21
167.4962285287871
 31
0.000000000000000
  0
LINE
  5
15A
100
AcDbEntity
  8
A1
  6
CONTINUOUS
 62
7
100
AcDbLine
 10
159.7573865187493
 20
167.4962285287871
 30
0.000000000000000
 11
172.7573865187493
 21
167.4962285287871
 31
0.000000000000000
  0
LINE
  5
15B
100
AcDbEntity
  8
A1
  6
CONTINUOUS
 62
7
100
AcDbLine
 10
157.8573865187493
 20
167.4962285287871
 30
0.000000000000000
 11
158.2573865187493
 21
167.4962285287871
 31
0.000000000000000
  0
LINE
  5
15C
100
AcDbEntity
  8
A1
  6
CONTINUOUS
 62
7
100
AcDbLine
 10
157.7573865187493
 20
165.1962285287871
 30
0.000000000000000
 11
157.7573865187493
 21
167.1962285287871
 31
0.000000000000000
  0
LINE
  5
15D
100
AcDbEntity
  8
A1
  6
CONTINUOUS
 62
7
100
AcDbLine
 10
160.0073865187493
 20
156.3037119333622
 30
0.000000000000000
 11
160.0073865187493
 21
163.1962285286615
 31
0.000000000000000
  0
LINE
  5
15E
100
AcDbEntity
  8
A1
  6
CONTINUOUS
 62
7
100
AcDbLine
 10
172.5073865187493
 20
156.3037119333622
 30
0.000000000000000
 11
172.5073865187493
 21
163.1962285286615
 31
0.000000000000000
  0
LINE
  5
15F
100
AcDbEntity
  8
A1
  6
CONTINUOUS
 62
7
100
AcDbLine
 10
160.0073865187493
 20
163.1962285286615
 30
0.000000000000000
 11
172.5073865187493
 21
163.1962285286615
 31
0.000000000000000
  0
LINE
  5
160
100
AcDbEntity
  8
A1
  6
CONTINUOUS
 62
7
100
AcDbLine
 10
172.5073865187493
 20
156.3037119334228
 30
0.000000000000000
 11
172.5073865187493
 21
155.1546452687871
 31
0.000000000000000
  0
LINE
  5
161
100
AcDbEntity
  8
A1
  6
CONTINUOUS
 62
7
100
AcDbLine
 10
160.0073865187493
 20
156.3037119333622
 30
0.000000000000000
 11
172.5073865187493
 21
156.3037119333622
 31
0.000000000000000
  0
LINE
  5
162
100
AcDbEntity
  8
A1
  6
CONTINUOUS
 62
7
100
AcDbLine
 10
160.0073865187493
 20
156.3037119334228
 30
0.000000000000000
 11
160.0073865187493
 21
155.1546452687871
 31
0.000000000000000
  0
LINE
  5
163
100
AcDbEntity
  8
A1
  6
CONTINUOUS
 62
7
100
AcDbLine
 10
163.0073865187493
 20
131.1962285287872
 30
0.000000000000000
 11
169.5073865187493
 21
131.1962285287872
 31
0.000000000000000
  0
LINE
  5
164
100
AcDbEntity
  8
A1
  6
CONTINUOUS
 62
7
100
AcDbLine
 10
158.2573865187494
 20
154.6962285287871
 30
0.000000000000000
 11
160.0073865187494
 21
154.6962285287871
 31
0.000000000000000
  0
LINE
  5
165
100
AcDbEntity
  8
A1
  6
CONTINUOUS
 62
7
100
AcDbLine
 10
157.7573865187493
 20
144.6962285287872
 30
0.000000000000000
 11
157.7573865187493
 21
154.1962285287871
 31
0.000000000000000
  0
LINE
  5
166
100
AcDbEntity
  8
A1
  6
CONTINUOUS
 62
7
100
AcDbLine
 10
158.2573865187493
 20
144.1962285287872
 30
0.000000000000000
 11
160.0073865187493
 21
144.1962285287872
 31
0.000000000000000
  0
LINE
  5
167
100
AcDbEntity
  8
A1
  6
CONTINUOUS
 62
7
100
AcDbLine
 10
160.0073865187493
 20
144.1962285287872
 30
0.000000000000000
 11
160.0073865187493
 21
134.1962285287872
 31
0.000000000000000
  0
LINE
  5
168
100
AcDbEntity
  8
A1
  6
CONTINUOUS
 62
7
100
AcDbLine
 10
172.5073865187493
 20
144.1962285287872
 30
0.000000000000000
 11
172.5073865187493
 21
134.1962285287872
 31
0.000000000000000
  0
LINE
  5
169
100
AcDbEntity
  8
A1
  6
CONTINUOUS
 62
7
100
AcDbLine
 10
174.2573865187493
 20
144.1962285287872
 30
0.000000000000000
 11
172.5073865187493
 21
144.1962285287872
 31
0.000000000000000
  0
LINE
  5
16A
100
AcDbEntity
  8
A1
  6
CONTINUOUS
 62
7
100
AcDbLine
 10
174.7573865187493
 20
144.6962285287872
 30
0.000000000000000
 11
174.7573865187493
 21
154.1962285287871
 31
0.000000000000000
  0
LINE
  5
16B
100
AcDbEntity
  8
A1
  6
CONTINUOUS
 62
7
100
AcDbLine
 10
174.2573865187493
 20
154.6962285287871
 30
0.000000000000000
 11
172.5073865187493
 21
154.6962285287871
 31
0.000000000000000
  0
LINE
  5
16C
100
AcDbEntity
  8
A1
  6
CONTINUOUS
 62
7
100
AcDbLine
 10
172.5073865187493
 20
154.6962285287871
 30
0.000000000000000
 11
172.5073865187493
 21
155.1546452687871
 31
0.000000000000000
  0
LINE
  5
16D
100
AcDbEntity
  8
A1
  6
CONTINUOUS
 62
7
100
AcDbLine
 10
160.0073865187493
 20
155.1546452687871
 30
0.000000000000000
 11
172.5073865187493
 21
155.1546452687871
 31
0.000000000000000
  0
LINE
  5
16E
100
AcDbEntity
  8
A1
  6
CONTINUOUS
 62
7
100
AcDbLine
 10
160.0073865187493
 20
154.6962285287871
 30
0.000000000000000
 11
160.0073865187493
 21
155.1546452687871
 31
0.000000000000000
  0
ARC
  5
16F
100
AcDbEntity
  8
A1
  6
CONTINUOUS
 62
7
100
AcDbCircle
 10
157.3857700593204
 20
182.0744573978150
 30
0.000000000000000
 40
3.000000000000000
100
AcDbArc
 50
90.00000000000000
 51
155.6187626069751
  0
ARC
  5
170
100
AcDbEntity
  8
A1
  6
CONTINUOUS
 62
7
100
AcDbCircle
 10
157.3857700593204
 20
182.0744573978150
 30
0.000000000000000
 40
1.000000000000000
100
AcDbArc
 50
90.00000000000000
 51
155.6187626069753
  0
ARC
  5
171
100
AcDbEntity
  8
A1
  6
CONTINUOUS
 62
7
100
AcDbCircle
 10
156.8186773681923
 20
152.0747298950086
 30
0.000000000000000
 40
3.000000000000000
100
AcDbArc
 50
202.2153411554077
 51
273.2523269657892
  0
ARC
  5
172
100
AcDbEntity
  8
A1
  6
CONTINUOUS
 62
7
100
AcDbCircle
 10
156.8186773681923
 20
152.0747298950086
 30
0.000000000000000
 40
1.000000000000000
100
AcDbArc
 50
202.2153411554077
 51
273.2523245509526
  0
ARC
  5
173
100
AcDbEntity
  8
A1
  6
CONTINUOUS
 62
7
100
AcDbCircle
 10
191.9343804157818
 20
166.4161522828995
 30
0.000000000000000
 40
40.93137219551113
100
AcDbArc
 50
155.6187626069764
 51
202.2153411554014
  0
ARC
  5
174
100
AcDbEntity
  8
A1
  6
CONTINUOUS
 62
7
100
AcDbCircle
 10
191.9343804157818
 20
166.4161522828995
 30
0.000000000000000
 40
38.93137219551113
100
AcDbArc
 50
155.6187626069764
 51
180.0000000000000
  0
ARC
  5
175
100
AcDbEntity
  8
A1
  6
CONTINUOUS
 62
7
100
AcDbCircle
 10
191.9343804157818
 20
166.4161522828995
 30
0.000000000000000
 40
38.93137219551113
100
AcDbArc
 50
180.0000000000000
 51
202.2153411554014
  0
ARC
  5
176
100
AcDbEntity
  8
A1
  6
CONTINUOUS
 62
7
100
AcDbCircle
 10
175.1202463812211
 20
182.0744573978150
 30
0.000000000000000
 40
3.000000000000000
100
AcDbArc
 50
24.38123739302500
 51
90.00000000000000
  0
ARC
  5
177
100
AcDbEntity
  8
A1
  6
CONTINUOUS
 62
7
100
AcDbCircle
 10
175.1202463812211
 20
182.0744573978150
 30
0.000000000000000
 40
1.000000000000000
100
AcDbArc
 50
24.38123739302474
 51
90.00000000000000
  0
ARC
  5
178
100
AcDbEntity
  8
A1
  6
CONTINUOUS
 62
7
100
AcDbCircle
 10
140.5716360247596
 20
166.4161522828995
 30
0.000000000000000
 40
40.93137219551113
100
AcDbArc
 50
0.000000000000000
 51
24.38123739302367
  0
ARC
  5
179
100
AcDbEntity
  8
A1
  6
CONTINUOUS
 62
7
100
AcDbCircle
 10
140.5716360247596
 20
166.4161522828995
 30
0.000000000000000
 40
40.93137219551113
100
AcDbArc
 50
337.7846588445986
 51
360.0000000000000
  0
ARC
  5
17A
100
AcDbEntity
  8
A1
  6
CONTINUOUS
 62
7
100
AcDbCircle
 10
140.5716360247596
 20
166.4161522828995
 30
0.000000000000000
 40
38.93137219551113
100
AcDbArc
 50
337.7846588445986
 51
384.3812373930237
  0
ARC
  5
17B
100
AcDbEntity
  8
A1
  6
CONTINUOUS
 62
7
100
AcDbCircle
 10
175.6873390723492
 20
152.0747298950086
 30
0.000000000000000
 40
3.000000000000000
100
AcDbArc
 50
266.7476730342108
 51
337.7846588445925
  0
ARC
  5
17C
100
AcDbEntity
  8
A1
  6
CONTINUOUS
 62
7
100
AcDbCircle
 10
175.6873390723492
 20
152.0747298950086
 30
0.000000000000000
 40
1.000000000000000
100
AcDbArc
 50
266.7476754490474
 51
337.7846588445925
  0
LINE
  5
17D
100
AcDbEntity
  8
A1
  6
CONTINUOUS
 62
7
100
AcDbLine
 10
157.3857700593204
 20
183.0744573978150
 30
0.000000000000000
 11
175.1202463812211
 21
183.0744573978150
 31
0.000000000000000
  0
LINE
  5
17E
100
AcDbEntity
  8
A1
  6
CONTINUOUS
 62
7
100
AcDbLine
 10
175.1202463812211
 20
185.0744573978150
 30
0.000000000000000
 11
157.3857700593204
 21
185.0744573978150
 31
0.000000000000000
  0
LINE
  5
17F
100
AcDbEntity
  8
A1
  6
CONTINUOUS
 62
7
100
AcDbLine
 10
156.9888773744277
 20
149.0795617932357
 30
0.000000000000000
 11
157.7573865187493
 21
149.1232321848076
 31
0.000000000000000
  0
LINE
  5
180
100
AcDbEntity
  8
A1
  6
CONTINUOUS
 62
7
100
AcDbLine
 10
157.7573865187493
 20
151.1264586421401
 30
0.000000000000000
 11
156.8754106615250
 21
151.0763405253597
 31
0.000000000000000
  0
LINE
  5
181
100
AcDbEntity
  8
A1
  6
CONTINUOUS
 62
7
100
AcDbLine
 10
175.6306057790165
 20
151.0763405253598
 30
0.000000000000000
 11
174.7573865187494
 21
151.1259610501197
 31
0.000000000000000
  0
LINE
  5
182
100
AcDbEntity
  8
A1
  6
CONTINUOUS
 62
7
100
AcDbLine
 10
174.7573865187494
 20
149.1227345927870
 30
0.000000000000000
 11
175.5171390661140
 21
149.0795617932357
 31
0.000000000000000
  0
SPLINE
  5
183
100
AcDbEntity
  8
A1
  6
CONTINUOUS
 62
7
100
AcDbSpline
210
0.000000000000000
220
0.000000000000000
230
1.000000000000000
 70
     8
 71
     3
 72
    39
 73
    35
 74
     0
 42
1.000000000000000e-07
 43
1.000000000000000e-07
 12
-0.9999463983758687
 22
0.01035376137997446
 32
0.000000000000000
 13
-0.9999834673358237
 23
-0.005750222241658776
 33
0.000000000000000
 40
0.000000000000000
 40
0.000000000000000
 40
0.000000000000000
 40
0.000000000000000
 40
0.09975804736955630
 40
0.3486946576393873
 40
0.6627383256769532
 40
1.039105858699834
 40
1.385565077364306
 40
1.769721962751641
 40
2.196494491906233
 40
2.657178098243419
 40
3.102620246887348
 40
3.570361984262842
 40
4.059266626492128
 40
4.568339382165764
 40
4.952330902497716
 40
5.341926665169030
 40
5.737353996966837
 40
6.135739909882180
 40
6.658590807160481
 40
7.185549032130068
 40
7.709522572681351
 40
8.230639226578756
 40
8.721972863959143
 40
9.199874686713308
 40
9.662207330957795
 40
10.10636250896916
 40
10.50381199632833
 40
10.87436956609423
 40
11.21590957139039
 40
11.52616241037536
 40
11.78743225670711
 40
12.01427883600765
 40
12.20682686535138
 40
12.27170873990442
 40
12.27170873990442
 40
12.27170873990442
 40
12.27170873990442
 10
58.44903603165071
 20
99.21474711977574
 30
0.000000000000000
 10
58.41578513159197
 20
99.21509141011514
 30
0.000000000000000
 10
58.29954639165686
 20
99.21831458492186
 30
0.000000000000000
 10
58.07970910771729
 20
99.24286097952732
 30
0.000000000000000
 10
57.77053350153827
 20
99.29235316786092
 30
0.000000000000000
 10
57.43078643333035
 20
99.35601245600874
 30
0.000000000000000
 10
57.06858371423726
 20
99.42644069297783
 30
0.000000000000000
 10
56.68977375874229
 20
99.49954595922813
 30
0.000000000000000
 10
56.27294469558746
 20
99.57652815985611
 30
0.000000000000000
 10
55.83498575094100
 20
99.65142950960174
 30
0.000000000000000
 10
55.38234075499471
 20
99.72112079757281
 30
0.000000000000000
 10
54.91913900739831
 20
99.78358238427953
 30
0.000000000000000
 10
54.43363747842341
 20
99.83863202030685
 30
0.000000000000000
 10
53.97478646281098
 20
99.87990447880375
 30
0.000000000000000
 10
53.54820404646392
 20
99.90904770131962
 30
0.000000000000000
 10
53.15898107852979
 20
99.92823815562312
 30
0.000000000000000
 10
52.76466071879304
 20
99.93999168790722
 30
0.000000000000000
 10
52.32576700346328
 20
99.94436937702014
 30
0.000000000000000
 10
51.84301933928373
 20
99.93804887992664
 30
0.000000000000000
 10
51.31877041868174
 20
99.91744832301626
 30
0.000000000000000
 10
50.79580907632698
 20
99.88332840703524
 30
0.000000000000000
 10
50.28570228394216
 20
99.83713956183183
 30
0.000000000000000
 10
49.79209100508450
 20
99.78072316688312
 30
0.000000000000000
 10
49.31922066846829
 20
99.71642049822893
 30
0.000000000000000
 10
48.86321729554808
 20
99.64548490751841
 30
0.000000000000000
 10
48.43487223343459
 20
99.57165439110955
 30
0.000000000000000
 10
48.03755790062422
 20
99.49812771166555
 30
0.000000000000000
 10
47.67439834578732
 20
99.42809898135424
 30
0.000000000000000
 10
47.33988963934686
 20
99.36300029378963
 30
0.000000000000000
 10
47.04078447887622
 20
99.30671154107135
 30
0.000000000000000
 10
46.77843366523035
 20
99.26186212639725
 30
0.000000000000000
 10
46.55367223440260
 20
99.23068717876752
 30
0.000000000000000
 10
46.39269176254516
 20
99.21649687220075
 30
0.000000000000000
 10
46.30687733810367
 20
99.21487139881994
 30
0.000000000000000
 10
46.28525040414274
 20
99.21474703708724
 30
0.000000000000000
  0
SPLINE
  5
184
100
AcDbEntity
  8
A1
  6
CONTINUOUS
 62
7
100
AcDbSpline
210
0.000000000000000
220
0.000000000000000
230
1.000000000000000
 70
     8
 71
     3
 72
    13
 73
     9
 74
     0
 42
1.000000000000000e-07
 43
1.000000000000000e-07
 12
-0.9998388254959991
 22
-0.01795335710039581
 32
0.000000000000000
 13
0.02926736005088060
 23
0.9995716190642270
 33
0.000000000000000
 40
0.000000000000000
 40
0.000000000000000
 40
0.000000000000000
 40
0.000000000000000
 40
0.09443699422317280
 40
0.2242551731451249
 40
0.3277428921470757
 40
0.4180828221433255
 40
0.5111102009548727
 40
0.5810486608614425
 40
0.5810486608614425
 40
0.5810486608614425
 40
0.5810486608614425
 10
46.28525040414274
 20
99.21474703708724
 30
0.000000000000000
 10
46.25377647968025
 20
99.21418188339364
 30
0.000000000000000
 10
46.17900936760793
 20
99.21746035686944
 30
0.000000000000000
 10
46.07032977565672
 20
99.23274972583484
 30
0.000000000000000
 10
45.96874135567427
 20
99.27425988450985
 30
0.000000000000000
 10
45.89889098131027
 20
99.34422575226814
 30
0.000000000000000
 10
45.87145714573131
 20
99.42633677910395
 30
0.000000000000000
 10
45.86657240253396
 20
99.48071708234741
 30
0.000000000000000
 10
45.86725470722979
 20
99.50401991554864
 30
0.000000000000000
  0
SPLINE
  5
185
100
AcDbEntity
  8
A1
  6
CONTINUOUS
 62
7
100
AcDbSpline
210
0.000000000000000
220
0.000000000000000
230
1.000000000000000
 70
     8
 71
     3
 72
    12
 73
     8
 74
     0
 42
1.000000000000000e-07
 43
1.000000000000000e-07
 12
0.05192586785665299
 22
-0.9986509421473784
 32
0.000000000000000
 13
-0.9997806876440336
 23
0.02094222086316222
 33
0.000000000000000
 40
0.000000000000000
 40
0.000000000000000
 40
0.000000000000000
 40
0.000000000000000
 40
0.1150509156768444
 40
0.2173461048259837
 40
0.3332428561606257
 40
0.4856075741442848
 40
0.5804245980051299
 40
0.5804245980051299
 40
0.5804245980051299
 40
0.5804245980051299
 10
58.86725470722979
 20
99.50401991554074
 30
0.000000000000000
 10
58.86924608011120
 20
99.46572134709552
 30
0.000000000000000
 10
58.85850628668516
 20
99.39178517316414
 30
0.000000000000000
 10
58.79735296790278
 20
99.29412089126235
 30
0.000000000000000
 10
58.68346771209235
 20
99.23551796391102
 30
0.000000000000000
 10
58.56303211247371
 20
99.21792694923114
 30
0.000000000000000
 10
58.48063477475603
 20
99.21408522675732
 30
0.000000000000000
 10
58.44903603165071
 20
99.21474711977574
 30
0.000000000000000
  0
SPLINE
  5
186
100
AcDbEntity
  8
A1
  6
CONTINUOUS
 62
7
100
AcDbSpline
210
0.000000000000000
220
0.000000000000000
230
1.000000000000000
 70
     8
 71
     3
 72
    10
 73
     6
 74
     0
 42
1.000000000000000e-07
 43
1.000000000000000e-07
 12
-0.02390927243004626
 22
-0.9054051616849392
 32
0.000000000000000
 13
-1.136399439042634
 23
-0.001747623585742986
 33
0.000000000000000
 40
0.000000000000000
 40
0.000000000000000
 40
0.000000000000000
 40
0.000000000000000
 40
0.07004857376845108
 40
0.1558286319825651
 40
0.2498487634719724
 40
0.2498487634719724
 40
0.2498487634719724
 40
0.2498487634719724
 10
58.86725470722979
 20
97.82449389974654
 30
0.000000000000000
 10
58.86669643708527
 20
97.80335311966034
 30
0.000000000000000
 10
58.85516544585352
 20
97.75583167517003
 30
0.000000000000000
 10
58.77847001427244
 20
97.71741255022154
 30
0.000000000000000
 10
58.72012311587343
 20
97.71480174324482
 30
0.000000000000000
 10
58.68450830764567
 20
97.71474697264505
 30
0.000000000000000
  0
SPLINE
  5
187
100
AcDbEntity
  8
A1
  6
CONTINUOUS
 62
7
100
AcDbSpline
210
0.000000000000000
220
0.000000000000000
230
1.000000000000000
 70
     8
 71
     3
 72
    41
 73
    37
 74
     0
 42
1.000000000000000e-07
 43
1.000000000000000e-07
 12
-0.9992397720252484
 22
0.03898561276446344
 32
0.000000000000000
 13
-0.9996530250170963
 23
-0.02634064491803656
 33
0.000000000000000
 40
0.000000000000000
 40
0.000000000000000
 40
0.000000000000000
 40
0.000000000000000
 40
0.1530227258929144
 40
0.3526882342624765
 40
0.6062592190661336
 40
0.9215097485652426
 40
1.294293137139206
 40
1.646932148744876
 40
2.039459406736722
 40
2.466972631749308
 40
2.930468769536054
 40
3.381222816878729
 40
3.857280682861930
 40
4.352676560746318
 40
4.868091832945216
 40
5.243043403292867
 40
5.624509523660686
 40
6.009904575892275
 40
6.399441082837672
 40
6.925107084212021
 40
7.454957523338980
 40
7.981899350959359
 40
8.506124543435899
 40
8.998772462881790
 40
9.481769446428300
 40
9.947686835090423
 40
10.39578872286823
 40
10.79688032015951
 40
11.17419278181728
 40
11.52127373239934
 40
11.83713823249071
 40
12.10331697847649
 40
12.33581493589058
 40
12.53154406677248
 40
12.69106759600908
 40
12.79878874796673
 40
12.79878874796673
 40
12.79878874796673
 40
12.79878874796673
 10
58.68450830764567
 20
97.71474697264505
 30
0.000000000000000
 10
58.63353950973371
 20
97.71673553422364
 30
0.000000000000000
 10
58.51608650078958
 20
97.72537362813834
 30
0.000000000000000
 10
58.31723084187792
 20
97.76271798570973
 30
0.000000000000000
 10
58.06701686198437
 20
97.81735788437042
 30
0.000000000000000
 10
57.76177674256957
 20
97.89059923929774
 30
0.000000000000000
 10
57.42464909272860
 20
97.97227118274374
 30
0.000000000000000
 10
57.06195612090409
 20
98.05786979033054
 30
0.000000000000000
 10
56.68054502988139
 20
98.14349201632585
 30
0.000000000000000
 10
56.26169293129436
 20
98.23085610842564
 30
0.000000000000000
 10
55.82218943687633
 20
98.31393235838566
 30
0.000000000000000
 10
55.36508430175172
 20
98.39047916387274
 30
0.000000000000000
 10
54.89585708314650
 20
98.45836501369423
 30
0.000000000000000
 10
54.40372108032295
 20
98.51747809758704
 30
0.000000000000000
 10
53.94377361496231
 20
98.56074662377306
 30
0.000000000000000
 10
53.52086390994100
 20
98.59070402988412
 30
0.000000000000000
 10
53.14072762909120
 20
98.61008523900175
 30
0.000000000000000
 10
52.75541727917596
 20
98.62194245604933
 30
0.000000000000000
 10
52.32187895670452
 20
98.62640808707663
 30
0.000000000000000
 10
51.84017639230331
 20
98.61971171249853
 30
0.000000000000000
 10
51.31308235170866
 20
98.59769139142985
 30
0.000000000000000
 10
50.78728058816714
 20
98.56111883177145
 30
0.000000000000000
 10
50.27501510385508
 20
98.51145139277922
 30
0.000000000000000
 10
49.77875409338105
 20
98.45035938713313
 30
0.000000000000000
 10
49.30334669891749
 20
98.38013955684123
 30
0.000000000000000
 10
48.84429538558430
 20
98.30167726041553
 30
0.000000000000000
 10
48.41378252285068
 20
98.21890146948304
 30
0.000000000000000
 10
48.01371010845767
 20
98.13462858714256
 30
0.000000000000000
 10
47.64773016681309
 20
98.05209129776055
 30
0.000000000000000
 10
47.31027801207418
 20
97.97230840188915
 30
0.000000000000000
 10
47.00926323571360
 20
97.89943371215803
 30
0.000000000000000
 10
46.74526015621626
 20
97.83604347266534
 30
0.000000000000000
 10
46.51962817061235
 20
97.78425211960813
 30
0.000000000000000
 10
46.32760303276285
 20
97.74550140690324
 30
0.000000000000000
 10
46.17507688377179
 20
97.72075272275514
 30
0.000000000000000
 10
46.08602112156586
 20
97.71569280043575
 30
0.000000000000000
 10
46.05012652976160
 20
97.71474698556445
 30
0.000000000000000
  0
SPLINE
  5
188
100
AcDbEntity
  8
A1
  6
CONTINUOUS
 62
7
100
AcDbSpline
210
0.000000000000000
220
0.000000000000000
230
1.000000000000000
 70
     8
 71
     3
 72
    11
 73
     7
 74
     0
 42
1.000000000000000e-07
 43
1.000000000000000e-07
 12
-0.9999523572505495
 22
-0.009761312914633891
 32
0.000000000000000
 13
-0.01499522200674619
 23
0.9998875653382129
 33
0.000000000000000
 40
0.000000000000000
 40
0.000000000000000
 40
0.000000000000000
 40
0.000000000000000
 40
0.02166926416603510
 40
0.1136196031159396
 40
0.1778316087889607
 40
0.2391055467879837
 40
0.2391055467879837
 40
0.2391055467879837
 40
0.2391055467879837
 10
46.05012652976160
 20
97.71474698556445
 30
0.000000000000000
 10
46.04290378583403
 20
97.71467647874174
 30
0.000000000000000
 10
46.00504303794821
 20
97.71560229593963
 30
0.000000000000000
 10
45.94570066654410
 20
97.72072912418695
 30
0.000000000000000
 10
45.87800019638897
 20
97.75930891550625
 30
0.000000000000000
 10
45.86756097933096
 20
97.80407155018504
 30
0.000000000000000
 10
45.86725470722979
 20
97.82449389974654
 30
0.000000000000000
  0
ARC
  5
189
100
AcDbEntity
  8
A1
  6
CONTINUOUS
 62
7
100
AcDbCircle
 10
58.86725470723002
 20
101.9504257239196
 30
0.000000000000000
 40
1.500000000000000
100
AcDbArc
 50
0.000000000000000
 51
90.00000000000169
  0
ARC
  5
18A
100
AcDbEntity
  8
A1
  6
CONTINUOUS
 62
7
100
AcDbCircle
 10
45.86725470723002
 20
101.9504257239196
 30
0.000000000000000
 40
1.500000000000000
100
AcDbArc
 50
90.00000000000206
 51
180.0000000000000
  0
LINE
  5
18B
100
AcDbEntity
  8
A1
  6
CONTINUOUS
 62
7
100
AcDbLine
 10
46.11725470722997
 20
97.45042572391965
 30
0.000000000000000
 11
45.86725470722994
 21
97.45042572391965
 31
0.000000000000000
  0
LINE
  5
18C
100
AcDbEntity
  8
A1
  6
CONTINUOUS
 62
7
100
AcDbLine
 10
58.86725470722997
 20
97.45042572391965
 30
0.000000000000000
 11
58.61725470723002
 21
97.45042572391965
 31
0.000000000000000
  0
LINE
  5
18D
100
AcDbEntity
  8
A1
  6
CONTINUOUS
 62
7
100
AcDbLine
 10
60.36725470723002
 20
101.9504257239197
 30
0.000000000000000
 11
60.36725470723002
 21
94.95042572391965
 31
0.000000000000000
  0
LINE
  5
18E
100
AcDbEntity
  8
A1
  6
CONTINUOUS
 62
7
100
AcDbLine
 10
58.86725470722997
 20
97.82449389975947
 30
0.000000000000000
 11
58.86725470722997
 21
94.95042572391965
 31
0.000000000000000
  0
LINE
  5
18F
100
AcDbEntity
  8
A1
  6
CONTINUOUS
 62
7
100
AcDbLine
 10
44.36725470723000
 20
94.95042572391965
 30
0.000000000000000
 11
44.36725470723000
 21
101.9504257239197
 31
0.000000000000000
  0
LINE
  5
190
100
AcDbEntity
  8
A1
  6
CONTINUOUS
 62
7
100
AcDbLine
 10
45.86725470722994
 20
94.95042572391965
 30
0.000000000000000
 11
45.86725470722994
 21
97.82449389975947
 31
0.000000000000000
  0
LINE
  5
191
100
AcDbEntity
  8
A1
  6
CONTINUOUS
 62
7
100
AcDbLine
 10
44.36725470723000
 20
91.95042572391965
 30
0.000000000000000
 11
44.36725470723000
 21
94.95042572391965
 31
0.000000000000000
  0
LINE
  5
192
100
AcDbEntity
  8
A1
  6
CONTINUOUS
 62
7
100
AcDbLine
 10
45.86725470722994
 20
91.95042572391965
 30
0.000000000000000
 11
45.86725470722994
 21
94.95042572391965
 31
0.000000000000000
  0
LINE
  5
193
100
AcDbEntity
  8
A1
  6
CONTINUOUS
 62
7
100
AcDbLine
 10
45.86725470722994
 20
94.95042572391965
 30
0.000000000000000
 11
44.36725470723000
 21
94.95042572391965
 31
0.000000000000000
  0
LINE
  5
194
100
AcDbEntity
  8
A1
  6
CONTINUOUS
 62
7
100
AcDbLine
 10
58.86725470722997
 20
94.95042572391965
 30
0.000000000000000
 11
58.86725470722997
 21
91.95042572391965
 31
0.000000000000000
  0
LINE
  5
195
100
AcDbEntity
  8
A1
  6
CONTINUOUS
 62
7
100
AcDbLine
 10
60.36725470723002
 20
94.95042572391965
 30
0.000000000000000
 11
60.36725470723002
 21
91.95042572391965
 31
0.000000000000000
  0
LINE
  5
196
100
AcDbEntity
  8
A1
  6
CONTINUOUS
 62
7
100
AcDbLine
 10
60.36725470723002
 20
94.95042572391965
 30
0.000000000000000
 11
58.86725470722997
 21
94.95042572391965
 31
0.000000000000000
  0
LINE
  5
197
100
AcDbEntity
  8
A1
  6
CONTINUOUS
 62
7
100
AcDbLine
 10
58.86725470722997
 20
103.4504257239197
 30
0.000000000000000
 11
58.86725470722997
 21
103.0405213286317
 31
0.000000000000000
  0
LINE
  5
198
100
AcDbEntity
  8
A1
  6
CONTINUOUS
 62
7
100
AcDbLine
 10
45.86725470722994
 20
103.4504257239197
 30
0.000000000000000
 11
45.86725470722994
 21
103.0405213286317
 31
0.000000000000000
  0
LINE
  5
199
100
AcDbEntity
  8
A1
  6
CONTINUOUS
 62
7
100
AcDbLine
 10
58.86725470722997
 20
103.4504257239197
 30
0.000000000000000
 11
45.86725470722994
 21
103.4504257239197
 31
0.000000000000000
  0
LINE
  5
19A
100
AcDbEntity
  8
A1
  6
CONTINUOUS
 62
7
100
AcDbLine
 10
58.86725470722997
 20
103.0405213286317
 30
0.000000000000000
 11
58.86725470722997
 21
99.50401991554079
 31
0.000000000000000
  0
LINE
  5
19B
100
AcDbEntity
  8
A1
  6
CONTINUOUS
 62
7
100
AcDbLine
 10
58.86725470722997
 20
103.0405213286317
 30
0.000000000000000
 11
45.86725470722994
 21
103.0405213286317
 31
0.000000000000000
  0
LINE
  5
19C
100
AcDbEntity
  8
A1
  6
CONTINUOUS
 62
7
100
AcDbLine
 10
45.86725470722994
 20
103.0405213286317
 30
0.000000000000000
 11
45.86725470722994
 21
99.50401991554870
 31
0.000000000000000
  0
LINE
  5
19D
100
AcDbEntity
  8
A1
  6
CONTINUOUS
 62
7
100
AcDbLine
 10
58.86725470722980
 20
97.82449389975947
 30
0.000000000000000
 11
58.86725470722980
 21
99.50401991550885
 31
0.000000000000000
  0
LINE
  5
19E
100
AcDbEntity
  8
A1
  6
CONTINUOUS
 62
7
100
AcDbLine
 10
45.86725470722981
 20
97.82449389975946
 30
0.000000000000000
 11
45.86725470722996
 21
99.50401991554865
 31
0.000000000000000
  0
LINE
  5
19F
100
AcDbEntity
  8
A1
  6
CONTINUOUS
 62
7
100
AcDbLine
 10
46.05324355780136
 20
97.71474697261017
 30
0.000000000000000
 11
58.68434326895665
 21
97.71474697261017
 31
0.000000000000000
  0
LINE
  5
1A0
100
AcDbEntity
  8
A1
  6
CONTINUOUS
 62
7
100
AcDbLine
 10
43.86725470723000
 20
100.7004257239198
 30
0.000000000000000
 11
44.36725470723000
 21
100.7004257239198
 31
0.000000000000000
  0
LINE
  5
1A1
100
AcDbEntity
  8
A1
  6
CONTINUOUS
 62
7
100
AcDbLine
 10
44.36725470722994
 20
99.20042572391976
 30
0.000000000000000
 11
43.86725470723000
 21
99.20042572391976
 31
0.000000000000000
  0
LINE
  5
1A2
100
AcDbEntity
  8
A1
  6
CONTINUOUS
 62
7
100
AcDbLine
 10
43.86725470723000
 20
99.20042572391976
 30
0.000000000000000
 11
43.86725470723000
 21
100.7004257239198
 31
0.000000000000000
  0
LINE
  5
1A3
100
AcDbEntity
  8
A1
  6
CONTINUOUS
 62
7
100
AcDbLine
 10
60.36725470723000
 20
100.7004257239332
 30
0.000000000000000
 11
60.86725470723000
 21
100.7004257239332
 31
0.000000000000000
  0
LINE
  5
1A4
100
AcDbEntity
  8
A1
  6
CONTINUOUS
 62
7
100
AcDbLine
 10
60.86725470723000
 20
99.20042572391186
 30
0.000000000000000
 11
60.36725470722997
 21
99.20042572391186
 31
0.000000000000000
  0
LINE
  5
1A5
100
AcDbEntity
  8
A1
  6
CONTINUOUS
 62
7
100
AcDbLine
 10
60.86725470723000
 20
100.7004257239198
 30
0.000000000000000
 11
60.86725470723000
 21
99.20042572391976
 31
0.000000000000000
  0
LINE
  5
1A6
100
AcDbEntity
  8
A1
  6
CONTINUOUS
 62
7
100
AcDbLine
 10
58.61725470723002
 20
94.45042572391975
 30
0.000000000000000
 11
58.61725470723002
 21
91.95042572391975
 31
0.000000000000000
  0
LINE
  5
1A7
100
AcDbEntity
  8
A1
  6
CONTINUOUS
 62
7
100
AcDbLine
 10
58.61725470723002
 20
97.71474697261017
 30
0.000000000000000
 11
58.61725470723002
 21
96.45042572391976
 31
0.000000000000000
  0
LINE
  5
1A8
100
AcDbEntity
  8
A1
  6
CONTINUOUS
 62
7
100
AcDbLine
 10
46.11725470722997
 20
94.45042572391975
 30
0.000000000000000
 11
46.11725470722997
 21
91.95042572391975
 31
0.000000000000000
  0
LINE
  5
1A9
100
AcDbEntity
  8
A1
  6
CONTINUOUS
 62
7
100
AcDbLine
 10
46.11725470722997
 20
97.71474697261017
 30
0.000000000000000
 11
46.11725470722997
 21
96.45042572391976
 31
0.000000000000000
  0
LINE
  5
1AA
100
AcDbEntity
  8
A1
  6
CONTINUOUS
 62
7
100
AcDbLine
 10
60.36725470722997
 20
91.95042572391276
 30
0.000000000000000
 11
60.86725470723000
 21
91.95042572391276
 31
0.000000000000000
  0
LINE
  5
1AB
100
AcDbEntity
  8
A1
  6
CONTINUOUS
 62
7
100
AcDbLine
 10
60.86725470723000
 20
90.45042572391975
 30
0.000000000000000
 11
60.36725470722997
 21
90.45042572391975
 31
0.000000000000000
  0
LINE
  5
1AC
100
AcDbEntity
  8
A1
  6
CONTINUOUS
 62
7
100
AcDbLine
 10
60.86725470723000
 20
91.95042572391975
 30
0.000000000000000
 11
60.86725470723000
 21
90.45042572391975
 31
0.000000000000000
  0
LINE
  5
1AD
100
AcDbEntity
  8
A1
  6
CONTINUOUS
 62
7
100
AcDbLine
 10
58.61725470723001
 20
91.95042572391276
 30
0.000000000000000
 11
60.36725470722995
 21
91.95042572391975
 31
0.000000000000000
  0
LINE
  5
1AE
100
AcDbEntity
  8
A1
  6
CONTINUOUS
 62
7
100
AcDbLine
 10
60.36725470722997
 20
90.45042572391975
 30
0.000000000000000
 11
58.61725470723000
 21
90.45042572391975
 31
0.000000000000000
  0
LINE
  5
1AF
100
AcDbEntity
  8
A1
  6
CONTINUOUS
 62
7
100
AcDbLine
 10
60.36725470722997
 20
90.45042572391975
 30
0.000000000000000
 11
60.36725470722997
 21
91.95042572391975
 31
0.000000000000000
  0
LINE
  5
1B0
100
AcDbEntity
  8
A1
  6
CONTINUOUS
 62
7
100
AcDbLine
 10
43.86725470723000
 20
91.95042572391975
 30
0.000000000000000
 11
44.36725470722994
 21
91.95042572391975
 31
0.000000000000000
  0
LINE
  5
1B1
100
AcDbEntity
  8
A1
  6
CONTINUOUS
 62
7
100
AcDbLine
 10
44.36725470722994
 20
90.45042572391975
 30
0.000000000000000
 11
43.86725470723000
 21
90.45042572391975
 31
0.000000000000000
  0
LINE
  5
1B2
100
AcDbEntity
  8
A1
  6
CONTINUOUS
 62
7
100
AcDbLine
 10
43.86725470723000
 20
90.45042572391975
 30
0.000000000000000
 11
43.86725470723000
 21
91.95042572391975
 31
0.000000000000000
  0
LINE
  5
1B3
100
AcDbEntity
  8
A1
  6
CONTINUOUS
 62
7
100
AcDbLine
 10
46.11725470723001
 20
91.95042572391276
 30
0.000000000000000
 11
44.36725470722993
 21
91.95042572391975
 31
0.000000000000000
  0
LINE
  5
1B4
100
AcDbEntity
  8
A1
  6
CONTINUOUS
 62
7
100
AcDbLine
 10
44.36725470722994
 20
90.45042572391975
 30
0.000000000000000
 11
46.11725470723002
 21
90.45042572391975
 31
0.000000000000000
  0
LINE
  5
1B5
100
AcDbEntity
  8
A1
  6
CONTINUOUS
 62
7
100
AcDbLine
 10
44.36725470722994
 20
91.95042572391975
 30
0.000000000000000
 11
44.36725470722994
 21
90.45042572391975
 31
0.000000000000000
  0
LINE
  5
1B6
100
AcDbEntity
  8
A1
  6
CONTINUOUS
 62
7
100
AcDbLine
 10
46.11725470723002
 20
91.95042572391276
 30
0.000000000000000
 11
49.11725470722997
 21
91.95042572391276
 31
0.000000000000000
  0
LINE
  5
1B7
100
AcDbEntity
  8
A1
  6
CONTINUOUS
 62
7
100
AcDbLine
 10
49.11725470722997
 20
90.45042572391975
 30
0.000000000000000
 11
46.11725470723002
 21
90.45042572391975
 31
0.000000000000000
  0
LINE
  5
1B8
100
AcDbEntity
  8
A1
  6
CONTINUOUS
 62
7
100
AcDbLine
 10
46.11725470722997
 20
90.45042572391975
 30
0.000000000000000
 11
46.11725470722997
 21
91.95042572391975
 31
0.000000000000000
  0
LINE
  5
1B9
100
AcDbEntity
  8
A1
  6
CONTINUOUS
 62
7
100
AcDbLine
 10
55.61725470723002
 20
91.95042572391975
 30
0.000000000000000
 11
49.11725470722997
 21
91.95042572391975
 31
0.000000000000000
  0
LINE
  5
1BA
100
AcDbEntity
  8
A1
  6
CONTINUOUS
 62
7
100
AcDbLine
 10
55.61725470723002
 20
90.45042572391975
 30
0.000000000000000
 11
49.11725470722997
 21
90.45042572391975
 31
0.000000000000000
  0
LINE
  5
1BB
100
AcDbEntity
  8
A1
  6
CONTINUOUS
 62
7
100
AcDbLine
 10
49.11725470722997
 20
91.95042572391975
 30
0.000000000000000
 11
49.11725470722997
 21
90.45042572391975
 31
0.000000000000000
  0
LINE
  5
1BC
100
AcDbEntity
  8
A1
  6
CONTINUOUS
 62
7
100
AcDbLine
 10
55.61725470723002
 20
91.95042572391975
 30
0.000000000000000
 11
58.61725470723002
 21
91.95042572391975
 31
0.000000000000000
  0
LINE
  5
1BD
100
AcDbEntity
  8
A1
  6
CONTINUOUS
 62
7
100
AcDbLine
 10
58.61725470723002
 20
90.45042572391975
 30
0.000000000000000
 11
55.61725470723002
 21
90.45042572391975
 31
0.000000000000000
  0
LINE
  5
1BE
100
AcDbEntity
  8
A1
  6
CONTINUOUS
 62
7
100
AcDbLine
 10
58.61725470723002
 20
91.95042572391975
 30
0.000000000000000
 11
58.61725470723002
 21
90.45042572391975
 31
0.000000000000000
  0
LINE
  5
1BF
100
AcDbEntity
  8
A1
  6
CONTINUOUS
 62
7
100
AcDbLine
 10
55.61725470723002
 20
90.45042572391975
 30
0.000000000000000
 11
55.61725470723002
 21
91.95042572391975
 31
0.000000000000000
  0
ELLIPSE
  5
1C0
100
AcDbEntity
  8
A1
  6
CONTINUOUS
 62
7
100
AcDbEllipse
 10
54.42836629904139
 20
95.45042572391974
 30
0.000000000000000
 11
0.000000000000000
 21
1.000000000000000
 31
0.000000000000000
210
0.000000000000000
220
0.000000000000000
230
1.000000000000000
 40
0.05673329333279720
 41
0.000000000000000
 42
3.141592653589793
  0
ELLIPSE
  5
1C1
100
AcDbEntity
  8
A1
  6
CONTINUOUS
 62
7
100
AcDbEllipse
 10
50.31489971237579
 20
95.45042572391974
 30
0.000000000000000
 11
0.000000000000000
 21
1.000000000000000
 31
0.000000000000000
210
0.000000000000000
220
0.000000000000000
230
1.000000000000000
 40
0.05673329333279720
 41
3.141592653589793
 42
0.000000000000000
  0
ARC
  5
1C2
100
AcDbEntity
  8
A1
  6
CONTINUOUS
 62
7
100
AcDbCircle
 10
66.62163300570859
 20
95.45042572391974
 30
0.000000000000000
 40
1.000000000000000
100
AcDbArc
 50
270.0000000000000
 51
450.0000000000000
  0
ARC
  5
1C3
100
AcDbEntity
  8
A1
  6
CONTINUOUS
 62
7
100
AcDbCircle
 10
38.12163300570853
 20
95.45042572391974
 30
0.000000000000000
 40
1.000000000000000
100
AcDbArc
 50
90.00000000000000
 51
270.0000000000000
  0
LINE
  5
1C4
100
AcDbEntity
  8
A1
  6
CONTINUOUS
 62
7
100
AcDbLine
 10
63.65750262451511
 20
94.45042572391975
 30
0.000000000000000
 11
66.62163300570859
 21
94.45042572391975
 31
0.000000000000000
  0
LINE
  5
1C5
100
AcDbEntity
  8
A1
  6
CONTINUOUS
 62
7
100
AcDbLine
 10
66.62163300570859
 20
96.45042572391976
 30
0.000000000000000
 11
63.65750262451511
 21
96.45042572391976
 31
0.000000000000000
  0
LINE
  5
1C6
100
AcDbEntity
  8
A1
  6
CONTINUOUS
 62
7
100
AcDbLine
 10
38.12163300570854
 20
94.45042572391975
 30
0.000000000000000
 11
41.08576338690199
 21
94.45042572391975
 31
0.000000000000000
  0
LINE
  5
1C7
100
AcDbEntity
  8
A1
  6
CONTINUOUS
 62
7
100
AcDbLine
 10
41.08576338690202
 20
96.45042572391976
 30
0.000000000000000
 11
38.12163300570854
 21
96.45042572391976
 31
0.000000000000000
  0
LINE
  5
1C8
100
AcDbEntity
  8
A1
  6
CONTINUOUS
 62
7
100
AcDbLine
 10
58.86725470722997
 20
96.45042572391976
 30
0.000000000000000
 11
54.42836629904134
 21
96.45042572391976
 31
0.000000000000000
  0
LINE
  5
1C9
100
AcDbEntity
  8
A1
  6
CONTINUOUS
 62
7
100
AcDbLine
 10
61.69249718696350
 20
96.45042572391976
 30
0.000000000000000
 11
60.36725470723002
 21
96.45042572391976
 31
0.000000000000000
  0
LINE
  5
1CA
100
AcDbEntity
  8
A1
  6
CONTINUOUS
 62
7
100
AcDbLine
 10
60.36725470723002
 20
94.45042572391975
 30
0.000000000000000
 11
61.69249727112143
 21
94.45042572391975
 31
0.000000000000000
  0
LINE
  5
1CB
100
AcDbEntity
  8
A1
  6
CONTINUOUS
 62
7
100
AcDbLine
 10
54.42836629904134
 20
94.45042572391975
 30
0.000000000000000
 11
58.86725470722997
 21
94.45042572391975
 31
0.000000000000000
  0
LINE
  5
1CC
100
AcDbEntity
  8
A1
  6
CONTINUOUS
 62
7
100
AcDbLine
 10
45.86725470722994
 20
94.45042572391975
 30
0.000000000000000
 11
50.31489971237580
 21
94.45042572391975
 31
0.000000000000000
  0
LINE
  5
1CD
100
AcDbEntity
  8
A1
  6
CONTINUOUS
 62
7
100
AcDbLine
 10
43.05076882445361
 20
94.45042572391975
 30
0.000000000000000
 11
44.36725470723000
 21
94.45042572391975
 31
0.000000000000000
  0
LINE
  5
1CE
100
AcDbEntity
  8
A1
  6
CONTINUOUS
 62
7
100
AcDbLine
 10
44.36725470723000
 20
96.45042572391976
 30
0.000000000000000
 11
43.05076874029570
 21
96.45042572391976
 31
0.000000000000000
  0
LINE
  5
1CF
100
AcDbEntity
  8
A1
  6
CONTINUOUS
 62
7
100
AcDbLine
 10
50.31489971237580
 20
96.45042572391976
 30
0.000000000000000
 11
45.86725470722994
 21
96.45042572391976
 31
0.000000000000000
  0
LINE
  5
1D0
100
AcDbEntity
  8
A1
  6
CONTINUOUS
 62
7
100
AcDbLine
 10
41.08576338690208
 20
94.45042572391975
 30
0.000000000000000
 11
43.05076882445361
 21
94.45042572391975
 31
0.000000000000000
  0
LINE
  5
1D1
100
AcDbEntity
  8
A1
  6
CONTINUOUS
 62
7
100
AcDbLine
 10
43.05076874029567
 20
96.45042572391976
 30
0.000000000000000
 11
41.08576338690208
 21
96.45042572391976
 31
0.000000000000000
  0
LINE
  5
1D2
100
AcDbEntity
  8
A1
  6
CONTINUOUS
 62
7
100
AcDbLine
 10
61.69249727112146
 20
94.45042572391975
 30
0.000000000000000
 11
63.65750262451503
 21
94.45042572391975
 31
0.000000000000000
  0
LINE
  5
1D3
100
AcDbEntity
  8
A1
  6
CONTINUOUS
 62
7
100
AcDbLine
 10
63.65750262451503
 20
96.45042572391976
 30
0.000000000000000
 11
61.69249718696353
 21
96.45042572391976
 31
0.000000000000000
  0
LINE
  5
1D4
100
AcDbEntity
  8
A4
  6
CENTER
 62
1
100
AcDbLine
 10
169.4073865187494
 20
135.1962285287872
 30
0.000000000000000
 11
163.1073865187493
 21
135.1962285287872
 31
0.000000000000000
  0
LINE
  5
1D5
100
AcDbEntity
  8
A4
  6
CENTER
 62
1
100
AcDbLine
 10
169.4073865187494
 20
149.1962285287872
 30
0.000000000000000
 11
163.1073865187493
 21
149.1962285287872
 31
0.000000000000000
  0
LINE
  5
1D6
100
AcDbEntity
  8
A4
  6
CENTER
 62
1
100
AcDbLine
 10
153.0563590951348
 20
184.0744573978150
 30
0.000000000000000
 11
179.2164461685981
 21
184.0744573978150
 31
0.000000000000000
  0
LINE
  5
1D7
100
AcDbEntity
  8
A4
  6
CENTER
 62
1
100
AcDbLine
 10
112.9441744801952
 20
184.0744573978151
 30
0.000000000000000
 11
117.9441744801952
 21
184.0744573978150
 31
0.000000000000000
  0
LINE
  5
1D8
100
AcDbEntity
  8
A4
  6
CENTER
 62
1
100
AcDbLine
 10
112.0941744801951
 20
149.6962285287871
 30
0.000000000000000
 11
118.7941744801951
 21
149.6962285287870
 31
0.000000000000000
  0
LINE
  5
1D9
100
AcDbEntity
  8
A4
  6
CENTER
 62
1
100
AcDbLine
 10
121.9441744801949
 20
135.1962285287955
 30
0.000000000000000
 11
117.4441744802100
 21
135.1962285287955
 31
0.000000000000000
  0
LINE
  5
1DA
100
AcDbEntity
  8
A4
  6
CENTER
 62
1
100
AcDbLine
 10
68.12163300570859
 20
95.45042572391976
 30
0.000000000000000
 11
36.62163300570854
 21
95.45042572391976
 31
0.000000000000000
  0
LINE
  5
1DB
100
AcDbEntity
  8
A4
  6
CENTER
 62
1
100
AcDbLine
 10
68.11287640875140
 20
223.8200790993373
 30
0.000000000000000
 11
36.61287640875132
 21
223.8200790993373
 31
0.000000000000000
  0
LINE
  5
1DC
100
AcDbEntity
  8
A4
  6
CENTER
 62
1
100
AcDbLine
 10
115.4441744801951
 20
146.3462285287870
 30
0.000000000000000
 11
115.4441744801952
 21
186.5744573978151
 31
0.000000000000000
  0
LINE
  5
1DD
100
AcDbEntity
  8
A4
  6
CENTER
 62
1
100
AcDbLine
 10
166.2573865187493
 20
126.1278622006038
 30
0.000000000000000
 11
166.2573865187493
 21
187.5255481762958
 31
0.000000000000000
  0
LINE
  5
1DE
100
AcDbEntity
  8
A4
  6
CENTER
 62
1
100
AcDbLine
 10
39.52074668446909
 20
184.0744573978159
 30
0.000000000000000
 11
65.44680488250771
 21
184.0744573978159
 31
0.000000000000000
  0
LINE
  5
1DF
100
AcDbEntity
  8
A4
  6
CENTER
 62
1
100
AcDbLine
 10
52.36725470722996
 20
126.1278622006038
 30
0.000000000000000
 11
52.36725470722996
 21
187.5255481762958
 31
0.000000000000000
  0
LINE
  5
1E0
100
AcDbEntity
  8
A4
  6
CENTER
 62
1
100
AcDbLine
 10
52.36725470722999
 20
88.95042572391975
 30
0.000000000000000
 11
52.36725470722996
 21
104.9504257239197
 31
0.000000000000000
  0
LINE
  5
1E1
100
AcDbEntity
  8
A4
  6
CENTER
 62
1
100
AcDbLine
 10
61.70292381091014
 20
149.6962285287871
 30
0.000000000000000
 11
43.07290328344033
 21
149.6962285287871
 31
0.000000000000000
  0
LINE
  5
1E2
100
AcDbEntity
  8
A4
  6
CENTER
 62
1
100
AcDbLine
 10
118.7941744801951
 20
149.6962285287870
 30
0.000000000000000
 11
120.4441744801950
 21
149.6962285287870
 31
0.000000000000000
  0
LINE
  5
1E3
100
AcDbEntity
  8
A4
  6
CENTER
 62
1
100
AcDbLine
 10
156.8569377824609
 20
149.6962285287870
 30
0.000000000000000
 11
175.6927235620026
 21
149.6962285287870
 31
0.000000000000000
  0
LINE
  5
1E4
100
AcDbEntity
  8
A4
  6
CENTER
 62
1
100
AcDbLine
 10
52.36725470722994
 20
217.3200790993373
 30
0.000000000000000
 11
52.36725470722997
 21
233.1959455955549
 31
0.000000000000000
  0
CIRCLE
  5
1E5
100
AcDbEntity
  8
A1
  6
CONTINUOUS
 62
7
100
AcDbCircle
 10
79.53991764183370
 20
193.1962285287872
 30
0.000000000000000
 40
1.700000000000000
  0
CIRCLE
  5
1E6
100
AcDbEntity
  8
A1
  6
CONTINUOUS
 62
7
100
AcDbCircle
 10
95.53991764183372
 20
193.1962285287872
 30
0.000000000000000
 40
1.700000000000000
  0
ELLIPSE
  5
1E7
100
AcDbEntity
  8
A1
  6
CONTINUOUS
 62
7
100
AcDbEllipse
 10
94.03991764183358
 20
185.5945916034656
 30
0.000000000000000
 11
1.500000000000000
 21
0.000000000000000
 31
0.000000000000000
210
0.000000000000000
220
0.000000000000000
230
1.000000000000000
 40
0.9344246168810916
 41
0.000000000000000
 42
1.570796326794897
  0
ELLIPSE
  5
1E8
100
AcDbEntity
  8
A1
  6
CONTINUOUS
 62
7
100
AcDbEllipse
 10
81.03991764186749
 20
185.5945916034656
 30
0.000000000000000
 11
1.500000000000000
 21
0.000000000000000
 31
0.000000000000000
210
0.000000000000000
220
0.000000000000000
230
1.000000000000000
 40
0.9344246168810916
 41
1.570796326794897
 42
3.141592653589793
  0
ELLIPSE
  5
1E9
100
AcDbEntity
  8
A1
  6
CONTINUOUS
 62
7
100
AcDbEllipse
 10
81.03991764186829
 20
185.0645787177992
 30
0.000000000000000
 11
1.500000000000000
 21
0.000000000000000
 31
0.000000000000000
210
0.000000000000000
220
0.000000000000000
230
1.000000000000000
 40
0.9344332073253324
 41
1.570796326794897
 42
3.141592653589793
  0
ELLIPSE
  5
1EA
100
AcDbEntity
  8
A1
  6
CONTINUOUS
 62
7
100
AcDbEllipse
 10
94.03991764183358
 20
185.0645787177992
 30
0.000000000000000
 11
1.500000000000000
 21
0.000000000000000
 31
0.000000000000000
210
0.000000000000000
220
0.000000000000000
230
1.000000000000000
 40
0.9344332073253324
 41
0.000000000000000
 42
1.570796326794897
  0
ARC
  5
1EB
100
AcDbEntity
  8
A1
  6
CONTINUOUS
 62
7
100
AcDbCircle
 10
95.00300908265088
 20
193.1962285287988
 30
0.000000000000000
 40
4.036908559193733
100
AcDbArc
 50
277.7536851933323
 51
442.2463148055302
  0
ARC
  5
1EC
100
AcDbEntity
  8
A1
  6
CONTINUOUS
 62
7
100
AcDbCircle
 10
80.07682620103840
 20
193.1962285287871
 30
0.000000000000000
 40
4.036908559193733
100
AcDbArc
 50
97.75368519323682
 51
262.2463148067565
  0
LINE
  5
1ED
100
AcDbEntity
  8
A1
  6
CONTINUOUS
 62
7
100
AcDbLine
 10
95.53991764183372
 20
189.1962285287997
 30
0.000000000000000
 11
95.53991764183372
 21
185.5945916034656
 31
0.000000000000000
  0
LINE
  5
1EE
100
AcDbEntity
  8
A1
  6
CONTINUOUS
 62
7
100
AcDbLine
 10
79.53991764186746
 20
185.5945916034636
 30
0.000000000000000
 11
79.53991764186186
 21
189.1962285287872
 31
0.000000000000000
  0
LINE
  5
1EF
100
AcDbEntity
  8
A1
  6
CONTINUOUS
 62
7
100
AcDbLine
 10
79.53218805025247
 20
197.1962285287872
 30
0.000000000000000
 11
95.54764723352278
 21
197.1962285287873
 31
0.000000000000000
  0
LINE
  5
1F0
100
AcDbEntity
  8
A1
  6
CONTINUOUS
 62
7
100
AcDbLine
 10
95.54764723344336
 20
189.1962285287997
 30
0.000000000000000
 11
95.53991764183372
 21
189.1962285287998
 31
0.000000000000000
  0
LINE
  5
1F1
100
AcDbEntity
  8
A1
  6
CONTINUOUS
 62
7
100
AcDbLine
 10
79.53991764186189
 20
189.1962285287871
 30
0.000000000000000
 11
79.53218805025209
 21
189.1962285287873
 31
0.000000000000000
  0
LINE
  5
1F2
100
AcDbEntity
  8
A1
  6
CONTINUOUS
 62
7
100
AcDbLine
 10
95.53991764183372
 20
183.8455490078630
 30
0.000000000000000
 11
95.53991764183372
 21
181.2057418010121
 31
0.000000000000000
  0
LINE
  5
1F3
100
AcDbEntity
  8
A1
  6
CONTINUOUS
 62
7
100
AcDbLine
 10
79.53991764186800
 20
181.2057418010121
 30
0.000000000000000
 11
95.53991764183372
 21
181.2057418010121
 31
0.000000000000000
  0
LINE
  5
1F4
100
AcDbEntity
  8
A1
  6
CONTINUOUS
 62
7
100
AcDbLine
 10
79.53991764187441
 20
181.2057418010122
 30
0.000000000000000
 11
79.53991764187030
 21
183.8455490078630
 31
0.000000000000000
  0
LINE
  5
1F5
100
AcDbEntity
  8
A1
  6
CONTINUOUS
 62
7
100
AcDbLine
 10
81.03991764186749
 20
186.9962285287872
 30
0.000000000000000
 11
94.03991764183358
 21
186.9962285287872
 31
0.000000000000000
  0
LINE
  5
1F6
100
AcDbEntity
  8
A1
  6
CONTINUOUS
 62
7
100
AcDbLine
 10
95.53991764183372
 20
185.5945916034656
 30
0.000000000000000
 11
95.53991764183372
 21
185.0645787177992
 31
0.000000000000000
  0
LINE
  5
1F7
100
AcDbEntity
  8
A1
  6
CONTINUOUS
 62
7
100
AcDbLine
 10
94.03991764183358
 20
186.4662285287873
 30
0.000000000000000
 11
94.03991764183358
 21
186.9962285287872
 31
0.000000000000000
  0
LINE
  5
1F8
100
AcDbEntity
  8
A1
  6
CONTINUOUS
 62
7
100
AcDbLine
 10
81.03991764186748
 20
186.9962285287873
 30
0.000000000000000
 11
81.03991764186837
 21
186.4662285287873
 31
0.000000000000000
  0
LINE
  5
1F9
100
AcDbEntity
  8
A1
  6
CONTINUOUS
 62
7
100
AcDbLine
 10
79.53991764186809
 20
185.0645787177972
 30
0.000000000000000
 11
79.53991764186809
 21
185.5945916034636
 31
0.000000000000000
  0
LINE
  5
1FA
100
AcDbEntity
  8
A1
  6
CONTINUOUS
 62
7
100
AcDbLine
 10
81.03991764186840
 20
186.4662285287873
 30
0.000000000000000
 11
94.03991764183358
 21
186.4662285287873
 31
0.000000000000000
  0
LINE
  5
1FB
100
AcDbEntity
  8
A1
  6
CONTINUOUS
 62
7
100
AcDbLine
 10
79.53991764186809
 20
183.8455490078630
 30
0.000000000000000
 11
79.53991764186809
 21
185.0645787177972
 31
0.000000000000000
  0
LINE
  5
1FC
100
AcDbEntity
  8
A1
  6
CONTINUOUS
 62
7
100
AcDbLine
 10
79.53991764186809
 20
183.8455490078630
 30
0.000000000000000
 11
95.53991764183372
 21
183.8455490078630
 31
0.000000000000000
  0
LINE
  5
1FD
100
AcDbEntity
  8
A1
  6
CONTINUOUS
 62
7
100
AcDbLine
 10
95.53991764183372
 20
183.8455490078630
 30
0.000000000000000
 11
95.53991764183372
 21
185.0645787177992
 31
0.000000000000000
  0
ARC
  5
1FE
100
AcDbEntity
  8
A1
  6
CONTINUOUS
 62
7
100
AcDbCircle
 10
128.6941551724635
 20
185.3057418010115
 30
0.000000000000000
 40
4.100000000000000
100
AcDbArc
 50
200.8636095828944
 51
360.0000000000000
  0
ARC
  5
1FF
100
AcDbEntity
  8
A1
  6
CONTINUOUS
 62
7
100
AcDbCircle
 10
128.6941551724635
 20
185.2973968545136
 30
0.000000000000000
 40
2.600000000000000
100
AcDbArc
 50
200.8649997641243
 51
360.0000000000000
  0
LINE
  5
200
100
AcDbEntity
  8
A1
  6
CONTINUOUS
 62
7
100
AcDbLine
 10
125.2641551724634
 20
186.9962285287866
 30
0.000000000000000
 11
125.7984074265525
 21
185.5945916034649
 31
0.000000000000000
  0
LINE
  5
201
100
AcDbEntity
  8
A1
  6
CONTINUOUS
 62
7
100
AcDbLine
 10
123.8641551724634
 20
186.4662285287866
 30
0.000000000000000
 11
124.3983733889432
 21
185.0645787177986
 31
0.000000000000000
  0
LINE
  5
202
100
AcDbEntity
  8
A1
  6
CONTINUOUS
 62
7
100
AcDbLine
 10
123.8641551724635
 20
186.4662285287866
 30
0.000000000000000
 11
125.2641551724634
 21
186.9962285287866
 31
0.000000000000000
  0
LINE
  5
203
100
AcDbEntity
  8
A1
  6
CONTINUOUS
 62
7
100
AcDbLine
 10
131.2941551724634
 20
189.1962285287991
 30
0.000000000000000
 11
131.2941551724634
 21
185.2973968545136
 31
0.000000000000000
  0
LINE
  5
204
100
AcDbEntity
  8
A1
  6
CONTINUOUS
 62
7
100
AcDbLine
 10
132.7941551724634
 20
189.1962285287991
 30
0.000000000000000
 11
132.7941551724635
 21
185.3057418010115
 31
0.000000000000000
  0
LINE
  5
205
100
AcDbEntity
  8
A1
  6
CONTINUOUS
 62
7
100
AcDbLine
 10
125.7984074265524
 20
185.5945916034649
 30
0.000000000000000
 11
126.2646573996456
 21
184.3713619891475
 31
0.000000000000000
  0
LINE
  5
206
100
AcDbEntity
  8
A1
  6
CONTINUOUS
 62
7
100
AcDbLine
 10
125.7984074265525
 20
185.5945916034649
 30
0.000000000000000
 11
124.3983733889433
 21
185.0645787177986
 31
0.000000000000000
  0
LINE
  5
207
100
AcDbEntity
  8
A1
  6
CONTINUOUS
 62
7
100
AcDbLine
 10
124.8629886390385
 20
183.8455490078624
 30
0.000000000000000
 11
124.3983733889433
 21
185.0645787177986
 31
0.000000000000000
  0
LINE
  5
208
100
AcDbEntity
  8
A1
  6
CONTINUOUS
 62
7
100
AcDbLine
 10
131.2941551724634
 20
189.1962285287991
 30
0.000000000000000
 11
131.2941551724634
 21
197.1962285287865
 31
0.000000000000000
  0
LINE
  5
209
100
AcDbEntity
  8
A1
  6
CONTINUOUS
 62
7
100
AcDbLine
 10
132.7941551724634
 20
189.1962285287991
 30
0.000000000000000
 11
132.7941551724634
 21
197.1962285287865
 31
0.000000000000000
  0
LINE
  5
20A
100
AcDbEntity
  8
A1
  6
CONTINUOUS
 62
7
100
AcDbLine
 10
132.7941551724634
 20
189.1962285287991
 30
0.000000000000000
 11
131.2941551724634
 21
189.1962285287991
 31
0.000000000000000
  0
LINE
  5
20B
100
AcDbEntity
  8
A1
  6
CONTINUOUS
 62
7
100
AcDbLine
 10
132.7941551724634
 20
197.1962285287866
 30
0.000000000000000
 11
131.2941551724634
 21
197.1962285287866
 31
0.000000000000000
  0
ELLIPSE
  5
20C
100
AcDbEntity
  8
A1
  6
CONTINUOUS
 62
7
100
AcDbEllipse
 10
94.03991764183570
 20
220.4077720258710
 30
0.000000000000000
 11
-1.500000000000000
 21
0.000000000000000
 31
0.000000000000000
210
0.000000000000000
220
0.000000000000000
230
1.000000000000000
 40
0.3561454776532295
 41
1.570796326794897
 42
3.141592653589793
  0
ELLIPSE
  5
20D
100
AcDbEntity
  8
A1
  6
CONTINUOUS
 62
7
100
AcDbEllipse
 10
81.03991764187040
 20
220.4077720258708
 30
0.000000000000000
 11
-1.500000000000000
 21
0.000000000000000
 31
0.000000000000000
210
0.000000000000000
220
0.000000000000000
230
1.000000000000000
 40
0.3561454776532295
 41
0.000000000000000
 42
1.570796326794897
  0
ELLIPSE
  5
20E
100
AcDbEntity
  8
A1
  6
CONTINUOUS
 62
7
100
AcDbEllipse
 10
81.03991764186961
 20
221.8078060634802
 30
0.000000000000000
 11
-1.500000000000000
 21
0.000000000000000
 31
0.000000000000000
210
0.000000000000000
220
0.000000000000000
230
1.000000000000000
 40
0.3561681693927328
 41
0.000000000000000
 42
1.570796326794897
  0
ELLIPSE
  5
20F
100
AcDbEntity
  8
A1
  6
CONTINUOUS
 62
7
100
AcDbEllipse
 10
94.03991764183570
 20
221.8078060634802
 30
0.000000000000000
 11
-1.500000000000000
 21
0.000000000000000
 31
0.000000000000000
210
0.000000000000000
220
0.000000000000000
230
1.000000000000000
 40
0.3561681693927328
 41
1.570796326794897
 42
3.141592653589793
  0
LINE
  5
210
100
AcDbEntity
  8
A1
  6
CONTINUOUS
 62
7
100
AcDbLine
 10
95.53991764183584
 20
222.2740560365734
 30
0.000000000000000
 11
95.53991764183584
 21
227.3035538093912
 31
0.000000000000000
  0
LINE
  5
211
100
AcDbEntity
  8
A1
  6
CONTINUOUS
 62
7
100
AcDbLine
 10
79.53991764185773
 20
227.3035538093912
 30
0.000000000000000
 11
79.53991764185773
 21
222.2740560365734
 31
0.000000000000000
  0
LINE
  5
212
100
AcDbEntity
  8
A1
  6
CONTINUOUS
 62
7
100
AcDbLine
 10
81.03991764187052
 20
219.8735538093912
 30
0.000000000000000
 11
94.03991764183570
 21
219.8735538093912
 31
0.000000000000000
  0
LINE
  5
213
100
AcDbEntity
  8
A1
  6
CONTINUOUS
 62
7
100
AcDbLine
 10
95.53991764183584
 20
221.8078060634802
 30
0.000000000000000
 11
95.53991764183584
 21
220.4077720258710
 31
0.000000000000000
  0
LINE
  5
214
100
AcDbEntity
  8
A1
  6
CONTINUOUS
 62
7
100
AcDbLine
 10
94.03991764183570
 20
219.8735538093912
 30
0.000000000000000
 11
94.03991764183570
 21
221.2735538093911
 31
0.000000000000000
  0
LINE
  5
215
100
AcDbEntity
  8
A1
  6
CONTINUOUS
 62
7
100
AcDbLine
 10
79.53991764187020
 20
220.4077720258718
 30
0.000000000000000
 11
79.53991764187020
 21
221.8078060634810
 31
0.000000000000000
  0
LINE
  5
216
100
AcDbEntity
  8
A1
  6
CONTINUOUS
 62
7
100
AcDbLine
 10
81.03991764186964
 20
221.2735538093911
 30
0.000000000000000
 11
81.03991764187053
 21
219.8735538093912
 31
0.000000000000000
  0
LINE
  5
217
100
AcDbEntity
  8
A1
  6
CONTINUOUS
 62
7
100
AcDbLine
 10
95.53991764183584
 20
221.8078060634802
 30
0.000000000000000
 11
95.53991764183584
 21
222.2740560365734
 31
0.000000000000000
  0
LINE
  5
218
100
AcDbEntity
  8
A1
  6
CONTINUOUS
 62
7
100
AcDbLine
 10
79.53991764187020
 20
221.8078060634810
 30
0.000000000000000
 11
79.53991764187020
 21
222.2740560365734
 31
0.000000000000000
  0
LINE
  5
219
100
AcDbEntity
  8
A1
  6
CONTINUOUS
 62
7
100
AcDbLine
 10
81.03991764186961
 20
221.2735538093911
 30
0.000000000000000
 11
94.03991764183570
 21
221.2735538093911
 31
0.000000000000000
  0
LINE
  5
21A
100
AcDbEntity
  8
A1
  6
CONTINUOUS
 62
7
100
AcDbLine
 10
95.53991764183584
 20
222.2740560365734
 30
0.000000000000000
 11
79.53991764187020
 21
222.2740560365734
 31
0.000000000000000
  0
LINE
  5
21B
100
AcDbEntity
  8
A1
  6
CONTINUOUS
 62
7
100
AcDbLine
 10
79.53218805025460
 20
227.3035538093912
 30
0.000000000000000
 11
76.03991764184670
 21
227.3035538093912
 31
0.000000000000000
  0
LINE
  5
21C
100
AcDbEntity
  8
A1
  6
CONTINUOUS
 62
7
100
AcDbLine
 10
79.53218805025460
 20
228.8035538093911
 30
0.000000000000000
 11
76.03991764184670
 21
228.8035538093911
 31
0.000000000000000
  0
LINE
  5
21D
100
AcDbEntity
  8
A1
  6
CONTINUOUS
 62
7
100
AcDbLine
 10
76.03991764184670
 20
228.8035538093911
 30
0.000000000000000
 11
76.03991764184670
 21
227.3035538093912
 31
0.000000000000000
  0
LINE
  5
21E
100
AcDbEntity
  8
A1
  6
CONTINUOUS
 62
7
100
AcDbLine
 10
99.03991764184670
 20
227.3035538093912
 30
0.000000000000000
 11
99.03991764184670
 21
228.8035538093911
 31
0.000000000000000
  0
LINE
  5
21F
100
AcDbEntity
  8
A1
  6
CONTINUOUS
 62
7
100
AcDbLine
 10
99.03991764184670
 20
227.3035538093912
 30
0.000000000000000
 11
95.54764723352494
 21
227.3035538093912
 31
0.000000000000000
  0
LINE
  5
220
100
AcDbEntity
  8
A1
  6
CONTINUOUS
 62
7
100
AcDbLine
 10
99.03991764184670
 20
228.8035538093911
 30
0.000000000000000
 11
95.54764723352494
 21
228.8035538093911
 31
0.000000000000000
  0
LINE
  5
221
100
AcDbEntity
  8
A1
  6
CONTINUOUS
 62
7
100
AcDbLine
 10
79.53218805025460
 20
227.3035538093912
 30
0.000000000000000
 11
95.54764723352494
 21
227.3035538093912
 31
0.000000000000000
  0
LINE
  5
222
100
AcDbEntity
  8
A1
  6
CONTINUOUS
 62
7
100
AcDbLine
 10
95.54764723352494
 20
228.8035538093911
 30
0.000000000000000
 11
95.54764723352494
 21
227.3035538093912
 31
0.000000000000000
  0
LINE
  5
223
100
AcDbEntity
  8
A1
  6
CONTINUOUS
 62
7
100
AcDbLine
 10
79.53218805025460
 20
228.8035538093911
 30
0.000000000000000
 11
95.54764723352494
 21
228.8035538093911
 31
0.000000000000000
  0
LINE
  5
224
100
AcDbEntity
  8
A1
  6
CONTINUOUS
 62
7
100
AcDbLine
 10
79.53218805025460
 20
228.8035538093911
 30
0.000000000000000
 11
79.53218805025460
 21
227.3035538093912
 31
0.000000000000000
  0
LINE
  5
225
100
AcDbEntity
  8
A4
  6
CENTER
 62
1
100
AcDbLine
 10
82.73991764183371
 20
193.1962285287872
 30
0.000000000000000
 11
76.33991764183368
 21
193.1962285287872
 31
0.000000000000000
  0
LINE
  5
226
100
AcDbEntity
  8
A4
  6
CENTER
 62
1
100
AcDbLine
 10
79.53991764183370
 20
196.3962285287872
 30
0.000000000000000
 11
79.53991764183370
 21
189.9962285287872
 31
0.000000000000000
  0
LINE
  5
227
100
AcDbEntity
  8
A4
  6
CENTER
 62
1
100
AcDbLine
 10
98.73991764183371
 20
193.1962285287872
 30
0.000000000000000
 11
92.33991764183368
 21
193.1962285287872
 31
0.000000000000000
  0
LINE
  5
228
100
AcDbEntity
  8
A4
  6
CENTER
 62
1
100
AcDbLine
 10
95.53991764183372
 20
196.3962285287872
 30
0.000000000000000
 11
95.53991764183372
 21
189.9962285287872
 31
0.000000000000000
  0
LINE
  5
229
100
AcDbEntity
  8
A4
  6
CENTER
 62
1
100
AcDbLine
 10
129.7941551724526
 20
193.1962285287872
 30
0.000000000000000
 11
134.2941551724634
 21
193.1962285287872
 31
0.000000000000000
  0
LINE
  5
22A
100
AcDbEntity
  8
A1
  6
CONTINUOUS
 62
7
100
AcDbLine
 10
77.83991764183580
 20
227.3035538093912
 30
0.000000000000000
 11
77.83991764183580
 21
228.8035538093911
 31
0.000000000000000
  0
LINE
  5
22B
100
AcDbEntity
  8
A1
  6
CONTINUOUS
 62
7
100
AcDbLine
 10
81.23991764183583
 20
227.3035538093912
 30
0.000000000000000
 11
81.23991764183583
 21
228.8035538093911
 31
0.000000000000000
  0
LINE
  5
22C
100
AcDbEntity
  8
A1
  6
CONTINUOUS
 62
7
100
AcDbLine
 10
93.83991764183580
 20
227.3035538093912
 30
0.000000000000000
 11
93.83991764183580
 21
228.8035538093911
 31
0.000000000000000
  0
LINE
  5
22D
100
AcDbEntity
  8
A1
  6
CONTINUOUS
 62
7
100
AcDbLine
 10
97.23991764183583
 20
227.3035538093912
 30
0.000000000000000
 11
97.23991764183583
 21
228.8035538093911
 31
0.000000000000000
  0
LINE
  5
22E
100
AcDbEntity
  8
A4
  6
CENTER
 62
1
100
AcDbLine
 10
95.53991764183584
 20
225.8035538093912
 30
0.000000000000000
 11
95.53991764183584
 21
230.3035538093911
 31
0.000000000000000
  0
LINE
  5
22F
100
AcDbEntity
  8
A4
  6
CENTER
 62
1
100
AcDbLine
 10
79.53991764183581
 20
225.8035538093912
 30
0.000000000000000
 11
79.53991764183581
 21
230.3035538093911
 31
0.000000000000000
  0
LINE
  5
230
100
AcDbEntity
  8
A4
  6
CENTER
 62
1
100
AcDbLine
 10
87.53991764185302
 20
179.7057418010121
 30
0.000000000000000
 11
87.53991764185302
 21
199.4620255109843
 31
0.000000000000000
  0
LINE
  5
231
100
AcDbEntity
  8
A4
  6
CENTER
 62
1
100
AcDbLine
 10
87.53991764185302
 20
218.9077720258710
 30
0.000000000000000
 11
87.53991764183583
 21
230.3035538093911
 31
0.000000000000000
  0
ENDSEC
  0
SECTION
  2
OBJECTS
  0
DICTIONARY
  5
260
100
AcDbDictionary
  3
ACAD_GROUP
350
261
  3
ACAD_LAYOUT
350
262
  3
ACAD_MLINESTYLE
350
263
  0
DICTIONARY
  5
261
102
{ACAD_REACTORS
330
260
102
}
330
260
100
AcDbDictionary
  0
DICTIONARY
  5
262
102
{ACAD_REACTORS
330
260
102
}
330
260
100
AcDbDictionary
  3
Model
350
264
  3
ﾚｲｱｳﾄ1
350
265
  3
ﾚｲｱｳﾄ2
350
266
  0
DICTIONARY
  5
263
102
{ACAD_REACTORS
330
260
102
}
330
260
100
AcDbDictionary
  3
STANDARD
350
267
  0
LAYOUT
  5
264
102
{ACAD_REACTORS
330
262
102
}
330
262
100
AcDbPlotSettings
 70
11952
  4
A3
 44
297.000000
 45
420.000000
 73
  1
 72
  1
100
AcDbLayout
  1
Model
 71
0
330
257
  0
LAYOUT
  5
265
102
{ACAD_REACTORS
330
262
102
}
330
262
100
AcDbPlotSettings
100
AcDbLayout
  1
ﾚｲｱｳﾄ1
 71
1
330
258
  0
LAYOUT
  5
266
102
{ACAD_REACTORS
330
262
102
}
330
262
100
AcDbPlotSettings
100
AcDbLayout
  1
ﾚｲｱｳﾄ2
 71
2
330
259
  0
MLINESTYLE
  5
267
102
{ACAD_REACTORS
330
263
102
}
330
263
100
AcDbMlineStyle
  2
STANDARD
 70
     0
  3

 62
   256
 51
90.00
 52
90.00
 71
     2
 49
0.50
 62
   256
  6
BYLAYER
 49
-0.50
 62
   256
  6
BYLAYER
  0
ENDSEC
  0
EOF
