  0
SECTION
  2
HEADER
  9
$ACADVER
  1
AC1032
  9
$DWGCODEPAGE
  3
ANSI_932
  9
$LTSCALE
 40
20.0
  9
$FILLMODE
 70
     1
  9
$CLAYER
  8
0
  9
$PDMODE
 70
     0
  9
$SPLFRAME
 70
     0
  9
$SPLINETYPE
 70
     6
  9
$SPLINESEGS
 70
     8
  9
$DIMASZ
 40
2.000000
  9
$DIMEXE
 40
1.500000
  9
$DIMEXO
 40
0.800000
  9
$DIMTAD
 70
     1
  9
$DIMTIH
 70
     0
  9
$DIMTOH
 70
     0
  9
$DIMTVP
 40
0.500000
  9
$DIMTXT
 40
3.100000
  9
$EXTMIN
 10
0.000000
 20
0.000000
 30
0.000000
  9
$EXTMAX
 10
297.000000
 20
420.000000
 30
0.000000
  9
$MEASUREMENT
 70
  1
  9
$LIMMIN
 10
0.000000
 20
0.000000
  9
$LIMMAX
 10
297.000000
 20
420.000000
  9
$HANDSEED
  5
21B
  9
$LWDISPLAY
290
     0
  9
$DIMBLK
  1
_OPEN
  9
$DIMDEC
 70
     2
  9
$DIMADEC
 70
     2
  9
$DIMAUNIT
 70
     0
  9
$DIMZIN
 70
     8
  9
$DIMAZIN
 70
     2
  9
$DIMTOFL
 70
     1
  0
ENDSEC
  0
SECTION
  2
CLASSES
  0
ENDSEC
  0
SECTION
  2
TABLES
  0
TABLE
  2
VPORT
  5
1E5
100
AcDbSymbolTable
 70
     1
  0
VPORT
  5
1E6
100
AcDbSymbolTableRecord
100
AcDbViewportTableRecord
  2
*ACTIVE
 70
     0
 12
91.623656
 22
122.666193
 40
209.332385
 41
0.779847
  0
ENDTAB
  0
TABLE
  2
LTYPE
  5
1E7
100
AcDbSymbolTable
 70
     2
  0
LTYPE
  5
1E8
100
AcDbSymbolTableRecord
100
AcDbLinetypeTableRecord
  2
BYBLOCK
 70
     0
  3

 72
    65
 73
     0
 40
0.0
  0
LTYPE
  5
1E9
100
AcDbSymbolTableRecord
100
AcDbLinetypeTableRecord
  2
BYLAYER
 70
     0
  3

 72
    65
 73
     0
 40
0.0
  0
LTYPE
  5
1EA
100
AcDbSymbolTableRecord
100
AcDbLinetypeTableRecord
  2
CONTINUOUS
 70
     0
  3
Solid line (NEC CAE2D for Win R18.0 : 2026.01.30)
 72
    65
 73
     0
 40
0.0
  0
LTYPE
  5
1EB
100
AcDbSymbolTableRecord
100
AcDbLinetypeTableRecord
  2
CENTER
 70
     0
  3
____ _ ____ _ ____ _ ____ _ ____ _ ____
 72
    65
 73
     4
 40
2.0
 49
1.25
 74
     0
 49
-0.25
 74
     0
 49
0.25
 74
     0
 49
-0.25
 74
     0
  0
ENDTAB
  0
TABLE
  2
LAYER
  5
1EC
100
AcDbSymbolTable
 70
    16
  0
LAYER
  5
1ED
100
AcDbSymbolTableRecord
100
AcDbLayerTableRecord
  2
0
 70
     0
 62
     7
  6
CONTINUOUS
370
    -3
390

  0
LAYER
  5
1EE
100
AcDbSymbolTableRecord
100
AcDbLayerTableRecord
  2
A0
 70
     0
 62
     9
  6
CONTINUOUS
370
    -3
390

  0
LAYER
  5
1EF
100
AcDbSymbolTableRecord
100
AcDbLayerTableRecord
  2
A1
 70
     0
 62
    12
  6
CONTINUOUS
370
    -3
390

  0
LAYER
  5
1F0
100
AcDbSymbolTableRecord
100
AcDbLayerTableRecord
  2
A2
 70
     0
 62
     9
  6
CONTINUOUS
370
    -3
390

  0
LAYER
  5
1F1
100
AcDbSymbolTableRecord
100
AcDbLayerTableRecord
  2
A4
 70
     0
 62
     9
  6
CONTINUOUS
370
    -3
390

  0
LAYER
  5
1F2
100
AcDbSymbolTableRecord
100
AcDbLayerTableRecord
  2
A5
 70
     0
 62
     8
  6
CONTINUOUS
370
    -3
390

  0
LAYER
  5
1F3
100
AcDbSymbolTableRecord
100
AcDbLayerTableRecord
  2
A6
 70
     0
 62
    12
  6
CONTINUOUS
370
    -3
390

  0
LAYER
  5
1F4
100
AcDbSymbolTableRecord
100
AcDbLayerTableRecord
  2
A7
 70
     0
 62
    12
  6
CONTINUOUS
370
    -3
390

  0
LAYER
  5
1F5
100
AcDbSymbolTableRecord
100
AcDbLayerTableRecord
  2
A8
 70
     0
 62
    10
  6
CONTINUOUS
370
    -3
390

  0
LAYER
  5
1F6
100
AcDbSymbolTableRecord
100
AcDbLayerTableRecord
  2
A9
 70
     0
 62
     9
  6
CONTINUOUS
370
    -3
390

  0
LAYER
  5
1F7
100
AcDbSymbolTableRecord
100
AcDbLayerTableRecord
  2
A10
 70
     0
 62
     6
  6
CONTINUOUS
370
    -3
390

  0
LAYER
  5
1F8
100
AcDbSymbolTableRecord
100
AcDbLayerTableRecord
  2
A20
 70
     0
 62
     1
  6
CONTINUOUS
370
    -3
390

  0
LAYER
  5
1F9
100
AcDbSymbolTableRecord
100
AcDbLayerTableRecord
  2
A30
 70
     0
 62
     1
  6
CONTINUOUS
370
    -3
390

  0
LAYER
  5
1FA
100
AcDbSymbolTableRecord
100
AcDbLayerTableRecord
  2
A40
 70
     0
 62
     9
  6
CONTINUOUS
370
    -3
390

  0
LAYER
  5
1FB
100
AcDbSymbolTableRecord
100
AcDbLayerTableRecord
  2
A50
 70
     0
 62
    12
  6
CONTINUOUS
370
    -3
390

  0
LAYER
  5
1FC
100
AcDbSymbolTableRecord
100
AcDbLayerTableRecord
  2
A1023
 70
     0
 62
    16
  6
CONTINUOUS
370
    -3
390

  0
ENDTAB
  0
TABLE
  2
STYLE
  5
1FD
100
AcDbSymbolTable
 70
     4
  0
STYLE
  5
1FE
100
AcDbSymbolTableRecord
100
AcDbTextStyleTableRecord
  2
STANDARD
 70
    64
 40
0.0
 41
1.0
 50
0.0
 71
     0
 42
3.000000000000000
  3
TXT
  4

  0
STYLE
  5
1FF
100
AcDbSymbolTableRecord
100
AcDbTextStyleTableRecord
  2
ANKTATE
 70
    68
 40
0.0
 41
1.0
 50
0.0
 71
     0
 42
3.000000000000000
  3
TXT
  4

  0
STYLE
  5
200
100
AcDbSymbolTableRecord
100
AcDbTextStyleTableRecord
  2
KNJYOKO
 70
    64
 40
0.0
 41
1.0
 50
0.0
 71
     0
 42
3.000000000000000
  3
TXT
  4
BIGFONT
  0
STYLE
  5
201
100
AcDbSymbolTableRecord
100
AcDbTextStyleTableRecord
  2
KNJTATE
 70
    68
 40
0.0
 41
1.0
 50
0.0
 71
     0
 42
3.000000000000000
  3
TXT
  4
BIGFONT
  0
ENDTAB
  0
TABLE
  2
VIEW
  5
202
100
AcDbSymbolTable
 70
     0
  0
ENDTAB
  0
TABLE
  2
UCS
  5
203
100
AcDbSymbolTable
 70
     0
  0
ENDTAB
  0
TABLE
  2
APPID
  5
204
100
AcDbSymbolTable
 70
     1
  0
APPID
  5
205
100
AcDbSymbolTableRecord
100
AcDbRegAppTableRecord
  2
ACAD
 70
     0
  0
ENDTAB
  0
TABLE
  2
DIMSTYLE
  5
206
100
AcDbSymbolTable
 70
     2
100
AcDbDimStyleTable
  0
DIMSTYLE
105
207
100
AcDbSymbolTableRecord
100
AcDbDimStyleTableRecord
  2
STANDARD
 70
     0
 41
2.000000
 44
1.500000
 42
0.800000
145
0.661290
140
3.100000
144
1.000000
146
0.645161
340
1FE
  0
DIMSTYLE
105
208
100
AcDbSymbolTableRecord
100
AcDbDimStyleTableRecord
  2
A001
 70
     0
 41
2.000000
 44
1.500000
 42
0.800000
145
0.661290
140
3.100000
144
1.000000
146
0.645161
 77
     1
 73
     0
 74
     0
271
     2
179
     2
275
     0
 78
     8
 79
     2
172
     1
340
1FE
  0
ENDTAB
  0
TABLE
  2
BLOCK_RECORD
  5
209
100
AcDbSymbolTable
 70
    12
  0
BLOCK_RECORD
  5
20A
100
AcDbSymbolTableRecord
100
AcDbBlockTableRecord
  2
*MODEL_SPACE
  0
BLOCK_RECORD
  5
20B
100
AcDbSymbolTableRecord
100
AcDbBlockTableRecord
  2
*PAPER_SPACE
  0
BLOCK_RECORD
  5
20C
100
AcDbSymbolTableRecord
100
AcDbBlockTableRecord
  2
*PAPER_SPACE0
  0
BLOCK_RECORD
  5
1
100
AcDbSymbolTableRecord
100
AcDbBlockTableRecord
  2
_NONE
  0
BLOCK_RECORD
  5
4
100
AcDbSymbolTableRecord
100
AcDbBlockTableRecord
  2
_CLOSED
  0
BLOCK_RECORD
  5
B
100
AcDbSymbolTableRecord
100
AcDbBlockTableRecord
  2
_DOT
  0
BLOCK_RECORD
  5
13
100
AcDbSymbolTableRecord
100
AcDbBlockTableRecord
  2
_OPEN
  0
BLOCK_RECORD
  5
19
100
AcDbSymbolTableRecord
100
AcDbBlockTableRecord
  2
_ORIGIN
  0
BLOCK_RECORD
  5
1E
100
AcDbSymbolTableRecord
100
AcDbBlockTableRecord
  2
_OPEN30
  0
BLOCK_RECORD
  5
24
100
AcDbSymbolTableRecord
100
AcDbBlockTableRecord
  2
_BOXFILLED
  0
BLOCK_RECORD
  5
29
100
AcDbSymbolTableRecord
100
AcDbBlockTableRecord
  2
_BOXBLANK
  0
BLOCK_RECORD
  5
31
100
AcDbSymbolTableRecord
100
AcDbBlockTableRecord
  2
_OBLIQUE
  0
BLOCK_RECORD
  5
35
100
AcDbSymbolTableRecord
100
AcDbBlockTableRecord
  2
_OPEN90
  0
BLOCK_RECORD
  5
3B
100
AcDbSymbolTableRecord
100
AcDbBlockTableRecord
  2
_CLOSEDBLANK
  0
BLOCK_RECORD
  5
41
100
AcDbSymbolTableRecord
100
AcDbBlockTableRecord
  2
_DOTBLANK
  0
ENDTAB
  0
ENDSEC
  0
SECTION
  2
BLOCKS
  0
BLOCK
  5
20D
100
AcDbEntity
  8
0
100
AcDbBlockBegin
  2
*MODEL_SPACE
 70
     0
 10
0.0
 20
0.0
 30
0.0
  3
*MODEL_SPACE
  1

  0
ENDBLK
  5
20E
100
AcDbEntity
  8
0
100
AcDbBlockEnd
  0
BLOCK
  5
20F
100
AcDbEntity
  8
0
100
AcDbBlockBegin
  2
*PAPER_SPACE
 70
     0
 10
0.0
 20
0.0
 30
0.0
  3
*PAPER_SPACE
  1

  0
ENDBLK
  5
210
100
AcDbEntity
  8
0
100
AcDbBlockEnd
  0
BLOCK
  5
211
100
AcDbEntity
  8
0
100
AcDbBlockBegin
  2
*PAPER_SPACE0
 70
     0
 10
0.0
 20
0.0
 30
0.0
  3
*PAPER_SPACE0
  1

  0
ENDBLK
  5
212
100
AcDbEntity
  8
0
100
AcDbBlockEnd
  0
BLOCK
  5
2
330
1
100
AcDbEntity
  8
0
100
AcDbBlockBegin
  2
_NONE
 70
     0
 10
0.0
 20
0.0
 30
0.0
  3
_NONE
  1

  0
ENDBLK
  5
3
330
1
100
AcDbEntity
  8
0
100
AcDbBlockEnd
  0
BLOCK
  5
5
330
4
100
AcDbEntity
  8
0
100
AcDbBlockBegin
  2
_CLOSED
 70
     0
 10
0.0
 20
0.0
 30
0.0
  3
_CLOSED
  1

  0
LINE
  5
6
330
4
100
AcDbEntity
  8
0
  6
BYBLOCK
 62
     0
370
    -2
100
AcDbLine
 10
-1.0
 20
0.166667
 30
0.0
 11
0.0
 21
0.0
 31
0.0
  0
LINE
  5
7
330
4
100
AcDbEntity
  8
0
  6
BYBLOCK
 62
     0
370
    -2
100
AcDbLine
 10
0.0
 20
0.0
 30
0.0
 11
-1.0
 21
-0.166667
 31
0.0
  0
LINE
  5
8
330
4
100
AcDbEntity
  8
0
  6
BYBLOCK
 62
     0
370
    -2
100
AcDbLine
 10
-1.0
 20
0.166667
 30
0.0
 11
-1.0
 21
-0.166667
 31
0.0
  0
LINE
  5
9
330
4
100
AcDbEntity
  8
0
  6
BYBLOCK
 62
     0
370
    -2
100
AcDbLine
 10
0.0
 20
0.0
 30
0.0
 11
-1.0
 21
0.0
 31
0.0
  0
ENDBLK
  5
A
330
4
100
AcDbEntity
  8
0
100
AcDbBlockEnd
  0
BLOCK
  5
C
330
B
100
AcDbEntity
  8
0
100
AcDbBlockBegin
  2
_DOT
 70
     0
 10
0.0
 20
0.0
 30
0.0
  3
_DOT
  1

  0
POLYLINE
  5
D
330
B
100
AcDbEntity
  8
0
  6
BYBLOCK
 62
     0
370
    -2
100
AcDb2dPolyline
 66
     1
 10
0.0
 20
0.0
 30
0.0
 70
     1
 40
0.5
 41
0.5
  0
VERTEX
  5
E
330
B
100
AcDbEntity
  8
0
  6
BYBLOCK
 62
     0
370
    -2
100
AcDbVertex
100
AcDb2dVertex
 10
-0.25
 20
0.0
 30
0.0
 42
1.0
  0
VERTEX
  5
F
330
B
100
AcDbEntity
  8
0
  6
BYBLOCK
 62
     0
370
    -2
100
AcDbVertex
100
AcDb2dVertex
 10
0.25
 20
0.0
 30
0.0
 42
1.0
  0
SEQEND
  5
10
330
B
100
AcDbEntity
  8
0
  6
BYBLOCK
 62
     0
370
    -2
  0
LINE
  5
11
330
B
100
AcDbEntity
  8
0
  6
BYBLOCK
 62
     0
370
    -2
100
AcDbLine
 10
-0.5
 20
0.0
 30
0.0
 11
-1.0
 21
0.0
 31
0.0
  0
ENDBLK
  5
12
330
B
100
AcDbEntity
  8
0
100
AcDbBlockEnd
  0
BLOCK
  5
14
330
13
100
AcDbEntity
  8
0
100
AcDbBlockBegin
  2
_OPEN
 70
     0
 10
0.0
 20
0.0
 30
0.0
  3
_OPEN
  1

  0
LINE
  5
15
330
13
100
AcDbEntity
  8
0
  6
BYBLOCK
 62
     0
370
    -2
100
AcDbLine
 10
-1.0
 20
0.166667
 30
0.0
 11
0.0
 21
0.0
 31
0.0
  0
LINE
  5
16
330
13
100
AcDbEntity
  8
0
  6
BYBLOCK
 62
     0
370
    -2
100
AcDbLine
 10
0.0
 20
0.0
 30
0.0
 11
-1.0
 21
-0.166667
 31
0.0
  0
LINE
  5
17
330
13
100
AcDbEntity
  8
0
  6
BYBLOCK
 62
     0
370
    -2
100
AcDbLine
 10
0.0
 20
0.0
 30
0.0
 11
-1.0
 21
0.0
 31
0.0
  0
ENDBLK
  5
18
330
13
100
AcDbEntity
  8
0
100
AcDbBlockEnd
  0
BLOCK
  5
1A
330
19
100
AcDbEntity
  8
0
100
AcDbBlockBegin
  2
_ORIGIN
 70
     0
 10
0.0
 20
0.0
 30
0.0
  3
_ORIGIN
  1

  0
CIRCLE
  5
1B
330
19
100
AcDbEntity
  8
0
  6
BYBLOCK
 62
     0
370
    -2
100
AcDbCircle
 10
0.0
 20
0.0
 30
0.0
 40
0.5
  0
LINE
  5
1C
330
19
100
AcDbEntity
  8
0
  6
BYBLOCK
 62
     0
370
    -2
100
AcDbLine
 10
0.0
 20
0.0
 30
0.0
 11
-1.0
 21
0.0
 31
0.0
  0
ENDBLK
  5
1D
330
19
100
AcDbEntity
  8
0
100
AcDbBlockEnd
  0
BLOCK
  5
1F
330
1E
100
AcDbEntity
  8
0
100
AcDbBlockBegin
  2
_OPEN30
 70
     0
 10
0.0
 20
0.0
 30
0.0
  3
_OPEN30
  1

  0
LINE
  5
20
330
1E
100
AcDbEntity
  8
0
  6
BYBLOCK
 62
     0
370
    -2
100
AcDbLine
 10
-1.0
 20
0.267949
 30
0.0
 11
0.0
 21
0.0
 31
0.0
  0
LINE
  5
21
330
1E
100
AcDbEntity
  8
0
  6
BYBLOCK
 62
     0
370
    -2
100
AcDbLine
 10
0.0
 20
0.0
 30
0.0
 11
-1.0
 21
-0.267949
 31
0.0
  0
LINE
  5
22
330
1E
100
AcDbEntity
  8
0
  6
BYBLOCK
 62
     0
370
    -2
100
AcDbLine
 10
0.0
 20
0.0
 30
0.0
 11
-1.0
 21
0.0
 31
0.0
  0
ENDBLK
  5
23
330
1E
100
AcDbEntity
  8
0
100
AcDbBlockEnd
  0
BLOCK
  5
25
330
24
100
AcDbEntity
  8
0
100
AcDbBlockBegin
  2
_BOXFILLED
 70
     0
 10
0.0
 20
0.0
 30
0.0
  3
_BOXFILLED
  1

  0
SOLID
  5
26
330
24
100
AcDbEntity
  8
0
  6
BYBLOCK
 62
     0
370
    -2
100
AcDbTrace
 10
-0.5
 20
0.5
 30
0.0
 11
0.5
 21
0.5
 31
0.0
 12
-0.5
 22
-0.5
 32
0.0
 13
0.5
 23
-0.5
 33
0.0
  0
LINE
  5
27
330
24
100
AcDbEntity
  8
0
  6
BYBLOCK
 62
     0
370
    -2
100
AcDbLine
 10
-0.5
 20
0.0
 30
0.0
 11
-1.0
 21
0.0
 31
0.0
  0
ENDBLK
  5
28
330
24
100
AcDbEntity
  8
0
100
AcDbBlockEnd
  0
BLOCK
  5
2A
330
29
100
AcDbEntity
  8
0
100
AcDbBlockBegin
  2
_BOXBLANK
 70
     0
 10
0.0
 20
0.0
 30
0.0
  3
_BOXBLANK
  1

  0
LINE
  5
2B
330
29
100
AcDbEntity
  8
0
  6
BYBLOCK
 62
     0
370
    -2
100
AcDbLine
 10
-0.5
 20
-0.5
 30
0.0
 11
0.5
 21
-0.5
 31
0.0
  0
LINE
  5
2C
330
29
100
AcDbEntity
  8
0
  6
BYBLOCK
 62
     0
370
    -2
100
AcDbLine
 10
0.5
 20
-0.5
 30
0.0
 11
0.5
 21
0.5
 31
0.0
  0
LINE
  5
2D
330
29
100
AcDbEntity
  8
0
  6
BYBLOCK
 62
     0
370
    -2
100
AcDbLine
 10
0.5
 20
0.5
 30
0.0
 11
-0.5
 21
0.5
 31
0.0
  0
LINE
  5
2E
330
29
100
AcDbEntity
  8
0
  6
BYBLOCK
 62
     0
370
    -2
100
AcDbLine
 10
-0.5
 20
0.5
 30
0.0
 11
-0.5
 21
-0.5
 31
0.0
  0
LINE
  5
2F
330
29
100
AcDbEntity
  8
0
  6
BYBLOCK
 62
     0
370
    -2
100
AcDbLine
 10
-0.5
 20
0.0
 30
0.0
 11
-1.0
 21
0.0
 31
0.0
  0
ENDBLK
  5
30
330
29
100
AcDbEntity
  8
0
100
AcDbBlockEnd
  0
BLOCK
  5
32
330
31
100
AcDbEntity
  8
0
100
AcDbBlockBegin
  2
_OBLIQUE
 70
     0
 10
0.0
 20
0.0
 30
0.0
  3
_OBLIQUE
  1

  0
LINE
  5
33
330
31
100
AcDbEntity
  8
0
  6
BYBLOCK
 62
     0
370
    -2
100
AcDbLine
 10
-0.5
 20
-0.5
 30
0.0
 11
0.5
 21
0.5
 31
0.0
  0
ENDBLK
  5
34
330
31
100
AcDbEntity
  8
0
100
AcDbBlockEnd
  0
BLOCK
  5
36
330
35
100
AcDbEntity
  8
0
100
AcDbBlockBegin
  2
_OPEN90
 70
     0
 10
0.0
 20
0.0
 30
0.0
  3
_OPEN90
  1

  0
LINE
  5
37
330
35
100
AcDbEntity
  8
0
  6
BYBLOCK
 62
     0
370
    -2
100
AcDbLine
 10
-0.5
 20
0.5
 30
0.0
 11
0.0
 21
0.0
 31
0.0
  0
LINE
  5
38
330
35
100
AcDbEntity
  8
0
  6
BYBLOCK
 62
     0
370
    -2
100
AcDbLine
 10
0.0
 20
0.0
 30
0.0
 11
-0.5
 21
-0.5
 31
0.0
  0
LINE
  5
39
330
35
100
AcDbEntity
  8
0
  6
BYBLOCK
 62
     0
370
    -2
100
AcDbLine
 10
0.0
 20
0.0
 30
0.0
 11
-1.0
 21
0.0
 31
0.0
  0
ENDBLK
  5
3A
330
35
100
AcDbEntity
  8
0
100
AcDbBlockEnd
  0
BLOCK
  5
3C
330
3B
100
AcDbEntity
  8
0
100
AcDbBlockBegin
  2
_CLOSEDBLANK
 70
     0
 10
0.0
 20
0.0
 30
0.0
  3
_CLOSEDBLANK
  1

  0
LINE
  5
3D
330
3B
100
AcDbEntity
  8
0
  6
BYBLOCK
 62
     0
370
    -2
100
AcDbLine
 10
-1.0
 20
0.1666666666666666
 30
0.0
 11
0.0
 21
0.0
 31
0.0
  0
LINE
  5
3E
330
3B
100
AcDbEntity
  8
0
  6
BYBLOCK
 62
     0
370
    -2
100
AcDbLine
 10
0.0
 20
0.0
 30
0.0
 11
-1.0
 21
-0.1666666666666666
 31
0.0
  0
LINE
  5
3F
330
3B
100
AcDbEntity
  8
0
  6
BYBLOCK
 62
     0
370
    -2
100
AcDbLine
 10
-1.0
 20
0.1666666666666666
 30
0.0
 11
-1.0
 21
-0.1666666666666666
 31
0.0
  0
ENDBLK
  5
40
330
3B
100
AcDbEntity
  8
0
100
AcDbBlockEnd
  0
BLOCK
  5
42
330
41
100
AcDbEntity
  8
0
100
AcDbBlockBegin
  2
_DOTBLANK
 70
     0
 10
0.0
 20
0.0
 30
0.0
  3
_DOTBLANK
  1

  0
CIRCLE
  5
43
330
41
100
AcDbEntity
  8
0
  6
BYBLOCK
 62
     0
370
    -2
100
AcDbCircle
 10
0.0
 20
0.0
 30
0.0
 40
0.5
  0
LINE
  5
44
330
41
100
AcDbEntity
  8
0
  6
BYBLOCK
 62
     0
370
    -2
100
AcDbLine
 10
-0.5
 20
0.0
 30
0.0
 11
-1.0
 21
0.0
 31
0.0
  0
ENDBLK
  5
45
330
41
100
AcDbEntity
  8
0
100
AcDbBlockEnd
  0
ENDSEC
  0
SECTION
  2
ENTITIES
  0
MTEXT
  5
46
100
AcDbEntity
  8
A8
  6
CONTINUOUS
 62
3
100
AcDbMText
 10
9.999997526638502
 20
18.00000076076889
 30
0.000000000000000
 40
3.000000000000000
 41
0.000000000000000
 44
0.6739999771118164
 71
     7
 72
     1
  1
{\H0.94x;{TYPE No.TL-448SUS-2-H}}
 11
1.000000000000000
 21
0.000000000000000
 31
0.000000000000000
  7
STANDARD
  0
POINT
  5
47
100
AcDbEntity
  8
A0
  6
CONTINUOUS
 62
3
100
AcDbPoint
 10
9.999997526638502
 20
18.00000076076889
 30
0.000000000000000
  0
POINT
  5
48
100
AcDbEntity
  8
A10
  6
CONTINUOUS
 62
3
100
AcDbPoint
 10
50.00000000000000
 20
50.00000000000000
 30
0.000000000000000
  0
ARC
  5
49
100
AcDbEntity
  8
A1
  6
CONTINUOUS
 62
7
100
AcDbCircle
 10
89.42416019550504
 20
127.0498207099712
 30
0.000000000000000
 40
14.00000000000000
100
AcDbArc
 50
11.66750951765406
 51
43.38701203907448
  0
ARC
  5
4A
100
AcDbEntity
  8
A1
  6
CONTINUOUS
 62
7
100
AcDbCircle
 10
89.42416019550504
 20
127.0498207099712
 30
0.000000000000000
 40
15.50000000000000
100
AcDbArc
 50
6.822201599431211
 51
43.38701203907461
  0
ARC
  5
4B
100
AcDbEntity
  8
A1
  6
CONTINUOUS
 62
7
100
AcDbCircle
 10
100.6884814441957
 20
137.6971239744744
 30
0.000000000000000
 40
1.500000000000000
100
AcDbArc
 50
179.9999999999997
 51
223.3870120390763
  0
ARC
  5
4C
100
AcDbEntity
  8
A1
  6
CONTINUOUS
 62
7
100
AcDbCircle
 10
89.42386405619229
 20
127.0498542069365
 30
0.000000000000000
 40
15.50029006360340
100
AcDbArc
 50
340.2712079756520
 51
366.8219486236964
  0
ARC
  5
4D
100
AcDbEntity
  8
A1
  6
CONTINUOUS
 62
7
100
AcDbCircle
 10
89.42365429532052
 20
127.0498511619154
 30
0.000000000000000
 40
14.00048928936290
100
AcDbArc
 50
341.4436674835475
 51
371.6669687792688
  0
ARC
  5
4E
100
AcDbEntity
  8
A1
  6
CONTINUOUS
 62
7
100
AcDbCircle
 10
103.6884814441958
 20
159.3326682894162
 30
0.000000000000000
 40
3.000000000000000
100
AcDbArc
 50
89.99999999999970
 51
179.9999999999997
  0
ARC
  5
4F
100
AcDbEntity
  8
A1
  6
CONTINUOUS
 62
7
100
AcDbCircle
 10
103.6884814441958
 20
159.3326682894161
 30
0.000000000000000
 40
4.500000000000000
100
AcDbArc
 50
89.99999999999970
 51
131.8103148957783
  0
ARC
  5
50
100
AcDbEntity
  8
A1
  6
CONTINUOUS
 62
7
100
AcDbCircle
 10
102.6884814441958
 20
160.3326682894162
 30
0.000000000000000
 40
2.000000000000000
100
AcDbArc
 50
269.9999999999997
 51
359.9999999999997
  0
ARC
  5
51
100
AcDbEntity
  8
A1
  6
CONTINUOUS
 62
7
100
AcDbCircle
 10
107.1884814441957
 20
143.8326682894162
 30
0.000000000000000
 40
1.850000000000022
100
AcDbArc
 50
179.9999999999997
 51
417.2795566336275
  0
ARC
  5
52
100
AcDbEntity
  8
A1
  6
CONTINUOUS
 62
7
100
AcDbCircle
 10
107.1884814441957
 20
143.8326682894162
 30
0.000000000000000
 40
1.850000000000022
100
AcDbArc
 50
122.7204433663782
 51
179.9999999999997
  0
ARC
  5
53
100
AcDbEntity
  8
A1
  6
CONTINUOUS
 62
7
100
AcDbCircle
 10
105.6884814441958
 20
161.3326682894162
 30
0.000000000000000
 40
1.000000000000000
100
AcDbArc
 50
89.99999999999970
 51
179.9999999999997
  0
ARC
  5
54
100
AcDbEntity
  8
A1
  6
CONTINUOUS
 62
7
100
AcDbCircle
 10
107.6884814441957
 20
140.8326682894159
 30
0.000000000000000
 40
3.000000000000000
100
AcDbArc
 50
269.9999999999997
 51
359.9999999999997
  0
ARC
  5
55
100
AcDbEntity
  8
A1
  6
CONTINUOUS
 62
7
100
AcDbCircle
 10
100.7304415526460
 20
159.8326682894162
 30
0.000000000000000
 40
1.500000000000000
100
AcDbArc
 50
268.3970328155365
 51
269.9999999999997
  0
ARC
  5
56
100
AcDbEntity
  8
A1
  6
CONTINUOUS
 62
7
100
AcDbCircle
 10
106.9884814441959
 20
157.3326682894161
 30
0.000000000000000
 40
5.000000000000000
100
AcDbArc
 50
359.9999999999997
 51
436.1134596373732
  0
ARC
  5
57
100
AcDbEntity
  8
A1
  6
CONTINUOUS
 62
7
100
AcDbCircle
 10
103.6885633598643
 20
159.3326316556154
 30
0.000000000000000
 40
4.500081915817640
100
AcDbArc
 50
131.8107813233243
 51
179.9995335724537
  0
LINE
  5
58
100
AcDbEntity
  8
A1
  6
CONTINUOUS
 62
7
100
AcDbLine
 10
100.6884814441956
 20
137.6971239744744
 30
0.000000000000000
 11
100.6884814442072
 21
137.8326682894161
 31
0.000000000000000
  0
LINE
  5
59
100
AcDbEntity
  8
A1
  6
CONTINUOUS
 62
7
100
AcDbLine
 10
99.18848144419563
 20
137.8326682894160
 30
0.000000000000000
 11
99.18848144419563
 21
137.6971239744744
 31
0.000000000000000
  0
LINE
  5
5A
100
AcDbEntity
  8
A1
  6
CONTINUOUS
 62
7
100
AcDbLine
 10
104.0143030632361
 20
121.8174473384115
 30
0.000000000000000
 11
102.6962753224847
 21
122.5943790868305
 31
0.000000000000000
  0
LINE
  5
5B
100
AcDbEntity
  8
A1
  6
CONTINUOUS
 62
7
100
AcDbLine
 10
103.6884814441958
 20
163.8326682894161
 30
0.000000000000000
 11
105.1884814441958
 21
163.8326682894161
 31
0.000000000000000
  0
LINE
  5
5C
100
AcDbEntity
  8
A1
  6
CONTINUOUS
 62
7
100
AcDbLine
 10
105.1884814441958
 20
162.3326682894162
 30
0.000000000000000
 11
103.6884814441958
 21
162.3326682894162
 31
0.000000000000000
  0
LINE
  5
5D
100
AcDbEntity
  8
A1
  6
CONTINUOUS
 62
7
100
AcDbLine
 10
105.1884814441958
 20
163.8326682894161
 30
0.000000000000000
 11
105.1884814441958
 21
162.3326682894162
 31
0.000000000000000
  0
LINE
  5
5E
100
AcDbEntity
  8
A1
  6
CONTINUOUS
 62
7
100
AcDbLine
 10
111.9884814441957
 20
152.1326682894160
 30
0.000000000000000
 11
110.6884814441957
 21
150.8326682894161
 31
0.000000000000000
  0
LINE
  5
5F
100
AcDbEntity
  8
A1
  6
CONTINUOUS
 62
7
100
AcDbLine
 10
100.7304415526460
 20
158.3326682894162
 30
0.000000000000000
 11
102.6884814441957
 21
158.3326682894162
 31
0.000000000000000
  0
LINE
  5
60
100
AcDbEntity
  8
A1
  6
CONTINUOUS
 62
7
100
AcDbLine
 10
111.9884814441958
 20
157.3326682894160
 30
0.000000000000000
 11
111.9884814441957
 21
152.1326682894160
 31
0.000000000000000
  0
LINE
  5
61
100
AcDbEntity
  8
A1
  6
CONTINUOUS
 62
7
100
AcDbLine
 10
105.6884814441958
 20
162.3326682894162
 30
0.000000000000000
 11
106.1884814441957
 21
162.3326682894162
 31
0.000000000000000
  0
LINE
  5
62
100
AcDbEntity
  8
A1
  6
CONTINUOUS
 62
7
100
AcDbLine
 10
107.6884814441956
 20
137.8326682894160
 30
0.000000000000000
 11
100.6884814441956
 21
137.8326682894160
 31
0.000000000000000
  0
LINE
  5
63
100
AcDbEntity
  8
A1
  6
CONTINUOUS
 62
7
100
AcDbLine
 10
104.6884814441958
 20
160.3326682894162
 30
0.000000000000000
 11
104.6884814441958
 21
161.3326682894162
 31
0.000000000000000
  0
LINE
  5
64
100
AcDbEntity
  8
A1
  6
CONTINUOUS
 62
7
100
AcDbLine
 10
110.6884814441957
 20
150.8326682894162
 30
0.000000000000000
 11
110.6884814441957
 21
148.8326682894163
 31
0.000000000000000
  0
LINE
  5
65
100
AcDbEntity
  8
A1
  6
CONTINUOUS
 62
7
100
AcDbLine
 10
100.6884814441957
 20
159.3326682894162
 30
0.000000000000000
 11
100.6884814441957
 21
158.3332552878390
 31
0.000000000000000
  0
LINE
  5
66
100
AcDbEntity
  8
A1
  6
CONTINUOUS
 62
7
100
AcDbLine
 10
99.18848144419563
 20
137.8326682894160
 30
0.000000000000000
 11
100.6884814441956
 21
137.8326682894160
 31
0.000000000000000
  0
LINE
  5
67
100
AcDbEntity
  8
A1
  6
CONTINUOUS
 62
7
100
AcDbLine
 10
99.18848144419574
 20
159.3326682894161
 30
0.000000000000000
 11
99.18848144419563
 21
137.8326682894160
 31
0.000000000000000
  0
LINE
  5
68
100
AcDbEntity
  8
A1
  6
CONTINUOUS
 62
7
100
AcDbLine
 10
100.6884814441957
 20
159.3326682894162
 30
0.000000000000000
 11
100.6884814441958
 21
162.6867702556658
 31
0.000000000000000
  0
LINE
  5
69
100
AcDbEntity
  8
A1
  6
CONTINUOUS
 62
7
100
AcDbLine
 10
100.6884814441956
 20
137.8326682894160
 30
0.000000000000000
 11
100.6884814441957
 21
158.3332552878390
 31
0.000000000000000
  0
ARC
  5
6A
100
AcDbEntity
  8
A1
  6
CONTINUOUS
 62
7
100
AcDbCircle
 10
110.6884814441956
 20
149.2910850294163
 30
0.000000000000000
 40
1.500000000000000
100
AcDbArc
 50
359.9999999999997
 51
409.9999999974594
  0
ARC
  5
6B
100
AcDbEntity
  8
A1
  6
CONTINUOUS
 62
7
100
AcDbCircle
 10
102.1384814441683
 20
161.6326682894436
 30
0.000000000000000
 40
0.1999999999726656
100
AcDbArc
 50
89.99999999219669
 51
180.0000000078274
  0
ARC
  5
6C
100
AcDbEntity
  8
A1
  6
CONTINUOUS
 62
7
100
AcDbCircle
 10
103.2384814442446
 20
161.6326682894653
 30
0.000000000000000
 40
0.1999999999509718
100
AcDbArc
 50
359.9999999859543
 51
450.0000000140446
  0
LINE
  5
6D
100
AcDbEntity
  8
A1
  6
CONTINUOUS
 62
7
100
AcDbLine
 10
112.1884814441956
 20
148.8326682894163
 30
0.000000000000000
 11
112.1884814441956
 21
149.2910850294163
 31
0.000000000000000
  0
LINE
  5
6E
100
AcDbEntity
  8
A1
  6
CONTINUOUS
 62
7
100
AcDbLine
 10
111.6526628587255
 20
150.4401516939914
 30
0.000000000000000
 11
110.9149660058958
 21
151.0591528511164
 31
0.000000000000000
  0
LINE
  5
6F
100
AcDbEntity
  8
A1
  6
CONTINUOUS
 62
7
100
AcDbLine
 10
110.6884814442025
 20
128.3326682894164
 30
0.000000000000000
 11
110.6884814442025
 21
125.3326682894163
 31
0.000000000000000
  0
LINE
  5
70
100
AcDbEntity
  8
A1
  6
CONTINUOUS
 62
7
100
AcDbLine
 10
112.1884814441954
 20
125.3326682894163
 30
0.000000000000000
 11
112.1884814441955
 21
128.3326682894164
 31
0.000000000000000
  0
LINE
  5
71
100
AcDbEntity
  8
A1
  6
CONTINUOUS
 62
7
100
AcDbLine
 10
110.6884814441954
 20
125.3326682894164
 30
0.000000000000000
 11
112.1884814441954
 21
125.3326682894164
 31
0.000000000000000
  0
LINE
  5
72
100
AcDbEntity
  8
A1
  6
CONTINUOUS
 62
7
100
AcDbLine
 10
110.6884814441954
 20
128.3326682894163
 30
0.000000000000000
 11
110.6884814442025
 21
138.3326682894163
 31
0.000000000000000
  0
LINE
  5
73
100
AcDbEntity
  8
A1
  6
CONTINUOUS
 62
7
100
AcDbLine
 10
112.1884814441955
 20
138.3326682894164
 30
0.000000000000000
 11
112.1884814441955
 21
128.3326682894164
 31
0.000000000000000
  0
LINE
  5
74
100
AcDbEntity
  8
A1
  6
CONTINUOUS
 62
7
100
AcDbLine
 10
112.1884814441955
 20
128.3326682894164
 30
0.000000000000000
 11
110.6884814441955
 21
128.3326682894164
 31
0.000000000000000
  0
LINE
  5
75
100
AcDbEntity
  8
A1
  6
CONTINUOUS
 62
7
100
AcDbLine
 10
101.9384814441822
 20
158.3326682894163
 30
0.000000000000000
 11
101.9384814441822
 21
158.8326682894163
 31
0.000000000000000
  0
LINE
  5
76
100
AcDbEntity
  8
A1
  6
CONTINUOUS
 62
7
100
AcDbLine
 10
103.4384814442036
 20
158.8326682894163
 30
0.000000000000000
 11
103.4384814442036
 21
158.4786186676455
 31
0.000000000000000
  0
LINE
  5
77
100
AcDbEntity
  8
A1
  6
CONTINUOUS
 62
7
100
AcDbLine
 10
110.6884814442026
 20
148.8326682894163
 30
0.000000000000000
 11
110.6884814442026
 21
148.3326682894163
 31
0.000000000000000
  0
LINE
  5
78
100
AcDbEntity
  8
A1
  6
CONTINUOUS
 62
7
100
AcDbLine
 10
112.1884814441956
 20
148.3326682894163
 30
0.000000000000000
 11
112.1884814441956
 21
148.8326682894163
 31
0.000000000000000
  0
LINE
  5
79
100
AcDbEntity
  8
A1
  6
CONTINUOUS
 62
7
100
AcDbLine
 10
112.1884814441956
 20
148.8326682894163
 30
0.000000000000000
 11
110.6884814441956
 21
148.8326682894163
 31
0.000000000000000
  0
LINE
  5
7A
100
AcDbEntity
  8
A1
  6
CONTINUOUS
 62
7
100
AcDbLine
 10
101.9384814441956
 20
161.3326682894163
 30
0.000000000000000
 11
101.9384814441956
 21
159.3326682894163
 31
0.000000000000000
  0
LINE
  5
7B
100
AcDbEntity
  8
A1
  6
CONTINUOUS
 62
7
100
AcDbLine
 10
103.4384814441956
 20
159.3326682894163
 30
0.000000000000000
 11
103.4384814441956
 21
161.3326682894163
 31
0.000000000000000
  0
LINE
  5
7C
100
AcDbEntity
  8
A1
  6
CONTINUOUS
 62
7
100
AcDbLine
 10
101.9384814441956
 20
159.3326682894163
 30
0.000000000000000
 11
101.9384814441956
 21
158.8326682894163
 31
0.000000000000000
  0
LINE
  5
7D
100
AcDbEntity
  8
A1
  6
CONTINUOUS
 62
7
100
AcDbLine
 10
103.4384814441956
 20
158.8326682894163
 30
0.000000000000000
 11
103.4384814441956
 21
159.3326682894163
 31
0.000000000000000
  0
LINE
  5
7E
100
AcDbEntity
  8
A1
  6
CONTINUOUS
 62
7
100
AcDbLine
 10
101.9384814441956
 20
158.8326682894163
 30
0.000000000000000
 11
103.4384814441956
 21
158.8326682894163
 31
0.000000000000000
  0
LINE
  5
7F
100
AcDbEntity
  8
A1
  6
CONTINUOUS
 62
7
100
AcDbLine
 10
103.4384814441956
 20
159.3326682894163
 30
0.000000000000000
 11
101.9384814441956
 21
159.3326682894163
 31
0.000000000000000
  0
LINE
  5
80
100
AcDbEntity
  8
A1
  6
CONTINUOUS
 62
7
100
AcDbLine
 10
110.6884814441956
 20
148.3326682894163
 30
0.000000000000000
 11
110.6884814441955
 21
138.8326682894164
 31
0.000000000000000
  0
LINE
  5
81
100
AcDbEntity
  8
A1
  6
CONTINUOUS
 62
7
100
AcDbLine
 10
110.6884814441956
 20
148.3326682894163
 30
0.000000000000000
 11
112.1884814441956
 21
148.3326682894163
 31
0.000000000000000
  0
LINE
  5
82
100
AcDbEntity
  8
A1
  6
CONTINUOUS
 62
7
100
AcDbLine
 10
112.1884814441955
 20
138.8326682894164
 30
0.000000000000000
 11
112.1884814441956
 21
148.3326682894163
 31
0.000000000000000
  0
LINE
  5
83
100
AcDbEntity
  8
A1
  6
CONTINUOUS
 62
7
100
AcDbLine
 10
110.6884814441955
 20
138.8326682894164
 30
0.000000000000000
 11
110.6884814441955
 21
138.3326682894164
 31
0.000000000000000
  0
LINE
  5
84
100
AcDbEntity
  8
A1
  6
CONTINUOUS
 62
7
100
AcDbLine
 10
112.1884814441955
 20
138.3326682894164
 30
0.000000000000000
 11
112.1884814441955
 21
138.8326682894164
 31
0.000000000000000
  0
LINE
  5
85
100
AcDbEntity
  8
A1
  6
CONTINUOUS
 62
7
100
AcDbLine
 10
110.6884814441955
 20
138.3326682894164
 30
0.000000000000000
 11
112.1884814441955
 21
138.3326682894164
 31
0.000000000000000
  0
LINE
  5
86
100
AcDbEntity
  8
A1
  6
CONTINUOUS
 62
7
100
AcDbLine
 10
112.1884814441955
 20
138.8326682894164
 30
0.000000000000000
 11
110.6884814441955
 21
138.8326682894164
 31
0.000000000000000
  0
LINE
  5
87
100
AcDbEntity
  8
A1
  6
CONTINUOUS
 62
7
100
AcDbLine
 10
101.9384814441956
 20
161.6326682894163
 30
0.000000000000000
 11
101.9384814441956
 21
161.3326682894163
 31
0.000000000000000
  0
LINE
  5
88
100
AcDbEntity
  8
A1
  6
CONTINUOUS
 62
7
100
AcDbLine
 10
103.4384814441956
 20
161.3326682894163
 30
0.000000000000000
 11
103.4384814441956
 21
161.6326682894163
 31
0.000000000000000
  0
LINE
  5
89
100
AcDbEntity
  8
A1
  6
CONTINUOUS
 62
7
100
AcDbLine
 10
101.9384814441956
 20
161.3326682894163
 30
0.000000000000000
 11
103.4384814441956
 21
161.3326682894163
 31
0.000000000000000
  0
LINE
  5
8A
100
AcDbEntity
  8
A1
  6
CONTINUOUS
 62
7
100
AcDbLine
 10
103.2384814441956
 20
161.8326682894163
 30
0.000000000000000
 11
102.1384814441956
 21
161.8326682894163
 31
0.000000000000000
  0
ARC
  5
8B
100
AcDbEntity
  8
A1
  6
CONTINUOUS
 62
7
100
AcDbCircle
 10
107.1884814441958
 20
178.2108971584442
 30
0.000000000000000
 40
1.000000000000000
100
AcDbArc
 50
359.9999999999997
 51
539.9999999999997
  0
ARC
  5
8C
100
AcDbEntity
  8
A1
  6
CONTINUOUS
 62
7
100
AcDbCircle
 10
107.1884814441956
 20
144.2111696556378
 30
0.000000000000000
 40
1.000000000000000
100
AcDbArc
 50
179.9999999999997
 51
359.9999999999997
  0
LINE
  5
8D
100
AcDbEntity
  8
A1
  6
CONTINUOUS
 62
7
100
AcDbLine
 10
108.1884814441957
 20
178.2108971584442
 30
0.000000000000000
 11
108.1884814441957
 21
177.0365095319807
 31
0.000000000000000
  0
LINE
  5
8E
100
AcDbEntity
  8
A1
  6
CONTINUOUS
 62
7
100
AcDbLine
 10
106.1884814441957
 20
177.0365095319807
 30
0.000000000000000
 11
106.1884814441957
 21
178.2108971584442
 31
0.000000000000000
  0
LINE
  5
8F
100
AcDbEntity
  8
A1
  6
CONTINUOUS
 62
7
100
AcDbLine
 10
108.1884814441956
 20
145.4549922985955
 30
0.000000000000000
 11
108.1884814441955
 21
144.2111696556378
 31
0.000000000000000
  0
LINE
  5
90
100
AcDbEntity
  8
A1
  6
CONTINUOUS
 62
7
100
AcDbLine
 10
106.1884814441955
 20
144.2111696556378
 30
0.000000000000000
 11
106.1884814441956
 21
145.4549922985955
 31
0.000000000000000
  0
LINE
  5
91
100
AcDbEntity
  8
A1
  6
CONTINUOUS
 62
7
100
AcDbLine
 10
108.1884814441957
 20
177.0365095319808
 30
0.000000000000000
 11
108.1884814441956
 21
145.4549922985956
 31
0.000000000000000
  0
LINE
  5
92
100
AcDbEntity
  8
A1
  6
CONTINUOUS
 62
7
100
AcDbLine
 10
106.1884814441956
 20
145.4549922985956
 30
0.000000000000000
 11
106.1884814441957
 21
177.0365095319808
 31
0.000000000000000
  0
SPLINE
  5
93
100
AcDbEntity
  8
A1
  6
CONTINUOUS
 62
7
100
AcDbSpline
210
0.000000000000000
220
0.000000000000000
230
1.000000000000000
 70
     8
 71
     3
 72
    47
 73
    43
 74
     0
 42
1.000000000000000e-07
 43
1.000000000000000e-07
 12
0.001481548270191979
 22
-0.9999989025068317
 32
0.000000000000000
 13
0.001360922988368429
 23
0.9999990739438545
 33
0.000000000000000
 40
0.000000000000000
 40
0.000000000000000
 40
0.000000000000000
 40
0.000000000000000
 40
0.6101640211695925
 40
1.222184011534176
 40
1.851374954545205
 40
2.480497115359376
 40
3.093811871971650
 40
3.705684420933644
 40
4.338961166106652
 40
4.970450437069306
 40
5.504084243234129
 40
6.037135376833859
 40
6.586978182021693
 40
7.137227051736778
 40
7.649884416876353
 40
8.163539964424517
 40
8.692912700136906
 40
9.223466916024869
 40
9.605837073035527
 40
9.988638942274694
 40
10.37743035640145
 40
10.76638392216893
 40
11.29420174580045
 40
11.82161919472218
 40
12.36345313787303
 40
12.90420063294008
 40
13.42865287246476
 40
13.95194230456546
 40
14.48967827178762
 40
15.02666523136479
 40
15.54263775397137
 40
16.05875307411474
 40
16.59073675797480
 40
17.12371584506454
 40
17.63857833114133
 40
18.15467641149261
 40
18.68555669799025
 40
19.21736460319391
 40
19.79040366664691
 40
20.36335275566165
 40
20.94902150826396
 40
21.53294613490656
 40
21.53294613490656
 40
21.53294613490656
 40
21.53294613490656
 10
60.61156167123028
 20
128.8910459414977
 30
0.000000000000000
 10
60.61186300038031
 20
128.6876581576581
 30
0.000000000000000
 10
60.59910534480878
 20
128.2801405626282
 30
0.000000000000000
 10
60.54070679530378
 20
127.6653470236320
 30
0.000000000000000
 10
60.43710223173727
 20
127.0499649312607
 30
0.000000000000000
 10
60.28605343956201
 20
126.4439456821814
 30
0.000000000000000
 10
60.08681767798572
 20
125.8580582370148
 30
0.000000000000000
 10
59.83718266076346
 20
125.2901901100873
 30
0.000000000000000
 10
59.53211109761966
 20
124.7429467608187
 30
0.000000000000000
 10
59.18957081300323
 20
124.2497099565832
 30
0.000000000000000
 10
58.82348351153848
 20
123.8170485812870
 30
0.000000000000000
 10
58.44049523655443
 20
123.4370186313451
 30
0.000000000000000
 10
58.02055568928091
 20
123.0894295040930
 30
0.000000000000000
 10
57.57673372309830
 20
122.7847880181209
 30
0.000000000000000
 10
57.11877489686998
 20
122.5258120137386
 30
0.000000000000000
 10
56.64757055726818
 20
122.3079428354851
 30
0.000000000000000
 10
56.15444853765740
 20
122.1274529514816
 30
0.000000000000000
 10
55.69053671381386
 20
121.9992030024763
 30
0.000000000000000
 10
55.26706019774062
 20
121.9131546440377
 30
0.000000000000000
 10
54.88614557470473
 20
121.8581520384976
 30
0.000000000000000
 10
54.50051104367918
 20
121.8249012256239
 30
0.000000000000000
 10
54.06527958159660
 20
121.8123859036359
 30
0.000000000000000
 10
53.58374148033565
 20
121.8311963507878
 30
0.000000000000000
 10
53.05447684733281
 20
121.8932626711616
 30
0.000000000000000
 10
52.52759065755149
 20
121.9983403782980
 30
0.000000000000000
 10
52.01195106621964
 20
122.1457249680252
 30
0.000000000000000
 10
51.51602291711836
 20
122.3329220066562
 30
0.000000000000000
 10
51.03796695007895
 20
122.5596569367450
 30
0.000000000000000
 10
50.57735152487720
 20
122.8285213813577
 30
0.000000000000000
 10
50.14381595224322
 20
123.1349929112435
 30
0.000000000000000
 10
49.74418216689872
 20
123.4733815769569
 30
0.000000000000000
 10
49.37578344559242
 20
123.8431819010422
 30
0.000000000000000
 10
49.03713802654534
 20
124.2478772501289
 30
0.000000000000000
 10
48.73457440026164
 20
124.6796724494875
 30
0.000000000000000
 10
48.47165940157129
 20
125.1304721811718
 30
0.000000000000000
 10
48.24501053419715
 20
125.5997307891824
 30
0.000000000000000
 10
48.05304043824435
 20
126.0902739319934
 30
0.000000000000000
 10
47.89189714481654
 20
126.6116429389830
 30
0.000000000000000
 10
47.76592489082623
 20
127.1570469476547
 30
0.000000000000000
 10
47.67546344175494
 20
127.7275861122246
 30
0.000000000000000
 10
47.62295843679001
 20
128.3064337374654
 30
0.000000000000000
 10
47.61129677908099
 20
128.6964045795325
 30
0.000000000000000
 10
47.61156167123028
 20
128.8910459414977
 30
0.000000000000000
  0
SPLINE
  5
94
100
AcDbEntity
  8
A1
  6
CONTINUOUS
 62
7
100
AcDbSpline
210
0.000000000000000
220
0.000000000000000
230
1.000000000000000
 70
     8
 71
     3
 72
    48
 73
    44
 74
     0
 42
1.000000000000000e-07
 43
1.000000000000000e-07
 12
0.001716743779695662
 22
-0.9999985263943927
 32
0.000000000000000
 13
0.0007632822195660083
 23
0.9999997087002157
 33
0.000000000000000
 40
0.000000000000000
 40
0.000000000000000
 40
0.000000000000000
 40
0.000000000000000
 40
0.6230551305799631
 40
1.250567364886502
 40
1.897878392018524
 40
2.547052509750628
 40
3.181775560363857
 40
3.815955071905683
 40
4.474521063027536
 40
5.131353602161810
 40
5.667462015008636
 40
6.202770692809322
 40
6.755019484080658
 40
7.307332058939630
 40
7.815853001305923
 40
8.325096045824749
 40
8.849600131218505
 40
9.375088440224292
 40
9.766606144203946
 40
10.15853061457927
 40
10.55690975949727
 40
10.95544480865121
 40
11.48044243643723
 40
12.00508807167033
 40
12.54414514727796
 40
13.08227033991027
 40
13.60440876156651
 40
14.12561844754191
 40
14.66155833335223
 40
15.19704822864776
 40
15.71065334010392
 40
16.22463123426533
 40
16.75465665585147
 40
17.28572344710176
 40
17.79734374351495
 40
18.30992492531568
 40
18.83655594654975
 40
19.36344015250272
 40
19.90699411981210
 40
20.44938229423686
 40
21.00106414690822
 40
21.54976076759189
 40
21.91123447057284
 40
21.91123447057284
 40
21.91123447057284
 40
21.91123447057284
 10
60.61156167123028
 20
129.8810684148860
 30
0.000000000000000
 10
60.61191821323689
 20
129.6733836774052
 30
0.000000000000000
 10
60.59991080239740
 20
129.2564193182772
 30
0.000000000000000
 10
60.54463366552994
 20
128.6258199960160
 30
0.000000000000000
 10
60.44503492427239
 20
127.9916996457190
 30
0.000000000000000
 10
60.29783813107321
 20
127.3643332117501
 30
0.000000000000000
 10
60.10114419498737
 20
126.7552050391939
 30
0.000000000000000
 10
59.85168013339484
 20
126.1621885313967
 30
0.000000000000000
 10
59.54332582844913
 20
125.5889442091946
 30
0.000000000000000
 10
59.19725867072344
 20
125.0765496756570
 30
0.000000000000000
 10
58.82974353687553
 20
124.6320029104535
 30
0.000000000000000
 10
58.44939913717070
 20
124.2459656333981
 30
0.000000000000000
 10
58.03146635910952
 20
123.8924589154261
 30
0.000000000000000
 10
57.59053781220672
 20
123.5834187873717
 30
0.000000000000000
 10
57.13683932734870
 20
123.3213476888976
 30
0.000000000000000
 10
56.67165028350982
 20
123.1011790087832
 30
0.000000000000000
 10
56.18459657050263
 20
122.9180842630724
 30
0.000000000000000
 10
55.72203796728161
 20
122.7859856429866
 30
0.000000000000000
 10
55.29487069875219
 20
122.6959491379943
 30
0.000000000000000
 10
54.90504347432619
 20
122.6375879242528
 30
0.000000000000000
 10
54.51009988905338
 20
122.6022938344474
 30
0.000000000000000
 10
54.06941318456722
 20
122.5891623036518
 30
0.000000000000000
 10
53.58654507225759
 20
122.6081348526193
 30
0.000000000000000
 10
53.06008983943926
 20
122.6702414799814
 30
0.000000000000000
 10
52.53599388826666
 20
122.7754028724271
 30
0.000000000000000
 10
52.02306909767529
 20
122.9229450977808
 30
0.000000000000000
 10
51.52973642574085
 20
123.1104056178353
 30
0.000000000000000
 10
51.05415274932494
 20
123.3375457811899
 30
0.000000000000000
 10
50.59594129613612
 20
123.6069800252065
 30
0.000000000000000
 10
50.16504419706689
 20
123.9139147677147
 30
0.000000000000000
 10
49.76820988556059
 20
124.2525024127963
 30
0.000000000000000
 10
49.40264972754414
 20
124.6220750217006
 30
0.000000000000000
 10
49.06655787151971
 20
125.0262768219832
 30
0.000000000000000
 10
48.76634587113227
 20
125.4568010575208
 30
0.000000000000000
 10
48.50534035331330
 20
125.9053393168849
 30
0.000000000000000
 10
48.27992729159075
 20
126.3710869008849
 30
0.000000000000000
 10
48.08804241023614
 20
126.8570794495741
 30
0.000000000000000
 10
47.92783958907933
 20
127.3651958496377
 30
0.000000000000000
 10
47.80133910125232
 20
127.8881210853990
 30
0.000000000000000
 10
47.70695411108997
 20
128.4261199752280
 30
0.000000000000000
 10
47.64478111794620
 20
128.9704796660610
 30
0.000000000000000
 10
47.61645187327579
 20
129.4571701437291
 30
0.000000000000000
 10
47.61146970241364
 20
129.7605772156899
 30
0.000000000000000
 10
47.61156167123042
 20
129.8810684149178
 30
0.000000000000000
  0
SPLINE
  5
95
100
AcDbEntity
  8
A1
  6
CONTINUOUS
 62
7
100
AcDbSpline
210
0.000000000000000
220
0.000000000000000
230
1.000000000000000
 70
     8
 71
     3
 72
    19
 73
    15
 74
     0
 42
1.000000000000000e-07
 43
1.000000000000000e-07
 12
0.02715670627299005
 22
-0.9996311886413878
 32
0.000000000000000
 13
0.5000138787236210
 23
-0.8660173907555873
 33
0.000000000000000
 40
0.000000000000000
 40
0.000000000000000
 40
0.000000000000000
 40
0.000000000000000
 40
0.2627948500310529
 40
0.5559426858345677
 40
0.8095487284416385
 40
1.075735574842617
 40
1.360092348754135
 40
1.653612201660675
 40
2.072900269286612
 40
2.502648216088778
 40
2.951809214694201
 40
3.405487292533226
 40
3.689167198478098
 40
3.702584031752327
 40
3.702584031752327
 40
3.702584031752327
 40
3.702584031752327
 10
46.11156167123048
 20
162.6867702556666
 30
0.000000000000000
 10
46.11394055208126
 20
162.5992042795648
 30
0.000000000000000
 10
46.13024593686356
 20
162.4138170463712
 30
0.000000000000000
 10
46.19658297233502
 20
162.1514558301755
 30
0.000000000000000
 10
46.28218364568187
 20
161.8942875626823
 30
0.000000000000000
 10
46.38093688759068
 20
161.6449521838782
 30
0.000000000000000
 10
46.49488495131479
 20
161.3876534902291
 30
0.000000000000000
 10
46.63893444116289
 20
161.0880539803074
 30
0.000000000000000
 10
46.81340349806152
 20
160.7494607886293
 30
0.000000000000000
 10
47.02009746572438
 20
160.3692594600074
 30
0.000000000000000
 10
47.23783660628385
 20
159.9820800058887
 30
0.000000000000000
 10
47.43469890188652
 20
159.6390464810788
 30
0.000000000000000
 10
47.55980102017512
 20
159.4223009942085
 30
0.000000000000000
 10
47.60932547028187
 20
159.3365413597317
 30
0.000000000000000
 10
47.61156167123042
 20
159.3326682894169
 30
0.000000000000000
  0
SPLINE
  5
96
100
AcDbEntity
  8
A1
  6
CONTINUOUS
 62
7
100
AcDbSpline
210
0.000000000000000
220
0.000000000000000
230
1.000000000000000
 70
     8
 71
     3
 72
    17
 73
    13
 74
     0
 42
1.000000000000000e-07
 43
1.000000000000000e-07
 12
0.5000138787290780
 22
0.8660173907483113
 32
0.000000000000000
 13
0.02735699188599483
 23
0.9996257274576692
 33
0.000000000000000
 40
0.000000000000000
 40
0.000000000000000
 40
0.000000000000000
 40
0.000000000000000
 40
0.01341683345554900
 40
0.2970967394258608
 40
0.8926189869044256
 40
1.480241692221113
 40
2.048962211596353
 40
2.433161095225895
 40
2.801309188010592
 40
3.146578005595192
 40
3.436921600556079
 40
3.702518364893475
 40
3.702518364893475
 40
3.702518364893475
 40
3.702518364893475
 10
60.61156167123045
 20
159.3326682894169
 30
0.000000000000000
 10
60.61379787220923
 20
159.3365413597840
 30
0.000000000000000
 10
60.66332249720244
 20
159.4223008966839
 30
0.000000000000000
 10
60.81203735690110
 20
159.6800089511853
 30
0.000000000000000
 10
61.05540302442432
 20
160.1040876170529
 30
0.000000000000000
 10
61.33897848293086
 20
160.6146005133214
 30
0.000000000000000
 10
61.57650897696413
 20
161.0700004261160
 30
0.000000000000000
 10
61.76619359308427
 20
161.4674897198291
 30
0.000000000000000
 10
61.90910719775303
 20
161.8045346054265
 30
0.000000000000000
 10
62.01871937321425
 20
162.1208920696013
 30
0.000000000000000
 10
62.09268533543820
 20
162.4128785606900
 30
0.000000000000000
 10
62.10913969505486
 20
162.5982711360795
 30
0.000000000000000
 10
62.11156167123050
 20
162.6867702556666
 30
0.000000000000000
  0
LINE
  5
97
100
AcDbEntity
  8
A1
  6
CONTINUOUS
 62
7
100
AcDbLine
 10
60.61156167123028
 20
128.8910459414977
 30
0.000000000000000
 11
60.61156167123028
 21
129.8810684148860
 31
0.000000000000000
  0
LINE
  5
98
100
AcDbEntity
  8
A1
  6
CONTINUOUS
 62
7
100
AcDbLine
 10
47.61156167123027
 20
128.8910459414977
 30
0.000000000000000
 11
47.61156167123041
 21
129.8810684149178
 31
0.000000000000000
  0
LINE
  5
99
100
AcDbEntity
  8
A1
  6
CONTINUOUS
 62
7
100
AcDbLine
 10
60.61156167123045
 20
136.6667397875878
 30
0.000000000000000
 11
60.61156167123045
 21
129.8810684148795
 31
0.000000000000000
  0
LINE
  5
9A
100
AcDbEntity
  8
A1
  6
CONTINUOUS
 62
7
100
AcDbLine
 10
47.61156167123042
 20
136.6667397875878
 30
0.000000000000000
 11
47.61156167123042
 21
129.8810684149178
 31
0.000000000000000
  0
LINE
  5
9B
100
AcDbEntity
  8
A1
  6
CONTINUOUS
 62
7
100
AcDbLine
 10
60.61156167123045
 20
137.8326682894168
 30
0.000000000000000
 11
60.61156167123045
 21
137.6971239744752
 31
0.000000000000000
  0
LINE
  5
9C
100
AcDbEntity
  8
A1
  6
CONTINUOUS
 62
7
100
AcDbLine
 10
47.61156167123042
 20
137.8326682894168
 30
0.000000000000000
 11
47.61156167123042
 21
137.6971239744752
 31
0.000000000000000
  0
LINE
  5
9D
100
AcDbEntity
  8
A1
  6
CONTINUOUS
 62
7
100
AcDbLine
 10
60.61156167123045
 20
137.6971239744752
 30
0.000000000000000
 11
60.61156167123045
 21
136.6667397875878
 31
0.000000000000000
  0
LINE
  5
9E
100
AcDbEntity
  8
A1
  6
CONTINUOUS
 62
7
100
AcDbLine
 10
47.61156167123042
 20
137.6971239744752
 30
0.000000000000000
 11
47.61156167123042
 21
136.6667397875878
 31
0.000000000000000
  0
LINE
  5
9F
100
AcDbEntity
  8
A1
  6
CONTINUOUS
 62
7
100
AcDbLine
 10
60.61156167123045
 20
137.6971239744752
 30
0.000000000000000
 11
47.61156167123042
 21
137.6971239744752
 31
0.000000000000000
  0
LINE
  5
A0
100
AcDbEntity
  8
A1
  6
CONTINUOUS
 62
7
100
AcDbLine
 10
60.61156167123045
 20
136.6667397875878
 30
0.000000000000000
 11
47.61156167123042
 21
136.6667397875878
 31
0.000000000000000
  0
LINE
  5
A1
100
AcDbEntity
  8
A1
  6
CONTINUOUS
 62
7
100
AcDbLine
 10
60.61156167123045
 20
137.8326682894168
 30
0.000000000000000
 11
60.61156167123045
 21
159.3326682894169
 31
0.000000000000000
  0
LINE
  5
A2
100
AcDbEntity
  8
A1
  6
CONTINUOUS
 62
7
100
AcDbLine
 10
62.11156167123048
 20
137.8326682894168
 30
0.000000000000000
 11
60.61156167123045
 21
137.8326682894168
 31
0.000000000000000
  0
LINE
  5
A3
100
AcDbEntity
  8
A1
  6
CONTINUOUS
 62
7
100
AcDbLine
 10
62.11156167123050
 20
158.3326682894170
 30
0.000000000000000
 11
62.11156167123050
 21
137.8326682894168
 31
0.000000000000000
  0
LINE
  5
A4
100
AcDbEntity
  8
A1
  6
CONTINUOUS
 62
7
100
AcDbLine
 10
62.11156167123050
 20
158.3326682894170
 30
0.000000000000000
 11
62.11156167123050
 21
159.3326682894170
 31
0.000000000000000
  0
LINE
  5
A5
100
AcDbEntity
  8
A1
  6
CONTINUOUS
 62
7
100
AcDbLine
 10
62.11156167123050
 20
162.6867702556666
 30
0.000000000000000
 11
62.11156167123050
 21
159.3326682894170
 31
0.000000000000000
  0
LINE
  5
A6
100
AcDbEntity
  8
A1
  6
CONTINUOUS
 62
7
100
AcDbLine
 10
47.61156167123042
 20
137.8326682894168
 30
0.000000000000000
 11
46.11156167123048
 21
137.8326682894168
 31
0.000000000000000
  0
LINE
  5
A7
100
AcDbEntity
  8
A1
  6
CONTINUOUS
 62
7
100
AcDbLine
 10
47.61156167123042
 20
159.3326682894169
 30
0.000000000000000
 11
47.61156167123042
 21
137.8326682894168
 31
0.000000000000000
  0
LINE
  5
A8
100
AcDbEntity
  8
A1
  6
CONTINUOUS
 62
7
100
AcDbLine
 10
46.11156167123048
 20
159.3326682894170
 30
0.000000000000000
 11
46.11156167123048
 21
162.6867702556666
 31
0.000000000000000
  0
LINE
  5
A9
100
AcDbEntity
  8
A1
  6
CONTINUOUS
 62
7
100
AcDbLine
 10
46.11156167123048
 20
159.3326682894170
 30
0.000000000000000
 11
46.11156167123048
 21
158.3332552878398
 31
0.000000000000000
  0
LINE
  5
AA
100
AcDbEntity
  8
A1
  6
CONTINUOUS
 62
7
100
AcDbLine
 10
46.11156167123048
 20
137.8326682894168
 30
0.000000000000000
 11
46.11156167123048
 21
158.3332552878398
 31
0.000000000000000
  0
LINE
  5
AB
100
AcDbEntity
  8
A1
  6
CONTINUOUS
 62
7
100
AcDbLine
 10
46.11156167123048
 20
162.6867702556666
 30
0.000000000000000
 11
46.11156167123048
 21
163.8326682894169
 31
0.000000000000000
  0
LINE
  5
AC
100
AcDbEntity
  8
A1
  6
CONTINUOUS
 62
7
100
AcDbLine
 10
60.61156167123045
 20
159.3326682894169
 30
0.000000000000000
 11
47.61156167123042
 21
159.3326682894169
 31
0.000000000000000
  0
LINE
  5
AD
100
AcDbEntity
  8
A1
  6
CONTINUOUS
 62
7
100
AcDbLine
 10
62.11156167123050
 20
163.8326682894169
 30
0.000000000000000
 11
62.11156167123050
 21
162.6867702556666
 31
0.000000000000000
  0
LINE
  5
AE
100
AcDbEntity
  8
A1
  6
CONTINUOUS
 62
7
100
AcDbLine
 10
62.11156167123050
 20
163.8326682894169
 30
0.000000000000000
 11
46.11156167123048
 21
163.8326682894169
 31
0.000000000000000
  0
ARC
  5
AF
100
AcDbEntity
  8
A1
  6
CONTINUOUS
 62
7
100
AcDbCircle
 10
62.11156167123048
 20
148.3326682894171
 30
0.000000000000000
 40
0.5000000000000000
100
AcDbArc
 50
0.000000000000000
 51
90.00000000000463
  0
ARC
  5
B0
100
AcDbEntity
  8
A1
  6
CONTINUOUS
 62
7
100
AcDbCircle
 10
46.11156167123048
 20
148.3326682894171
 30
0.000000000000000
 40
0.5000000000000000
100
AcDbArc
 50
90.00000000000632
 51
180.0000000000000
  0
ARC
  5
B1
100
AcDbEntity
  8
A1
  6
CONTINUOUS
 62
7
100
AcDbCircle
 10
46.11156167123048
 20
138.8326682894172
 30
0.000000000000000
 40
0.5000000000000000
100
AcDbArc
 50
180.0000000000000
 51
269.9999999999937
  0
ARC
  5
B2
100
AcDbEntity
  8
A1
  6
CONTINUOUS
 62
7
100
AcDbCircle
 10
62.11156167123048
 20
138.8326682894172
 30
0.000000000000000
 40
0.5000000000000000
100
AcDbArc
 50
269.9999999999953
 51
360.0000000000000
  0
ARC
  5
B3
100
AcDbEntity
  8
A1
  6
CONTINUOUS
 62
7
100
AcDbCircle
 10
46.11156167123042
 20
161.3326682894171
 30
0.000000000000000
 40
0.5000000000000000
100
AcDbArc
 50
143.1301023541543
 51
180.0000000000000
  0
ARC
  5
B4
100
AcDbEntity
  8
A1
  6
CONTINUOUS
 62
7
100
AcDbCircle
 10
62.11156167123048
 20
161.3326682894171
 30
0.000000000000000
 40
0.5000000000000000
100
AcDbArc
 50
0.000000000000000
 51
36.86989764585083
  0
ARC
  5
B5
100
AcDbEntity
  8
A1
  6
CONTINUOUS
 62
7
100
AcDbCircle
 10
46.11156167123048
 20
159.3326682894171
 30
0.000000000000000
 40
0.5000000000000000
100
AcDbArc
 50
180.0000000000000
 51
270.0000000000000
  0
ARC
  5
B6
100
AcDbEntity
  8
A1
  6
CONTINUOUS
 62
7
100
AcDbCircle
 10
62.11156167123048
 20
159.3326682894171
 30
0.000000000000000
 40
0.5000000000000000
100
AcDbArc
 50
270.0000000000000
 51
360.0000000000000
  0
ARC
  5
B7
100
AcDbEntity
  8
A1
  6
CONTINUOUS
 62
7
100
AcDbCircle
 10
46.11156167122431
 20
161.3326682894293
 30
0.000000000000000
 40
0.4999999999877929
100
AcDbArc
 50
89.99999999930067
 51
143.1301023548538
  0
ARC
  5
B8
100
AcDbEntity
  8
A1
  6
CONTINUOUS
 62
7
100
AcDbCircle
 10
62.11156167124082
 20
161.3326682894379
 30
0.000000000000000
 40
0.4999999999791690
100
AcDbArc
 50
36.86989764465230
 51
90.00000000118956
  0
LINE
  5
B9
100
AcDbEntity
  8
A1
  6
CONTINUOUS
 62
7
100
AcDbLine
 10
45.61156167123048
 20
143.2591743534170
 30
0.000000000000000
 11
45.61156167123048
 21
138.8326682894172
 31
0.000000000000000
  0
LINE
  5
BA
100
AcDbEntity
  8
A1
  6
CONTINUOUS
 62
7
100
AcDbLine
 10
45.61156167123048
 20
148.3326682894171
 30
0.000000000000000
 11
45.61156167123048
 21
145.2624008107496
 31
0.000000000000000
  0
LINE
  5
BB
100
AcDbEntity
  8
A1
  6
CONTINUOUS
 62
7
100
AcDbLine
 10
62.61156167123048
 20
143.2596719454376
 30
0.000000000000000
 11
62.61156167123048
 21
138.8326682894172
 31
0.000000000000000
  0
LINE
  5
BC
100
AcDbEntity
  8
A1
  6
CONTINUOUS
 62
7
100
AcDbLine
 10
62.61156167123048
 20
148.3326682894171
 30
0.000000000000000
 11
62.61156167123048
 21
145.2628984027702
 31
0.000000000000000
  0
LINE
  5
BD
100
AcDbEntity
  8
A1
  6
CONTINUOUS
 62
7
100
AcDbLine
 10
45.61156167123048
 20
161.3326682894171
 30
0.000000000000000
 11
45.61156167123048
 21
159.3326682894171
 31
0.000000000000000
  0
LINE
  5
BE
100
AcDbEntity
  8
A1
  6
CONTINUOUS
 62
7
100
AcDbLine
 10
62.61156167123048
 20
161.3326682894171
 30
0.000000000000000
 11
62.61156167123048
 21
159.3326682894171
 31
0.000000000000000
  0
LINE
  5
BF
100
AcDbEntity
  8
A1
  6
CONTINUOUS
 62
7
100
AcDbLine
 10
46.11156167123048
 20
161.6326682894171
 30
0.000000000000000
 11
45.71156167123041
 21
161.6326682894171
 31
0.000000000000000
  0
LINE
  5
C0
100
AcDbEntity
  8
A1
  6
CONTINUOUS
 62
7
100
AcDbLine
 10
62.51156167123040
 20
161.6326682894171
 30
0.000000000000000
 11
62.11156167123050
 21
161.6326682894171
 31
0.000000000000000
  0
ARC
  5
C1
100
AcDbEntity
  8
A1
  6
CONTINUOUS
 62
7
100
AcDbCircle
 10
45.24870180875865
 20
176.2108971584450
 30
0.000000000000000
 40
3.000000000000000
100
AcDbArc
 50
90.00000000000000
 51
155.6187626069750
  0
ARC
  5
C2
100
AcDbEntity
  8
A1
  6
CONTINUOUS
 62
7
100
AcDbCircle
 10
45.24870180875865
 20
176.2108971584450
 30
0.000000000000000
 40
1.000000000000000
100
AcDbArc
 50
90.00000000000000
 51
155.6187626069753
  0
ARC
  5
C3
100
AcDbEntity
  8
A1
  6
CONTINUOUS
 62
7
100
AcDbCircle
 10
44.68160911763053
 20
146.2111696556386
 30
0.000000000000000
 40
3.000000000000000
100
AcDbArc
 50
202.2153411554076
 51
273.2523269657892
  0
ARC
  5
C4
100
AcDbEntity
  8
A1
  6
CONTINUOUS
 62
7
100
AcDbCircle
 10
44.68160911763053
 20
146.2111696556386
 30
0.000000000000000
 40
1.000000000000000
100
AcDbArc
 50
202.2153411554075
 51
273.2523245509526
  0
ARC
  5
C5
100
AcDbEntity
  8
A1
  6
CONTINUOUS
 62
7
100
AcDbCircle
 10
79.79731216522015
 20
160.5525920435295
 30
0.000000000000000
 40
40.93137219551113
100
AcDbArc
 50
155.6187626069764
 51
202.2153411554014
  0
ARC
  5
C6
100
AcDbEntity
  8
A1
  6
CONTINUOUS
 62
7
100
AcDbCircle
 10
79.79731216522015
 20
160.5525920435295
 30
0.000000000000000
 40
38.93137219551113
100
AcDbArc
 50
155.6187626069764
 51
180.0000000000000
  0
ARC
  5
C7
100
AcDbEntity
  8
A1
  6
CONTINUOUS
 62
7
100
AcDbCircle
 10
79.79731216522015
 20
160.5525920435295
 30
0.000000000000000
 40
38.93137219551113
100
AcDbArc
 50
180.0000000000000
 51
202.2153411554014
  0
ARC
  5
C8
100
AcDbEntity
  8
A1
  6
CONTINUOUS
 62
7
100
AcDbCircle
 10
63.55027082178756
 20
146.2111696556386
 30
0.000000000000000
 40
3.000000000000000
100
AcDbArc
 50
266.7476730342108
 51
337.7846588445925
  0
ARC
  5
C9
100
AcDbEntity
  8
A1
  6
CONTINUOUS
 62
7
100
AcDbCircle
 10
63.55027082178756
 20
146.2111696556386
 30
0.000000000000000
 40
1.000000000000000
100
AcDbArc
 50
266.7476754490474
 51
337.7846588445925
  0
ARC
  5
CA
100
AcDbEntity
  8
A1
  6
CONTINUOUS
 62
7
100
AcDbCircle
 10
62.98317813065944
 20
176.2108971584450
 30
0.000000000000000
 40
3.000000000000000
100
AcDbArc
 50
24.38123739302495
 51
90.00000000000000
  0
ARC
  5
CB
100
AcDbEntity
  8
A1
  6
CONTINUOUS
 62
7
100
AcDbCircle
 10
62.98317813065944
 20
176.2108971584450
 30
0.000000000000000
 40
1.000000000000000
100
AcDbArc
 50
24.38123739302464
 51
90.00000000000000
  0
ARC
  5
CC
100
AcDbEntity
  8
A1
  6
CONTINUOUS
 62
7
100
AcDbCircle
 10
28.43456777419797
 20
160.5525920435295
 30
0.000000000000000
 40
40.93137219551113
100
AcDbArc
 50
0.000000000000000
 51
24.38123739302367
  0
ARC
  5
CD
100
AcDbEntity
  8
A1
  6
CONTINUOUS
 62
7
100
AcDbCircle
 10
28.43456777419797
 20
160.5525920435295
 30
0.000000000000000
 40
40.93137219551113
100
AcDbArc
 50
337.7846588445986
 51
360.0000000000000
  0
ARC
  5
CE
100
AcDbEntity
  8
A1
  6
CONTINUOUS
 62
7
100
AcDbCircle
 10
28.43456777419797
 20
160.5525920435295
 30
0.000000000000000
 40
38.93137219551113
100
AcDbArc
 50
337.7846588445986
 51
384.3812373930237
  0
LINE
  5
CF
100
AcDbEntity
  8
A1
  6
CONTINUOUS
 62
7
100
AcDbLine
 10
44.85180912386591
 20
143.2160015538657
 30
0.000000000000000
 11
46.11156167123047
 21
143.2875867619709
 31
0.000000000000000
  0
LINE
  5
D0
100
AcDbEntity
  8
A1
  6
CONTINUOUS
 62
7
100
AcDbLine
 10
46.11156167123048
 20
145.2908132193036
 30
0.000000000000000
 11
44.73834241096338
 21
145.2127802859898
 31
0.000000000000000
  0
LINE
  5
D1
100
AcDbEntity
  8
A1
  6
CONTINUOUS
 62
7
100
AcDbLine
 10
63.49353752845476
 20
145.2127802859898
 30
0.000000000000000
 11
62.11156167123051
 21
145.2913108113242
 31
0.000000000000000
  0
LINE
  5
D2
100
AcDbEntity
  8
A1
  6
CONTINUOUS
 62
7
100
AcDbLine
 10
62.11156167123048
 20
143.2880843539915
 30
0.000000000000000
 11
63.38007081555221
 21
143.2160015538657
 31
0.000000000000000
  0
LINE
  5
D3
100
AcDbEntity
  8
A1
  6
CONTINUOUS
 62
7
100
AcDbLine
 10
62.98317813065944
 20
179.2108971584450
 30
0.000000000000000
 11
45.24870180875865
 21
179.2108971584450
 31
0.000000000000000
  0
LINE
  5
D4
100
AcDbEntity
  8
A1
  6
CONTINUOUS
 62
7
100
AcDbLine
 10
45.24870180875865
 20
177.2108971584450
 30
0.000000000000000
 11
62.98317813065944
 21
177.2108971584450
 31
0.000000000000000
  0
ARC
  5
D5
100
AcDbEntity
  8
A1
  6
CONTINUOUS
 62
7
100
AcDbCircle
 10
60.61156167123104
 20
224.4565188599670
 30
0.000000000000000
 40
1.499999999999438
100
AcDbArc
 50
359.9999999999787
 51
450.0000000000193
  0
ARC
  5
D6
100
AcDbEntity
  8
A1
  6
CONTINUOUS
 62
7
100
AcDbCircle
 10
47.61154950077187
 20
224.4565310304249
 30
0.000000000000000
 40
1.499987829590788
100
AcDbArc
 50
89.99953511895158
 51
180.0004648810463
  0
LINE
  5
D7
100
AcDbEntity
  8
A1
  6
CONTINUOUS
 62
7
100
AcDbLine
 10
47.61156167123055
 20
213.1565188599663
 30
0.000000000000000
 11
47.61156167123055
 21
216.9565188599665
 31
0.000000000000000
  0
LINE
  5
D8
100
AcDbEntity
  8
A1
  6
CONTINUOUS
 62
7
100
AcDbLine
 10
46.11156167123049
 20
213.1565188599663
 30
0.000000000000000
 11
46.11156167123049
 21
216.9565188599665
 31
0.000000000000000
  0
LINE
  5
D9
100
AcDbEntity
  8
A1
  6
CONTINUOUS
 62
7
100
AcDbLine
 10
46.11156167123049
 20
213.1565188599663
 30
0.000000000000000
 11
47.61156167123055
 21
213.1565188599663
 31
0.000000000000000
  0
LINE
  5
DA
100
AcDbEntity
  8
A1
  6
CONTINUOUS
 62
7
100
AcDbLine
 10
62.11156167123049
 20
216.9565188599665
 30
0.000000000000000
 11
62.11156167123049
 21
213.1565188599663
 31
0.000000000000000
  0
LINE
  5
DB
100
AcDbEntity
  8
A1
  6
CONTINUOUS
 62
7
100
AcDbLine
 10
60.61156167123055
 20
216.9565188599665
 30
0.000000000000000
 11
60.61156167123055
 21
213.1565188599663
 31
0.000000000000000
  0
LINE
  5
DC
100
AcDbEntity
  8
A1
  6
CONTINUOUS
 62
7
100
AcDbLine
 10
60.61156167123055
 20
213.1565188599663
 30
0.000000000000000
 11
62.11156167123049
 21
213.1565188599663
 31
0.000000000000000
  0
LINE
  5
DD
100
AcDbEntity
  8
A1
  6
CONTINUOUS
 62
7
100
AcDbLine
 10
62.11156167123049
 20
219.4565188599664
 30
0.000000000000000
 11
62.11156167123049
 21
218.9565188599665
 31
0.000000000000000
  0
LINE
  5
DE
100
AcDbEntity
  8
A1
  6
CONTINUOUS
 62
7
100
AcDbLine
 10
60.61156167123055
 20
219.4565188599664
 30
0.000000000000000
 11
60.61156167123055
 21
218.9565188599665
 31
0.000000000000000
  0
LINE
  5
DF
100
AcDbEntity
  8
A1
  6
CONTINUOUS
 62
7
100
AcDbLine
 10
47.61156167123055
 20
218.9565188599665
 30
0.000000000000000
 11
47.61156167123055
 21
219.4565188599664
 31
0.000000000000000
  0
LINE
  5
E0
100
AcDbEntity
  8
A1
  6
CONTINUOUS
 62
7
100
AcDbLine
 10
46.11156167123049
 20
218.9565188599665
 30
0.000000000000000
 11
46.11156167123049
 21
219.4565188599664
 31
0.000000000000000
  0
LINE
  5
E1
100
AcDbEntity
  8
A1
  6
CONTINUOUS
 62
7
100
AcDbLine
 10
62.11156167123049
 20
219.9565188599664
 30
0.000000000000000
 11
62.11156167123049
 21
219.4565188599664
 31
0.000000000000000
  0
LINE
  5
E2
100
AcDbEntity
  8
A1
  6
CONTINUOUS
 62
7
100
AcDbLine
 10
60.61156167123055
 20
219.9565188599664
 30
0.000000000000000
 11
60.61156167123055
 21
219.4565188599664
 31
0.000000000000000
  0
LINE
  5
E3
100
AcDbEntity
  8
A1
  6
CONTINUOUS
 62
7
100
AcDbLine
 10
60.61156167123055
 20
219.4565188599664
 30
0.000000000000000
 11
62.11156167123049
 21
219.4565188599664
 31
0.000000000000000
  0
LINE
  5
E4
100
AcDbEntity
  8
A1
  6
CONTINUOUS
 62
7
100
AcDbLine
 10
47.61156167123055
 20
219.4565188599664
 30
0.000000000000000
 11
47.61156167123055
 21
219.9565188599664
 31
0.000000000000000
  0
LINE
  5
E5
100
AcDbEntity
  8
A1
  6
CONTINUOUS
 62
7
100
AcDbLine
 10
46.11156167123049
 20
219.4565188599664
 30
0.000000000000000
 11
46.11156167123049
 21
219.9565188599664
 31
0.000000000000000
  0
LINE
  5
E6
100
AcDbEntity
  8
A1
  6
CONTINUOUS
 62
7
100
AcDbLine
 10
46.11156167123049
 20
219.4565188599664
 30
0.000000000000000
 11
47.61156167123055
 21
219.4565188599664
 31
0.000000000000000
  0
LINE
  5
E7
100
AcDbEntity
  8
A1
  6
CONTINUOUS
 62
7
100
AcDbLine
 10
46.11156167123049
 20
221.4565188599664
 30
0.000000000000000
 11
46.11156167123049
 21
224.4565188599664
 31
0.000000000000000
  0
LINE
  5
E8
100
AcDbEntity
  8
A1
  6
CONTINUOUS
 62
7
100
AcDbLine
 10
62.11156167123049
 20
224.4565188599664
 30
0.000000000000000
 11
62.11156167123049
 21
221.4565188599664
 31
0.000000000000000
  0
LINE
  5
E9
100
AcDbEntity
  8
A1
  6
CONTINUOUS
 62
7
100
AcDbLine
 10
47.61156167123055
 20
225.9565188599664
 30
0.000000000000000
 11
60.61156167123055
 21
225.9565188599664
 31
0.000000000000000
  0
LINE
  5
EA
100
AcDbEntity
  8
A1
  6
CONTINUOUS
 62
7
100
AcDbLine
 10
62.11156167123049
 20
221.4565188599664
 30
0.000000000000000
 11
62.11156167123049
 21
219.9565188599664
 31
0.000000000000000
  0
LINE
  5
EB
100
AcDbEntity
  8
A1
  6
CONTINUOUS
 62
7
100
AcDbLine
 10
46.11156167123049
 20
221.4565188599664
 30
0.000000000000000
 11
62.11156167123049
 21
221.4565188599664
 31
0.000000000000000
  0
LINE
  5
EC
100
AcDbEntity
  8
A1
  6
CONTINUOUS
 62
7
100
AcDbLine
 10
46.11156167123049
 20
219.9565188599664
 30
0.000000000000000
 11
46.11156167123049
 21
221.4565188599664
 31
0.000000000000000
  0
LINE
  5
ED
100
AcDbEntity
  8
A1
  6
CONTINUOUS
 62
7
100
AcDbLine
 10
46.11156167123049
 20
219.9565188599664
 30
0.000000000000000
 11
62.11156167123049
 21
219.9565188599664
 31
0.000000000000000
  0
SPLINE
  5
EE
100
AcDbEntity
  8
A1
  6
CONTINUOUS
 62
7
100
AcDbSpline
210
0.000000000000000
220
0.000000000000000
230
1.000000000000000
 70
     8
 71
     3
 72
    12
 73
     8
 74
     0
 42
1.000000000000000e-07
 43
1.000000000000000e-07
 12
0.9924400810173211
 22
-0.1227301331819035
 32
0.000000000000000
 13
0.8451198109578399
 23
-0.5345769403502345
 33
0.000000000000000
 40
0.000000000000000
 40
0.000000000000000
 40
0.000000000000000
 40
0.000000000000000
 40
0.06953948251043041
 40
0.1928805451414076
 40
0.3915833765803906
 40
0.4459577830562094
 40
0.4504303216958576
 40
0.4504303216958576
 40
0.4504303216958576
 40
0.4504303216958576
 10
45.71156167123056
 20
223.2065188599666
 30
0.000000000000000
 10
45.73456626111607
 20
223.2036739966499
 30
0.000000000000000
 10
45.79826469969797
 20
223.1913181337762
 30
0.000000000000000
 10
45.91423790580927
 20
223.1285147963657
 30
0.000000000000000
 10
46.02116588296883
 20
223.0637607344011
 30
0.000000000000000
 10
46.09372643578624
 20
223.0178048461048
 30
0.000000000000000
 10
46.11030172756065
 20
223.0073158319738
 30
0.000000000000000
 10
46.11156167123053
 20
223.0065188599665
 30
0.000000000000000
  0
SPLINE
  5
EF
100
AcDbEntity
  8
A1
  6
CONTINUOUS
 62
7
100
AcDbSpline
210
0.000000000000000
220
0.000000000000000
230
1.000000000000000
 70
     8
 71
     3
 72
    12
 73
     8
 74
     0
 42
1.000000000000000e-07
 43
1.000000000000000e-07
 12
0.8451198109396501
 22
0.5345769403502345
 32
0.000000000000000
 13
0.9924400810168663
 23
0.1227301331800845
 33
0.000000000000000
 40
0.000000000000000
 40
0.000000000000000
 40
0.000000000000000
 40
0.000000000000000
 40
0.004472538639624200
 40
0.05884694511547020
 40
0.2575497765544532
 40
0.3808908391854243
 40
0.4504303216958733
 40
0.4504303216958733
 40
0.4504303216958733
 40
0.4504303216958733
 10
62.11156167123053
 20
223.0065188599665
 30
0.000000000000000
 10
62.11282161490038
 20
223.0073158319738
 30
0.000000000000000
 10
62.12939690667477
 20
223.0178048461047
 30
0.000000000000000
 10
62.20195745949215
 20
223.0637607344014
 30
0.000000000000000
 10
62.30888543665182
 20
223.1285147963656
 30
0.000000000000000
 10
62.42485864276307
 20
223.1913181337763
 30
0.000000000000000
 10
62.48855708134499
 20
223.2036739966499
 30
0.000000000000000
 10
62.51156167123051
 20
223.2065188599665
 30
0.000000000000000
  0
SPLINE
  5
F0
100
AcDbEntity
  8
A1
  6
CONTINUOUS
 62
7
100
AcDbSpline
210
0.000000000000000
220
0.000000000000000
230
1.000000000000000
 70
     8
 71
     3
 72
    12
 73
     8
 74
     0
 42
1.000000000000000e-07
 43
1.000000000000000e-07
 12
-0.9924400810173211
 22
0.1227301331800845
 32
0.000000000000000
 13
-0.8451198109396501
 23
0.5345769403502345
 33
0.000000000000000
 40
0.000000000000000
 40
0.000000000000000
 40
0.000000000000000
 40
0.000000000000000
 40
0.06953948251042751
 40
0.1928805451413986
 40
0.3915833765803816
 40
0.4459577830562396
 40
0.4504303216958518
 40
0.4504303216958518
 40
0.4504303216958518
 40
0.4504303216958518
 10
62.51156167123048
 20
221.7065188599666
 30
0.000000000000000
 10
62.48855708134496
 20
221.7093637232832
 30
0.000000000000000
 10
62.42485864276310
 20
221.7217195861570
 30
0.000000000000000
 10
62.30888543665176
 20
221.7845229235674
 30
0.000000000000000
 10
62.20195745949229
 20
221.8492769855319
 30
0.000000000000000
 10
62.12939690667471
 20
221.8952328738285
 30
0.000000000000000
 10
62.11282161490038
 20
221.9057218879593
 30
0.000000000000000
 10
62.11156167123053
 20
221.9065188599666
 30
0.000000000000000
  0
SPLINE
  5
F1
100
AcDbEntity
  8
A1
  6
CONTINUOUS
 62
7
100
AcDbSpline
210
0.000000000000000
220
0.000000000000000
230
1.000000000000000
 70
     8
 71
     3
 72
    12
 73
     8
 74
     0
 42
1.000000000000000e-07
 43
1.000000000000000e-07
 12
-0.8451198109542020
 22
-0.5345769403502345
 32
0.000000000000000
 13
-0.9924400810159568
 23
-0.1227301331855415
 33
0.000000000000000
 40
0.000000000000000
 40
0.000000000000000
 40
0.000000000000000
 40
0.000000000000000
 40
0.004472538639648200
 40
0.05884694511546700
 40
0.2575497765544573
 40
0.3808908391854284
 40
0.4504303216959429
 40
0.4504303216959429
 40
0.4504303216959429
 40
0.4504303216959429
 10
46.11156167123053
 20
221.9065188599666
 30
0.000000000000000
 10
46.11030172756065
 20
221.9057218879593
 30
0.000000000000000
 10
46.09372643578624
 20
221.8952328738285
 30
0.000000000000000
 10
46.02116588296883
 20
221.8492769855319
 30
0.000000000000000
 10
45.91423790580919
 20
221.7845229235674
 30
0.000000000000000
 10
45.79826469969797
 20
221.7217195861570
 30
0.000000000000000
 10
45.73456626111602
 20
221.7093637232832
 30
0.000000000000000
 10
45.71156167123050
 20
221.7065188599665
 30
0.000000000000000
  0
LINE
  5
F2
100
AcDbEntity
  8
A1
  6
CONTINUOUS
 62
7
100
AcDbLine
 10
46.11156167123055
 20
212.9565188599665
 30
0.000000000000000
 11
45.61156167123049
 21
212.9565188599665
 31
0.000000000000000
  0
LINE
  5
F3
100
AcDbEntity
  8
A1
  6
CONTINUOUS
 62
7
100
AcDbLine
 10
45.61156167123049
 20
214.4565188599665
 30
0.000000000000000
 11
46.11156167123055
 21
214.4565188599665
 31
0.000000000000000
  0
LINE
  5
F4
100
AcDbEntity
  8
A1
  6
CONTINUOUS
 62
7
100
AcDbLine
 10
45.61156167123049
 20
212.9565188599665
 30
0.000000000000000
 11
45.61156167123049
 21
214.4565188599665
 31
0.000000000000000
  0
LINE
  5
F5
100
AcDbEntity
  8
A1
  6
CONTINUOUS
 62
7
100
AcDbLine
 10
46.11156167123055
 20
212.9565188599665
 30
0.000000000000000
 11
47.86156167123049
 21
212.9565188599665
 31
0.000000000000000
  0
LINE
  5
F6
100
AcDbEntity
  8
A1
  6
CONTINUOUS
 62
7
100
AcDbLine
 10
47.86156167123049
 20
214.4565188599595
 30
0.000000000000000
 11
47.61156167123049
 21
214.4565188599665
 31
0.000000000000000
  0
LINE
  5
F7
100
AcDbEntity
  8
A1
  6
CONTINUOUS
 62
7
100
AcDbLine
 10
46.11156167123055
 20
213.1565188599663
 30
0.000000000000000
 11
46.11156167123055
 21
212.9565188599665
 31
0.000000000000000
  0
LINE
  5
F8
100
AcDbEntity
  8
A1
  6
CONTINUOUS
 62
7
100
AcDbLine
 10
62.61156167123049
 20
212.9565188599665
 30
0.000000000000000
 11
62.11156167123055
 21
212.9565188599665
 31
0.000000000000000
  0
LINE
  5
F9
100
AcDbEntity
  8
A1
  6
CONTINUOUS
 62
7
100
AcDbLine
 10
62.11156167123055
 20
214.4565188599595
 30
0.000000000000000
 11
62.61156167123049
 21
214.4565188599595
 31
0.000000000000000
  0
LINE
  5
FA
100
AcDbEntity
  8
A1
  6
CONTINUOUS
 62
7
100
AcDbLine
 10
62.61156167123049
 20
214.4565188599665
 30
0.000000000000000
 11
62.61156167123049
 21
212.9565188599665
 31
0.000000000000000
  0
LINE
  5
FB
100
AcDbEntity
  8
A1
  6
CONTINUOUS
 62
7
100
AcDbLine
 10
62.11156167123055
 20
212.9565188599665
 30
0.000000000000000
 11
60.36156167123049
 21
212.9565188599665
 31
0.000000000000000
  0
LINE
  5
FC
100
AcDbEntity
  8
A1
  6
CONTINUOUS
 62
7
100
AcDbLine
 10
60.36156167123049
 20
214.4565188599595
 30
0.000000000000000
 11
60.61156167123055
 21
214.4565188599665
 31
0.000000000000000
  0
LINE
  5
FD
100
AcDbEntity
  8
A1
  6
CONTINUOUS
 62
7
100
AcDbLine
 10
62.11156167123055
 20
212.9565188599665
 30
0.000000000000000
 11
62.11156167123055
 21
213.1565188599663
 31
0.000000000000000
  0
LINE
  5
FE
100
AcDbEntity
  8
A1
  6
CONTINUOUS
 62
7
100
AcDbLine
 10
60.36156167123052
 20
213.4923374453858
 30
0.000000000000000
 11
60.36156167123052
 21
212.9565188599665
 31
0.000000000000000
  0
LINE
  5
FF
100
AcDbEntity
  8
A1
  6
CONTINUOUS
 62
7
100
AcDbLine
 10
47.86156167123043
 20
213.4923374453858
 30
0.000000000000000
 11
47.86156167123043
 21
212.9565188599665
 31
0.000000000000000
  0
LINE
  5
100
100
AcDbEntity
  8
A1
  6
CONTINUOUS
 62
7
100
AcDbLine
 10
47.86156167123043
 20
212.9565188599665
 30
0.000000000000000
 11
60.36156167123052
 21
212.9565188599665
 31
0.000000000000000
  0
LINE
  5
101
100
AcDbEntity
  8
A1
  6
CONTINUOUS
 62
7
100
AcDbLine
 10
60.36156167123052
 20
218.9565188599665
 30
0.000000000000000
 11
60.36156167123052
 21
219.9565188599664
 31
0.000000000000000
  0
LINE
  5
102
100
AcDbEntity
  8
A1
  6
CONTINUOUS
 62
7
100
AcDbLine
 10
60.36156167123052
 20
213.4923374454366
 30
0.000000000000000
 11
60.36156167123052
 21
216.9565188599665
 31
0.000000000000000
  0
LINE
  5
103
100
AcDbEntity
  8
A1
  6
CONTINUOUS
 62
7
100
AcDbLine
 10
47.86156167123043
 20
218.9565188599665
 30
0.000000000000000
 11
47.86156167123043
 21
219.9565188599664
 31
0.000000000000000
  0
LINE
  5
104
100
AcDbEntity
  8
A1
  6
CONTINUOUS
 62
7
100
AcDbLine
 10
47.86156167123043
 20
213.4923374454366
 30
0.000000000000000
 11
47.86156167123043
 21
216.9565188599665
 31
0.000000000000000
  0
LINE
  5
105
100
AcDbEntity
  8
A1
  6
CONTINUOUS
 62
7
100
AcDbLine
 10
47.86156167123043
 20
213.4923374454366
 30
0.000000000000000
 11
60.36156167123052
 21
213.4923374454366
 31
0.000000000000000
  0
LINE
  5
106
100
AcDbEntity
  8
A1
  6
CONTINUOUS
 62
7
100
AcDbLine
 10
62.11156167123049
 20
223.2065188599665
 30
0.000000000000000
 11
62.51156167123052
 21
223.2065188599665
 31
0.000000000000000
  0
LINE
  5
107
100
AcDbEntity
  8
A1
  6
CONTINUOUS
 62
7
100
AcDbLine
 10
45.71156167123057
 20
223.2065188599666
 30
0.000000000000000
 11
46.11156167123049
 21
223.2065188599666
 31
0.000000000000000
  0
LINE
  5
108
100
AcDbEntity
  8
A1
  6
CONTINUOUS
 62
7
100
AcDbLine
 10
45.61156167123049
 20
223.2065188599665
 30
0.000000000000000
 11
45.71156167123051
 21
223.2065188599665
 31
0.000000000000000
  0
LINE
  5
109
100
AcDbEntity
  8
A1
  6
CONTINUOUS
 62
7
100
AcDbLine
 10
45.61156167123049
 20
221.7065188599665
 30
0.000000000000000
 11
45.61156167123049
 21
223.2065188599665
 31
0.000000000000000
  0
LINE
  5
10A
100
AcDbEntity
  8
A1
  6
CONTINUOUS
 62
7
100
AcDbLine
 10
45.71156167123051
 20
221.7065188599665
 30
0.000000000000000
 11
45.61156167123049
 21
221.7065188599665
 31
0.000000000000000
  0
LINE
  5
10B
100
AcDbEntity
  8
A1
  6
CONTINUOUS
 62
7
100
AcDbLine
 10
62.61156167123055
 20
221.7065188599665
 30
0.000000000000000
 11
62.51156167123052
 21
221.7065188599665
 31
0.000000000000000
  0
LINE
  5
10C
100
AcDbEntity
  8
A1
  6
CONTINUOUS
 62
7
100
AcDbLine
 10
62.61156167123049
 20
223.2065188599665
 30
0.000000000000000
 11
62.61156167123049
 21
221.7065188599665
 31
0.000000000000000
  0
LINE
  5
10D
100
AcDbEntity
  8
A1
  6
CONTINUOUS
 62
7
100
AcDbLine
 10
62.51156167123052
 20
223.2065188599665
 30
0.000000000000000
 11
62.61156167123055
 21
223.2065188599665
 31
0.000000000000000
  0
LINE
  5
10E
100
AcDbEntity
  8
A1
  6
CONTINUOUS
 62
7
100
AcDbLine
 10
62.11156167123049
 20
221.7065188599666
 30
0.000000000000000
 11
62.51156167123050
 21
221.7065188599666
 31
0.000000000000000
  0
LINE
  5
10F
100
AcDbEntity
  8
A1
  6
CONTINUOUS
 62
7
100
AcDbLine
 10
45.71156167123048
 20
221.7065188599665
 30
0.000000000000000
 11
46.11156167123046
 21
221.7065188599666
 31
0.000000000000000
  0
ARC
  5
110
100
AcDbEntity
  8
A1
  6
CONTINUOUS
 62
7
100
AcDbCircle
 10
68.35718337275193
 20
217.9565188599665
 30
0.000000000000000
 40
1.000000000000000
100
AcDbArc
 50
270.0000000000000
 51
450.0000000000000
  0
ARC
  5
111
100
AcDbEntity
  8
A1
  6
CONTINUOUS
 62
7
100
AcDbCircle
 10
39.85718337275185
 20
217.9565188599665
 30
0.000000000000000
 40
1.000000000000000
100
AcDbArc
 50
90.00000000000000
 51
270.0000000000000
  0
LINE
  5
112
100
AcDbEntity
  8
A1
  6
CONTINUOUS
 62
7
100
AcDbLine
 10
64.79605931566219
 20
216.9565188599665
 30
0.000000000000000
 11
68.35718337275195
 21
216.9565188599665
 31
0.000000000000000
  0
LINE
  5
113
100
AcDbEntity
  8
A1
  6
CONTINUOUS
 62
7
100
AcDbLine
 10
68.35718337275195
 20
218.9565188599665
 30
0.000000000000000
 11
64.79605931566219
 21
218.9565188599665
 31
0.000000000000000
  0
LINE
  5
114
100
AcDbEntity
  8
A1
  6
CONTINUOUS
 62
7
100
AcDbLine
 10
39.85718337275186
 20
216.9565188599665
 30
0.000000000000000
 11
43.41830742984165
 21
216.9565188599665
 31
0.000000000000000
  0
LINE
  5
115
100
AcDbEntity
  8
A1
  6
CONTINUOUS
 62
7
100
AcDbLine
 10
43.41830742984165
 20
218.9565188599665
 30
0.000000000000000
 11
39.85718337275186
 21
218.9565188599665
 31
0.000000000000000
  0
LINE
  5
116
100
AcDbEntity
  8
A1
  6
CONTINUOUS
 62
7
100
AcDbLine
 10
62.97442153370231
 20
216.9565188599665
 30
0.000000000000000
 11
64.79605931566211
 21
216.9565188599665
 31
0.000000000000000
  0
LINE
  5
117
100
AcDbEntity
  8
A1
  6
CONTINUOUS
 62
7
100
AcDbLine
 10
64.79605931566211
 20
218.9565188599665
 30
0.000000000000000
 11
62.97442153370231
 21
218.9565188599665
 31
0.000000000000000
  0
LINE
  5
118
100
AcDbEntity
  8
A1
  6
CONTINUOUS
 62
7
100
AcDbLine
 10
43.41830742984173
 20
216.9565188599665
 30
0.000000000000000
 11
45.23994521180153
 21
216.9565188599665
 31
0.000000000000000
  0
LINE
  5
119
100
AcDbEntity
  8
A1
  6
CONTINUOUS
 62
7
100
AcDbLine
 10
45.23994521180153
 20
218.9565188599665
 30
0.000000000000000
 11
43.41830742984173
 21
218.9565188599665
 31
0.000000000000000
  0
LINE
  5
11A
100
AcDbEntity
  8
A1
  6
CONTINUOUS
 62
7
100
AcDbLine
 10
45.23994521180153
 20
216.9565188599665
 30
0.000000000000000
 11
62.97442153370231
 21
216.9565188599665
 31
0.000000000000000
  0
LINE
  5
11B
100
AcDbEntity
  8
A1
  6
CONTINUOUS
 62
7
100
AcDbLine
 10
62.97442153370231
 20
218.9565188599665
 30
0.000000000000000
 11
45.23994521180153
 21
218.9565188599665
 31
0.000000000000000
  0
SPLINE
  5
11C
100
AcDbEntity
  8
A1
  6
CONTINUOUS
 62
7
100
AcDbSpline
210
0.000000000000000
220
0.000000000000000
230
1.000000000000000
 70
     8
 71
     3
 72
    47
 73
    43
 74
     0
 42
1.000000000000000e-07
 43
1.000000000000000e-07
 12
-0.001559965012347675
 22
-0.9999987832538864
 32
0.000000000000000
 13
-0.001453618476148222
 23
0.9999989434961662
 33
0.000000000000000
 40
0.000000000000000
 40
0.000000000000000
 40
0.000000000000000
 40
0.000000000000000
 40
0.6083915706794824
 40
1.222185556776185
 40
1.848983514108863
 40
2.480502643850773
 40
3.091200613561310
 40
3.705696257466196
 40
4.335766164639044
 40
4.970472784550454
 40
5.502099263438400
 40
6.043504446324187
 40
6.584802979898846
 40
7.137254560103276
 40
7.648166667143212
 40
8.169035748060034
 40
8.691065278373655
 40
9.223497407922805
 40
9.605174321626142
 40
9.990801858701607
 40
10.37673818156865
 40
10.76641490400766
 40
11.29242611150186
 40
11.82735747238534
 40
12.36150918879506
 40
12.90423433452577
 40
13.42685508917676
 40
13.95778620976370
 40
14.48768302174451
 40
15.02670279431031
 40
15.54085192651663
 40
16.06452996272839
 40
16.58879941951536
 40
17.12375792005623
 40
17.63693050939431
 40
18.15984800863837
 40
18.68393656286091
 40
19.21740981181696
 40
19.78867203308081
 40
20.36853870817709
 40
20.94752534833106
 40
21.53299320818246
 40
21.53299320818246
 40
21.53299320818246
 40
21.53299320818246
 10
151.5016934827501
 20
128.8910459414969
 30
0.000000000000000
 10
151.5013771262287
 20
128.6882489980231
 30
0.000000000000000
 10
151.5140675237898
 20
128.2807287601318
 30
0.000000000000000
 10
151.5724121863508
 20
127.6667309278057
 30
0.000000000000000
 10
151.6758872914122
 20
127.0507287241152
 30
0.000000000000000
 10
151.8267948341895
 20
126.4455686991837
 30
0.000000000000000
 10
152.0259815906052
 20
125.8588237663055
 30
0.000000000000000
 10
152.2752959762002
 20
125.2919743880959
 30
0.000000000000000
 10
152.5803945082122
 20
124.7437530532268
 30
0.000000000000000
 10
152.9226782748316
 20
124.2511316280260
 30
0.000000000000000
 10
153.2905744505354
 20
123.8158321398601
 30
0.000000000000000
 10
153.6734093252515
 20
123.4366492646674
 30
0.000000000000000
 10
154.0937661690001
 20
123.0885641612257
 30
0.000000000000000
 10
154.5354347014766
 20
122.7855271442626
 30
0.000000000000000
 10
154.9955017119603
 20
122.5250987092466
 30
0.000000000000000
 10
155.4663037375196
 20
122.3077976401152
 30
0.000000000000000
 10
155.9599364386405
 20
122.1270777842202
 30
0.000000000000000
 10
156.4218886522686
 20
121.9994112871299
 30
0.000000000000000
 10
156.8466586788430
 20
121.9130302037964
 30
0.000000000000000
 10
157.2273518690467
 20
121.8581486591804
 30
0.000000000000000
 10
157.6132120104346
 20
121.8248720408197
 30
0.000000000000000
 10
158.0471323619859
 20
121.8124144421415
 30
0.000000000000000
 10
158.5308167664228
 20
121.8311514398465
 30
0.000000000000000
 10
159.0594093955850
 20
121.8934522378616
 30
0.000000000000000
 10
159.5868696751284
 20
121.9986235449230
 30
0.000000000000000
 10
160.1000859045625
 20
122.1453676512367
 30
0.000000000000000
 10
160.5985159521553
 20
122.3332775846740
 30
0.000000000000000
 10
161.0758183018609
 20
122.5600718805250
 30
0.000000000000000
 10
161.5369761202400
 20
122.8291704194637
 30
0.000000000000000
 10
161.9683886052590
 20
123.1342520142389
 30
0.000000000000000
 10
162.3701664705305
 20
123.4741117739893
 30
0.000000000000000
 10
162.7378069144945
 20
123.8437690622792
 30
0.000000000000000
 10
163.0769202830676
 20
124.2488323195334
 30
0.000000000000000
 10
163.3779734593342
 20
124.6786753790678
 30
0.000000000000000
 10
163.6422899555401
 20
125.1313949013594
 30
0.000000000000000
 10
163.8683747851227
 20
125.6003302718049
 30
0.000000000000000
 10
164.0606299031453
 20
126.0913466149026
 30
0.000000000000000
 10
164.2210139104013
 20
126.6105494514775
 30
0.000000000000000
 10
164.3476859152370
 20
127.1581148617600
 30
0.000000000000000
 10
164.4377915333660
 20
127.7282058232547
 30
0.000000000000000
 10
164.4903677482259
 20
128.3076263287904
 30
0.000000000000000
 10
164.5019771650495
 20
128.6958901943961
 30
0.000000000000000
 10
164.5016934827501
 20
128.8910459414969
 30
0.000000000000000
  0
LINE
  5
11D
100
AcDbEntity
  8
A1
  6
CONTINUOUS
 62
7
100
AcDbLine
 10
164.5016934827499
 20
137.6971239744744
 30
0.000000000000000
 11
164.5016934827499
 21
137.8326682894159
 31
0.000000000000000
  0
LINE
  5
11E
100
AcDbEntity
  8
A1
  6
CONTINUOUS
 62
7
100
AcDbLine
 10
151.5016934827499
 20
137.6971239744744
 30
0.000000000000000
 11
151.5016934827499
 21
137.8326682894159
 31
0.000000000000000
  0
LINE
  5
11F
100
AcDbEntity
  8
A1
  6
CONTINUOUS
 62
7
100
AcDbLine
 10
151.5016934827499
 20
128.8910459414984
 30
0.000000000000000
 11
151.5016934827499
 21
137.6971239744744
 31
0.000000000000000
  0
LINE
  5
120
100
AcDbEntity
  8
A1
  6
CONTINUOUS
 62
7
100
AcDbLine
 10
164.5016934827499
 20
128.8910459414984
 30
0.000000000000000
 11
164.5016934827499
 21
137.6971239744744
 31
0.000000000000000
  0
LINE
  5
121
100
AcDbEntity
  8
A1
  6
CONTINUOUS
 62
7
100
AcDbLine
 10
164.2516934827499
 20
137.6971239744744
 30
0.000000000000000
 11
164.5016934827499
 21
137.6971239744744
 31
0.000000000000000
  0
LINE
  5
122
100
AcDbEntity
  8
A1
  6
CONTINUOUS
 62
7
100
AcDbLine
 10
151.5016934827499
 20
137.6971239744744
 30
0.000000000000000
 11
151.7516934827499
 21
137.6971239744744
 31
0.000000000000000
  0
LINE
  5
123
100
AcDbEntity
  8
A1
  6
CONTINUOUS
 62
7
100
AcDbLine
 10
166.0016934827499
 20
163.8326682894160
 30
0.000000000000000
 11
166.0016934827499
 21
162.3326682894162
 31
0.000000000000000
  0
LINE
  5
124
100
AcDbEntity
  8
A1
  6
CONTINUOUS
 62
7
100
AcDbLine
 10
150.0016934827498
 20
163.8326682894160
 30
0.000000000000000
 11
166.0016934827499
 21
163.8326682894160
 31
0.000000000000000
  0
LINE
  5
125
100
AcDbEntity
  8
A1
  6
CONTINUOUS
 62
7
100
AcDbLine
 10
150.0016934827498
 20
162.3326682894162
 30
0.000000000000000
 11
150.0016934827498
 21
163.8326682894160
 31
0.000000000000000
  0
LINE
  5
126
100
AcDbEntity
  8
A1
  6
CONTINUOUS
 62
7
100
AcDbLine
 10
151.5016934827499
 20
162.3326682894162
 30
0.000000000000000
 11
164.5016934827499
 21
162.3326682894162
 31
0.000000000000000
  0
LINE
  5
127
100
AcDbEntity
  8
A1
  6
CONTINUOUS
 62
7
100
AcDbLine
 10
150.0016934827498
 20
148.8326682894163
 30
0.000000000000000
 11
150.0016934827498
 21
150.8326682894162
 31
0.000000000000000
  0
LINE
  5
128
100
AcDbEntity
  8
A1
  6
CONTINUOUS
 62
7
100
AcDbLine
 10
151.5016934827499
 20
148.8326682894163
 30
0.000000000000000
 11
151.5016934827499
 21
150.8326682894162
 31
0.000000000000000
  0
LINE
  5
129
100
AcDbEntity
  8
A1
  6
CONTINUOUS
 62
7
100
AcDbLine
 10
166.0016934827499
 20
138.3326682894164
 30
0.000000000000000
 11
166.0016934827499
 21
137.8326682894159
 31
0.000000000000000
  0
LINE
  5
12A
100
AcDbEntity
  8
A1
  6
CONTINUOUS
 62
7
100
AcDbLine
 10
164.5016934827499
 20
138.3326682894164
 30
0.000000000000000
 11
164.5016934827499
 21
137.8326682894159
 31
0.000000000000000
  0
LINE
  5
12B
100
AcDbEntity
  8
A1
  6
CONTINUOUS
 62
7
100
AcDbLine
 10
164.5016934827499
 20
137.8326682894159
 30
0.000000000000000
 11
166.0016934827499
 21
137.8326682894159
 31
0.000000000000000
  0
LINE
  5
12C
100
AcDbEntity
  8
A1
  6
CONTINUOUS
 62
7
100
AcDbLine
 10
166.0016934827499
 20
150.8326682894162
 30
0.000000000000000
 11
166.0016934827499
 21
148.8326682894163
 31
0.000000000000000
  0
LINE
  5
12D
100
AcDbEntity
  8
A1
  6
CONTINUOUS
 62
7
100
AcDbLine
 10
164.5016934827499
 20
150.8326682894162
 30
0.000000000000000
 11
164.5016934827499
 21
148.8326682894163
 31
0.000000000000000
  0
LINE
  5
12E
100
AcDbEntity
  8
A1
  6
CONTINUOUS
 62
7
100
AcDbLine
 10
150.0016934827498
 20
137.8326682894159
 30
0.000000000000000
 11
150.0016934827498
 21
138.3326682894164
 31
0.000000000000000
  0
LINE
  5
12F
100
AcDbEntity
  8
A1
  6
CONTINUOUS
 62
7
100
AcDbLine
 10
151.5016934827499
 20
137.8326682894159
 30
0.000000000000000
 11
151.5016934827499
 21
138.3326682894164
 31
0.000000000000000
  0
LINE
  5
130
100
AcDbEntity
  8
A1
  6
CONTINUOUS
 62
7
100
AcDbLine
 10
150.0016934827498
 20
137.8326682894159
 30
0.000000000000000
 11
151.5016934827499
 21
137.8326682894159
 31
0.000000000000000
  0
LINE
  5
131
100
AcDbEntity
  8
A1
  6
CONTINUOUS
 62
7
100
AcDbLine
 10
166.0016934827499
 20
152.1326682894161
 30
0.000000000000000
 11
166.0016934827499
 21
150.8326682894162
 31
0.000000000000000
  0
LINE
  5
132
100
AcDbEntity
  8
A1
  6
CONTINUOUS
 62
7
100
AcDbLine
 10
164.5016934827499
 20
152.1326682894161
 30
0.000000000000000
 11
164.5016934827499
 21
150.8326682894162
 31
0.000000000000000
  0
LINE
  5
133
100
AcDbEntity
  8
A1
  6
CONTINUOUS
 62
7
100
AcDbLine
 10
164.5016934827499
 20
150.8326682894162
 30
0.000000000000000
 11
166.0016934827499
 21
150.8326682894162
 31
0.000000000000000
  0
LINE
  5
134
100
AcDbEntity
  8
A1
  6
CONTINUOUS
 62
7
100
AcDbLine
 10
150.0016934827498
 20
150.8326682894162
 30
0.000000000000000
 11
150.0016934827498
 21
152.1326682894161
 31
0.000000000000000
  0
LINE
  5
135
100
AcDbEntity
  8
A1
  6
CONTINUOUS
 62
7
100
AcDbLine
 10
151.5016934827499
 20
150.8326682894162
 30
0.000000000000000
 11
151.5016934827499
 21
152.1326682894161
 31
0.000000000000000
  0
LINE
  5
136
100
AcDbEntity
  8
A1
  6
CONTINUOUS
 62
7
100
AcDbLine
 10
150.0016934827498
 20
150.8326682894162
 30
0.000000000000000
 11
151.5016934827499
 21
150.8326682894162
 31
0.000000000000000
  0
LINE
  5
137
100
AcDbEntity
  8
A1
  6
CONTINUOUS
 62
7
100
AcDbLine
 10
150.0016934827498
 20
157.3326682894160
 30
0.000000000000000
 11
150.0016934827498
 21
162.3326682894160
 31
0.000000000000000
  0
LINE
  5
138
100
AcDbEntity
  8
A1
  6
CONTINUOUS
 62
7
100
AcDbLine
 10
151.5016934827499
 20
157.3326682894160
 30
0.000000000000000
 11
151.5016934827499
 21
162.3326682894160
 31
0.000000000000000
  0
LINE
  5
139
100
AcDbEntity
  8
A1
  6
CONTINUOUS
 62
7
100
AcDbLine
 10
150.0016934827498
 20
162.3326682894160
 30
0.000000000000000
 11
151.5016934827499
 21
162.3326682894160
 31
0.000000000000000
  0
LINE
  5
13A
100
AcDbEntity
  8
A1
  6
CONTINUOUS
 62
7
100
AcDbLine
 10
166.0016934827499
 20
157.3326682894160
 30
0.000000000000000
 11
166.0016934827499
 21
152.1326682894161
 31
0.000000000000000
  0
LINE
  5
13B
100
AcDbEntity
  8
A1
  6
CONTINUOUS
 62
7
100
AcDbLine
 10
164.5016934827499
 20
157.3326682894160
 30
0.000000000000000
 11
164.5016934827499
 21
152.1326682894161
 31
0.000000000000000
  0
LINE
  5
13C
100
AcDbEntity
  8
A1
  6
CONTINUOUS
 62
7
100
AcDbLine
 10
164.5016934827499
 20
152.1326682894161
 30
0.000000000000000
 11
166.0016934827499
 21
152.1326682894161
 31
0.000000000000000
  0
LINE
  5
13D
100
AcDbEntity
  8
A1
  6
CONTINUOUS
 62
7
100
AcDbLine
 10
151.5016934827499
 20
152.1326682894161
 30
0.000000000000000
 11
151.5016934827499
 21
157.3326682894160
 31
0.000000000000000
  0
LINE
  5
13E
100
AcDbEntity
  8
A1
  6
CONTINUOUS
 62
7
100
AcDbLine
 10
150.0016934827498
 20
157.3326682894160
 30
0.000000000000000
 11
151.5016934827499
 21
157.3326682894160
 31
0.000000000000000
  0
LINE
  5
13F
100
AcDbEntity
  8
A1
  6
CONTINUOUS
 62
7
100
AcDbLine
 10
150.0016934827498
 20
152.1326682894161
 30
0.000000000000000
 11
150.0016934827498
 21
157.3326682894160
 31
0.000000000000000
  0
LINE
  5
140
100
AcDbEntity
  8
A1
  6
CONTINUOUS
 62
7
100
AcDbLine
 10
150.0016934827498
 20
152.1326682894161
 30
0.000000000000000
 11
151.5016934827499
 21
152.1326682894161
 31
0.000000000000000
  0
LINE
  5
141
100
AcDbEntity
  8
A1
  6
CONTINUOUS
 62
7
100
AcDbLine
 10
166.0016934827499
 20
162.3326682894160
 30
0.000000000000000
 11
166.0016934827499
 21
157.3326682894161
 31
0.000000000000000
  0
LINE
  5
142
100
AcDbEntity
  8
A1
  6
CONTINUOUS
 62
7
100
AcDbLine
 10
164.5016934827499
 20
162.3326682894162
 30
0.000000000000000
 11
166.0016934827499
 21
162.3326682894162
 31
0.000000000000000
  0
LINE
  5
143
100
AcDbEntity
  8
A1
  6
CONTINUOUS
 62
7
100
AcDbLine
 10
164.5016934827499
 20
162.3326682894160
 30
0.000000000000000
 11
164.5016934827499
 21
157.3326682894161
 31
0.000000000000000
  0
LINE
  5
144
100
AcDbEntity
  8
A1
  6
CONTINUOUS
 62
7
100
AcDbLine
 10
164.5016934827499
 20
157.3326682894160
 30
0.000000000000000
 11
166.0016934827499
 21
157.3326682894160
 31
0.000000000000000
  0
CIRCLE
  5
145
100
AcDbEntity
  8
A1
  6
CONTINUOUS
 62
7
100
AcDbCircle
 10
158.0016934827499
 20
143.3326682894164
 30
0.000000000000000
 40
1.650000000000000
  0
CIRCLE
  5
146
100
AcDbEntity
  8
A1
  6
CONTINUOUS
 62
7
100
AcDbCircle
 10
158.0016934827499
 20
129.3326682894164
 30
0.000000000000000
 40
1.650000000000000
  0
ARC
  5
147
100
AcDbEntity
  8
A1
  6
CONTINUOUS
 62
7
100
AcDbCircle
 10
166.0016934827602
 20
161.3326682894368
 30
0.000000000000000
 40
0.4999999999794645
100
AcDbArc
 50
36.86989764466767
 51
90.00000000117166
  0
ARC
  5
148
100
AcDbEntity
  8
A1
  6
CONTINUOUS
 62
7
100
AcDbCircle
 10
150.0016934827438
 20
161.3326682894283
 30
0.000000000000000
 40
0.4999999999879314
100
AcDbArc
 50
89.99999999930446
 51
143.1301023548472
  0
ARC
  5
149
100
AcDbEntity
  8
A1
  6
CONTINUOUS
 62
7
100
AcDbCircle
 10
166.0016934827499
 20
159.3326682894163
 30
0.000000000000000
 40
0.5000000000000000
100
AcDbArc
 50
270.0000000000063
 51
360.0000000000000
  0
ARC
  5
14A
100
AcDbEntity
  8
A1
  6
CONTINUOUS
 62
7
100
AcDbCircle
 10
166.0016934827499
 20
161.3326682894162
 30
0.000000000000000
 40
0.5000000000000000
100
AcDbArc
 50
0.000000000000000
 51
36.86989764584808
  0
ARC
  5
14B
100
AcDbEntity
  8
A1
  6
CONTINUOUS
 62
7
100
AcDbCircle
 10
150.0016934827499
 20
161.3326682894162
 30
0.000000000000000
 40
0.5000000000000000
100
AcDbArc
 50
143.1301023541544
 51
180.0000000000000
  0
ARC
  5
14C
100
AcDbEntity
  8
A1
  6
CONTINUOUS
 62
7
100
AcDbCircle
 10
150.0016934827499
 20
159.3326682894163
 30
0.000000000000000
 40
0.5000000000000000
100
AcDbArc
 50
180.0000000000000
 51
270.0000000000047
  0
ARC
  5
14D
100
AcDbEntity
  8
A1
  6
CONTINUOUS
 62
7
100
AcDbCircle
 10
151.2516934827499
 20
158.3326682894163
 30
0.000000000000000
 40
0.5000000000000000
100
AcDbArc
 50
2.036000000000000e-13
 51
59.99999999999367
  0
ARC
  5
14E
100
AcDbEntity
  8
A1
  6
CONTINUOUS
 62
7
100
AcDbCircle
 10
164.7516934827499
 20
158.3326682894163
 30
0.000000000000000
 40
0.5000000000000000
100
AcDbArc
 50
119.9999999999919
 51
180.0000000000000
  0
ARC
  5
14F
100
AcDbEntity
  8
A1
  6
CONTINUOUS
 62
7
100
AcDbCircle
 10
166.0016934827499
 20
148.3326682894163
 30
0.000000000000000
 40
0.5000000000000000
100
AcDbArc
 50
0.000000000000000
 51
89.99999999999369
  0
ARC
  5
150
100
AcDbEntity
  8
A1
  6
CONTINUOUS
 62
7
100
AcDbCircle
 10
166.0016934827499
 20
138.8326682894164
 30
0.000000000000000
 40
0.5000000000000000
100
AcDbArc
 50
270.0000000000063
 51
360.0000000000000
  0
ARC
  5
151
100
AcDbEntity
  8
A1
  6
CONTINUOUS
 62
7
100
AcDbCircle
 10
150.0016934827499
 20
148.3326682894163
 30
0.000000000000000
 40
0.5000000000000000
100
AcDbArc
 50
89.99999999999551
 51
180.0000000000000
  0
ARC
  5
152
100
AcDbEntity
  8
A1
  6
CONTINUOUS
 62
7
100
AcDbCircle
 10
150.0016934827499
 20
138.8326682894164
 30
0.000000000000000
 40
0.5000000000000000
100
AcDbArc
 50
180.0000000000000
 51
270.0000000000047
  0
ARC
  5
153
100
AcDbEntity
  8
A1
  6
CONTINUOUS
 62
7
100
AcDbCircle
 10
154.7516934827498
 20
128.3326682894164
 30
0.000000000000000
 40
3.000000000000000
100
AcDbArc
 50
180.0000000000000
 51
270.0000000000000
  0
ARC
  5
154
100
AcDbEntity
  8
A1
  6
CONTINUOUS
 62
7
100
AcDbCircle
 10
161.2516934827499
 20
128.3326682894164
 30
0.000000000000000
 40
3.000000000000000
100
AcDbArc
 50
270.0000000000007
 51
360.0000000000000
  0
LINE
  5
155
100
AcDbEntity
  8
A1
  6
CONTINUOUS
 62
7
100
AcDbLine
 10
151.5016934827499
 20
161.8326682894163
 30
0.000000000000000
 11
164.5016934827499
 21
161.8326682894163
 31
0.000000000000000
  0
LINE
  5
156
100
AcDbEntity
  8
A1
  6
CONTINUOUS
 62
7
100
AcDbLine
 10
151.7516934827498
 20
157.3326682892907
 30
0.000000000000000
 11
151.7516934827498
 21
158.3326682894163
 31
0.000000000000000
  0
LINE
  5
157
100
AcDbEntity
  8
A1
  6
CONTINUOUS
 62
7
100
AcDbLine
 10
164.2516934827499
 20
157.3326682892907
 30
0.000000000000000
 11
164.2516934827499
 21
158.3326682894163
 31
0.000000000000000
  0
LINE
  5
158
100
AcDbEntity
  8
A1
  6
CONTINUOUS
 62
7
100
AcDbLine
 10
166.5016934827499
 20
159.3326682894163
 30
0.000000000000000
 11
166.5016934827499
 21
161.3326682894162
 31
0.000000000000000
  0
LINE
  5
159
100
AcDbEntity
  8
A1
  6
CONTINUOUS
 62
7
100
AcDbLine
 10
166.0016934827499
 20
161.6326682894163
 30
0.000000000000000
 11
166.4016934827499
 21
161.6326682894163
 31
0.000000000000000
  0
LINE
  5
15A
100
AcDbEntity
  8
A1
  6
CONTINUOUS
 62
7
100
AcDbLine
 10
151.5016934827499
 20
161.6326682894163
 30
0.000000000000000
 11
164.5016934827499
 21
161.6326682894163
 31
0.000000000000000
  0
LINE
  5
15B
100
AcDbEntity
  8
A1
  6
CONTINUOUS
 62
7
100
AcDbLine
 10
149.6016934827499
 20
161.6326682894163
 30
0.000000000000000
 11
150.0016934827498
 21
161.6326682894163
 31
0.000000000000000
  0
LINE
  5
15C
100
AcDbEntity
  8
A1
  6
CONTINUOUS
 62
7
100
AcDbLine
 10
149.5016934827499
 20
159.3326682894163
 30
0.000000000000000
 11
149.5016934827499
 21
161.3326682894162
 31
0.000000000000000
  0
LINE
  5
15D
100
AcDbEntity
  8
A1
  6
CONTINUOUS
 62
7
100
AcDbLine
 10
151.7516934827498
 20
150.4401516939914
 30
0.000000000000000
 11
151.7516934827498
 21
157.3326682892907
 31
0.000000000000000
  0
LINE
  5
15E
100
AcDbEntity
  8
A1
  6
CONTINUOUS
 62
7
100
AcDbLine
 10
164.2516934827499
 20
150.4401516939914
 30
0.000000000000000
 11
164.2516934827499
 21
157.3326682892907
 31
0.000000000000000
  0
LINE
  5
15F
100
AcDbEntity
  8
A1
  6
CONTINUOUS
 62
7
100
AcDbLine
 10
151.7516934827498
 20
157.3326682892907
 30
0.000000000000000
 11
164.2516934827499
 21
157.3326682892907
 31
0.000000000000000
  0
LINE
  5
160
100
AcDbEntity
  8
A1
  6
CONTINUOUS
 62
7
100
AcDbLine
 10
164.2516934827499
 20
150.4401516940520
 30
0.000000000000000
 11
164.2516934827499
 21
149.2910850294163
 31
0.000000000000000
  0
LINE
  5
161
100
AcDbEntity
  8
A1
  6
CONTINUOUS
 62
7
100
AcDbLine
 10
151.7516934827498
 20
150.4401516939914
 30
0.000000000000000
 11
164.2516934827499
 21
150.4401516939914
 31
0.000000000000000
  0
LINE
  5
162
100
AcDbEntity
  8
A1
  6
CONTINUOUS
 62
7
100
AcDbLine
 10
151.7516934827498
 20
150.4401516940520
 30
0.000000000000000
 11
151.7516934827498
 21
149.2910850294163
 31
0.000000000000000
  0
LINE
  5
163
100
AcDbEntity
  8
A1
  6
CONTINUOUS
 62
7
100
AcDbLine
 10
154.7516934827498
 20
125.3326682894164
 30
0.000000000000000
 11
161.2516934827499
 21
125.3326682894164
 31
0.000000000000000
  0
LINE
  5
164
100
AcDbEntity
  8
A1
  6
CONTINUOUS
 62
7
100
AcDbLine
 10
150.0016934827499
 20
148.8326682894162
 30
0.000000000000000
 11
151.7516934827499
 21
148.8326682894163
 31
0.000000000000000
  0
LINE
  5
165
100
AcDbEntity
  8
A1
  6
CONTINUOUS
 62
7
100
AcDbLine
 10
149.5016934827499
 20
138.8326682894164
 30
0.000000000000000
 11
149.5016934827499
 21
148.3326682894163
 31
0.000000000000000
  0
LINE
  5
166
100
AcDbEntity
  8
A1
  6
CONTINUOUS
 62
7
100
AcDbLine
 10
150.0016934827499
 20
138.3326682894164
 30
0.000000000000000
 11
151.7516934827499
 21
138.3326682894164
 31
0.000000000000000
  0
LINE
  5
167
100
AcDbEntity
  8
A1
  6
CONTINUOUS
 62
7
100
AcDbLine
 10
151.7516934827499
 20
138.3326682894163
 30
0.000000000000000
 11
151.7516934827498
 21
128.3326682894163
 31
0.000000000000000
  0
LINE
  5
168
100
AcDbEntity
  8
A1
  6
CONTINUOUS
 62
7
100
AcDbLine
 10
164.2516934827499
 20
138.3326682894164
 30
0.000000000000000
 11
164.2516934827499
 21
128.3326682894164
 31
0.000000000000000
  0
LINE
  5
169
100
AcDbEntity
  8
A1
  6
CONTINUOUS
 62
7
100
AcDbLine
 10
166.0016934827499
 20
138.3326682894164
 30
0.000000000000000
 11
164.2516934827499
 21
138.3326682894164
 31
0.000000000000000
  0
LINE
  5
16A
100
AcDbEntity
  8
A1
  6
CONTINUOUS
 62
7
100
AcDbLine
 10
166.5016934827499
 20
138.8326682894164
 30
0.000000000000000
 11
166.5016934827499
 21
148.3326682894163
 31
0.000000000000000
  0
LINE
  5
16B
100
AcDbEntity
  8
A1
  6
CONTINUOUS
 62
7
100
AcDbLine
 10
166.0016934827499
 20
148.8326682894163
 30
0.000000000000000
 11
164.2516934827499
 21
148.8326682894163
 31
0.000000000000000
  0
LINE
  5
16C
100
AcDbEntity
  8
A1
  6
CONTINUOUS
 62
7
100
AcDbLine
 10
164.2516934827499
 20
148.8326682894163
 30
0.000000000000000
 11
164.2516934827499
 21
149.2910850294163
 31
0.000000000000000
  0
LINE
  5
16D
100
AcDbEntity
  8
A1
  6
CONTINUOUS
 62
7
100
AcDbLine
 10
151.7516934827498
 20
149.2910850294163
 30
0.000000000000000
 11
164.2516934827499
 21
149.2910850294163
 31
0.000000000000000
  0
LINE
  5
16E
100
AcDbEntity
  8
A1
  6
CONTINUOUS
 62
7
100
AcDbLine
 10
151.7516934827499
 20
148.8326682894163
 30
0.000000000000000
 11
151.7516934827498
 21
149.2910850294163
 31
0.000000000000000
  0
ARC
  5
16F
100
AcDbEntity
  8
A1
  6
CONTINUOUS
 62
7
100
AcDbCircle
 10
149.1300770233209
 20
176.2108971584442
 30
0.000000000000000
 40
3.000000000000000
100
AcDbArc
 50
90.00000000000000
 51
155.6187626069751
  0
ARC
  5
170
100
AcDbEntity
  8
A1
  6
CONTINUOUS
 62
7
100
AcDbCircle
 10
149.1300770233209
 20
176.2108971584442
 30
0.000000000000000
 40
1.000000000000000
100
AcDbArc
 50
90.00000000000000
 51
155.6187626069753
  0
ARC
  5
171
100
AcDbEntity
  8
A1
  6
CONTINUOUS
 62
7
100
AcDbCircle
 10
148.5629843321928
 20
146.2111696556378
 30
0.000000000000000
 40
3.000000000000000
100
AcDbArc
 50
202.2153411554077
 51
273.2523269657892
  0
ARC
  5
172
100
AcDbEntity
  8
A1
  6
CONTINUOUS
 62
7
100
AcDbCircle
 10
148.5629843321928
 20
146.2111696556378
 30
0.000000000000000
 40
1.000000000000000
100
AcDbArc
 50
202.2153411554077
 51
273.2523245509526
  0
ARC
  5
173
100
AcDbEntity
  8
A1
  6
CONTINUOUS
 62
7
100
AcDbCircle
 10
183.6786873797824
 20
160.5525920435287
 30
0.000000000000000
 40
40.93137219551113
100
AcDbArc
 50
155.6187626069764
 51
202.2153411554014
  0
ARC
  5
174
100
AcDbEntity
  8
A1
  6
CONTINUOUS
 62
7
100
AcDbCircle
 10
183.6786873797824
 20
160.5525920435287
 30
0.000000000000000
 40
38.93137219551113
100
AcDbArc
 50
155.6187626069764
 51
180.0000000000000
  0
ARC
  5
175
100
AcDbEntity
  8
A1
  6
CONTINUOUS
 62
7
100
AcDbCircle
 10
183.6786873797824
 20
160.5525920435287
 30
0.000000000000000
 40
38.93137219551113
100
AcDbArc
 50
180.0000000000000
 51
202.2153411554014
  0
ARC
  5
176
100
AcDbEntity
  8
A1
  6
CONTINUOUS
 62
7
100
AcDbCircle
 10
166.8645533452217
 20
176.2108971584442
 30
0.000000000000000
 40
3.000000000000000
100
AcDbArc
 50
24.38123739302500
 51
90.00000000000000
  0
ARC
  5
177
100
AcDbEntity
  8
A1
  6
CONTINUOUS
 62
7
100
AcDbCircle
 10
166.8645533452217
 20
176.2108971584442
 30
0.000000000000000
 40
1.000000000000000
100
AcDbArc
 50
24.38123739302474
 51
90.00000000000000
  0
ARC
  5
178
100
AcDbEntity
  8
A1
  6
CONTINUOUS
 62
7
100
AcDbCircle
 10
132.3159429887602
 20
160.5525920435286
 30
0.000000000000000
 40
40.93137219551113
100
AcDbArc
 50
0.000000000000000
 51
24.38123739302367
  0
ARC
  5
179
100
AcDbEntity
  8
A1
  6
CONTINUOUS
 62
7
100
AcDbCircle
 10
132.3159429887602
 20
160.5525920435286
 30
0.000000000000000
 40
40.93137219551113
100
AcDbArc
 50
337.7846588445986
 51
360.0000000000000
  0
ARC
  5
17A
100
AcDbEntity
  8
A1
  6
CONTINUOUS
 62
7
100
AcDbCircle
 10
132.3159429887602
 20
160.5525920435286
 30
0.000000000000000
 40
38.93137219551113
100
AcDbArc
 50
337.7846588445986
 51
384.3812373930237
  0
ARC
  5
17B
100
AcDbEntity
  8
A1
  6
CONTINUOUS
 62
7
100
AcDbCircle
 10
167.4316460363498
 20
146.2111696556378
 30
0.000000000000000
 40
3.000000000000000
100
AcDbArc
 50
266.7476730342108
 51
337.7846588445925
  0
ARC
  5
17C
100
AcDbEntity
  8
A1
  6
CONTINUOUS
 62
7
100
AcDbCircle
 10
167.4316460363498
 20
146.2111696556378
 30
0.000000000000000
 40
1.000000000000000
100
AcDbArc
 50
266.7476754490474
 51
337.7846588445925
  0
LINE
  5
17D
100
AcDbEntity
  8
A1
  6
CONTINUOUS
 62
7
100
AcDbLine
 10
149.1300770233209
 20
177.2108971584442
 30
0.000000000000000
 11
166.8645533452217
 21
177.2108971584442
 31
0.000000000000000
  0
LINE
  5
17E
100
AcDbEntity
  8
A1
  6
CONTINUOUS
 62
7
100
AcDbLine
 10
166.8645533452217
 20
179.2108971584442
 30
0.000000000000000
 11
149.1300770233209
 21
179.2108971584442
 31
0.000000000000000
  0
LINE
  5
17F
100
AcDbEntity
  8
A1
  6
CONTINUOUS
 62
7
100
AcDbLine
 10
148.7331843384282
 20
143.2160015538648
 30
0.000000000000000
 11
149.5016934827499
 21
143.2596719454367
 31
0.000000000000000
  0
LINE
  5
180
100
AcDbEntity
  8
A1
  6
CONTINUOUS
 62
7
100
AcDbLine
 10
149.5016934827499
 20
145.2628984027693
 30
0.000000000000000
 11
148.6197176255256
 21
145.2127802859889
 31
0.000000000000000
  0
LINE
  5
181
100
AcDbEntity
  8
A1
  6
CONTINUOUS
 62
7
100
AcDbLine
 10
167.3749127430170
 20
145.2127802859889
 30
0.000000000000000
 11
166.5016934827499
 21
145.2624008107488
 31
0.000000000000000
  0
LINE
  5
182
100
AcDbEntity
  8
A1
  6
CONTINUOUS
 62
7
100
AcDbLine
 10
166.5016934827499
 20
143.2591743534162
 30
0.000000000000000
 11
167.2614460301145
 21
143.2160015538649
 31
0.000000000000000
  0
SPLINE
  5
183
100
AcDbEntity
  8
A1
  6
CONTINUOUS
 62
7
100
AcDbSpline
210
0.000000000000000
220
0.000000000000000
230
1.000000000000000
 70
     8
 71
     3
 72
    39
 73
    35
 74
     0
 42
1.000000000000000e-07
 43
1.000000000000000e-07
 12
-0.9999463983758687
 22
0.01035376137997446
 32
0.000000000000000
 13
-0.9999834673358237
 23
-0.005750222240749281
 33
0.000000000000000
 40
0.000000000000000
 40
0.000000000000000
 40
0.000000000000000
 40
0.000000000000000
 40
0.09975804736955630
 40
0.3486946576393873
 40
0.6627383256769532
 40
1.039105858699834
 40
1.385565077364306
 40
1.769721962751641
 40
2.196494491906233
 40
2.657178098243419
 40
3.102620246887348
 40
3.570361984262842
 40
4.059266626492128
 40
4.568339382165764
 40
4.952330902497716
 40
5.341926665169030
 40
5.737353996966837
 40
6.135739909882180
 40
6.658590807160481
 40
7.185549032130068
 40
7.709522572681351
 40
8.230639226578756
 40
8.721972863959143
 40
9.199874686713308
 40
9.662207330957795
 40
10.10636250896916
 40
10.50381199632833
 40
10.87436956609423
 40
11.21590957139039
 40
11.52616241037536
 40
11.78743225670711
 40
12.01427883600765
 40
12.20682686535138
 40
12.27170873990442
 40
12.27170873990442
 40
12.27170873990442
 40
12.27170873990442
 10
60.19334299565125
 20
93.35118688040488
 30
0.000000000000000
 10
60.16009209559252
 20
93.35153117074428
 30
0.000000000000000
 10
60.04385335565740
 20
93.35475434555100
 30
0.000000000000000
 10
59.82401607171784
 20
93.37930074015647
 30
0.000000000000000
 10
59.51484046553881
 20
93.42879292849007
 30
0.000000000000000
 10
59.17509339733090
 20
93.49245221663789
 30
0.000000000000000
 10
58.81289067823781
 20
93.56288045360698
 30
0.000000000000000
 10
58.43408072274283
 20
93.63598571985727
 30
0.000000000000000
 10
58.01725165958800
 20
93.71296792048526
 30
0.000000000000000
 10
57.57929271494154
 20
93.78786927023089
 30
0.000000000000000
 10
57.12664771899526
 20
93.85756055820195
 30
0.000000000000000
 10
56.66344597139886
 20
93.92002214490867
 30
0.000000000000000
 10
56.17794444242395
 20
93.97507178093599
 30
0.000000000000000
 10
55.71909342681153
 20
94.01634423943290
 30
0.000000000000000
 10
55.29251101046447
 20
94.04548746194877
 30
0.000000000000000
 10
54.90328804253033
 20
94.06467791625226
 30
0.000000000000000
 10
54.50896768279358
 20
94.07643144853637
 30
0.000000000000000
 10
54.07007396746383
 20
94.08080913764928
 30
0.000000000000000
 10
53.58732630328427
 20
94.07448864055578
 30
0.000000000000000
 10
53.06307738268228
 20
94.05388808364540
 30
0.000000000000000
 10
52.54011604032752
 20
94.01976816766438
 30
0.000000000000000
 10
52.03000924794270
 20
93.97357932246098
 30
0.000000000000000
 10
51.53639796908504
 20
93.91716292751227
 30
0.000000000000000
 10
51.06352763246883
 20
93.85286025885807
 30
0.000000000000000
 10
50.60752425954863
 20
93.78192466814755
 30
0.000000000000000
 10
50.17917919743513
 20
93.70809415173869
 30
0.000000000000000
 10
49.78186486462477
 20
93.63456747229469
 30
0.000000000000000
 10
49.41870530978787
 20
93.56453874198338
 30
0.000000000000000
 10
49.08419660334741
 20
93.49944005441877
 30
0.000000000000000
 10
48.78509144287676
 20
93.44315130170050
 30
0.000000000000000
 10
48.52274062923090
 20
93.39830188702639
 30
0.000000000000000
 10
48.29797919840314
 20
93.36712693939667
 30
0.000000000000000
 10
48.13699872654570
 20
93.35293663282989
 30
0.000000000000000
 10
48.05118430210422
 20
93.35131115944908
 30
0.000000000000000
 10
48.02955736814329
 20
93.35118679771638
 30
0.000000000000000
  0
SPLINE
  5
184
100
AcDbEntity
  8
A1
  6
CONTINUOUS
 62
7
100
AcDbSpline
210
0.000000000000000
220
0.000000000000000
230
1.000000000000000
 70
     8
 71
     3
 72
    13
 73
     9
 74
     0
 42
1.000000000000000e-07
 43
1.000000000000000e-07
 12
-0.9998388254959991
 22
-0.01795335710085055
 32
0.000000000000000
 13
0.02926736005088060
 23
0.9995716190642270
 33
0.000000000000000
 40
0.000000000000000
 40
0.000000000000000
 40
0.000000000000000
 40
0.000000000000000
 40
0.09443699422317280
 40
0.2242551731451249
 40
0.3277428921470757
 40
0.4180828221433255
 40
0.5111102009548727
 40
0.5810486608614425
 40
0.5810486608614425
 40
0.5810486608614425
 40
0.5810486608614425
 10
48.02955736814329
 20
93.35118679771638
 30
0.000000000000000
 10
47.99808344368080
 20
93.35062164402278
 30
0.000000000000000
 10
47.92331633160848
 20
93.35390011749858
 30
0.000000000000000
 10
47.81463673965726
 20
93.36918948646398
 30
0.000000000000000
 10
47.71304831967481
 20
93.41069964513899
 30
0.000000000000000
 10
47.64319794531082
 20
93.48066551289729
 30
0.000000000000000
 10
47.61576410973186
 20
93.56277653973309
 30
0.000000000000000
 10
47.61087936653450
 20
93.61715684297656
 30
0.000000000000000
 10
47.61156167123033
 20
93.64045967617778
 30
0.000000000000000
  0
SPLINE
  5
185
100
AcDbEntity
  8
A1
  6
CONTINUOUS
 62
7
100
AcDbSpline
210
0.000000000000000
220
0.000000000000000
230
1.000000000000000
 70
     8
 71
     3
 72
    12
 73
     8
 74
     0
 42
1.000000000000000e-07
 43
1.000000000000000e-07
 12
0.05192586785665299
 22
-0.9986509421478331
 32
0.000000000000000
 13
-0.9997806876442610
 23
0.02094222086225273
 33
0.000000000000000
 40
0.000000000000000
 40
0.000000000000000
 40
0.000000000000000
 40
0.000000000000000
 40
0.1150509156768444
 40
0.2173461048259837
 40
0.3332428561606257
 40
0.4856075741442848
 40
0.5804245980051299
 40
0.5804245980051299
 40
0.5804245980051299
 40
0.5804245980051299
 10
60.61156167123033
 20
93.64045967616988
 30
0.000000000000000
 10
60.61355304411174
 20
93.60216110772467
 30
0.000000000000000
 10
60.60281325068570
 20
93.52822493379328
 30
0.000000000000000
 10
60.54165993190333
 20
93.43056065189150
 30
0.000000000000000
 10
60.42777467609289
 20
93.37195772454017
 30
0.000000000000000
 10
60.30733907647425
 20
93.35436670986029
 30
0.000000000000000
 10
60.22494173875657
 20
93.35052498738646
 30
0.000000000000000
 10
60.19334299565125
 20
93.35118688040488
 30
0.000000000000000
  0
SPLINE
  5
186
100
AcDbEntity
  8
A1
  6
CONTINUOUS
 62
7
100
AcDbSpline
210
0.000000000000000
220
0.000000000000000
230
1.000000000000000
 70
     8
 71
     3
 72
    10
 73
     6
 74
     0
 42
1.000000000000000e-07
 43
1.000000000000000e-07
 12
-0.02390927243004626
 22
-0.9054051616844845
 32
0.000000000000000
 13
-1.136399439042862
 23
-0.001747623585742986
 33
0.000000000000000
 40
0.000000000000000
 40
0.000000000000000
 40
0.000000000000000
 40
0.000000000000000
 40
0.07004857376845108
 40
0.1558286319825651
 40
0.2498487634719724
 40
0.2498487634719724
 40
0.2498487634719724
 40
0.2498487634719724
 10
60.61156167123033
 20
91.96093366037569
 30
0.000000000000000
 10
60.61100340108581
 20
91.93979288028949
 30
0.000000000000000
 10
60.59947240985406
 20
91.89227143579917
 30
0.000000000000000
 10
60.52277697827299
 20
91.85385231085068
 30
0.000000000000000
 10
60.46443007987398
 20
91.85124150387396
 30
0.000000000000000
 10
60.42881527164622
 20
91.85118673327419
 30
0.000000000000000
  0
SPLINE
  5
187
100
AcDbEntity
  8
A1
  6
CONTINUOUS
 62
7
100
AcDbSpline
210
0.000000000000000
220
0.000000000000000
230
1.000000000000000
 70
     8
 71
     3
 72
    41
 73
    37
 74
     0
 42
1.000000000000000e-07
 43
1.000000000000000e-07
 12
-0.9992397720250210
 22
0.03898561276423607
 32
0.000000000000000
 13
-0.9996530250170963
 23
-0.02634064491894605
 33
0.000000000000000
 40
0.000000000000000
 40
0.000000000000000
 40
0.000000000000000
 40
0.000000000000000
 40
0.1530227258929144
 40
0.3526882342624765
 40
0.6062592190661336
 40
0.9215097485652426
 40
1.294293137139206
 40
1.646932148744876
 40
2.039459406736722
 40
2.466972631749308
 40
2.930468769536054
 40
3.381222816878729
 40
3.857280682861930
 40
4.352676560746318
 40
4.868091832945216
 40
5.243043403292867
 40
5.624509523660686
 40
6.009904575892275
 40
6.399441082837672
 40
6.925107084212021
 40
7.454957523338980
 40
7.981899350959359
 40
8.506124543435899
 40
8.998772462881790
 40
9.481769446428300
 40
9.947686835090423
 40
10.39578872286823
 40
10.79688032015951
 40
11.17419278181728
 40
11.52127373239934
 40
11.83713823249071
 40
12.10331697847649
 40
12.33581493589058
 40
12.53154406677248
 40
12.69106759600908
 40
12.79878874796673
 40
12.79878874796673
 40
12.79878874796673
 40
12.79878874796673
 10
60.42881527164622
 20
91.85118673327419
 30
0.000000000000000
 10
60.37784647373425
 20
91.85317529485279
 30
0.000000000000000
 10
60.26039346479013
 20
91.86181338876749
 30
0.000000000000000
 10
60.06153780587846
 20
91.89915774633887
 30
0.000000000000000
 10
59.81132382598491
 20
91.95379764499957
 30
0.000000000000000
 10
59.50608370657011
 20
92.02703899992689
 30
0.000000000000000
 10
59.16895605672914
 20
92.10871094337288
 30
0.000000000000000
 10
58.80626308490463
 20
92.19430955095969
 30
0.000000000000000
 10
58.42485199388193
 20
92.27993177695500
 30
0.000000000000000
 10
58.00599989529491
 20
92.36729586905479
 30
0.000000000000000
 10
57.56649640087687
 20
92.45037211901480
 30
0.000000000000000
 10
57.10939126575227
 20
92.52691892450189
 30
0.000000000000000
 10
56.64016404714704
 20
92.59480477432338
 30
0.000000000000000
 10
56.14802804432350
 20
92.65391785821619
 30
0.000000000000000
 10
55.68808057896285
 20
92.69718638440220
 30
0.000000000000000
 10
55.26517087394154
 20
92.72714379051327
 30
0.000000000000000
 10
54.88503459309175
 20
92.74652499963089
 30
0.000000000000000
 10
54.49972424317650
 20
92.75838221667847
 30
0.000000000000000
 10
54.06618592070507
 20
92.76284784770577
 30
0.000000000000000
 10
53.58448335630385
 20
92.75615147312767
 30
0.000000000000000
 10
53.05738931570920
 20
92.73413115205899
 30
0.000000000000000
 10
52.53158755216768
 20
92.69755859240060
 30
0.000000000000000
 10
52.01932206785563
 20
92.64789115340837
 30
0.000000000000000
 10
51.52306105738160
 20
92.58679914776228
 30
0.000000000000000
 10
51.04765366291804
 20
92.51657931747037
 30
0.000000000000000
 10
50.58860234958485
 20
92.43811702104468
 30
0.000000000000000
 10
50.15808948685122
 20
92.35534123011219
 30
0.000000000000000
 10
49.75801707245822
 20
92.27106834777170
 30
0.000000000000000
 10
49.39203713081363
 20
92.18853105838970
 30
0.000000000000000
 10
49.05458497607472
 20
92.10874816251830
 30
0.000000000000000
 10
48.75357019971415
 20
92.03587347278717
 30
0.000000000000000
 10
48.48956712021680
 20
91.97248323329448
 30
0.000000000000000
 10
48.26393513461289
 20
91.92069188023727
 30
0.000000000000000
 10
48.07190999676340
 20
91.88194116753239
 30
0.000000000000000
 10
47.91938384777234
 20
91.85719248338428
 30
0.000000000000000
 10
47.83032808556641
 20
91.85213256106489
 30
0.000000000000000
 10
47.79443349376214
 20
91.85118674619359
 30
0.000000000000000
  0
SPLINE
  5
188
100
AcDbEntity
  8
A1
  6
CONTINUOUS
 62
7
100
AcDbSpline
210
0.000000000000000
220
0.000000000000000
230
1.000000000000000
 70
     8
 71
     3
 72
    11
 73
     7
 74
     0
 42
1.000000000000000e-07
 43
1.000000000000000e-07
 12
-0.9999523572505495
 22
-0.009761312912814901
 32
0.000000000000000
 13
-0.01499522200629144
 23
0.9998875653373034
 33
0.000000000000000
 40
0.000000000000000
 40
0.000000000000000
 40
0.000000000000000
 40
0.000000000000000
 40
0.02166926416603510
 40
0.1136196031159396
 40
0.1778316087889607
 40
0.2391055467879837
 40
0.2391055467879837
 40
0.2391055467879837
 40
0.2391055467879837
 10
47.79443349376214
 20
91.85118674619359
 30
0.000000000000000
 10
47.78721074983457
 20
91.85111623937088
 30
0.000000000000000
 10
47.74935000194876
 20
91.85204205656878
 30
0.000000000000000
 10
47.69000763054464
 20
91.85716888481609
 30
0.000000000000000
 10
47.62230716038951
 20
91.89574867613540
 30
0.000000000000000
 10
47.61186794333150
 20
91.94051131081419
 30
0.000000000000000
 10
47.61156167123033
 20
91.96093366037569
 30
0.000000000000000
  0
ARC
  5
189
100
AcDbEntity
  8
A1
  6
CONTINUOUS
 62
7
100
AcDbCircle
 10
60.61156167123056
 20
96.08686548454875
 30
0.000000000000000
 40
1.500000000000000
100
AcDbArc
 50
0.000000000000000
 51
90.00000000000169
  0
ARC
  5
18A
100
AcDbEntity
  8
A1
  6
CONTINUOUS
 62
7
100
AcDbCircle
 10
47.61156167123056
 20
96.08686548454875
 30
0.000000000000000
 40
1.500000000000000
100
AcDbArc
 50
90.00000000000206
 51
180.0000000000000
  0
LINE
  5
18B
100
AcDbEntity
  8
A1
  6
CONTINUOUS
 62
7
100
AcDbLine
 10
47.86156167123051
 20
91.58686548454880
 30
0.000000000000000
 11
47.61156167123048
 21
91.58686548454880
 31
0.000000000000000
  0
LINE
  5
18C
100
AcDbEntity
  8
A1
  6
CONTINUOUS
 62
7
100
AcDbLine
 10
60.61156167123051
 20
91.58686548454880
 30
0.000000000000000
 11
60.36156167123057
 21
91.58686548454880
 31
0.000000000000000
  0
LINE
  5
18D
100
AcDbEntity
  8
A1
  6
CONTINUOUS
 62
7
100
AcDbLine
 10
62.11156167123057
 20
96.08686548454881
 30
0.000000000000000
 11
62.11156167123057
 21
89.08686548454880
 31
0.000000000000000
  0
LINE
  5
18E
100
AcDbEntity
  8
A1
  6
CONTINUOUS
 62
7
100
AcDbLine
 10
60.61156167123051
 20
91.96093366038862
 30
0.000000000000000
 11
60.61156167123051
 21
89.08686548454880
 31
0.000000000000000
  0
LINE
  5
18F
100
AcDbEntity
  8
A1
  6
CONTINUOUS
 62
7
100
AcDbLine
 10
46.11156167123054
 20
89.08686548454880
 30
0.000000000000000
 11
46.11156167123054
 21
96.08686548454881
 31
0.000000000000000
  0
LINE
  5
190
100
AcDbEntity
  8
A1
  6
CONTINUOUS
 62
7
100
AcDbLine
 10
47.61156167123048
 20
89.08686548454880
 30
0.000000000000000
 11
47.61156167123048
 21
91.96093366038862
 31
0.000000000000000
  0
LINE
  5
191
100
AcDbEntity
  8
A1
  6
CONTINUOUS
 62
7
100
AcDbLine
 10
46.11156167123054
 20
86.08686548454880
 30
0.000000000000000
 11
46.11156167123054
 21
89.08686548454880
 31
0.000000000000000
  0
LINE
  5
192
100
AcDbEntity
  8
A1
  6
CONTINUOUS
 62
7
100
AcDbLine
 10
47.61156167123048
 20
86.08686548454880
 30
0.000000000000000
 11
47.61156167123048
 21
89.08686548454880
 31
0.000000000000000
  0
LINE
  5
193
100
AcDbEntity
  8
A1
  6
CONTINUOUS
 62
7
100
AcDbLine
 10
47.61156167123048
 20
89.08686548454880
 30
0.000000000000000
 11
46.11156167123054
 21
89.08686548454880
 31
0.000000000000000
  0
LINE
  5
194
100
AcDbEntity
  8
A1
  6
CONTINUOUS
 62
7
100
AcDbLine
 10
60.61156167123051
 20
89.08686548454880
 30
0.000000000000000
 11
60.61156167123051
 21
86.08686548454880
 31
0.000000000000000
  0
LINE
  5
195
100
AcDbEntity
  8
A1
  6
CONTINUOUS
 62
7
100
AcDbLine
 10
62.11156167123057
 20
89.08686548454880
 30
0.000000000000000
 11
62.11156167123057
 21
86.08686548454880
 31
0.000000000000000
  0
LINE
  5
196
100
AcDbEntity
  8
A1
  6
CONTINUOUS
 62
7
100
AcDbLine
 10
62.11156167123057
 20
89.08686548454880
 30
0.000000000000000
 11
60.61156167123051
 21
89.08686548454880
 31
0.000000000000000
  0
LINE
  5
197
100
AcDbEntity
  8
A1
  6
CONTINUOUS
 62
7
100
AcDbLine
 10
60.61156167123051
 20
97.58686548454881
 30
0.000000000000000
 11
60.61156167123051
 21
97.17696108926083
 31
0.000000000000000
  0
LINE
  5
198
100
AcDbEntity
  8
A1
  6
CONTINUOUS
 62
7
100
AcDbLine
 10
47.61156167123048
 20
97.58686548454881
 30
0.000000000000000
 11
47.61156167123048
 21
97.17696108926083
 31
0.000000000000000
  0
LINE
  5
199
100
AcDbEntity
  8
A1
  6
CONTINUOUS
 62
7
100
AcDbLine
 10
60.61156167123051
 20
97.58686548454881
 30
0.000000000000000
 11
47.61156167123048
 21
97.58686548454881
 31
0.000000000000000
  0
LINE
  5
19A
100
AcDbEntity
  8
A1
  6
CONTINUOUS
 62
7
100
AcDbLine
 10
60.61156167123051
 20
97.17696108926083
 30
0.000000000000000
 11
60.61156167123051
 21
93.64045967616994
 31
0.000000000000000
  0
LINE
  5
19B
100
AcDbEntity
  8
A1
  6
CONTINUOUS
 62
7
100
AcDbLine
 10
60.61156167123051
 20
97.17696108926083
 30
0.000000000000000
 11
47.61156167123048
 21
97.17696108926083
 31
0.000000000000000
  0
LINE
  5
19C
100
AcDbEntity
  8
A1
  6
CONTINUOUS
 62
7
100
AcDbLine
 10
47.61156167123048
 20
97.17696108926083
 30
0.000000000000000
 11
47.61156167123048
 21
93.64045967617784
 31
0.000000000000000
  0
LINE
  5
19D
100
AcDbEntity
  8
A1
  6
CONTINUOUS
 62
7
100
AcDbLine
 10
60.61156167123034
 20
91.96093366038862
 30
0.000000000000000
 11
60.61156167123034
 21
93.64045967613799
 31
0.000000000000000
  0
LINE
  5
19E
100
AcDbEntity
  8
A1
  6
CONTINUOUS
 62
7
100
AcDbLine
 10
47.61156167123035
 20
91.96093366038860
 30
0.000000000000000
 11
47.61156167123050
 21
93.64045967617780
 31
0.000000000000000
  0
LINE
  5
19F
100
AcDbEntity
  8
A1
  6
CONTINUOUS
 62
7
100
AcDbLine
 10
47.79755052180190
 20
91.85118673323932
 30
0.000000000000000
 11
60.42865023295719
 21
91.85118673323932
 31
0.000000000000000
  0
LINE
  5
1A0
100
AcDbEntity
  8
A1
  6
CONTINUOUS
 62
7
100
AcDbLine
 10
45.61156167123054
 20
94.83686548454892
 30
0.000000000000000
 11
46.11156167123054
 21
94.83686548454892
 31
0.000000000000000
  0
LINE
  5
1A1
100
AcDbEntity
  8
A1
  6
CONTINUOUS
 62
7
100
AcDbLine
 10
46.11156167123048
 20
93.33686548454891
 30
0.000000000000000
 11
45.61156167123054
 21
93.33686548454891
 31
0.000000000000000
  0
LINE
  5
1A2
100
AcDbEntity
  8
A1
  6
CONTINUOUS
 62
7
100
AcDbLine
 10
45.61156167123054
 20
93.33686548454891
 30
0.000000000000000
 11
45.61156167123054
 21
94.83686548454892
 31
0.000000000000000
  0
LINE
  5
1A3
100
AcDbEntity
  8
A1
  6
CONTINUOUS
 62
7
100
AcDbLine
 10
62.11156167123054
 20
94.83686548456234
 30
0.000000000000000
 11
62.61156167123054
 21
94.83686548456234
 31
0.000000000000000
  0
LINE
  5
1A4
100
AcDbEntity
  8
A1
  6
CONTINUOUS
 62
7
100
AcDbLine
 10
62.61156167123054
 20
93.33686548454101
 30
0.000000000000000
 11
62.11156167123051
 21
93.33686548454101
 31
0.000000000000000
  0
LINE
  5
1A5
100
AcDbEntity
  8
A1
  6
CONTINUOUS
 62
7
100
AcDbLine
 10
62.61156167123054
 20
94.83686548454892
 30
0.000000000000000
 11
62.61156167123054
 21
93.33686548454891
 31
0.000000000000000
  0
LINE
  5
1A6
100
AcDbEntity
  8
A1
  6
CONTINUOUS
 62
7
100
AcDbLine
 10
60.36156167123057
 20
88.58686548454889
 30
0.000000000000000
 11
60.36156167123057
 21
86.08686548454889
 31
0.000000000000000
  0
LINE
  5
1A7
100
AcDbEntity
  8
A1
  6
CONTINUOUS
 62
7
100
AcDbLine
 10
60.36156167123057
 20
91.85118673323932
 30
0.000000000000000
 11
60.36156167123057
 21
90.58686548454891
 31
0.000000000000000
  0
LINE
  5
1A8
100
AcDbEntity
  8
A1
  6
CONTINUOUS
 62
7
100
AcDbLine
 10
47.86156167123051
 20
88.58686548454889
 30
0.000000000000000
 11
47.86156167123051
 21
86.08686548454889
 31
0.000000000000000
  0
LINE
  5
1A9
100
AcDbEntity
  8
A1
  6
CONTINUOUS
 62
7
100
AcDbLine
 10
47.86156167123051
 20
91.85118673323932
 30
0.000000000000000
 11
47.86156167123051
 21
90.58686548454891
 31
0.000000000000000
  0
LINE
  5
1AA
100
AcDbEntity
  8
A1
  6
CONTINUOUS
 62
7
100
AcDbLine
 10
62.11156167123051
 20
86.08686548454190
 30
0.000000000000000
 11
62.61156167123054
 21
86.08686548454190
 31
0.000000000000000
  0
LINE
  5
1AB
100
AcDbEntity
  8
A1
  6
CONTINUOUS
 62
7
100
AcDbLine
 10
62.61156167123054
 20
84.58686548454889
 30
0.000000000000000
 11
62.11156167123051
 21
84.58686548454889
 31
0.000000000000000
  0
LINE
  5
1AC
100
AcDbEntity
  8
A1
  6
CONTINUOUS
 62
7
100
AcDbLine
 10
62.61156167123054
 20
86.08686548454889
 30
0.000000000000000
 11
62.61156167123054
 21
84.58686548454889
 31
0.000000000000000
  0
LINE
  5
1AD
100
AcDbEntity
  8
A1
  6
CONTINUOUS
 62
7
100
AcDbLine
 10
60.36156167123055
 20
86.08686548454189
 30
0.000000000000000
 11
62.11156167123050
 21
86.08686548454888
 31
0.000000000000000
  0
LINE
  5
1AE
100
AcDbEntity
  8
A1
  6
CONTINUOUS
 62
7
100
AcDbLine
 10
62.11156167123051
 20
84.58686548454889
 30
0.000000000000000
 11
60.36156167123054
 21
84.58686548454889
 31
0.000000000000000
  0
LINE
  5
1AF
100
AcDbEntity
  8
A1
  6
CONTINUOUS
 62
7
100
AcDbLine
 10
62.11156167123051
 20
84.58686548454889
 30
0.000000000000000
 11
62.11156167123051
 21
86.08686548454889
 31
0.000000000000000
  0
LINE
  5
1B0
100
AcDbEntity
  8
A1
  6
CONTINUOUS
 62
7
100
AcDbLine
 10
45.61156167123054
 20
86.08686548454889
 30
0.000000000000000
 11
46.11156167123048
 21
86.08686548454889
 31
0.000000000000000
  0
LINE
  5
1B1
100
AcDbEntity
  8
A1
  6
CONTINUOUS
 62
7
100
AcDbLine
 10
46.11156167123048
 20
84.58686548454889
 30
0.000000000000000
 11
45.61156167123054
 21
84.58686548454889
 31
0.000000000000000
  0
LINE
  5
1B2
100
AcDbEntity
  8
A1
  6
CONTINUOUS
 62
7
100
AcDbLine
 10
45.61156167123054
 20
84.58686548454889
 30
0.000000000000000
 11
45.61156167123054
 21
86.08686548454889
 31
0.000000000000000
  0
LINE
  5
1B3
100
AcDbEntity
  8
A1
  6
CONTINUOUS
 62
7
100
AcDbLine
 10
47.86156167123055
 20
86.08686548454190
 30
0.000000000000000
 11
46.11156167123047
 21
86.08686548454889
 31
0.000000000000000
  0
LINE
  5
1B4
100
AcDbEntity
  8
A1
  6
CONTINUOUS
 62
7
100
AcDbLine
 10
46.11156167123048
 20
84.58686548454889
 30
0.000000000000000
 11
47.86156167123057
 21
84.58686548454889
 31
0.000000000000000
  0
LINE
  5
1B5
100
AcDbEntity
  8
A1
  6
CONTINUOUS
 62
7
100
AcDbLine
 10
46.11156167123048
 20
86.08686548454889
 30
0.000000000000000
 11
46.11156167123048
 21
84.58686548454889
 31
0.000000000000000
  0
LINE
  5
1B6
100
AcDbEntity
  8
A1
  6
CONTINUOUS
 62
7
100
AcDbLine
 10
47.86156167123057
 20
86.08686548454190
 30
0.000000000000000
 11
50.86156167123051
 21
86.08686548454190
 31
0.000000000000000
  0
LINE
  5
1B7
100
AcDbEntity
  8
A1
  6
CONTINUOUS
 62
7
100
AcDbLine
 10
50.86156167123051
 20
84.58686548454889
 30
0.000000000000000
 11
47.86156167123057
 21
84.58686548454889
 31
0.000000000000000
  0
LINE
  5
1B8
100
AcDbEntity
  8
A1
  6
CONTINUOUS
 62
7
100
AcDbLine
 10
47.86156167123051
 20
84.58686548454889
 30
0.000000000000000
 11
47.86156167123051
 21
86.08686548454889
 31
0.000000000000000
  0
LINE
  5
1B9
100
AcDbEntity
  8
A1
  6
CONTINUOUS
 62
7
100
AcDbLine
 10
57.36156167123057
 20
86.08686548454889
 30
0.000000000000000
 11
50.86156167123051
 21
86.08686548454889
 31
0.000000000000000
  0
LINE
  5
1BA
100
AcDbEntity
  8
A1
  6
CONTINUOUS
 62
7
100
AcDbLine
 10
57.36156167123057
 20
84.58686548454889
 30
0.000000000000000
 11
50.86156167123051
 21
84.58686548454889
 31
0.000000000000000
  0
LINE
  5
1BB
100
AcDbEntity
  8
A1
  6
CONTINUOUS
 62
7
100
AcDbLine
 10
50.86156167123051
 20
86.08686548454889
 30
0.000000000000000
 11
50.86156167123051
 21
84.58686548454889
 31
0.000000000000000
  0
LINE
  5
1BC
100
AcDbEntity
  8
A1
  6
CONTINUOUS
 62
7
100
AcDbLine
 10
57.36156167123057
 20
86.08686548454889
 30
0.000000000000000
 11
60.36156167123057
 21
86.08686548454889
 31
0.000000000000000
  0
LINE
  5
1BD
100
AcDbEntity
  8
A1
  6
CONTINUOUS
 62
7
100
AcDbLine
 10
60.36156167123057
 20
84.58686548454889
 30
0.000000000000000
 11
57.36156167123057
 21
84.58686548454889
 31
0.000000000000000
  0
LINE
  5
1BE
100
AcDbEntity
  8
A1
  6
CONTINUOUS
 62
7
100
AcDbLine
 10
60.36156167123057
 20
86.08686548454889
 30
0.000000000000000
 11
60.36156167123057
 21
84.58686548454889
 31
0.000000000000000
  0
LINE
  5
1BF
100
AcDbEntity
  8
A1
  6
CONTINUOUS
 62
7
100
AcDbLine
 10
57.36156167123057
 20
84.58686548454889
 30
0.000000000000000
 11
57.36156167123057
 21
86.08686548454889
 31
0.000000000000000
  0
ELLIPSE
  5
1C0
100
AcDbEntity
  8
A1
  6
CONTINUOUS
 62
7
100
AcDbEllipse
 10
56.17267326304193
 20
89.58686548454888
 30
0.000000000000000
 11
0.000000000000000
 21
1.000000000000000
 31
0.000000000000000
210
0.000000000000000
220
0.000000000000000
230
1.000000000000000
 40
0.05673329333279720
 41
0.000000000000000
 42
3.141592653589793
  0
ELLIPSE
  5
1C1
100
AcDbEntity
  8
A1
  6
CONTINUOUS
 62
7
100
AcDbEllipse
 10
52.05920667637633
 20
89.58686548454888
 30
0.000000000000000
 11
0.000000000000000
 21
1.000000000000000
 31
0.000000000000000
210
0.000000000000000
220
0.000000000000000
230
1.000000000000000
 40
0.05673329333279720
 41
3.141592653589793
 42
0.000000000000000
  0
ARC
  5
1C2
100
AcDbEntity
  8
A1
  6
CONTINUOUS
 62
7
100
AcDbCircle
 10
68.36593996970913
 20
89.58686548454888
 30
0.000000000000000
 40
1.000000000000000
100
AcDbArc
 50
270.0000000000000
 51
450.0000000000000
  0
ARC
  5
1C3
100
AcDbEntity
  8
A1
  6
CONTINUOUS
 62
7
100
AcDbCircle
 10
39.86593996970907
 20
89.58686548454888
 30
0.000000000000000
 40
1.000000000000000
100
AcDbArc
 50
90.00000000000000
 51
270.0000000000000
  0
LINE
  5
1C4
100
AcDbEntity
  8
A1
  6
CONTINUOUS
 62
7
100
AcDbLine
 10
65.40180958851565
 20
88.58686548454889
 30
0.000000000000000
 11
68.36593996970913
 21
88.58686548454889
 31
0.000000000000000
  0
LINE
  5
1C5
100
AcDbEntity
  8
A1
  6
CONTINUOUS
 62
7
100
AcDbLine
 10
68.36593996970913
 20
90.58686548454891
 30
0.000000000000000
 11
65.40180958851565
 21
90.58686548454891
 31
0.000000000000000
  0
LINE
  5
1C6
100
AcDbEntity
  8
A1
  6
CONTINUOUS
 62
7
100
AcDbLine
 10
39.86593996970908
 20
88.58686548454889
 30
0.000000000000000
 11
42.83007035090254
 21
88.58686548454889
 31
0.000000000000000
  0
LINE
  5
1C7
100
AcDbEntity
  8
A1
  6
CONTINUOUS
 62
7
100
AcDbLine
 10
42.83007035090257
 20
90.58686548454891
 30
0.000000000000000
 11
39.86593996970908
 21
90.58686548454891
 31
0.000000000000000
  0
LINE
  5
1C8
100
AcDbEntity
  8
A1
  6
CONTINUOUS
 62
7
100
AcDbLine
 10
60.61156167123051
 20
90.58686548454891
 30
0.000000000000000
 11
56.17267326304188
 21
90.58686548454891
 31
0.000000000000000
  0
LINE
  5
1C9
100
AcDbEntity
  8
A1
  6
CONTINUOUS
 62
7
100
AcDbLine
 10
63.43680415096404
 20
90.58686548454891
 30
0.000000000000000
 11
62.11156167123057
 21
90.58686548454891
 31
0.000000000000000
  0
LINE
  5
1CA
100
AcDbEntity
  8
A1
  6
CONTINUOUS
 62
7
100
AcDbLine
 10
62.11156167123057
 20
88.58686548454889
 30
0.000000000000000
 11
63.43680423512198
 21
88.58686548454889
 31
0.000000000000000
  0
LINE
  5
1CB
100
AcDbEntity
  8
A1
  6
CONTINUOUS
 62
7
100
AcDbLine
 10
56.17267326304188
 20
88.58686548454889
 30
0.000000000000000
 11
60.61156167123051
 21
88.58686548454889
 31
0.000000000000000
  0
LINE
  5
1CC
100
AcDbEntity
  8
A1
  6
CONTINUOUS
 62
7
100
AcDbLine
 10
47.61156167123048
 20
88.58686548454889
 30
0.000000000000000
 11
52.05920667637634
 21
88.58686548454889
 31
0.000000000000000
  0
LINE
  5
1CD
100
AcDbEntity
  8
A1
  6
CONTINUOUS
 62
7
100
AcDbLine
 10
44.79507578845415
 20
88.58686548454889
 30
0.000000000000000
 11
46.11156167123054
 21
88.58686548454889
 31
0.000000000000000
  0
LINE
  5
1CE
100
AcDbEntity
  8
A1
  6
CONTINUOUS
 62
7
100
AcDbLine
 10
46.11156167123054
 20
90.58686548454891
 30
0.000000000000000
 11
44.79507570429625
 21
90.58686548454891
 31
0.000000000000000
  0
LINE
  5
1CF
100
AcDbEntity
  8
A1
  6
CONTINUOUS
 62
7
100
AcDbLine
 10
52.05920667637634
 20
90.58686548454891
 30
0.000000000000000
 11
47.61156167123048
 21
90.58686548454891
 31
0.000000000000000
  0
LINE
  5
1D0
100
AcDbEntity
  8
A1
  6
CONTINUOUS
 62
7
100
AcDbLine
 10
42.83007035090262
 20
88.58686548454889
 30
0.000000000000000
 11
44.79507578845415
 21
88.58686548454889
 31
0.000000000000000
  0
LINE
  5
1D1
100
AcDbEntity
  8
A1
  6
CONTINUOUS
 62
7
100
AcDbLine
 10
44.79507570429622
 20
90.58686548454891
 30
0.000000000000000
 11
42.83007035090262
 21
90.58686548454891
 31
0.000000000000000
  0
LINE
  5
1D2
100
AcDbEntity
  8
A1
  6
CONTINUOUS
 62
7
100
AcDbLine
 10
63.43680423512200
 20
88.58686548454889
 30
0.000000000000000
 11
65.40180958851556
 21
88.58686548454889
 31
0.000000000000000
  0
LINE
  5
1D3
100
AcDbEntity
  8
A1
  6
CONTINUOUS
 62
7
100
AcDbLine
 10
65.40180958851556
 20
90.58686548454891
 30
0.000000000000000
 11
63.43680415096407
 21
90.58686548454891
 31
0.000000000000000
  0
LINE
  5
1D4
100
AcDbEntity
  8
A4
  6
CENTER
 62
1
100
AcDbLine
 10
161.1516934827499
 20
129.3326682894164
 30
0.000000000000000
 11
154.8516934827499
 21
129.3326682894164
 31
0.000000000000000
  0
LINE
  5
1D5
100
AcDbEntity
  8
A4
  6
CENTER
 62
1
100
AcDbLine
 10
161.1516934827499
 20
143.3326682894164
 30
0.000000000000000
 11
154.8516934827499
 21
143.3326682894164
 31
0.000000000000000
  0
LINE
  5
1D6
100
AcDbEntity
  8
A4
  6
CENTER
 62
1
100
AcDbLine
 10
144.8006660591354
 20
178.2108971584442
 30
0.000000000000000
 11
170.9607531325987
 21
178.2108971584442
 31
0.000000000000000
  0
LINE
  5
1D7
100
AcDbEntity
  8
A4
  6
CENTER
 62
1
100
AcDbLine
 10
104.6884814441957
 20
178.2108971584442
 30
0.000000000000000
 11
109.6884814441957
 21
178.2108971584442
 31
0.000000000000000
  0
LINE
  5
1D8
100
AcDbEntity
  8
A4
  6
CENTER
 62
1
100
AcDbLine
 10
103.8384814441956
 20
143.8326682894162
 30
0.000000000000000
 11
110.5384814441957
 21
143.8326682894162
 31
0.000000000000000
  0
LINE
  5
1D9
100
AcDbEntity
  8
A4
  6
CENTER
 62
1
100
AcDbLine
 10
113.6884814441955
 20
129.3326682894246
 30
0.000000000000000
 11
109.1884814442106
 21
129.3326682894246
 31
0.000000000000000
  0
LINE
  5
1DA
100
AcDbEntity
  8
A4
  6
CENTER
 62
1
100
AcDbLine
 10
69.86593996970913
 20
89.58686548454891
 30
0.000000000000000
 11
38.36593996970908
 21
89.58686548454891
 31
0.000000000000000
  0
LINE
  5
1DB
100
AcDbEntity
  8
A4
  6
CENTER
 62
1
100
AcDbLine
 10
69.85718337275195
 20
217.9565188599665
 30
0.000000000000000
 11
38.35718337275186
 21
217.9565188599665
 31
0.000000000000000
  0
LINE
  5
1DC
100
AcDbEntity
  8
A4
  6
CENTER
 62
1
100
AcDbLine
 10
107.1884814441957
 20
140.4826682894162
 30
0.000000000000000
 11
107.1884814441958
 21
180.7108971584442
 31
0.000000000000000
  0
LINE
  5
1DD
100
AcDbEntity
  8
A4
  6
CENTER
 62
1
100
AcDbLine
 10
158.0016934827499
 20
120.2643019612329
 30
0.000000000000000
 11
158.0016934827499
 21
181.6619879369250
 31
0.000000000000000
  0
LINE
  5
1DE
100
AcDbEntity
  8
A4
  6
CENTER
 62
1
100
AcDbLine
 10
41.26505364846963
 20
178.2108971584450
 30
0.000000000000000
 11
67.19111184650825
 21
178.2108971584450
 31
0.000000000000000
  0
LINE
  5
1DF
100
AcDbEntity
  8
A4
  6
CENTER
 62
1
100
AcDbLine
 10
54.11156167123050
 20
120.2643019612329
 30
0.000000000000000
 11
54.11156167123050
 21
181.6619879369250
 31
0.000000000000000
  0
LINE
  5
1E0
100
AcDbEntity
  8
A4
  6
CENTER
 62
1
100
AcDbLine
 10
54.11156167123053
 20
83.08686548454888
 30
0.000000000000000
 11
54.11156167123050
 21
99.08686548454881
 31
0.000000000000000
  0
LINE
  5
1E1
100
AcDbEntity
  8
A4
  6
CENTER
 62
1
100
AcDbLine
 10
63.44723077491068
 20
143.8326682894162
 30
0.000000000000000
 11
44.81721024744087
 21
143.8326682894162
 31
0.000000000000000
  0
LINE
  5
1E2
100
AcDbEntity
  8
A4
  6
CENTER
 62
1
100
AcDbLine
 10
148.6012447464615
 20
143.8326682894162
 30
0.000000000000000
 11
167.4370305260032
 21
143.8326682894162
 31
0.000000000000000
  0
LINE
  5
1E3
100
AcDbEntity
  8
A4
  6
CENTER
 62
1
100
AcDbLine
 10
54.11156167123048
 20
211.4565188599665
 30
0.000000000000000
 11
54.11156167123051
 21
227.3323853561840
 31
0.000000000000000
  0
LINE
  5
1E4
100
AcDbEntity
  8
A4
  6
CENTER
 62
1
100
AcDbLine
 10
113.6884814441984
 20
143.3326682894252
 30
0.000000000000000
 11
109.1884814442135
 21
143.3326682894261
 31
0.000000000000000
  0
ENDSEC
  0
SECTION
  2
OBJECTS
  0
DICTIONARY
  5
213
100
AcDbDictionary
  3
ACAD_GROUP
350
214
  3
ACAD_LAYOUT
350
215
  3
ACAD_MLINESTYLE
350
216
  0
DICTIONARY
  5
214
102
{ACAD_REACTORS
330
213
102
}
330
213
100
AcDbDictionary
  0
DICTIONARY
  5
215
102
{ACAD_REACTORS
330
213
102
}
330
213
100
AcDbDictionary
  3
Model
350
217
  3
ﾚｲｱｳﾄ1
350
218
  3
ﾚｲｱｳﾄ2
350
219
  0
DICTIONARY
  5
216
102
{ACAD_REACTORS
330
213
102
}
330
213
100
AcDbDictionary
  3
STANDARD
350
21A
  0
LAYOUT
  5
217
102
{ACAD_REACTORS
330
215
102
}
330
215
100
AcDbPlotSettings
 70
11952
  4
A3
 44
297.000000
 45
420.000000
 73
  1
 72
  1
100
AcDbLayout
  1
Model
 71
0
330
20A
  0
LAYOUT
  5
218
102
{ACAD_REACTORS
330
215
102
}
330
215
100
AcDbPlotSettings
100
AcDbLayout
  1
ﾚｲｱｳﾄ1
 71
1
330
20B
  0
LAYOUT
  5
219
102
{ACAD_REACTORS
330
215
102
}
330
215
100
AcDbPlotSettings
100
AcDbLayout
  1
ﾚｲｱｳﾄ2
 71
2
330
20C
  0
MLINESTYLE
  5
21A
102
{ACAD_REACTORS
330
216
102
}
330
216
100
AcDbMlineStyle
  2
STANDARD
 70
     0
  3

 62
   256
 51
90.00
 52
90.00
 71
     2
 49
0.50
 62
   256
  6
BYLAYER
 49
-0.50
 62
   256
  6
BYLAYER
  0
ENDSEC
  0
EOF
