ISO-10303-21;
HEADER;
/****************************************************************
 * Generated by software with PDE/Lib inside                    *
 * PDElib Version 4.4.1-0003, patched  Thursday August 19 11:58 *
 * International Technegroup Inc. (www.iti-oh.com)              *
 ****************************************************************/
FILE_DESCRIPTION((''),'2;1');
FILE_NAME('','2005-07-15T17:28:44',(''),(''),'','CADfix','');
FILE_SCHEMA(('AUTOMOTIVE_DESIGN'));
ENDSEC;
DATA;
#5=APPLICATION_CONTEXT('automotive design');
#6=APPLICATION_PROTOCOL_DEFINITION('Draft International Standard','automotive_design',1998,#5);
#7=PRODUCT_CONTEXT('None',#5,'mechanical');
#8=PRODUCT('washer','','None',(#7));
#9=PRODUCT_RELATED_PRODUCT_CATEGORY('part','description',(#8));
#10=PRODUCT_DEFINITION_FORMATION('None','None',#8);
#11=PRODUCT_DEFINITION_CONTEXT('part definition',#5,'design');
#12=PRODUCT_DEFINITION('None','None',#10,#11);
#18=(NAMED_UNIT(*)PLANE_ANGLE_UNIT()SI_UNIT($,.RADIAN.));
#19=DIMENSIONAL_EXPONENTS(0.0,0.0,0.0,0.0,0.0,0.0,0.0);
#20=PLANE_ANGLE_MEASURE_WITH_UNIT(PLANE_ANGLE_MEASURE(0.017453292500000),#18);
#24=(CONVERSION_BASED_UNIT('DEGREE',#20)NAMED_UNIT(#19)PLANE_ANGLE_UNIT());
#28=(NAMED_UNIT(*)SI_UNIT($,.STERADIAN.)SOLID_ANGLE_UNIT());
#32=(LENGTH_UNIT()NAMED_UNIT(*)SI_UNIT(.MILLI.,.METRE.));
#34=UNCERTAINTY_MEASURE_WITH_UNIT(LENGTH_MEASURE(0.001000000000000),#32,'DISTANCE_ACCURACY_VALUE','');
#36=(GEOMETRIC_REPRESENTATION_CONTEXT(3)GLOBAL_UNCERTAINTY_ASSIGNED_CONTEXT((#34))GLOBAL_UNIT_ASSIGNED_CONTEXT((#24,#28,#32))REPRESENTATION_CONTEXT('None','None'));
#37=AXIS2_PLACEMENT_3D('',#38,#39,#40);
#38=CARTESIAN_POINT('',(0.0,0.0,0.0));
#39=DIRECTION('',(0.0,0.0,1.0));
#40=DIRECTION('',(1.0,0.0,0.0));
#41=ADVANCED_BREP_SHAPE_REPRESENTATION('',(#37,#453),#36);
#42=PRODUCT_DEFINITION_SHAPE('','',#12);
#43=SHAPE_DEFINITION_REPRESENTATION(#42,#41);
#44=CARTESIAN_POINT('',(6.057357117808839,0.037499999999999,-0.720008713371992));
#45=CARTESIAN_POINT('',(6.077963457848879,0.037499999999999,-0.546649755076935));
#46=CARTESIAN_POINT('',(6.088621272238588,0.037499999999999,-0.372396030114088));
#47=CARTESIAN_POINT('',(6.461017302352676,0.037499999999999,5.716225242124500));
#48=CARTESIAN_POINT('',(0.372396030114088,0.037499999999999,6.088621272238588));
#49=CARTESIAN_POINT('',(-5.716225242124500,0.037499999999999,6.461017302352676));
#50=CARTESIAN_POINT('',(-6.088621272238588,0.037499999999999,0.372396030114088));
#51=CARTESIAN_POINT('',(6.057357117808839,-1.538437500000000,-0.720008713371992));
#52=CARTESIAN_POINT('',(6.077963457848879,-1.538437500000000,-0.546649755076935));
#53=CARTESIAN_POINT('',(6.088621272238588,-1.538437500000000,-0.372396030114088));
#54=CARTESIAN_POINT('',(6.461017302352676,-1.538437500000000,5.716225242124500));
#55=CARTESIAN_POINT('',(0.372396030114088,-1.538437500000000,6.088621272238588));
#56=CARTESIAN_POINT('',(-5.716225242124500,-1.538437500000000,6.461017302352676));
#57=CARTESIAN_POINT('',(-6.088621272238588,-1.538437500000000,0.372396030114088));
#65=(BOUNDED_SURFACE()B_SPLINE_SURFACE(2,1,((#44,#51),(#45,#52),(#46,#53),(#47,#54),(#48,#55),(#49,#56),(#50,#57)),.UNSPECIFIED.,.F.,.F.,.U.)B_SPLINE_SURFACE_WITH_KNOTS((3,2,2,3),(2,2),(0.0,0.404272370601971,10.511081635651241,20.617890900700509),(0.0,1.0),.UNSPECIFIED.)GEOMETRIC_REPRESENTATION_ITEM()RATIONAL_B_SPLINE_SURFACE(((0.977505800795127,0.977505800795127),(0.988284271247462,0.988284271247462),(1.0,1.0),(0.707106781186548,0.707106781186548),(1.0,1.0),(0.707106781186548,0.707106781186548),(1.0,1.0)))REPRESENTATION_ITEM('')SURFACE());
#66=CARTESIAN_POINT('',(6.057357576170441,-2.529878E-014,-0.720004857203390));
#67=VERTEX_POINT('',#66);
#68=CARTESIAN_POINT('',(0.0,-1.120515E-015,6.099999000000000));
#69=VERTEX_POINT('',#68);
#70=CARTESIAN_POINT('',(6.057357576170442,-2.529878E-014,-0.720004857203390));
#71=CARTESIAN_POINT('',(6.099999000000001,-1.120515E-015,-0.361265122184954));
#72=CARTESIAN_POINT('',(6.099999000000000,-1.120515E-015,9.383179E-017));
#73=CARTESIAN_POINT('',(6.099999000000001,-1.120515E-015,6.099999000000001));
#74=CARTESIAN_POINT('',(0.0,-1.120515E-015,6.099999000000000));
#82=(BOUNDED_CURVE()B_SPLINE_CURVE(2,(#70,#71,#72,#73,#74),.UNSPECIFIED.,.F.,.U.)B_SPLINE_CURVE_WITH_KNOTS((3,2,3),(0.229562581104653,0.250000000000000,0.500000000000000),.UNSPECIFIED.)CURVE()GEOMETRIC_REPRESENTATION_ITEM()RATIONAL_B_SPLINE_CURVE((0.956026965066855,0.976056074382012,1.0,0.707106781186548,1.0))REPRESENTATION_ITEM(''));
#83=EDGE_CURVE('',#67,#69,#82,.T.);
#84=ORIENTED_EDGE('',*,*,#83,.T.);
#85=CARTESIAN_POINT('',(-6.088621405459957,-1.707482E-014,0.372393851951184));
#86=VERTEX_POINT('',#85);
#87=CARTESIAN_POINT('',(0.0,-1.120515E-015,6.099999000000000));
#88=CARTESIAN_POINT('',(-5.738308124095109,-1.120515E-015,6.099999000000001));
#89=CARTESIAN_POINT('',(-6.088621405459957,-1.707482E-014,0.372393851951184));
#97=(BOUNDED_CURVE()B_SPLINE_CURVE(2,(#87,#88,#89),.UNSPECIFIED.,.F.,.U.)B_SPLINE_CURVE_WITH_KNOTS((3,3),(0.500000000000000,0.739333023969413),.UNSPECIFIED.)CURVE()GEOMETRIC_REPRESENTATION_ITEM()RATIONAL_B_SPLINE_CURVE((1.0,0.719603920964966,0.976072173966902))REPRESENTATION_ITEM(''));
#98=EDGE_CURVE('',#69,#86,#97,.T.);
#99=ORIENTED_EDGE('',*,*,#98,.T.);
#100=CARTESIAN_POINT('',(-6.088621403856085,-1.500000000000000,0.372393878174563));
#101=VERTEX_POINT('',#100);
#102=CARTESIAN_POINT('',(-6.088621405459957,-1.707482E-014,0.372393851951184));
#103=CARTESIAN_POINT('',(-6.088621403856085,-1.500000000000000,0.372393878174563));
#104=QUASI_UNIFORM_CURVE('',1,(#102,#103),.UNSPECIFIED.,.F.,.U.);
#105=EDGE_CURVE('',#86,#101,#104,.T.);
#106=ORIENTED_EDGE('',*,*,#105,.T.);
#107=CARTESIAN_POINT('',(0.0,-1.500000000000000,6.099999000000000));
#108=VERTEX_POINT('',#107);
#109=CARTESIAN_POINT('',(0.0,-1.500000000000000,6.099999000000000));
#110=CARTESIAN_POINT('',(-5.738308099334332,-1.500000000000000,6.099999000000002));
#111=CARTESIAN_POINT('',(-6.088621403856085,-1.500000000000000,0.372393878174563));
#119=(BOUNDED_CURVE()B_SPLINE_CURVE(2,(#109,#110,#111),.UNSPECIFIED.,.F.,.U.)B_SPLINE_CURVE_WITH_KNOTS((3,3),(0.500000000000000,0.739333023226263),.UNSPECIFIED.)CURVE()GEOMETRIC_REPRESENTATION_ITEM()RATIONAL_B_SPLINE_CURVE((1.0,0.719603921835620,0.976072172374189))REPRESENTATION_ITEM(''));
#120=EDGE_CURVE('',#108,#101,#119,.T.);
#121=ORIENTED_EDGE('',*,*,#120,.F.);
#122=CARTESIAN_POINT('',(6.057357570649685,-1.500000000000000,-0.720004903649417));
#123=VERTEX_POINT('',#122);
#124=CARTESIAN_POINT('',(6.057357570649686,-1.500000000000000,-0.720004903649417));
#125=CARTESIAN_POINT('',(6.099999000000000,-1.500000000000000,-0.361265145653473));
#126=CARTESIAN_POINT('',(6.099999000000000,-1.500000000000000,9.383179E-017));
#127=CARTESIAN_POINT('',(6.099999000000001,-1.500000000000000,6.099999000000001));
#128=CARTESIAN_POINT('',(0.0,-1.500000000000000,6.099999000000000));
#136=(BOUNDED_CURVE()B_SPLINE_CURVE(2,(#124,#125,#126,#127,#128),.UNSPECIFIED.,.F.,.U.)B_SPLINE_CURVE_WITH_KNOTS((3,2,3),(0.229562579808786,0.250000000000000,0.500000000000000),.UNSPECIFIED.)CURVE()GEOMETRIC_REPRESENTATION_ITEM()RATIONAL_B_SPLINE_CURVE((0.956026962526900,0.976056072863809,1.0,0.707106781186548,1.0))REPRESENTATION_ITEM(''));
#137=EDGE_CURVE('',#123,#108,#136,.T.);
#138=ORIENTED_EDGE('',*,*,#137,.F.);
#139=CARTESIAN_POINT('',(6.057357576170441,-2.529878E-014,-0.720004857203390));
#140=CARTESIAN_POINT('',(6.057357570649685,-1.500000000000000,-0.720004903649417));
#141=QUASI_UNIFORM_CURVE('',1,(#139,#140),.UNSPECIFIED.,.F.,.U.);
#142=EDGE_CURVE('',#67,#123,#141,.T.);
#143=ORIENTED_EDGE('',*,*,#142,.F.);
#144=EDGE_LOOP('',(#84,#99,#106,#121,#138,#143));
#145=FACE_OUTER_BOUND('',#144,.T.);
#146=ADVANCED_FACE('',(#145),#65,.T.);
#147=CARTESIAN_POINT('',(-6.088621272238588,0.037499999999999,0.372396030114088));
#148=CARTESIAN_POINT('',(-6.461017302352676,0.037499999999999,-5.716225242124500));
#149=CARTESIAN_POINT('',(-0.372396030114088,0.037499999999999,-6.088621272238588));
#150=CARTESIAN_POINT('',(5.377414412577464,0.037499999999999,-6.440294744282220));
#151=CARTESIAN_POINT('',(6.057357117808839,0.037499999999999,-0.720008713371992));
#152=CARTESIAN_POINT('',(-6.088621272238588,-1.538437500000000,0.372396030114088));
#153=CARTESIAN_POINT('',(-6.461017302352676,-1.538437500000000,-5.716225242124500));
#154=CARTESIAN_POINT('',(-0.372396030114088,-1.538437500000000,-6.088621272238588));
#155=CARTESIAN_POINT('',(5.377414412577464,-1.538437500000000,-6.440294744282220));
#156=CARTESIAN_POINT('',(6.057357117808839,-1.538437500000000,-0.720008713371992));
#164=(BOUNDED_SURFACE()B_SPLINE_SURFACE(2,1,((#147,#152),(#148,#153),(#149,#154),(#150,#155),(#151,#156)),.UNSPECIFIED.,.F.,.F.,.U.)B_SPLINE_SURFACE_WITH_KNOTS((3,2,3),(2,2),(0.0,10.106809265049270,19.809346159496560),(0.0,1.0),.UNSPECIFIED.)GEOMETRIC_REPRESENTATION_ITEM()RATIONAL_B_SPLINE_SURFACE(((1.0,1.0),(0.707106781186548,0.707106781186548),(1.0,1.0),(0.718822509939086,0.718822509939086),(0.977505800795127,0.977505800795127)))REPRESENTATION_ITEM('')SURFACE());
#165=CARTESIAN_POINT('',(0.0,-1.120515E-015,-6.099999000000000));
#166=VERTEX_POINT('',#165);
#167=CARTESIAN_POINT('',(0.0,-1.120515E-015,-6.099999000000000));
#168=CARTESIAN_POINT('',(5.417867193471132,-1.120515E-015,-6.099999000000002));
#169=CARTESIAN_POINT('',(6.057357576170442,-2.529878E-014,-0.720004857203390));
#177=(BOUNDED_CURVE()B_SPLINE_CURVE(2,(#167,#168,#169),.UNSPECIFIED.,.F.,.U.)B_SPLINE_CURVE_WITH_KNOTS((3,3),(0.0,0.229562581104653),.UNSPECIFIED.)CURVE()GEOMETRIC_REPRESENTATION_ITEM()RATIONAL_B_SPLINE_CURVE((1.0,0.731050706804536,0.956026965066855))REPRESENTATION_ITEM(''));
#178=EDGE_CURVE('',#166,#67,#177,.T.);
#179=ORIENTED_EDGE('',*,*,#178,.T.);
#180=ORIENTED_EDGE('',*,*,#142,.T.);
#181=CARTESIAN_POINT('',(0.0,-1.500000000000000,-6.099999000000000));
#182=VERTEX_POINT('',#181);
#183=CARTESIAN_POINT('',(0.0,-1.500000000000000,-6.099999000000000));
#184=CARTESIAN_POINT('',(5.417867151636089,-1.500000000000000,-6.099999000000001));
#185=CARTESIAN_POINT('',(6.057357570649686,-1.500000000000000,-0.720004903649417));
#193=(BOUNDED_CURVE()B_SPLINE_CURVE(2,(#183,#184,#185),.UNSPECIFIED.,.F.,.U.)B_SPLINE_CURVE_WITH_KNOTS((3,3),(0.0,0.229562579808786),.UNSPECIFIED.)CURVE()GEOMETRIC_REPRESENTATION_ITEM()RATIONAL_B_SPLINE_CURVE((1.0,0.731050708322738,0.956026962526900))REPRESENTATION_ITEM(''));
#194=EDGE_CURVE('',#182,#123,#193,.T.);
#195=ORIENTED_EDGE('',*,*,#194,.F.);
#196=CARTESIAN_POINT('',(-6.088621403856085,-1.500000000000000,0.372393878174563));
#197=CARTESIAN_POINT('',(-6.099999000000000,-1.500000000000000,0.186370746581980));
#198=CARTESIAN_POINT('',(-6.099999000000000,-1.500000000000000,9.383179E-017));
#199=CARTESIAN_POINT('',(-6.099999000000001,-1.500000000000000,-6.099999000000001));
#200=CARTESIAN_POINT('',(0.0,-1.500000000000000,-6.099999000000000));
#208=(BOUNDED_CURVE()B_SPLINE_CURVE(2,(#196,#197,#198,#199,#200),.UNSPECIFIED.,.F.,.U.)B_SPLINE_CURVE_WITH_KNOTS((3,2,3),(0.739333023226263,0.750000000000000,1.0),.UNSPECIFIED.)CURVE()GEOMETRIC_REPRESENTATION_ITEM()RATIONAL_B_SPLINE_CURVE((0.976072172374189,0.987502859350927,1.0,0.707106781186548,1.0))REPRESENTATION_ITEM(''));
#209=EDGE_CURVE('',#101,#182,#208,.T.);
#210=ORIENTED_EDGE('',*,*,#209,.F.);
#211=ORIENTED_EDGE('',*,*,#105,.F.);
#212=CARTESIAN_POINT('',(-6.088621405459957,-1.707482E-014,0.372393851951184));
#213=CARTESIAN_POINT('',(-6.099999000000000,-1.120515E-015,0.186370733433528));
#214=CARTESIAN_POINT('',(-6.099999000000000,-1.120515E-015,9.383179E-017));
#215=CARTESIAN_POINT('',(-6.099999000000001,-1.120515E-015,-6.099999000000001));
#216=CARTESIAN_POINT('',(0.0,-1.120515E-015,-6.099999000000000));
#224=(BOUNDED_CURVE()B_SPLINE_CURVE(2,(#212,#213,#214,#215,#216),.UNSPECIFIED.,.F.,.U.)B_SPLINE_CURVE_WITH_KNOTS((3,2,3),(0.739333023969413,0.750000000000000,1.0),.UNSPECIFIED.)CURVE()GEOMETRIC_REPRESENTATION_ITEM()RATIONAL_B_SPLINE_CURVE((0.976072173966902,0.987502860221582,1.0,0.707106781186548,1.0))REPRESENTATION_ITEM(''));
#225=EDGE_CURVE('',#86,#166,#224,.T.);
#226=ORIENTED_EDGE('',*,*,#225,.T.);
#227=EDGE_LOOP('',(#179,#180,#195,#210,#211,#226));
#228=FACE_OUTER_BOUND('',#227,.T.);
#229=ADVANCED_FACE('',(#228),#164,.T.);
#230=CARTESIAN_POINT('',(3.028679055409183,0.037500000000000,-0.360004415703113));
#231=CARTESIAN_POINT('',(3.038982227118248,0.037500000000000,-0.273324922345832));
#232=CARTESIAN_POINT('',(3.044311135186693,0.037500000000000,-0.186198045581314));
#233=CARTESIAN_POINT('',(3.230509180768007,0.037500000000000,2.858113089605380));
#234=CARTESIAN_POINT('',(0.186198045581314,0.037500000000000,3.044311135186693));
#235=CARTESIAN_POINT('',(-2.858113089605380,0.037500000000000,3.230509180768007));
#236=CARTESIAN_POINT('',(-3.044311135186693,0.037500000000000,0.186198045581314));
#237=CARTESIAN_POINT('',(3.028679055409183,-1.538437500000000,-0.360004415703113));
#238=CARTESIAN_POINT('',(3.038982227118248,-1.538437500000001,-0.273324922345832));
#239=CARTESIAN_POINT('',(3.044311135186693,-1.538437500000000,-0.186198045581314));
#240=CARTESIAN_POINT('',(3.230509180768007,-1.538437500000001,2.858113089605380));
#241=CARTESIAN_POINT('',(0.186198045581314,-1.538437500000000,3.044311135186693));
#242=CARTESIAN_POINT('',(-2.858113089605380,-1.538437500000001,3.230509180768007));
#243=CARTESIAN_POINT('',(-3.044311135186693,-1.538437500000000,0.186198045581314));
#251=(BOUNDED_SURFACE()B_SPLINE_SURFACE(2,1,((#230,#237),(#231,#238),(#232,#239),(#233,#240),(#234,#241),(#235,#242),(#236,#243)),.UNSPECIFIED.,.F.,.F.,.U.)B_SPLINE_SURFACE_WITH_KNOTS((3,2,2,3),(2,2),(0.0,0.202136218438071,5.255541679389830,10.308947140341591),(0.0,1.0),.UNSPECIFIED.)GEOMETRIC_REPRESENTATION_ITEM()RATIONAL_B_SPLINE_SURFACE(((0.977505800795127,0.977505800795127),(0.988284271247462,0.988284271247462),(1.0,1.0),(0.707106781186548,0.707106781186548),(1.0,1.0),(0.707106781186548,0.707106781186548),(1.0,1.0)))REPRESENTATION_ITEM('')SURFACE());
#252=CARTESIAN_POINT('',(3.028679206084498,-1.009417E-014,-0.360003148083099));
#253=VERTEX_POINT('',#252);
#254=CARTESIAN_POINT('',(0.0,0.0,3.050000000000000));
#255=VERTEX_POINT('',#254);
#256=CARTESIAN_POINT('',(3.028679206084498,-1.009417E-014,-0.360003148083099));
#257=CARTESIAN_POINT('',(3.050000000000001,0.0,-0.180632924427800));
#258=CARTESIAN_POINT('',(3.050000000000000,0.0,9.383179E-017));
#259=CARTESIAN_POINT('',(3.050000000000001,0.0,3.050000000000001));
#260=CARTESIAN_POINT('',(0.0,0.0,3.050000000000000));
#268=(BOUNDED_CURVE()B_SPLINE_CURVE(2,(#256,#257,#258,#259,#260),.UNSPECIFIED.,.F.,.U.)B_SPLINE_CURVE_WITH_KNOTS((3,2,3),(0.229562544250081,0.250000000000000,0.500000000000000),.UNSPECIFIED.)CURVE()GEOMETRIC_REPRESENTATION_ITEM()RATIONAL_B_SPLINE_CURVE((0.956026892830323,0.976056031204195,1.0,0.707106781186547,1.0))REPRESENTATION_ITEM(''));
#269=EDGE_CURVE('',#253,#255,#268,.T.);
#270=ORIENTED_EDGE('',*,*,#269,.F.);
#271=CARTESIAN_POINT('',(3.028679204271227,-1.500000000000000,-0.360003163338065));
#272=VERTEX_POINT('',#271);
#273=CARTESIAN_POINT('',(3.028679206084498,-1.009417E-014,-0.360003148083099));
#274=CARTESIAN_POINT('',(3.028679204271227,-1.500000000000000,-0.360003163338065));
#275=QUASI_UNIFORM_CURVE('',1,(#273,#274),.UNSPECIFIED.,.F.,.U.);
#276=EDGE_CURVE('',#253,#272,#275,.T.);
#277=ORIENTED_EDGE('',*,*,#276,.T.);
#278=CARTESIAN_POINT('',(0.0,-1.500000000000000,3.050000000000000));
#279=VERTEX_POINT('',#278);
#280=CARTESIAN_POINT('',(3.028679204271227,-1.500000000000000,-0.360003163338065));
#281=CARTESIAN_POINT('',(3.050000000000001,-1.500000000000000,-0.180632932135919));
#282=CARTESIAN_POINT('',(3.050000000000000,-1.500000000000000,9.383179E-017));
#283=CARTESIAN_POINT('',(3.050000000000001,-1.500000000000000,3.050000000000001));
#284=CARTESIAN_POINT('',(0.0,-1.500000000000000,3.050000000000000));
#292=(BOUNDED_CURVE()B_SPLINE_CURVE(2,(#280,#281,#282,#283,#284),.UNSPECIFIED.,.F.,.U.)B_SPLINE_CURVE_WITH_KNOTS((3,2,3),(0.229562543398839,0.250000000000000,0.500000000000000),.UNSPECIFIED.)CURVE()GEOMETRIC_REPRESENTATION_ITEM()RATIONAL_B_SPLINE_CURVE((0.956026891161853,0.976056030206903,1.0,0.707106781186547,1.0))REPRESENTATION_ITEM(''));
#293=EDGE_CURVE('',#272,#279,#292,.T.);
#294=ORIENTED_EDGE('',*,*,#293,.T.);
#295=CARTESIAN_POINT('',(-3.044311257293854,-1.500000000000000,0.186196049125409));
#296=VERTEX_POINT('',#295);
#297=CARTESIAN_POINT('',(0.0,-1.500000000000000,3.050000000000000));
#298=CARTESIAN_POINT('',(-2.869155389166695,-1.500000000000000,3.050000000000001));
#299=CARTESIAN_POINT('',(-3.044311257293854,-1.500000000000000,0.186196049125409));
#307=(BOUNDED_CURVE()B_SPLINE_CURVE(2,(#297,#298,#299),.UNSPECIFIED.,.F.,.U.)B_SPLINE_CURVE_WITH_KNOTS((3,3),(0.500000000000000,0.739333075397973),.UNSPECIFIED.)CURVE()GEOMETRIC_REPRESENTATION_ITEM()RATIONAL_B_SPLINE_CURVE((1.0,0.719603860712659,0.976072284188181))REPRESENTATION_ITEM(''));
#308=EDGE_CURVE('',#279,#296,#307,.T.);
#309=ORIENTED_EDGE('',*,*,#308,.T.);
#310=CARTESIAN_POINT('',(-3.044311258784596,1.999789E-014,0.186196024751470));
#311=VERTEX_POINT('',#310);
#312=CARTESIAN_POINT('',(-3.044311258784596,1.999789E-014,0.186196024751470));
#313=CARTESIAN_POINT('',(-3.044311257293854,-1.500000000000000,0.186196049125409));
#314=QUASI_UNIFORM_CURVE('',1,(#312,#313),.UNSPECIFIED.,.F.,.U.);
#315=EDGE_CURVE('',#311,#296,#314,.T.);
#316=ORIENTED_EDGE('',*,*,#315,.F.);
#317=CARTESIAN_POINT('',(0.0,0.0,3.050000000000000));
#318=CARTESIAN_POINT('',(-2.869155412181194,0.0,3.050000000000001));
#319=CARTESIAN_POINT('',(-3.044311258784596,1.999789E-014,0.186196024751470));
#327=(BOUNDED_CURVE()B_SPLINE_CURVE(2,(#317,#318,#319),.UNSPECIFIED.,.F.,.U.)B_SPLINE_CURVE_WITH_KNOTS((3,3),(0.500000000000000,0.739333076779450),.UNSPECIFIED.)CURVE()GEOMETRIC_REPRESENTATION_ITEM()RATIONAL_B_SPLINE_CURVE((1.0,0.719603859094158,0.976072287148952))REPRESENTATION_ITEM(''));
#328=EDGE_CURVE('',#255,#311,#327,.T.);
#329=ORIENTED_EDGE('',*,*,#328,.F.);
#330=EDGE_LOOP('',(#270,#277,#294,#309,#316,#329));
#331=FACE_OUTER_BOUND('',#330,.T.);
#332=ADVANCED_FACE('',(#331),#251,.F.);
#333=CARTESIAN_POINT('',(-3.044311135186693,0.037500000000000,0.186198045581314));
#334=CARTESIAN_POINT('',(-3.230509180768007,0.037500000000000,-2.858113089605380));
#335=CARTESIAN_POINT('',(-0.186198045581314,0.037500000000000,-3.044311135186693));
#336=CARTESIAN_POINT('',(2.688707647060478,0.037500000000000,-3.220147900034209));
#337=CARTESIAN_POINT('',(3.028679055409183,0.037500000000000,-0.360004415703113));
#338=CARTESIAN_POINT('',(-3.044311135186693,-1.538437500000000,0.186198045581314));
#339=CARTESIAN_POINT('',(-3.230509180768007,-1.538437500000001,-2.858113089605380));
#340=CARTESIAN_POINT('',(-0.186198045581314,-1.538437500000000,-3.044311135186693));
#341=CARTESIAN_POINT('',(2.688707647060478,-1.538437500000000,-3.220147900034209));
#342=CARTESIAN_POINT('',(3.028679055409183,-1.538437500000000,-0.360004415703113));
#350=(BOUNDED_SURFACE()B_SPLINE_SURFACE(2,1,((#333,#338),(#334,#339),(#335,#340),(#336,#341),(#337,#342)),.UNSPECIFIED.,.F.,.F.,.U.)B_SPLINE_SURFACE_WITH_KNOTS((3,2,3),(2,2),(0.0,5.053405460951759,9.904674703465448),(0.0,1.0),.UNSPECIFIED.)GEOMETRIC_REPRESENTATION_ITEM()RATIONAL_B_SPLINE_SURFACE(((1.0,1.0),(0.707106781186548,0.707106781186548),(1.0,1.0),(0.718822509939086,0.718822509939086),(0.977505800795127,0.977505800795127)))REPRESENTATION_ITEM('')SURFACE());
#351=CARTESIAN_POINT('',(0.0,0.0,-3.050000000000000));
#352=VERTEX_POINT('',#351);
#353=CARTESIAN_POINT('',(0.0,0.0,-3.050000000000000));
#354=CARTESIAN_POINT('',(2.708933445926936,0.0,-3.049999999999999));
#355=CARTESIAN_POINT('',(3.028679206084498,-1.009417E-014,-0.360003148083099));
#363=(BOUNDED_CURVE()B_SPLINE_CURVE(2,(#353,#354,#355),.UNSPECIFIED.,.F.,.U.)B_SPLINE_CURVE_WITH_KNOTS((3,3),(0.0,0.229562544250081),.UNSPECIFIED.)CURVE()GEOMETRIC_REPRESENTATION_ITEM()RATIONAL_B_SPLINE_CURVE((1.0,0.731050749982353,0.956026892830323))REPRESENTATION_ITEM(''));
#364=EDGE_CURVE('',#352,#253,#363,.T.);
#365=ORIENTED_EDGE('',*,*,#364,.F.);
#366=CARTESIAN_POINT('',(-3.044311258784596,1.999789E-014,0.186196024751470));
#367=CARTESIAN_POINT('',(-3.050000000000001,0.0,0.093184914812721));
#368=CARTESIAN_POINT('',(-3.050000000000000,0.0,9.383179E-017));
#369=CARTESIAN_POINT('',(-3.050000000000001,0.0,-3.050000000000001));
#370=CARTESIAN_POINT('',(0.0,0.0,-3.050000000000000));
#378=(BOUNDED_CURVE()B_SPLINE_CURVE(2,(#366,#367,#368,#369,#370),.UNSPECIFIED.,.F.,.U.)B_SPLINE_CURVE_WITH_KNOTS((3,2,3),(0.739333076779450,0.750000000000000,1.0),.UNSPECIFIED.)CURVE()GEOMETRIC_REPRESENTATION_ITEM()RATIONAL_B_SPLINE_CURVE((0.976072287148952,0.987502922092389,1.0,0.707106781186547,1.0))REPRESENTATION_ITEM(''));
#379=EDGE_CURVE('',#311,#352,#378,.T.);
#380=ORIENTED_EDGE('',*,*,#379,.F.);
#381=ORIENTED_EDGE('',*,*,#315,.T.);
#382=CARTESIAN_POINT('',(0.0,-1.500000000000000,-3.050000000000000));
#383=VERTEX_POINT('',#382);
#384=CARTESIAN_POINT('',(-3.044311257293854,-1.500000000000000,0.186196049125409));
#385=CARTESIAN_POINT('',(-3.050000000000000,-1.500000000000000,0.093184927033860));
#386=CARTESIAN_POINT('',(-3.050000000000000,-1.500000000000000,9.383179E-017));
#387=CARTESIAN_POINT('',(-3.050000000000001,-1.500000000000000,-3.050000000000001));
#388=CARTESIAN_POINT('',(0.0,-1.500000000000000,-3.050000000000000));
#396=(BOUNDED_CURVE()B_SPLINE_CURVE(2,(#384,#385,#386,#387,#388),.UNSPECIFIED.,.F.,.U.)B_SPLINE_CURVE_WITH_KNOTS((3,2,3),(0.739333075397973,0.750000000000000,1.0),.UNSPECIFIED.)CURVE()GEOMETRIC_REPRESENTATION_ITEM()RATIONAL_B_SPLINE_CURVE((0.976072284188181,0.987502920473888,1.0,0.707106781186547,1.0))REPRESENTATION_ITEM(''));
#397=EDGE_CURVE('',#296,#383,#396,.T.);
#398=ORIENTED_EDGE('',*,*,#397,.T.);
#399=CARTESIAN_POINT('',(0.0,-1.500000000000000,-3.050000000000000));
#400=CARTESIAN_POINT('',(2.708933432186425,-1.500000000000000,-3.049999999999999));
#401=CARTESIAN_POINT('',(3.028679204271227,-1.500000000000000,-0.360003163338065));
#409=(BOUNDED_CURVE()B_SPLINE_CURVE(2,(#399,#400,#401),.UNSPECIFIED.,.F.,.U.)B_SPLINE_CURVE_WITH_KNOTS((3,3),(0.0,0.229562543398839),.UNSPECIFIED.)CURVE()GEOMETRIC_REPRESENTATION_ITEM()RATIONAL_B_SPLINE_CURVE((1.0,0.731050750979645,0.956026891161853))REPRESENTATION_ITEM(''));
#410=EDGE_CURVE('',#383,#272,#409,.T.);
#411=ORIENTED_EDGE('',*,*,#410,.T.);
#412=ORIENTED_EDGE('',*,*,#276,.F.);
#413=EDGE_LOOP('',(#365,#380,#381,#398,#411,#412));
#414=FACE_OUTER_BOUND('',#413,.T.);
#415=ADVANCED_FACE('',(#414),#350,.F.);
#416=CARTESIAN_POINT('',(-6.709240751474918,-5.602573E-016,6.709388876454037));
#417=CARTESIAN_POINT('',(-6.709240751474918,-5.602573E-016,-6.709389203683483));
#418=CARTESIAN_POINT('',(6.709277946555302,-5.602573E-016,6.709388876454037));
#419=CARTESIAN_POINT('',(6.709277946555302,-5.602573E-016,-6.709389203683483));
#420=B_SPLINE_SURFACE_WITH_KNOTS('',1,1,((#416,#418),(#417,#419)),.UNSPECIFIED.,.F.,.F.,.U.,(2,2),(2,2),(0.0,13.418778080137519),(0.0,13.418518698030219),.UNSPECIFIED.);
#421=ORIENTED_EDGE('',*,*,#225,.F.);
#422=ORIENTED_EDGE('',*,*,#98,.F.);
#423=ORIENTED_EDGE('',*,*,#83,.F.);
#424=ORIENTED_EDGE('',*,*,#178,.F.);
#425=EDGE_LOOP('',(#421,#422,#423,#424));
#426=FACE_OUTER_BOUND('',#425,.T.);
#427=ORIENTED_EDGE('',*,*,#328,.T.);
#428=ORIENTED_EDGE('',*,*,#379,.T.);
#429=ORIENTED_EDGE('',*,*,#364,.T.);
#430=ORIENTED_EDGE('',*,*,#269,.T.);
#431=EDGE_LOOP('',(#427,#428,#429,#430));
#432=FACE_BOUND('',#431,.T.);
#433=ADVANCED_FACE('',(#426,#432),#420,.F.);
#434=CARTESIAN_POINT('',(-6.709240751474923,-1.500000000000000,-6.709388876454037));
#435=CARTESIAN_POINT('',(-6.709240751474923,-1.500000000000000,6.709389203683483));
#436=CARTESIAN_POINT('',(6.709277946555305,-1.500000000000000,-6.709388876454037));
#437=CARTESIAN_POINT('',(6.709277946555305,-1.500000000000000,6.709389203683483));
#438=B_SPLINE_SURFACE_WITH_KNOTS('',1,1,((#434,#436),(#435,#437)),.UNSPECIFIED.,.F.,.F.,.U.,(2,2),(2,2),(0.0,13.418778080137519),(0.0,13.418518698030230),.UNSPECIFIED.);
#439=ORIENTED_EDGE('',*,*,#194,.T.);
#440=ORIENTED_EDGE('',*,*,#137,.T.);
#441=ORIENTED_EDGE('',*,*,#120,.T.);
#442=ORIENTED_EDGE('',*,*,#209,.T.);
#443=EDGE_LOOP('',(#439,#440,#441,#442));
#444=FACE_OUTER_BOUND('',#443,.T.);
#445=ORIENTED_EDGE('',*,*,#308,.F.);
#446=ORIENTED_EDGE('',*,*,#293,.F.);
#447=ORIENTED_EDGE('',*,*,#410,.F.);
#448=ORIENTED_EDGE('',*,*,#397,.F.);
#449=EDGE_LOOP('',(#445,#446,#447,#448));
#450=FACE_BOUND('',#449,.T.);
#451=ADVANCED_FACE('',(#444,#450),#438,.F.);
#452=CLOSED_SHELL('',(#146,#229,#332,#415,#433,#451));
#453=MANIFOLD_SOLID_BREP('washer',#452);
#459=(NAMED_UNIT(*)PLANE_ANGLE_UNIT()SI_UNIT($,.RADIAN.));
#460=DIMENSIONAL_EXPONENTS(0.0,0.0,0.0,0.0,0.0,0.0,0.0);
#461=PLANE_ANGLE_MEASURE_WITH_UNIT(PLANE_ANGLE_MEASURE(0.017453292500000),#459);
#465=(CONVERSION_BASED_UNIT('DEGREE',#461)NAMED_UNIT(#460)PLANE_ANGLE_UNIT());
#469=(NAMED_UNIT(*)SI_UNIT($,.STERADIAN.)SOLID_ANGLE_UNIT());
#473=(LENGTH_UNIT()NAMED_UNIT(*)SI_UNIT(.MILLI.,.METRE.));
#475=UNCERTAINTY_MEASURE_WITH_UNIT(LENGTH_MEASURE(0.001000000000000),#473,'DISTANCE_ACCURACY_VALUE','');
#477=(GEOMETRIC_REPRESENTATION_CONTEXT(3)GLOBAL_UNCERTAINTY_ASSIGNED_CONTEXT((#475))GLOBAL_UNIT_ASSIGNED_CONTEXT((#465,#469,#473))REPRESENTATION_CONTEXT('','3D'));
ENDSEC;
END-ISO-10303-21;
