ISO-10303-21;
HEADER;
/****************************************************************
 * Generated by software with PDE/Lib inside                    *
 * PDElib Version v5.1, created Sun 05/01/2005                  *
 * International Technegroup Inc. (www.iti-oh.com)              *
 ****************************************************************/
FILE_DESCRIPTION((''),'2;1');
FILE_NAME('','2008-01-20T09:58:28',(''),(''),'','CADfix','');
FILE_SCHEMA(('AUTOMOTIVE_DESIGN { 1 0 10303 214 1 1 1 1 }'));
ENDSEC;
DATA;
#5=CARTESIAN_POINT('',(-0.199799992247224,-1.776357E-015,31.498499941854181));
#6=CARTESIAN_POINT('',(4.199800099535585,-1.776357E-015,31.498499941854181));
#7=CARTESIAN_POINT('',(-0.199799992247224,-1.776357E-015,-1.498500746516883));
#8=CARTESIAN_POINT('',(4.199800099535585,-1.776357E-015,-1.498500746516883));
#9=B_SPLINE_SURFACE_WITH_KNOTS('',1,1,((#5,#7),(#6,#8)),.UNSPECIFIED.,.F.,.F.,.U.,(2,2),(2,2),(0.0,4.399600091782808),(0.0,32.997000688371060),.UNSPECIFIED.);
#10=CARTESIAN_POINT('',(4.0,0.0,0.0));
#11=VERTEX_POINT('',#10);
#12=CARTESIAN_POINT('',(0.0,0.0,0.0));
#13=VERTEX_POINT('',#12);
#14=CARTESIAN_POINT('',(4.0,0.0,0.0));
#15=CARTESIAN_POINT('',(0.0,0.0,0.0));
#16=QUASI_UNIFORM_CURVE('',1,(#14,#15),.UNSPECIFIED.,.F.,.U.);
#17=EDGE_CURVE('',#11,#13,#16,.T.);
#18=ORIENTED_EDGE('',*,*,#17,.F.);
#19=CARTESIAN_POINT('',(4.0,0.0,14.749999999972699));
#20=VERTEX_POINT('',#19);
#21=CARTESIAN_POINT('',(4.0,0.0,14.749999999972699));
#22=CARTESIAN_POINT('',(4.0,0.0,0.0));
#23=QUASI_UNIFORM_CURVE('',1,(#21,#22),.UNSPECIFIED.,.F.,.U.);
#24=EDGE_CURVE('',#20,#11,#23,.T.);
#25=ORIENTED_EDGE('',*,*,#24,.F.);
#26=CARTESIAN_POINT('',(4.0,0.0,15.249999999972649));
#27=VERTEX_POINT('',#26);
#28=CARTESIAN_POINT('',(4.0,0.0,15.249999999972649));
#29=CARTESIAN_POINT('',(3.761904761904786,0.0,14.999999999972674));
#30=CARTESIAN_POINT('',(3.999999999999977,0.0,14.749999999972680));
#38=(BOUNDED_CURVE()B_SPLINE_CURVE(2,(#28,#29,#30),.UNSPECIFIED.,.F.,.U.)CURVE()GEOMETRIC_REPRESENTATION_ITEM()QUASI_UNIFORM_CURVE()RATIONAL_B_SPLINE_CURVE((1.0,0.724137931034609,1.0))REPRESENTATION_ITEM(''));
#39=EDGE_CURVE('',#27,#20,#38,.T.);
#40=ORIENTED_EDGE('',*,*,#39,.F.);
#41=CARTESIAN_POINT('',(4.0,0.0,30.0));
#42=VERTEX_POINT('',#41);
#43=CARTESIAN_POINT('',(4.0,0.0,30.0));
#44=CARTESIAN_POINT('',(4.0,0.0,15.249999999972649));
#45=QUASI_UNIFORM_CURVE('',1,(#43,#44),.UNSPECIFIED.,.F.,.U.);
#46=EDGE_CURVE('',#42,#27,#45,.T.);
#47=ORIENTED_EDGE('',*,*,#46,.F.);
#48=CARTESIAN_POINT('',(0.0,0.0,30.0));
#49=VERTEX_POINT('',#48);
#50=CARTESIAN_POINT('',(0.0,0.0,30.0));
#51=CARTESIAN_POINT('',(4.0,0.0,30.0));
#52=QUASI_UNIFORM_CURVE('',1,(#50,#51),.UNSPECIFIED.,.F.,.U.);
#53=EDGE_CURVE('',#49,#42,#52,.T.);
#54=ORIENTED_EDGE('',*,*,#53,.F.);
#55=CARTESIAN_POINT('',(0.0,0.0,0.0));
#56=CARTESIAN_POINT('',(0.0,0.0,30.0));
#57=QUASI_UNIFORM_CURVE('',1,(#55,#56),.UNSPECIFIED.,.F.,.U.);
#58=EDGE_CURVE('',#13,#49,#57,.T.);
#59=ORIENTED_EDGE('',*,*,#58,.F.);
#60=EDGE_LOOP('',(#18,#25,#40,#47,#54,#59));
#61=FACE_OUTER_BOUND('',#60,.T.);
#62=ADVANCED_FACE('',(#61),#9,.F.);
#63=CARTESIAN_POINT('',(-0.199799992247224,200.0,31.498499941854181));
#64=CARTESIAN_POINT('',(4.199800099535585,200.0,31.498499941854181));
#65=CARTESIAN_POINT('',(-0.199799992247224,200.0,-1.498500746516883));
#66=CARTESIAN_POINT('',(4.199800099535585,200.0,-1.498500746516883));
#67=B_SPLINE_SURFACE_WITH_KNOTS('',1,1,((#63,#65),(#64,#66)),.UNSPECIFIED.,.F.,.F.,.U.,(2,2),(2,2),(0.0,4.399600091782808),(0.0,32.997000688371060),.UNSPECIFIED.);
#68=CARTESIAN_POINT('',(4.0,200.0,0.0));
#69=VERTEX_POINT('',#68);
#70=CARTESIAN_POINT('',(0.0,200.0,0.0));
#71=VERTEX_POINT('',#70);
#72=CARTESIAN_POINT('',(4.0,200.0,0.0));
#73=CARTESIAN_POINT('',(0.0,200.0,0.0));
#74=QUASI_UNIFORM_CURVE('',1,(#72,#73),.UNSPECIFIED.,.F.,.U.);
#75=EDGE_CURVE('',#69,#71,#74,.T.);
#76=ORIENTED_EDGE('',*,*,#75,.T.);
#77=CARTESIAN_POINT('',(0.0,200.0,30.0));
#78=VERTEX_POINT('',#77);
#79=CARTESIAN_POINT('',(0.0,200.0,0.0));
#80=CARTESIAN_POINT('',(0.0,200.0,30.0));
#81=QUASI_UNIFORM_CURVE('',1,(#79,#80),.UNSPECIFIED.,.F.,.U.);
#82=EDGE_CURVE('',#71,#78,#81,.T.);
#83=ORIENTED_EDGE('',*,*,#82,.T.);
#84=CARTESIAN_POINT('',(4.0,200.0,30.0));
#85=VERTEX_POINT('',#84);
#86=CARTESIAN_POINT('',(0.0,200.0,30.0));
#87=CARTESIAN_POINT('',(4.0,200.0,30.0));
#88=QUASI_UNIFORM_CURVE('',1,(#86,#87),.UNSPECIFIED.,.F.,.U.);
#89=EDGE_CURVE('',#78,#85,#88,.T.);
#90=ORIENTED_EDGE('',*,*,#89,.T.);
#91=CARTESIAN_POINT('',(4.0,200.0,15.249999999972649));
#92=VERTEX_POINT('',#91);
#93=CARTESIAN_POINT('',(4.0,200.0,30.0));
#94=CARTESIAN_POINT('',(4.0,200.0,15.249999999972649));
#95=QUASI_UNIFORM_CURVE('',1,(#93,#94),.UNSPECIFIED.,.F.,.U.);
#96=EDGE_CURVE('',#85,#92,#95,.T.);
#97=ORIENTED_EDGE('',*,*,#96,.T.);
#98=CARTESIAN_POINT('',(4.0,200.0,14.749999999972699));
#99=VERTEX_POINT('',#98);
#100=CARTESIAN_POINT('',(3.999999999999932,200.0,15.249999999972720));
#101=CARTESIAN_POINT('',(3.761904761904786,199.999999999999940,14.999999999972674));
#102=CARTESIAN_POINT('',(3.999999999999977,200.0,14.749999999972680));
#110=(BOUNDED_CURVE()B_SPLINE_CURVE(2,(#100,#101,#102),.UNSPECIFIED.,.F.,.U.)CURVE()GEOMETRIC_REPRESENTATION_ITEM()QUASI_UNIFORM_CURVE()RATIONAL_B_SPLINE_CURVE((1.0,0.724137931034609,1.0))REPRESENTATION_ITEM(''));
#111=EDGE_CURVE('',#92,#99,#110,.T.);
#112=ORIENTED_EDGE('',*,*,#111,.T.);
#113=CARTESIAN_POINT('',(4.0,200.0,14.749999999972699));
#114=CARTESIAN_POINT('',(4.0,200.0,0.0));
#115=QUASI_UNIFORM_CURVE('',1,(#113,#114),.UNSPECIFIED.,.F.,.U.);
#116=EDGE_CURVE('',#99,#69,#115,.T.);
#117=ORIENTED_EDGE('',*,*,#116,.T.);
#118=EDGE_LOOP('',(#76,#83,#90,#97,#112,#117));
#119=FACE_OUTER_BOUND('',#118,.T.);
#120=ADVANCED_FACE('',(#119),#67,.T.);
#121=CARTESIAN_POINT('',(4.0,-9.989999612361171,-0.736762471410273));
#122=CARTESIAN_POINT('',(4.0,-9.989999612361171,15.486762867008800));
#123=CARTESIAN_POINT('',(4.0,209.990004976779200,-0.736762471410273));
#124=CARTESIAN_POINT('',(4.0,209.990004976779200,15.486762867008800));
#125=B_SPLINE_SURFACE_WITH_KNOTS('',1,1,((#121,#123),(#122,#124)),.UNSPECIFIED.,.F.,.F.,.U.,(2,2),(2,2),(0.0,16.223525338419080),(0.0,219.980004589140410),.UNSPECIFIED.);
#126=ORIENTED_EDGE('',*,*,#24,.T.);
#127=CARTESIAN_POINT('',(4.0,200.0,0.0));
#128=CARTESIAN_POINT('',(4.0,0.0,0.0));
#129=QUASI_UNIFORM_CURVE('',1,(#127,#128),.UNSPECIFIED.,.F.,.U.);
#130=EDGE_CURVE('',#69,#11,#129,.T.);
#131=ORIENTED_EDGE('',*,*,#130,.F.);
#132=ORIENTED_EDGE('',*,*,#116,.F.);
#133=CARTESIAN_POINT('',(4.0,200.0,14.749999999972699));
#134=CARTESIAN_POINT('',(4.0,0.0,14.749999999972699));
#135=QUASI_UNIFORM_CURVE('',1,(#133,#134),.UNSPECIFIED.,.F.,.U.);
#136=EDGE_CURVE('',#99,#20,#135,.T.);
#137=ORIENTED_EDGE('',*,*,#136,.T.);
#138=EDGE_LOOP('',(#126,#131,#132,#137));
#139=FACE_OUTER_BOUND('',#138,.T.);
#140=ADVANCED_FACE('',(#139),#125,.F.);
#141=CARTESIAN_POINT('',(4.010218803665709,205.0,14.739691629042831));
#142=CARTESIAN_POINT('',(4.010218803665709,-5.125000000000000,14.739691629042831));
#143=CARTESIAN_POINT('',(3.733872890565389,205.000000000000060,15.007515815065030));
#144=CARTESIAN_POINT('',(3.733872890565389,-5.125000000000001,15.007515815065030));
#145=CARTESIAN_POINT('',(4.017721206409779,205.000000000000030,15.267375376940295));
#146=CARTESIAN_POINT('',(4.017721206409779,-5.125000000000000,15.267375376940295));
#154=(BOUNDED_SURFACE()B_SPLINE_SURFACE(1,2,((#141,#143,#145),(#142,#144,#146)),.UNSPECIFIED.,.F.,.F.,.U.)B_SPLINE_SURFACE_WITH_KNOTS((2,2),(3,3),(0.0,210.125000000000000),(0.0,0.993135704241134),.UNSPECIFIED.)GEOMETRIC_REPRESENTATION_ITEM()RATIONAL_B_SPLINE_SURFACE(((1.0,0.684181217370833,0.995664252939657),(1.0,0.684181217370833,0.995664252939657)))REPRESENTATION_ITEM('')SURFACE());
#155=ORIENTED_EDGE('',*,*,#39,.T.);
#156=ORIENTED_EDGE('',*,*,#136,.F.);
#157=ORIENTED_EDGE('',*,*,#111,.F.);
#158=CARTESIAN_POINT('',(4.0,200.0,15.249999999972649));
#159=CARTESIAN_POINT('',(4.0,0.0,15.249999999972649));
#160=QUASI_UNIFORM_CURVE('',1,(#158,#159),.UNSPECIFIED.,.F.,.U.);
#161=EDGE_CURVE('',#92,#27,#160,.T.);
#162=ORIENTED_EDGE('',*,*,#161,.T.);
#163=EDGE_LOOP('',(#155,#156,#157,#162));
#164=FACE_OUTER_BOUND('',#163,.T.);
#165=ADVANCED_FACE('',(#164),#154,.F.);
#166=CARTESIAN_POINT('',(4.0,-9.989999612361194,14.513237528559641));
#167=CARTESIAN_POINT('',(4.0,-9.989999612361194,30.736762867038831));
#168=CARTESIAN_POINT('',(4.0,209.990004976779200,14.513237528559641));
#169=CARTESIAN_POINT('',(4.0,209.990004976779200,30.736762867038831));
#170=B_SPLINE_SURFACE_WITH_KNOTS('',1,1,((#166,#168),(#167,#169)),.UNSPECIFIED.,.F.,.F.,.U.,(2,2),(2,2),(0.0,16.223525338479192),(0.0,219.980004589140410),.UNSPECIFIED.);
#171=ORIENTED_EDGE('',*,*,#46,.T.);
#172=ORIENTED_EDGE('',*,*,#161,.F.);
#173=ORIENTED_EDGE('',*,*,#96,.F.);
#174=CARTESIAN_POINT('',(4.0,200.0,30.0));
#175=CARTESIAN_POINT('',(4.0,0.0,30.0));
#176=QUASI_UNIFORM_CURVE('',1,(#174,#175),.UNSPECIFIED.,.F.,.U.);
#177=EDGE_CURVE('',#85,#42,#176,.T.);
#178=ORIENTED_EDGE('',*,*,#177,.T.);
#179=EDGE_LOOP('',(#171,#172,#173,#178));
#180=FACE_OUTER_BOUND('',#179,.T.);
#181=ADVANCED_FACE('',(#180),#170,.F.);
#182=CARTESIAN_POINT('',(4.199799992247224,-9.989999612361194,30.0));
#183=CARTESIAN_POINT('',(-0.199800099535584,-9.989999612361194,30.0));
#184=CARTESIAN_POINT('',(4.199799992247224,209.990004976779200,30.0));
#185=CARTESIAN_POINT('',(-0.199800099535584,209.990004976779200,30.0));
#186=B_SPLINE_SURFACE_WITH_KNOTS('',1,1,((#182,#184),(#183,#185)),.UNSPECIFIED.,.F.,.F.,.U.,(2,2),(2,2),(0.0,4.399600091782808),(0.0,219.980004589140410),.UNSPECIFIED.);
#187=ORIENTED_EDGE('',*,*,#53,.T.);
#188=ORIENTED_EDGE('',*,*,#177,.F.);
#189=ORIENTED_EDGE('',*,*,#89,.F.);
#190=CARTESIAN_POINT('',(0.0,200.0,30.0));
#191=CARTESIAN_POINT('',(0.0,0.0,30.0));
#192=QUASI_UNIFORM_CURVE('',1,(#190,#191),.UNSPECIFIED.,.F.,.U.);
#193=EDGE_CURVE('',#78,#49,#192,.T.);
#194=ORIENTED_EDGE('',*,*,#193,.T.);
#195=EDGE_LOOP('',(#187,#188,#189,#194));
#196=FACE_OUTER_BOUND('',#195,.T.);
#197=ADVANCED_FACE('',(#196),#186,.F.);
#198=CARTESIAN_POINT('',(0.0,-9.989999612361194,31.498499941854181));
#199=CARTESIAN_POINT('',(0.0,-9.989999612361194,-1.498500746516883));
#200=CARTESIAN_POINT('',(0.0,209.990004976779200,31.498499941854181));
#201=CARTESIAN_POINT('',(0.0,209.990004976779200,-1.498500746516883));
#202=B_SPLINE_SURFACE_WITH_KNOTS('',1,1,((#198,#200),(#199,#201)),.UNSPECIFIED.,.F.,.F.,.U.,(2,2),(2,2),(0.0,32.997000688371060),(0.0,219.980004589140410),.UNSPECIFIED.);
#203=ORIENTED_EDGE('',*,*,#58,.T.);
#204=ORIENTED_EDGE('',*,*,#193,.F.);
#205=ORIENTED_EDGE('',*,*,#82,.F.);
#206=CARTESIAN_POINT('',(0.0,200.0,0.0));
#207=CARTESIAN_POINT('',(0.0,0.0,0.0));
#208=QUASI_UNIFORM_CURVE('',1,(#206,#207),.UNSPECIFIED.,.F.,.U.);
#209=EDGE_CURVE('',#71,#13,#208,.T.);
#210=ORIENTED_EDGE('',*,*,#209,.T.);
#211=EDGE_LOOP('',(#203,#204,#205,#210));
#212=FACE_OUTER_BOUND('',#211,.T.);
#213=ADVANCED_FACE('',(#212),#202,.F.);
#214=CARTESIAN_POINT('',(-0.199799992247224,-9.989999612361171,0.0));
#215=CARTESIAN_POINT('',(4.199800099535585,-9.989999612361171,0.0));
#216=CARTESIAN_POINT('',(-0.199799992247224,209.990004976779200,0.0));
#217=CARTESIAN_POINT('',(4.199800099535585,209.990004976779200,0.0));
#218=B_SPLINE_SURFACE_WITH_KNOTS('',1,1,((#214,#216),(#215,#217)),.UNSPECIFIED.,.F.,.F.,.U.,(2,2),(2,2),(0.0,4.399600091782808),(0.0,219.980004589140410),.UNSPECIFIED.);
#219=ORIENTED_EDGE('',*,*,#17,.T.);
#220=ORIENTED_EDGE('',*,*,#209,.F.);
#221=ORIENTED_EDGE('',*,*,#75,.F.);
#222=ORIENTED_EDGE('',*,*,#130,.T.);
#223=EDGE_LOOP('',(#219,#220,#221,#222));
#224=FACE_OUTER_BOUND('',#223,.T.);
#225=ADVANCED_FACE('',(#224),#218,.F.);
#226=CLOSED_SHELL('',(#62,#120,#140,#165,#181,#197,#213,#225));
#227=MANIFOLD_SOLID_BREP('magnet',#226);
#233=(NAMED_UNIT(*)PLANE_ANGLE_UNIT()SI_UNIT($,.RADIAN.));
#234=DIMENSIONAL_EXPONENTS(0.0,0.0,0.0,0.0,0.0,0.0,0.0);
#235=PLANE_ANGLE_MEASURE_WITH_UNIT(PLANE_ANGLE_MEASURE(0.017453292500000),#233);
#239=(CONVERSION_BASED_UNIT('DEGREE',#235)NAMED_UNIT(#234)PLANE_ANGLE_UNIT());
#243=(NAMED_UNIT(*)SI_UNIT($,.STERADIAN.)SOLID_ANGLE_UNIT());
#247=(LENGTH_UNIT()NAMED_UNIT(*)SI_UNIT(.MILLI.,.METRE.));
#249=UNCERTAINTY_MEASURE_WITH_UNIT(LENGTH_MEASURE(0.001000000000000),#247,'DISTANCE_ACCURACY_VALUE','');
#251=(GEOMETRIC_REPRESENTATION_CONTEXT(3)GLOBAL_UNCERTAINTY_ASSIGNED_CONTEXT((#249))GLOBAL_UNIT_ASSIGNED_CONTEXT((#239,#243,#247))REPRESENTATION_CONTEXT('','3D'));
#252=ADVANCED_BREP_SHAPE_REPRESENTATION('',(#227),#251);
#253=APPLICATION_CONTEXT('automotive design');
#254=APPLICATION_PROTOCOL_DEFINITION('International Standard','automotive_design',2001,#253);
#255=PRODUCT_CONTEXT('',#253,'mechanical');
#256=PRODUCT('67109119','',$,(#255));
#257=PRODUCT_RELATED_PRODUCT_CATEGORY('part',$,(#256));
#258=PRODUCT_DEFINITION_FORMATION('',$,#256);
#259=PRODUCT_DEFINITION_CONTEXT('part definition',#253,'design');
#260=DOCUMENT_TYPE('cad_filename');
#261=DOCUMENT('67109124','step_model',$,#260);
#262=PRODUCT_DEFINITION_WITH_ASSOCIATED_DOCUMENTS('',$,#258,#259,(#261));
#263=PRODUCT_DEFINITION_SHAPE('',$,#262);
#264=SHAPE_DEFINITION_REPRESENTATION(#263,#252);
ENDSEC;
END-ISO-10303-21;
