  0
SECTION
  2
HEADER
  9
$ACADVER
  1
AC1014
  9
$DWGCODEPAGE
  3
ANSI_932
  9
$LTSCALE
 40
20.0
  9
$FILLMODE
 70
     1
  9
$CLAYER
  8
0
  9
$PDMODE
 70
     0
  9
$SPLFRAME
 70
     0
  9
$SPLINETYPE
 70
     6
  9
$SPLINESEGS
 70
     8
  9
$DIMASZ
 40
2.000000
  9
$DIMEXE
 40
1.500000
  9
$DIMEXO
 40
0.800000
  9
$DIMTAD
 70
     1
  9
$DIMTIH
 70
     0
  9
$DIMTOH
 70
     0
  9
$DIMTVP
 40
0.500000
  9
$DIMTXT
 40
3.100000
  9
$EXTMIN
 10
0.000000
 20
0.000000
 30
0.000000
  9
$EXTMAX
 10
297.000000
 20
420.000000
 30
0.000000
  9
$MEASUREMENT
 70
  1
  9
$LIMMIN
 10
0.000000
 20
0.000000
  9
$LIMMAX
 10
297.000000
 20
420.000000
  9
$HANDLING
 70
     1
  9
$HANDSEED
  5
12A
  9
$DIMBLK
  1
_OPEN
  9
$DIMDEC
 70
     2
  9
$DIMAUNIT
 70
     0
  9
$DIMZIN
 70
     8
  9
$DIMTOFL
 70
     1
  0
ENDSEC
  0
SECTION
  2
CLASSES
  0
ENDSEC
  0
SECTION
  2
TABLES
  0
TABLE
  2
VPORT
  5
F8
100
AcDbSymbolTable
 70
     1
  0
VPORT
  5
F9
100
AcDbSymbolTableRecord
100
AcDbViewportTableRecord
  2
*ACTIVE
 70
     0
 12
63.598864
 22
84.559338
 40
133.118674
 41
0.805279
  0
ENDTAB
  0
TABLE
  2
LTYPE
  5
FA
100
AcDbSymbolTable
 70
     4
  0
LTYPE
  5
FB
100
AcDbSymbolTableRecord
100
AcDbLinetypeTableRecord
  2
BYBLOCK
 70
     0
  3

 72
    65
 73
     0
 40
0.0
  0
LTYPE
  5
FC
100
AcDbSymbolTableRecord
100
AcDbLinetypeTableRecord
  2
BYLAYER
 70
     0
  3

 72
    65
 73
     0
 40
0.0
  0
LTYPE
  5
FD
100
AcDbSymbolTableRecord
100
AcDbLinetypeTableRecord
  2
CONTINUOUS
 70
     0
  3
Solid line (NEC CAE2D for Win R18.0 : 2026.01.06)
 72
    65
 73
     0
 40
0.0
  0
LTYPE
  5
FE
100
AcDbSymbolTableRecord
100
AcDbLinetypeTableRecord
  2
DASHED
 70
     0
  3
__ __ __ __ __ __ __ __ __ __ __ __ __ _
 72
    65
 73
     2
 40
0.75
 49
0.5
 74
     0
 49
-0.25
 74
     0
  0
LTYPE
  5
FF
100
AcDbSymbolTableRecord
100
AcDbLinetypeTableRecord
  2
CENTER
 70
     0
  3
____ _ ____ _ ____ _ ____ _ ____ _ ____
 72
    65
 73
     4
 40
2.0
 49
1.25
 74
     0
 49
-0.25
 74
     0
 49
0.25
 74
     0
 49
-0.25
 74
     0
  0
LTYPE
  5
100
100
AcDbSymbolTableRecord
100
AcDbLinetypeTableRecord
  2
PHANTOM
 70
     0
  3
______  __  __  ______  __  __  ______ 
 72
    65
 73
     6
 40
2.5
 49
1.25
 74
     0
 49
-0.25
 74
     0
 49
0.25
 74
     0
 49
-0.25
 74
     0
 49
0.25
 74
     0
 49
-0.25
 74
     0
  0
ENDTAB
  0
TABLE
  2
LAYER
  5
101
100
AcDbSymbolTable
 70
    17
  0
LAYER
  5
102
100
AcDbSymbolTableRecord
100
AcDbLayerTableRecord
  2
0
 70
     0
 62
     7
  6
CONTINUOUS
  0
LAYER
  5
103
100
AcDbSymbolTableRecord
100
AcDbLayerTableRecord
  2
A0
 70
     0
 62
     9
  6
CONTINUOUS
  0
LAYER
  5
104
100
AcDbSymbolTableRecord
100
AcDbLayerTableRecord
  2
A1
 70
     0
 62
    12
  6
CONTINUOUS
  0
LAYER
  5
105
100
AcDbSymbolTableRecord
100
AcDbLayerTableRecord
  2
A2
 70
     0
 62
    12
  6
CONTINUOUS
  0
LAYER
  5
106
100
AcDbSymbolTableRecord
100
AcDbLayerTableRecord
  2
A3
 70
     0
 62
    10
  6
CONTINUOUS
  0
LAYER
  5
107
100
AcDbSymbolTableRecord
100
AcDbLayerTableRecord
  2
A4
 70
     0
 62
     9
  6
CONTINUOUS
  0
LAYER
  5
108
100
AcDbSymbolTableRecord
100
AcDbLayerTableRecord
  2
A5
 70
     0
 62
     8
  6
CONTINUOUS
  0
LAYER
  5
109
100
AcDbSymbolTableRecord
100
AcDbLayerTableRecord
  2
A6
 70
     0
 62
    12
  6
CONTINUOUS
  0
LAYER
  5
10A
100
AcDbSymbolTableRecord
100
AcDbLayerTableRecord
  2
A7
 70
     0
 62
    13
  6
CONTINUOUS
  0
LAYER
  5
10B
100
AcDbSymbolTableRecord
100
AcDbLayerTableRecord
  2
A8
 70
     0
 62
    10
  6
CONTINUOUS
  0
LAYER
  5
10C
100
AcDbSymbolTableRecord
100
AcDbLayerTableRecord
  2
A9
 70
     0
 62
     9
  6
CONTINUOUS
  0
LAYER
  5
10D
100
AcDbSymbolTableRecord
100
AcDbLayerTableRecord
  2
A10
 70
     0
 62
     6
  6
CONTINUOUS
  0
LAYER
  5
10E
100
AcDbSymbolTableRecord
100
AcDbLayerTableRecord
  2
A20
 70
     0
 62
     1
  6
CONTINUOUS
  0
LAYER
  5
10F
100
AcDbSymbolTableRecord
100
AcDbLayerTableRecord
  2
A30
 70
     0
 62
     1
  6
CONTINUOUS
  0
LAYER
  5
110
100
AcDbSymbolTableRecord
100
AcDbLayerTableRecord
  2
A40
 70
     0
 62
     9
  6
CONTINUOUS
  0
LAYER
  5
111
100
AcDbSymbolTableRecord
100
AcDbLayerTableRecord
  2
A50
 70
     0
 62
    12
  6
CONTINUOUS
  0
LAYER
  5
112
100
AcDbSymbolTableRecord
100
AcDbLayerTableRecord
  2
A1023
 70
     0
 62
    16
  6
CONTINUOUS
  0
ENDTAB
  0
TABLE
  2
STYLE
  5
113
100
AcDbSymbolTable
 70
     4
  0
STYLE
  5
114
100
AcDbSymbolTableRecord
100
AcDbTextStyleTableRecord
  2
STANDARD
 70
    64
 40
0.0
 41
1.0
 50
0.0
 71
     0
 42
3.000000000000000
  3
TXT
  4

  0
STYLE
  5
115
100
AcDbSymbolTableRecord
100
AcDbTextStyleTableRecord
  2
ANKTATE
 70
    68
 40
0.0
 41
1.0
 50
0.0
 71
     0
 42
3.000000000000000
  3
TXT
  4

  0
STYLE
  5
116
100
AcDbSymbolTableRecord
100
AcDbTextStyleTableRecord
  2
KNJYOKO
 70
    64
 40
0.0
 41
1.0
 50
0.0
 71
     0
 42
3.000000000000000
  3
TXT
  4
BIGFONT
  0
STYLE
  5
117
100
AcDbSymbolTableRecord
100
AcDbTextStyleTableRecord
  2
KNJTATE
 70
    68
 40
0.0
 41
1.0
 50
0.0
 71
     0
 42
3.000000000000000
  3
TXT
  4
BIGFONT
  0
ENDTAB
  0
TABLE
  2
VIEW
  5
118
100
AcDbSymbolTable
 70
     0
  0
ENDTAB
  0
TABLE
  2
UCS
  5
119
100
AcDbSymbolTable
 70
     0
  0
ENDTAB
  0
TABLE
  2
APPID
  5
11A
100
AcDbSymbolTable
 70
     1
  0
APPID
  5
11B
100
AcDbSymbolTableRecord
100
AcDbRegAppTableRecord
  2
ACAD
 70
     0
  0
ENDTAB
  0
TABLE
  2
DIMSTYLE
  5
11C
100
AcDbSymbolTable
 70
     2
  0
DIMSTYLE
105
11D
100
AcDbSymbolTableRecord
100
AcDbDimStyleTableRecord
  2
STANDARD
 70
     0
 41
2.000000
 44
1.500000
 42
0.800000
145
0.661290
140
3.100000
144
1.000000
146
0.645161
340
114
  0
DIMSTYLE
105
11E
100
AcDbSymbolTableRecord
100
AcDbDimStyleTableRecord
  2
A001
 70
     0
 41
2.000000
 44
1.500000
 42
0.800000
145
0.661290
140
3.100000
144
1.000000
146
0.645161
 77
     1
 73
     0
 74
     0
271
     2
275
     0
 78
     8
172
     1
340
114
  0
ENDTAB
  0
TABLE
  2
BLOCK_RECORD
  5
11F
100
AcDbSymbolTable
 70
    12
  0
BLOCK_RECORD
  5
120
100
AcDbSymbolTableRecord
100
AcDbBlockTableRecord
  2
*MODEL_SPACE
  0
BLOCK_RECORD
  5
121
100
AcDbSymbolTableRecord
100
AcDbBlockTableRecord
  2
*PAPER_SPACE
  0
BLOCK_RECORD
  5
1
100
AcDbSymbolTableRecord
100
AcDbBlockTableRecord
  2
_NONE
  0
BLOCK_RECORD
  5
4
100
AcDbSymbolTableRecord
100
AcDbBlockTableRecord
  2
_CLOSED
  0
BLOCK_RECORD
  5
B
100
AcDbSymbolTableRecord
100
AcDbBlockTableRecord
  2
_DOT
  0
BLOCK_RECORD
  5
13
100
AcDbSymbolTableRecord
100
AcDbBlockTableRecord
  2
_OPEN
  0
BLOCK_RECORD
  5
19
100
AcDbSymbolTableRecord
100
AcDbBlockTableRecord
  2
_ORIGIN
  0
BLOCK_RECORD
  5
1E
100
AcDbSymbolTableRecord
100
AcDbBlockTableRecord
  2
_OPEN30
  0
BLOCK_RECORD
  5
24
100
AcDbSymbolTableRecord
100
AcDbBlockTableRecord
  2
_BOXFILLED
  0
BLOCK_RECORD
  5
29
100
AcDbSymbolTableRecord
100
AcDbBlockTableRecord
  2
_BOXBLANK
  0
BLOCK_RECORD
  5
31
100
AcDbSymbolTableRecord
100
AcDbBlockTableRecord
  2
_OBLIQUE
  0
BLOCK_RECORD
  5
35
100
AcDbSymbolTableRecord
100
AcDbBlockTableRecord
  2
_OPEN90
  0
BLOCK_RECORD
  5
3B
100
AcDbSymbolTableRecord
100
AcDbBlockTableRecord
  2
_CLOSEDBLANK
  0
BLOCK_RECORD
  5
41
100
AcDbSymbolTableRecord
100
AcDbBlockTableRecord
  2
_DOTBLANK
  0
ENDTAB
  0
ENDSEC
  0
SECTION
  2
BLOCKS
  0
BLOCK
  5
122
100
AcDbEntity
  8
0
100
AcDbBlockBegin
  2
*MODEL_SPACE
 70
     0
 10
0.0
 20
0.0
 30
0.0
  3
*MODEL_SPACE
  1

  0
ENDBLK
  5
123
100
AcDbEntity
  8
0
100
AcDbBlockEnd
  0
BLOCK
  5
124
100
AcDbEntity
  8
0
100
AcDbBlockBegin
  2
*PAPER_SPACE
 70
     0
 10
0.0
 20
0.0
 30
0.0
  3
*PAPER_SPACE
  1

  0
ENDBLK
  5
125
100
AcDbEntity
  8
0
100
AcDbBlockEnd
  0
BLOCK
  5
2
100
AcDbEntity
  8
0
100
AcDbBlockBegin
  2
_NONE
 70
     0
 10
0.0
 20
0.0
 30
0.0
  3
_NONE
  1

  0
ENDBLK
  5
3
100
AcDbEntity
  8
0
100
AcDbBlockEnd
  0
BLOCK
  5
5
100
AcDbEntity
  8
0
100
AcDbBlockBegin
  2
_CLOSED
 70
     0
 10
0.0
 20
0.0
 30
0.0
  3
_CLOSED
  1

  0
LINE
  5
6
100
AcDbEntity
  8
0
  6
BYBLOCK
 62
     0
100
AcDbLine
 10
-1.0
 20
0.166667
 30
0.0
 11
0.0
 21
0.0
 31
0.0
  0
LINE
  5
7
100
AcDbEntity
  8
0
  6
BYBLOCK
 62
     0
100
AcDbLine
 10
0.0
 20
0.0
 30
0.0
 11
-1.0
 21
-0.166667
 31
0.0
  0
LINE
  5
8
100
AcDbEntity
  8
0
  6
BYBLOCK
 62
     0
100
AcDbLine
 10
-1.0
 20
0.166667
 30
0.0
 11
-1.0
 21
-0.166667
 31
0.0
  0
LINE
  5
9
100
AcDbEntity
  8
0
  6
BYBLOCK
 62
     0
100
AcDbLine
 10
0.0
 20
0.0
 30
0.0
 11
-1.0
 21
0.0
 31
0.0
  0
ENDBLK
  5
A
100
AcDbEntity
  8
0
100
AcDbBlockEnd
  0
BLOCK
  5
C
100
AcDbEntity
  8
0
100
AcDbBlockBegin
  2
_DOT
 70
     0
 10
0.0
 20
0.0
 30
0.0
  3
_DOT
  1

  0
POLYLINE
  5
D
100
AcDbEntity
  8
0
  6
BYBLOCK
 62
     0
100
AcDb2dPolyline
 66
     1
 10
0.0
 20
0.0
 30
0.0
 70
     1
 40
0.5
 41
0.5
  0
VERTEX
  5
E
100
AcDbEntity
  8
0
  6
BYBLOCK
 62
     0
100
AcDbVertex
100
AcDb2dVertex
 10
-0.25
 20
0.0
 30
0.0
 42
1.0
  0
VERTEX
  5
F
100
AcDbEntity
  8
0
  6
BYBLOCK
 62
     0
100
AcDbVertex
100
AcDb2dVertex
 10
0.25
 20
0.0
 30
0.0
 42
1.0
  0
SEQEND
  5
10
100
AcDbEntity
  8
0
  6
BYBLOCK
 62
     0
  0
LINE
  5
11
100
AcDbEntity
  8
0
  6
BYBLOCK
 62
     0
100
AcDbLine
 10
-0.5
 20
0.0
 30
0.0
 11
-1.0
 21
0.0
 31
0.0
  0
ENDBLK
  5
12
100
AcDbEntity
  8
0
100
AcDbBlockEnd
  0
BLOCK
  5
14
100
AcDbEntity
  8
0
100
AcDbBlockBegin
  2
_OPEN
 70
     0
 10
0.0
 20
0.0
 30
0.0
  3
_OPEN
  1

  0
LINE
  5
15
100
AcDbEntity
  8
0
  6
BYBLOCK
 62
     0
100
AcDbLine
 10
-1.0
 20
0.166667
 30
0.0
 11
0.0
 21
0.0
 31
0.0
  0
LINE
  5
16
100
AcDbEntity
  8
0
  6
BYBLOCK
 62
     0
100
AcDbLine
 10
0.0
 20
0.0
 30
0.0
 11
-1.0
 21
-0.166667
 31
0.0
  0
LINE
  5
17
100
AcDbEntity
  8
0
  6
BYBLOCK
 62
     0
100
AcDbLine
 10
0.0
 20
0.0
 30
0.0
 11
-1.0
 21
0.0
 31
0.0
  0
ENDBLK
  5
18
100
AcDbEntity
  8
0
100
AcDbBlockEnd
  0
BLOCK
  5
1A
100
AcDbEntity
  8
0
100
AcDbBlockBegin
  2
_ORIGIN
 70
     0
 10
0.0
 20
0.0
 30
0.0
  3
_ORIGIN
  1

  0
CIRCLE
  5
1B
100
AcDbEntity
  8
0
  6
BYBLOCK
 62
     0
100
AcDbCircle
 10
0.0
 20
0.0
 30
0.0
 40
0.5
  0
LINE
  5
1C
100
AcDbEntity
  8
0
  6
BYBLOCK
 62
     0
100
AcDbLine
 10
0.0
 20
0.0
 30
0.0
 11
-1.0
 21
0.0
 31
0.0
  0
ENDBLK
  5
1D
100
AcDbEntity
  8
0
100
AcDbBlockEnd
  0
BLOCK
  5
1F
100
AcDbEntity
  8
0
100
AcDbBlockBegin
  2
_OPEN30
 70
     0
 10
0.0
 20
0.0
 30
0.0
  3
_OPEN30
  1

  0
LINE
  5
20
100
AcDbEntity
  8
0
  6
BYBLOCK
 62
     0
100
AcDbLine
 10
-1.0
 20
0.267949
 30
0.0
 11
0.0
 21
0.0
 31
0.0
  0
LINE
  5
21
100
AcDbEntity
  8
0
  6
BYBLOCK
 62
     0
100
AcDbLine
 10
0.0
 20
0.0
 30
0.0
 11
-1.0
 21
-0.267949
 31
0.0
  0
LINE
  5
22
100
AcDbEntity
  8
0
  6
BYBLOCK
 62
     0
100
AcDbLine
 10
0.0
 20
0.0
 30
0.0
 11
-1.0
 21
0.0
 31
0.0
  0
ENDBLK
  5
23
100
AcDbEntity
  8
0
100
AcDbBlockEnd
  0
BLOCK
  5
25
100
AcDbEntity
  8
0
100
AcDbBlockBegin
  2
_BOXFILLED
 70
     0
 10
0.0
 20
0.0
 30
0.0
  3
_BOXFILLED
  1

  0
SOLID
  5
26
100
AcDbEntity
  8
0
  6
BYBLOCK
 62
     0
100
AcDbTrace
 10
-0.5
 20
0.5
 30
0.0
 11
0.5
 21
0.5
 31
0.0
 12
-0.5
 22
-0.5
 32
0.0
 13
0.5
 23
-0.5
 33
0.0
  0
LINE
  5
27
100
AcDbEntity
  8
0
  6
BYBLOCK
 62
     0
100
AcDbLine
 10
-0.5
 20
0.0
 30
0.0
 11
-1.0
 21
0.0
 31
0.0
  0
ENDBLK
  5
28
100
AcDbEntity
  8
0
100
AcDbBlockEnd
  0
BLOCK
  5
2A
100
AcDbEntity
  8
0
100
AcDbBlockBegin
  2
_BOXBLANK
 70
     0
 10
0.0
 20
0.0
 30
0.0
  3
_BOXBLANK
  1

  0
LINE
  5
2B
100
AcDbEntity
  8
0
  6
BYBLOCK
 62
     0
100
AcDbLine
 10
-0.5
 20
-0.5
 30
0.0
 11
0.5
 21
-0.5
 31
0.0
  0
LINE
  5
2C
100
AcDbEntity
  8
0
  6
BYBLOCK
 62
     0
100
AcDbLine
 10
0.5
 20
-0.5
 30
0.0
 11
0.5
 21
0.5
 31
0.0
  0
LINE
  5
2D
100
AcDbEntity
  8
0
  6
BYBLOCK
 62
     0
100
AcDbLine
 10
0.5
 20
0.5
 30
0.0
 11
-0.5
 21
0.5
 31
0.0
  0
LINE
  5
2E
100
AcDbEntity
  8
0
  6
BYBLOCK
 62
     0
100
AcDbLine
 10
-0.5
 20
0.5
 30
0.0
 11
-0.5
 21
-0.5
 31
0.0
  0
LINE
  5
2F
100
AcDbEntity
  8
0
  6
BYBLOCK
 62
     0
100
AcDbLine
 10
-0.5
 20
0.0
 30
0.0
 11
-1.0
 21
0.0
 31
0.0
  0
ENDBLK
  5
30
100
AcDbEntity
  8
0
100
AcDbBlockEnd
  0
BLOCK
  5
32
100
AcDbEntity
  8
0
100
AcDbBlockBegin
  2
_OBLIQUE
 70
     0
 10
0.0
 20
0.0
 30
0.0
  3
_OBLIQUE
  1

  0
LINE
  5
33
100
AcDbEntity
  8
0
  6
BYBLOCK
 62
     0
100
AcDbLine
 10
-0.5
 20
-0.5
 30
0.0
 11
0.5
 21
0.5
 31
0.0
  0
ENDBLK
  5
34
100
AcDbEntity
  8
0
100
AcDbBlockEnd
  0
BLOCK
  5
36
100
AcDbEntity
  8
0
100
AcDbBlockBegin
  2
_OPEN90
 70
     0
 10
0.0
 20
0.0
 30
0.0
  3
_OPEN90
  1

  0
LINE
  5
37
100
AcDbEntity
  8
0
  6
BYBLOCK
 62
     0
100
AcDbLine
 10
-0.5
 20
0.5
 30
0.0
 11
0.0
 21
0.0
 31
0.0
  0
LINE
  5
38
100
AcDbEntity
  8
0
  6
BYBLOCK
 62
     0
100
AcDbLine
 10
0.0
 20
0.0
 30
0.0
 11
-0.5
 21
-0.5
 31
0.0
  0
LINE
  5
39
100
AcDbEntity
  8
0
  6
BYBLOCK
 62
     0
100
AcDbLine
 10
0.0
 20
0.0
 30
0.0
 11
-1.0
 21
0.0
 31
0.0
  0
ENDBLK
  5
3A
100
AcDbEntity
  8
0
100
AcDbBlockEnd
  0
BLOCK
  5
3C
100
AcDbEntity
  8
0
100
AcDbBlockBegin
  2
_CLOSEDBLANK
 70
     0
 10
0.0
 20
0.0
 30
0.0
  3
_CLOSEDBLANK
  1

  0
LINE
  5
3D
100
AcDbEntity
  8
0
  6
BYBLOCK
 62
     0
100
AcDbLine
 10
-1.0
 20
0.1666666666666666
 30
0.0
 11
0.0
 21
0.0
 31
0.0
  0
LINE
  5
3E
100
AcDbEntity
  8
0
  6
BYBLOCK
 62
     0
100
AcDbLine
 10
0.0
 20
0.0
 30
0.0
 11
-1.0
 21
-0.1666666666666666
 31
0.0
  0
LINE
  5
3F
100
AcDbEntity
  8
0
  6
BYBLOCK
 62
     0
100
AcDbLine
 10
-1.0
 20
0.1666666666666666
 30
0.0
 11
-1.0
 21
-0.1666666666666666
 31
0.0
  0
ENDBLK
  5
40
100
AcDbEntity
  8
0
100
AcDbBlockEnd
  0
BLOCK
  5
42
100
AcDbEntity
  8
0
100
AcDbBlockBegin
  2
_DOTBLANK
 70
     0
 10
0.0
 20
0.0
 30
0.0
  3
_DOTBLANK
  1

  0
CIRCLE
  5
43
100
AcDbEntity
  8
0
  6
BYBLOCK
 62
     0
100
AcDbCircle
 10
0.0
 20
0.0
 30
0.0
 40
0.5
  0
LINE
  5
44
100
AcDbEntity
  8
0
  6
BYBLOCK
 62
     0
100
AcDbLine
 10
-0.5
 20
0.0
 30
0.0
 11
-1.0
 21
0.0
 31
0.0
  0
ENDBLK
  5
45
100
AcDbEntity
  8
0
100
AcDbBlockEnd
  0
ENDSEC
  0
SECTION
  2
ENTITIES
  0
MTEXT
  5
46
100
AcDbEntity
  8
A7
  6
CONTINUOUS
 62
3
100
AcDbMText
 10
9.999997526638502
 20
18.00000076076889
 30
0.000000000000000
 40
3.000000000000000
 41
0.000000000000000
 71
     7
 72
     1
  1
{\H0.94x;{TYPE No.TM-140SUS}}
 11
1.000000000000000
 21
0.000000000000000
 31
0.000000000000000
  7
STANDARD
  0
POINT
  5
47
100
AcDbEntity
  8
A0
  6
CONTINUOUS
 62
3
100
AcDbPoint
 10
9.999997526638502
 20
18.00000076076889
 30
0.000000000000000
  0
LINE
  5
48
100
AcDbEntity
  8
A1
  6
CONTINUOUS
 62
7
100
AcDbLine
 10
50.00000000000000
 20
96.50000000000011
 30
0.000000000000000
 11
50.00000000000000
 21
93.00000000000011
 31
0.000000000000000
  0
LINE
  5
49
100
AcDbEntity
  8
A1
  6
CONTINUOUS
 62
7
100
AcDbLine
 10
50.50000000000000
 20
92.50000000000011
 30
0.000000000000000
 11
60.50000000000000
 21
92.50000000000011
 31
0.000000000000000
  0
LINE
  5
4A
100
AcDbEntity
  8
A1
  6
CONTINUOUS
 62
7
100
AcDbLine
 10
50.00000000000000
 20
94.50000000000011
 30
0.000000000000000
 11
60.99999999999999
 21
94.50000000000011
 31
0.000000000000000
  0
LINE
  5
4B
100
AcDbEntity
  8
A1
  6
CONTINUOUS
 62
7
100
AcDbLine
 10
61.00000000000000
 20
93.00000000000011
 30
0.000000000000000
 11
61.00000000000000
 21
96.50000000000011
 31
0.000000000000000
  0
LINE
  5
4C
100
AcDbEntity
  8
A1
  6
CONTINUOUS
 62
7
100
AcDbLine
 10
53.62939038545327
 20
113.0000000000000
 30
0.000000000000000
 11
57.37060961454652
 21
113.0000000000000
 31
0.000000000000000
  0
ARC
  5
4D
100
AcDbEntity
  8
A1
  6
CONTINUOUS
 62
7
100
AcDbCircle
 10
55.49999999999999
 20
97.00000000000006
 30
0.000000000000000
 40
4.500000000000000
100
AcDbArc
 50
173.6206297915572
 51
186.3793702084428
  0
ARC
  5
4E
100
AcDbEntity
  8
A1
  6
CONTINUOUS
 62
7
100
AcDbCircle
 10
55.49999999999999
 20
97.00000000000006
 30
0.000000000000000
 40
4.500000000000000
100
AcDbArc
 50
353.6206297915572
 51
366.3793702084428
  0
LINE
  5
4F
100
AcDbEntity
  8
A1
  6
CONTINUOUS
 62
7
100
AcDbLine
 10
58.52368421052589
 20
97.50000000000003
 30
0.000000000000000
 11
59.97213595499952
 21
97.50000000000003
 31
0.000000000000000
  0
LINE
  5
50
100
AcDbEntity
  8
A1
  6
CONTINUOUS
 62
7
100
AcDbLine
 10
51.02786404500040
 20
97.50000000000011
 30
0.000000000000000
 11
52.47631578947392
 21
97.50000000000011
 31
0.000000000000000
  0
LINE
  5
51
100
AcDbEntity
  8
A1
  6
CONTINUOUS
 62
7
100
AcDbLine
 10
58.56578947368376
 20
96.50000000000011
 30
0.000000000000000
 11
61.00000000000000
 21
96.50000000000011
 31
0.000000000000000
  0
LINE
  5
52
100
AcDbEntity
  8
A1
  6
CONTINUOUS
 62
7
100
AcDbLine
 10
50.00000000000000
 20
96.50000000000011
 30
0.000000000000000
 11
52.43421052631606
 21
96.50000000000011
 31
0.000000000000000
  0
ARC
  5
53
100
AcDbEntity
  8
A1
  6
CONTINUOUS
 62
7
100
AcDbCircle
 10
53.62939038545328
 20
112.5000000000001
 30
0.000000000000000
 40
0.5000000000000000
100
AcDbArc
 50
90.00000000000000
 51
177.5889702533900
  0
ARC
  5
54
100
AcDbEntity
  8
A1
  6
CONTINUOUS
 62
7
100
AcDbCircle
 10
57.37060961454652
 20
112.5000000000000
 30
0.000000000000000
 40
0.5000000000000000
100
AcDbArc
 50
2.411029746609894
 51
90.00000000000000
  0
ARC
  5
55
100
AcDbEntity
  8
A1
  6
CONTINUOUS
 62
7
100
AcDbCircle
 10
50.49999999999999
 20
93.00000000000011
 30
0.000000000000000
 40
0.5000000000000000
100
AcDbArc
 50
180.0000000000000
 51
270.0000000000000
  0
ARC
  5
56
100
AcDbEntity
  8
A1
  6
CONTINUOUS
 62
7
100
AcDbCircle
 10
60.49999999999999
 20
93.00000000000006
 30
0.000000000000000
 40
0.5000000000000000
100
AcDbArc
 50
270.0000000000000
 51
360.0000000000000
  0
LINE
  5
57
100
AcDbEntity
  8
A1
  6
CONTINUOUS
 62
7
100
AcDbLine
 10
57.89999999999991
 20
89.20000000000005
 30
0.000000000000000
 11
57.89999999999991
 21
92.50000000000009
 31
0.000000000000000
  0
LINE
  5
58
100
AcDbEntity
  8
A1
  6
CONTINUOUS
 62
7
100
AcDbLine
 10
53.09999999999995
 20
89.20000000000005
 30
0.000000000000000
 11
53.09999999999995
 21
92.50000000000009
 31
0.000000000000000
  0
LINE
  5
59
100
AcDbEntity
  8
A1
  6
CONTINUOUS
 62
7
100
AcDbLine
 10
51.84999999999997
 20
89.20000000000005
 30
0.000000000000000
 11
59.14999999999998
 21
89.20000000000005
 31
0.000000000000000
  0
LINE
  5
5A
100
AcDbEntity
  8
A1
  6
CONTINUOUS
 62
7
100
AcDbLine
 10
51.84999999999985
 20
89.20000000000000
 30
0.000000000000000
 11
51.84999999999820
 21
82.26028965281229
 31
0.000000000000000
  0
LINE
  5
5B
100
AcDbEntity
  8
A1
  6
CONTINUOUS
 62
7
100
AcDbLine
 10
59.14999999999992
 20
89.20000000000000
 30
0.000000000000000
 11
59.15000000000153
 21
82.26028965281246
 31
0.000000000000000
  0
LINE
  5
5C
100
AcDbEntity
  8
A1
  6
CONTINUOUS
 62
7
100
AcDbLine
 10
50.14999999999920
 20
86.15000000000009
 30
0.000000000000000
 11
50.14999999999870
 21
84.05000000000007
 31
0.000000000000000
  0
LINE
  5
5D
100
AcDbEntity
  8
A1
  6
CONTINUOUS
 62
7
100
AcDbLine
 10
51.34999999999947
 20
87.18506594619890
 30
0.000000000000000
 11
51.34999999999847
 21
83.01493405380035
 31
0.000000000000000
  0
ARC
  5
5E
100
AcDbEntity
  8
A1
  6
CONTINUOUS
 62
7
100
AcDbCircle
 10
51.59999999999916
 20
85.09999999999957
 30
0.000000000000000
 40
2.100000000000000
100
AcDbArc
 50
83.16285883185685
 51
96.83714116812830
  0
ARC
  5
5F
100
AcDbEntity
  8
A1
  6
CONTINUOUS
 62
7
100
AcDbCircle
 10
51.59999999999916
 20
85.09999999999957
 30
0.000000000000000
 40
2.100000000000000
100
AcDbArc
 50
263.1628588318443
 51
276.8371411681159
  0
ARC
  5
60
100
AcDbEntity
  8
A1
  6
CONTINUOUS
 62
7
100
AcDbCircle
 10
52.10208333333240
 20
85.09999999999945
 30
0.000000000000000
 40
2.216557993890041
100
AcDbArc
 50
109.8343750916045
 51
151.7247754854991
  0
ARC
  5
61
100
AcDbEntity
  8
A1
  6
CONTINUOUS
 62
7
100
AcDbCircle
 10
52.10208333333240
 20
85.09999999999945
 30
0.000000000000000
 40
2.216557993890041
100
AcDbArc
 50
208.2752245144736
 51
250.1656249083682
  0
ARC
  5
62
100
AcDbEntity
  8
A1
  6
CONTINUOUS
 62
7
100
AcDbCircle
 10
110.5380434782667
 20
71.98456521739115
 30
0.000000000000000
 40
59.57047553196683
100
AcDbArc
 50
170.1834864688138
 51
186.0558584368291
  0
ARC
  5
63
100
AcDbEntity
  8
A1
  6
CONTINUOUS
 62
7
100
AcDbCircle
 10
51.14999999999826
 20
82.26028965281250
 30
0.000000000000000
 40
0.7000000000000001
100
AcDbArc
 50
350.1834864688138
 51
360.0000000000000
  0
ARC
  5
64
100
AcDbEntity
  8
A1
  6
CONTINUOUS
 62
7
100
AcDbCircle
 10
0.4619565217333133
 20
71.98456521739115
 30
0.000000000000000
 40
59.57047553196683
100
AcDbArc
 50
353.9441415631709
 51
369.8165135311862
  0
ARC
  5
65
100
AcDbEntity
  8
A1
  6
CONTINUOUS
 62
7
100
AcDbCircle
 10
59.85000000000171
 20
82.26028965281250
 30
0.000000000000000
 40
0.7000000000000001
100
AcDbArc
 50
180.0000000000000
 51
189.8165135311862
  0
LINE
  5
66
100
AcDbEntity
  8
A1
  6
CONTINUOUS
 62
7
100
AcDbLine
 10
51.49999999999996
 20
64.20000000000005
 30
0.000000000000000
 11
51.49999999999994
 21
60.19999999999919
 31
0.000000000000000
  0
LINE
  5
67
100
AcDbEntity
  8
A1
  6
CONTINUOUS
 62
7
100
AcDbLine
 10
59.49999999999999
 20
64.20000000000010
 30
0.000000000000000
 11
59.49999999999993
 21
60.19999999999919
 31
0.000000000000000
  0
LINE
  5
68
100
AcDbEntity
  8
A1
  6
CONTINUOUS
 62
7
100
AcDbLine
 10
52.20000000000002
 20
64.20000000000005
 30
0.000000000000000
 11
52.20000000000000
 21
60.19999999999924
 31
0.000000000000000
  0
LINE
  5
69
100
AcDbEntity
  8
A1
  6
CONTINUOUS
 62
7
100
AcDbLine
 10
58.80000000000000
 20
64.20000000000006
 30
0.000000000000000
 11
58.79999999999994
 21
60.19999999999921
 31
0.000000000000000
  0
LINE
  5
6A
100
AcDbEntity
  8
A1
  6
CONTINUOUS
 62
7
100
AcDbLine
 10
57.89999999999992
 20
60.20000000000005
 30
0.000000000000000
 11
59.49999999999994
 21
60.20000000000004
 31
0.000000000000000
  0
LINE
  5
6B
100
AcDbEntity
  8
A1
  6
CONTINUOUS
 62
7
100
AcDbLine
 10
51.49999999999994
 20
60.20000000000005
 30
0.000000000000000
 11
53.09999999999997
 21
60.20000000000005
 31
0.000000000000000
  0
ARC
  5
6C
100
AcDbEntity
  8
A1
  6
CONTINUOUS
 62
7
100
AcDbCircle
 10
55.49999999999999
 20
76.87427549229056
 30
0.000000000000000
 40
5.325724507709502
100
AcDbArc
 50
54.31459240566181
 51
125.6854075943382
  0
ARC
  5
6D
100
AcDbEntity
  8
A1
  6
CONTINUOUS
 62
7
100
AcDbCircle
 10
55.49999999999993
 20
82.10087540882449
 30
0.000000000000000
 40
7.400875408824447
100
AcDbArc
 50
239.8691025806063
 51
300.1308974193937
  0
LINE
  5
6E
100
AcDbEntity
  8
A1
  6
CONTINUOUS
 62
7
100
AcDbLine
 10
53.09999999999997
 20
63.55800000000011
 30
0.000000000000000
 11
53.09999999999996
 21
51.80000000000007
 31
0.000000000000000
  0
ARC
  5
6F
100
AcDbEntity
  8
A1
  6
CONTINUOUS
 62
7
100
AcDbCircle
 10
55.49999999999993
 20
52.50000000000000
 30
0.000000000000000
 40
2.500000000000000
100
AcDbArc
 50
196.2602047083115
 51
343.7397952916884
  0
LINE
  5
70
100
AcDbEntity
  8
A1
  6
CONTINUOUS
 62
7
100
AcDbLine
 10
57.89999999999991
 20
51.80000000000007
 30
0.000000000000000
 11
57.89999999999992
 21
63.55800000000028
 31
0.000000000000000
  0
ELLIPSE
  5
71
100
AcDbEntity
  8
A1
  6
CONTINUOUS
 62
7
100
AcDbEllipse
 10
55.49999999999993
 20
63.42500000000007
 30
0.000000000000000
 11
-2.500000000000000
 21
0.000000000000000
 31
0.000000000000000
210
0.000000000000000
220
0.000000000000000
230
1.000000000000000
 40
0.1900000000000000
 41
3.425386762798528
 42
5.999391197971226
  0
ELLIPSE
  5
72
100
AcDbEntity
  8
A1
  6
CONTINUOUS
 62
7
100
AcDbEllipse
 10
55.49999999999993
 20
63.42500000000007
 30
0.000000000000000
 11
-2.500000000000000
 21
0.000000000000000
 31
0.000000000000000
210
0.000000000000000
220
0.000000000000000
230
1.000000000000000
 40
0.1900000000000000
 41
0.2837941092083601
 42
2.857798544381068
  0
ARC
  5
73
100
AcDbEntity
  8
A1
  6
CONTINUOUS
 62
7
100
AcDbCircle
 10
45.77499999999985
 20
64.20000000000005
 30
0.000000000000000
 40
5.725000000000108
100
AcDbArc
 50
0.000000000000000
 51
15.18928673718275
  0
ARC
  5
74
100
AcDbEntity
  8
A1
  6
CONTINUOUS
 62
7
100
AcDbCircle
 10
50.49999999999999
 20
64.20000000000005
 30
0.000000000000000
 40
1.699999999999960
100
AcDbArc
 50
0.000000000000000
 51
61.92751306414806
  0
ARC
  5
75
100
AcDbEntity
  8
A1
  6
CONTINUOUS
 62
7
100
AcDbCircle
 10
60.49999999999987
 20
64.20000000000005
 30
0.000000000000000
 40
1.699999999999960
100
AcDbArc
 50
118.0724869358520
 51
180.0000000000000
  0
ARC
  5
76
100
AcDbEntity
  8
A1
  6
CONTINUOUS
 62
7
100
AcDbCircle
 10
65.22500000000007
 20
64.20000000000005
 30
0.000000000000000
 40
5.725000000000108
100
AcDbArc
 50
164.8107132628172
 51
180.0000000000000
  0
LINE
  5
77
100
AcDbEntity
  8
A4
  6
CENTER
 62
1
100
AcDbLine
 10
62.15000000000093
 20
85.09999999999954
 30
0.000000000000000
 11
48.38552533944237
 21
85.09999999999943
 31
0.000000000000000
  0
LINE
  5
78
100
AcDbEntity
  8
A4
  6
CENTER
 62
1
100
AcDbLine
 10
49.99999999999994
 20
60.75000000000000
 30
0.000000000000000
 11
60.99999999999994
 21
60.74999999999999
 31
0.000000000000000
  0
LINE
  5
79
100
AcDbEntity
  8
A1
  6
CONTINUOUS
 62
7
100
AcDbLine
 10
112.6977301029113
 20
94.49999999999885
 30
0.000000000000000
 11
97.94953385557895
 21
94.49999999999915
 31
0.000000000000000
  0
LINE
  5
7A
100
AcDbEntity
  8
A1
  6
CONTINUOUS
 62
7
100
AcDbLine
 10
112.6977301029112
 20
92.49999999999885
 30
0.000000000000000
 11
100.3029932608060
 21
92.49999999999910
 31
0.000000000000000
  0
LINE
  5
7B
100
AcDbEntity
  8
A1
  6
CONTINUOUS
 62
7
100
AcDbLine
 10
110.8029932608061
 20
96.49999999999889
 30
0.000000000000000
 11
97.94953385557888
 21
96.49999999999915
 31
0.000000000000000
  0
LINE
  5
7C
100
AcDbEntity
  8
A1
  6
CONTINUOUS
 62
7
100
AcDbLine
 10
99.80299326080603
 20
92.99999999999910
 30
0.000000000000000
 11
99.80299326080606
 21
94.49999999999910
 31
0.000000000000000
  0
LINE
  5
7D
100
AcDbEntity
  8
A1
  6
CONTINUOUS
 62
7
100
AcDbLine
 10
110.8029932608061
 20
94.99999999999889
 30
0.000000000000000
 11
110.8029932608061
 21
96.49999999999889
 31
0.000000000000000
  0
ARC
  5
7E
100
AcDbEntity
  8
A1
  6
CONTINUOUS
 62
7
100
AcDbCircle
 10
112.6977301029113
 20
95.49999999999886
 30
0.000000000000000
 40
1.000000000000000
100
AcDbArc
 50
269.9999999999989
 51
366.1180565509077
  0
ARC
  5
7F
100
AcDbEntity
  8
A1
  6
CONTINUOUS
 62
7
100
AcDbCircle
 10
97.94953385557892
 20
97.49999999999915
 30
0.000000000000000
 40
1.000000000000000
100
AcDbArc
 50
172.9493568920225
 51
269.9999999999989
  0
ARC
  5
80
100
AcDbEntity
  8
A1
  6
CONTINUOUS
 62
7
100
AcDbCircle
 10
112.6977301029113
 20
95.49999999999886
 30
0.000000000000000
 40
3.000000000000000
100
AcDbArc
 50
269.9999999999989
 51
366.1180565509077
  0
ARC
  5
81
100
AcDbEntity
  8
A1
  6
CONTINUOUS
 62
7
100
AcDbCircle
 10
97.94953385557892
 20
97.49999999999915
 30
0.000000000000000
 40
3.000000000000000
100
AcDbArc
 50
172.9493568920225
 51
269.9999999999989
  0
LINE
  5
82
100
AcDbEntity
  8
A1
  6
CONTINUOUS
 62
7
100
AcDbLine
 10
109.7751292158057
 20
97.49999999999891
 30
0.000000000000000
 11
100.8308573058066
 21
97.49999999999909
 31
0.000000000000000
  0
ARC
  5
83
100
AcDbEntity
  8
A1
  6
CONTINUOUS
 62
7
100
AcDbCircle
 10
105.3029932608061
 20
96.99999999999901
 30
0.000000000000000
 40
4.500000000000000
100
AcDbArc
 50
353.6206297915560
 51
366.3793702084416
  0
ARC
  5
84
100
AcDbEntity
  8
A1
  6
CONTINUOUS
 62
7
100
AcDbCircle
 10
105.3029932608061
 20
96.99999999999901
 30
0.000000000000000
 40
4.500000000000000
100
AcDbArc
 50
173.6206297915561
 51
186.3793702084417
  0
ARC
  5
85
100
AcDbEntity
  8
A1
  6
CONTINUOUS
 62
7
100
AcDbCircle
 10
100.3029932608060
 20
92.99999999999909
 30
0.000000000000000
 40
0.5000000000000000
100
AcDbArc
 50
179.9999999999989
 51
269.9999999999989
  0
ARC
  5
86
100
AcDbEntity
  8
A1
  6
CONTINUOUS
 62
7
100
AcDbCircle
 10
110.3029932608061
 20
94.99999999999889
 30
0.000000000000000
 40
0.5000000000000000
100
AcDbArc
 50
269.9999999999989
 51
359.9999999999989
  0
LINE
  5
87
100
AcDbEntity
  8
A1
  6
CONTINUOUS
 62
7
100
AcDbLine
 10
102.8029932608059
 20
89.09999999999901
 30
0.000000000000000
 11
102.8029932608060
 21
92.49999999999908
 31
0.000000000000000
  0
LINE
  5
88
100
AcDbEntity
  8
A1
  6
CONTINUOUS
 62
7
100
AcDbLine
 10
107.8029932608059
 20
88.22249899919811
 30
0.000000000000000
 11
107.8029932608060
 21
92.49999999999895
 31
0.000000000000000
  0
LINE
  5
89
100
AcDbEntity
  8
A4
  6
CENTER
 62
1
100
AcDbLine
 10
105.3029932608062
 20
100.4167566985164
 30
0.000000000000000
 11
105.3029932608058
 21
81.49999999999899
 31
0.000000000000000
  0
LINE
  5
8A
100
AcDbEntity
  8
A4
  6
CENTER
 62
1
100
AcDbLine
 10
108.9029932608059
 20
85.09999999999896
 30
0.000000000000000
 11
101.7029932608059
 21
85.09999999999910
 31
0.000000000000000
  0
ARC
  5
8B
100
AcDbEntity
  8
A1
  6
CONTINUOUS
 62
7
100
AcDbCircle
 10
105.3029932608059
 20
85.09999999999903
 30
0.000000000000000
 40
4.000000000000000
100
AcDbArc
 50
295.8981932192953
 51
449.9999999999989
  0
LINE
  5
8C
100
AcDbEntity
  8
A1
  6
CONTINUOUS
 62
7
100
AcDbLine
 10
105.3029932608059
 20
89.09999999999900
 30
0.000000000000000
 11
95.60299326080587
 21
89.09999999999920
 31
0.000000000000000
  0
LINE
  5
8D
100
AcDbEntity
  8
A1
  6
CONTINUOUS
 62
7
100
AcDbLine
 10
95.60299326080592
 20
89.09999999999917
 30
0.000000000000000
 11
96.54103723282437
 21
82.62749659305518
 31
0.000000000000000
  0
ARC
  5
8E
100
AcDbEntity
  8
A1
  6
CONTINUOUS
 62
7
100
AcDbCircle
 10
98.87090384166066
 20
78.58452737205536
 30
0.000000000000000
 40
4.267910580857816
100
AcDbArc
 50
127.4761145232165
 51
229.2862864052355
  0
ARC
  5
8F
100
AcDbEntity
  8
A1
  6
CONTINUOUS
 62
7
100
AcDbCircle
 10
93.80405235050823
 20
72.69662020916562
 30
0.000000000000000
 40
3.500000000000000
100
AcDbArc
 50
6.340191745914350
 51
49.28628640523555
  0
LINE
  5
90
100
AcDbEntity
  8
A1
  6
CONTINUOUS
 62
7
100
AcDbLine
 10
98.10299326080303
 20
65.69999999999918
 30
0.000000000000000
 11
97.28264542186594
 21
73.08313055042782
 31
0.000000000000000
  0
ARC
  5
91
100
AcDbEntity
  8
A1
  6
CONTINUOUS
 62
7
100
AcDbCircle
 10
95.84827481352410
 20
82.52709624243229
 30
0.000000000000000
 40
0.7000000000000001
100
AcDbArc
 50
307.4761145232167
 51
368.2463208144474
  0
ARC
  5
92
100
AcDbEntity
  8
A1
  6
CONTINUOUS
 62
7
100
AcDbCircle
 10
103.1959475065823
 20
60.74999999999903
 30
0.000000000000000
 40
10.75000000000000
100
AcDbArc
 50
168.1909207825552
 51
380.0930942098104
  0
ARC
  5
93
100
AcDbEntity
  8
A1
  6
CONTINUOUS
 62
7
100
AcDbCircle
 10
92.78936079119264
 20
76.63104519166501
 30
0.000000000000000
 40
16.81363246961310
100
AcDbArc
 50
357.0109831964004
 51
381.0517272287697
  0
LINE
  5
94
100
AcDbEntity
  8
A1
  6
CONTINUOUS
 62
7
100
AcDbLine
 10
109.8776385484272
 20
73.77585116584619
 30
0.000000000000000
 11
113.2916559177577
 21
64.44312492024245
 31
0.000000000000000
  0
LINE
  5
95
100
AcDbEntity
  8
A1
  6
CONTINUOUS
 62
7
100
AcDbLine
 10
105.1819602176478
 20
72.05811864480270
 30
0.000000000000000
 11
108.5959775869783
 21
62.72539239919898
 31
0.000000000000000
  0
ARC
  5
96
100
AcDbEntity
  8
A1
  6
CONTINUOUS
 62
7
100
AcDbCircle
 10
114.5733168792063
 20
75.49358368688962
 30
0.000000000000000
 40
5.000000000000000
100
AcDbArc
 50
177.0109831964003
 51
200.0930942098105
  0
ARC
  5
97
100
AcDbEntity
  8
A1
  6
CONTINUOUS
 62
7
100
AcDbCircle
 10
114.5733168792063
 20
75.49358368688962
 30
0.000000000000000
 40
10.00000000000000
100
AcDbArc
 50
177.0109831964003
 51
200.0930942098105
  0
ARC
  5
98
100
AcDbEntity
  8
A1
  6
CONTINUOUS
 62
7
100
AcDbCircle
 10
111.6397122298444
 20
73.96527756389673
 30
0.000000000000000
 40
8.811559273625164
100
AcDbArc
 50
121.3487499652133
 51
177.2745499926594
  0
ARC
  5
99
100
AcDbEntity
  8
A1
  6
CONTINUOUS
 62
7
100
AcDbCircle
 10
92.78936079119264
 20
76.63104519166501
 30
0.000000000000000
 40
11.81363246961304
100
AcDbArc
 50
357.0109831964004
 51
371.3178037552324
  0
ARC
  5
9A
100
AcDbEntity
  8
A1
  6
CONTINUOUS
 62
7
100
AcDbCircle
 10
104.3003538678104
 20
76.38452737205529
 30
0.000000000000000
 40
0.3000000000000000
100
AcDbArc
 50
190.4999999999943
 51
370.5000000000050
  0
ARC
  5
9B
100
AcDbEntity
  8
A1
  6
CONTINUOUS
 62
7
100
AcDbCircle
 10
92.78936079119264
 20
76.63104519166501
 30
0.000000000000000
 40
11.81362859704663
100
AcDbArc
 50
357.0109831964004
 51
371.3177854682148
  0
LINE
  5
9C
100
AcDbEntity
  8
A1
  6
CONTINUOUS
 62
7
100
AcDbLine
 10
104.0053773955412
 20
76.32985671440753
 30
0.000000000000000
 11
103.7255726510066
 21
77.83954801899958
 31
0.000000000000000
  0
ARC
  5
9D
100
AcDbEntity
  8
A1
  6
CONTINUOUS
 62
7
100
AcDbCircle
 10
103.6901357083236
 20
76.38452737205529
 30
0.000000000000000
 40
0.3000000000000000
100
AcDbArc
 50
190.5000000000051
 51
370.4999999999997
  0
LINE
  5
9E
100
AcDbEntity
  8
A1
  6
CONTINUOUS
 62
7
100
AcDbLine
 10
103.3951592360543
 20
76.32985671440764
 30
0.000000000000000
 11
103.3039940210905
 21
76.82174019744527
 31
0.000000000000000
  0
LINE
  5
9F
100
AcDbEntity
  8
A1
  6
CONTINUOUS
 62
7
100
AcDbLine
 10
104.5953303400794
 20
76.43919802970277
 30
0.000000000000000
 11
104.1835540797621
 21
78.66094391422155
 31
0.000000000000000
  0
LINE
  5
A0
100
AcDbEntity
  8
A4
  6
CENTER
 62
1
100
AcDbLine
 10
103.1959475065825
 20
72.99999999999902
 30
0.000000000000000
 11
103.1959475065820
 21
48.49999999999902
 31
0.000000000000000
  0
LINE
  5
A1
100
AcDbEntity
  8
A4
  6
CENTER
 62
1
100
AcDbLine
 10
115.4459475065823
 20
60.74999999999878
 30
0.000000000000000
 11
90.94594750658226
 21
60.74999999999926
 31
0.000000000000000
  0
ARC
  5
A2
100
AcDbEntity
  8
A1
  6
CONTINUOUS
 62
7
100
AcDbCircle
 10
105.3029932608063
 20
103.4999999999990
 30
0.000000000000000
 40
9.500000000000000
100
AcDbArc
 50
93.62109091120630
 51
172.9493568920226
  0
ARC
  5
A3
100
AcDbEntity
  8
A1
  6
CONTINUOUS
 62
7
100
AcDbCircle
 10
105.3029932608063
 20
103.4999999999990
 30
0.000000000000000
 40
9.500000000000000
100
AcDbArc
 50
5.724810452222447
 51
93.62109091120607
  0
ARC
  5
A4
100
AcDbEntity
  8
A1
  6
CONTINUOUS
 62
7
100
AcDbCircle
 10
105.3029932608063
 20
103.4999999999990
 30
0.000000000000000
 40
7.500000000000000
100
AcDbArc
 50
94.58856573579732
 51
172.9493568920226
  0
ARC
  5
A5
100
AcDbEntity
  8
A1
  6
CONTINUOUS
 62
7
100
AcDbCircle
 10
105.3029932608063
 20
103.4999999999990
 30
0.000000000000000
 40
7.500000000000000
100
AcDbArc
 50
5.724810452222447
 51
94.58856573579753
  0
LINE
  5
A6
100
AcDbEntity
  8
A3
  6
DASHED
 62
2
100
AcDbLine
 10
97.44594750658294
 20
61.80071119340517
 30
0.000000000000000
 11
97.44594750658416
 21
63.75537075614762
 31
0.000000000000000
  0
LINE
  5
A7
100
AcDbEntity
  8
A5
  6
PHANTOM
 62
6
100
AcDbLine
 10
104.0004218424794
 20
88.88197140393093
 30
0.000000000000000
 11
94.82914118794440
 21
85.72323571448916
 31
0.000000000000000
  0
LINE
  5
A8
100
AcDbEntity
  8
A5
  6
PHANTOM
 62
6
100
AcDbLine
 10
94.82914118794446
 20
85.72323571448916
 30
0.000000000000000
 11
97.82377954312223
 21
79.90899733203186
 31
0.000000000000000
  0
ARC
  5
A9
100
AcDbEntity
  8
A5
  6
PHANTOM
 62
6
100
AcDbCircle
 10
101.3432158036330
 20
76.84510325012820
 30
0.000000000000000
 40
4.267910580857816
100
AcDbArc
 50
146.4806412032776
 51
248.2908130852966
  0
ARC
  5
AA
100
AcDbEntity
  8
A5
  6
PHANTOM
 62
6
100
AcDbCircle
 10
98.46989883779105
 20
69.62814513704433
 30
0.000000000000000
 40
3.500000000000000
100
AcDbArc
 50
25.34471842597543
 51
68.29081308529663
  0
ARC
  5
AB
100
AcDbEntity
  8
A5
  6
PHANTOM
 62
6
100
AcDbCircle
 10
105.4246302686931
 20
63.27960577460505
 30
0.000000000000000
 40
2.767752629172406
100
AcDbArc
 50
197.0351421360980
 51
293.9420181030832
  0
SPLINE
  5
AC
100
AcDbEntity
  8
A5
  6
PHANTOM
 62
6
100
AcDbSpline
210
0.000000000000000
220
0.000000000000000
230
1.000000000000000
 70
     8
 71
     3
 72
     8
 73
     4
 74
     0
 42
1.000000000000000e-07
 43
1.000000000000000e-07
 12
-1.052850398801439
 22
-0.5251039927517809
 32
0.000000000000000
 13
-0.2197976299918594
 23
-0.8450643071379318
 33
0.000000000000000
 40
0.000000000000000
 40
0.000000000000000
 40
0.000000000000000
 40
0.000000000000000
 40
2.338052421390458
 40
2.338052421390458
 40
2.338052421390458
 40
2.338052421390458
 10
104.4940212202569
 20
65.12610725968926
 30
0.000000000000000
 10
103.6734814121637
 20
64.71686703911089
 30
0.000000000000000
 10
102.8529416040705
 20
64.30762681853244
 30
0.000000000000000
 10
102.6816421437311
 20
63.64902526868761
 30
0.000000000000000
  0
LINE
  5
AD
100
AcDbEntity
  8
A5
  6
PHANTOM
 62
6
100
AcDbLine
 10
106.5478173596847
 20
60.74999999999896
 30
0.000000000000000
 11
104.4786839636780
 21
65.11845773926464
 31
0.000000000000000
  0
LINE
  5
AE
100
AcDbEntity
  8
A5
  6
PHANTOM
 62
6
100
AcDbLine
 10
104.8129161126096
 20
64.41281013794065
 30
0.000000000000000
 11
101.6330193873847
 21
71.12636687922360
 31
0.000000000000000
  0
ARC
  5
AF
100
AcDbEntity
  8
A5
  6
PHANTOM
 62
6
100
AcDbCircle
 10
102.3383671891362
 20
69.63720138154116
 30
0.000000000000000
 40
5.000000000000000
100
AcDbArc
 50
295.3447184259757
 51
372.6844146498399
  0
ARC
  5
B0
100
AcDbEntity
  8
A5
  6
PHANTOM
 62
6
100
AcDbCircle
 10
97.20147228502196
 20
79.58847638651389
 30
0.000000000000000
 40
0.7000000000000001
100
AcDbArc
 50
326.4806412032777
 51
387.2508474945085
  0
ARC
  5
B1
100
AcDbEntity
  8
A5
  6
PHANTOM
 62
6
100
AcDbCircle
 10
114.9202585437867
 20
76.63570679274395
 30
0.000000000000000
 40
8.811559273625164
100
AcDbArc
 50
140.3532766452744
 51
196.2790766727205
  0
LINE
  5
B2
100
AcDbEntity
  8
A3
  6
DASHED
 62
2
100
AcDbLine
 10
97.44594750658415
 20
63.75537075614908
 30
0.000000000000000
 11
95.71845919186751
 21
63.46385151404546
 31
0.000000000000000
  0
LINE
  5
B3
100
AcDbEntity
  8
A1
  6
CONTINUOUS
 62
7
100
AcDbLine
 10
95.71845919186754
 20
63.46385151404547
 30
0.000000000000000
 11
92.67347156220492
 21
62.94999999999927
 31
0.000000000000000
  0
ARC
  5
B4
100
AcDbEntity
  8
A1
  6
CONTINUOUS
 62
7
100
AcDbCircle
 10
103.1959475065823
 20
60.74999999999903
 30
0.000000000000000
 40
5.750000000000000
100
AcDbArc
 50
180.0000000000000
 51
380.0930942098104
  0
LINE
  5
B5
100
AcDbEntity
  8
A4
  6
CENTER
 62
1
100
AcDbLine
 10
55.49999999999992
 20
48.50000000000002
 30
0.000000000000000
 11
55.50000000000058
 21
114.5000000000000
 31
0.000000000000000
  0
ARC
  5
B6
100
AcDbEntity
  8
A1
  6
CONTINUOUS
 62
7
100
AcDbCircle
 10
51.87060961454696
 20
95.00000000000011
 30
0.000000000000000
 40
0.5000000000000000
100
AcDbArc
 50
270.0000000000000
 51
357.5889702533902
  0
ARC
  5
B7
100
AcDbEntity
  8
A1
  6
CONTINUOUS
 62
7
100
AcDbCircle
 10
59.12939038545299
 20
95.00000000000011
 30
0.000000000000000
 40
0.5000000000000000
100
AcDbArc
 50
182.4110297466098
 51
270.0000000000000
  0
LINE
  5
B8
100
AcDbEntity
  8
A1
  6
CONTINUOUS
 62
7
100
AcDbLine
 10
97.86820804173939
 20
104.4868985491645
 30
0.000000000000000
 11
96.95822915970332
 21
97.63158647322125
 31
0.000000000000000
  0
LINE
  5
B9
100
AcDbEntity
  8
A1
  6
CONTINUOUS
 62
7
100
AcDbLine
 10
95.88559864998822
 20
104.7500714956086
 30
0.000000000000000
 11
94.97561976795217
 21
97.89475941966539
 31
0.000000000000000
  0
LINE
  5
BA
100
AcDbEntity
  8
A1
  6
CONTINUOUS
 62
7
100
AcDbLine
 10
112.7602763060400
 20
104.2993307095734
 30
0.000000000000000
 11
113.6920345089425
 21
95.60657742794214
 31
0.000000000000000
  0
LINE
  5
BB
100
AcDbEntity
  8
A1
  6
CONTINUOUS
 62
7
100
AcDbLine
 10
114.7488851181024
 20
104.5124855654600
 30
0.000000000000000
 11
115.6806433210048
 21
95.81973228382866
 31
0.000000000000000
  0
ARC
  5
BC
100
AcDbEntity
  8
A1
  6
CONTINUOUS
 62
7
100
AcDbCircle
 10
105.3029932608061
 20
95.66666666666578
 30
0.000000000000000
 40
4.833333333333229
100
AcDbArc
 50
22.29097037475698
 51
157.7090296252410
  0
LINE
  5
BD
100
AcDbEntity
  8
A1
  6
CONTINUOUS
 62
7
100
AcDbLine
 10
58.62985856527567
 20
94.97836760229818
 30
0.000000000000000
 11
57.87014143472382
 21
112.5216323977019
 31
0.000000000000000
  0
LINE
  5
BE
100
AcDbEntity
  8
A1
  6
CONTINUOUS
 62
7
100
AcDbLine
 10
53.12985856527597
 20
112.5216323977020
 30
0.000000000000000
 11
52.37014143472430
 21
94.97836760229816
 31
0.000000000000000
  0
ARC
  5
BF
100
AcDbEntity
  8
A1
  6
CONTINUOUS
 62
7
100
AcDbCircle
 10
55.50000000000036
 20
95.66666666666677
 30
0.000000000000000
 40
4.833333333333229
100
AcDbArc
 50
22.29097037475781
 51
52.62895578406631
  0
ARC
  5
C0
100
AcDbEntity
  8
A1
  6
CONTINUOUS
 62
7
100
AcDbCircle
 10
55.50000000000036
 20
95.66666666666677
 30
0.000000000000000
 40
4.833333333333229
100
AcDbArc
 50
127.3710442159459
 51
157.7090296252419
  0
CIRCLE
  5
C1
100
AcDbEntity
  8
A5
  6
PHANTOM
 62
6
100
AcDbCircle
 10
103.1959475065822
 20
57.49999999999903
 30
0.000000000000000
 40
2.500000000000000
  0
LINE
  5
C2
100
AcDbEntity
  8
A5
  6
PHANTOM
 62
6
100
AcDbLine
 10
107.2163387364749
 20
70.73510555921513
 30
0.000000000000000
 11
106.3237514589003
 21
74.70085724507692
 31
0.000000000000000
  0
LINE
  5
C3
100
AcDbEntity
  8
A1
  6
CONTINUOUS
 62
7
100
AcDbLine
 10
98.55056203796401
 20
61.67188100555256
 30
0.000000000000000
 11
98.01676825264335
 21
66.47602507343535
 31
0.000000000000000
  0
SPLINE
  5
C4
100
AcDbEntity
  8
A1
  6
CONTINUOUS
 62
7
100
AcDbSpline
210
0.000000000000000
220
0.000000000000000
230
1.000000000000000
 70
     8
 71
     3
 72
     8
 73
     4
 74
     0
 42
1.000000000000000e-07
 43
1.000000000000000e-07
 12
-0.9558563162248106
 22
-0.1413035997822334
 32
0.000000000000000
 13
-0.4023708196040729
 23
-0.6059865608277732
 33
0.000000000000000
 40
0.000000000000000
 40
0.000000000000000
 40
0.000000000000000
 40
0.000000000000000
 40
2.338052421390458
 40
2.338052421390458
 40
2.338052421390458
 40
2.338052421390458
 10
97.58093976262208
 20
66.41621714090252
 30
0.000000000000000
 10
96.83599237107182
 20
66.30609206636183
 30
0.000000000000000
 10
96.15275589765643
 20
66.14415712084380
 30
0.000000000000000
 10
95.83916787463238
 20
65.67188100555265
 30
0.000000000000000
  0
ARC
  5
C5
100
AcDbEntity
  8
A1
  6
CONTINUOUS
 62
7
100
AcDbCircle
 10
98.31234471852403
 20
64.42936303178763
 30
0.000000000000000
 40
2.767752629172406
100
AcDbArc
 50
153.3251588979066
 51
274.9374914230219
  0
ARC
  5
C6
100
AcDbEntity
  8
A1
  6
CONTINUOUS
 62
7
100
AcDbCircle
 10
97.46461062226865
 20
71.44544374680336
 30
0.000000000000000
 40
5.000000000000000
100
AcDbArc
 50
281.6345274694771
 51
353.6798879697786
  0
LINE
  5
C7
100
AcDbEntity
  8
A1
  6
CONTINUOUS
 62
7
100
AcDbLine
 10
102.8817063077715
 20
74.93528225540366
 30
0.000000000000000
 11
102.4342224980506
 21
70.89502771861507
 31
0.000000000000000
  0
SPLINE
  5
C8
100
AcDbEntity
  8
A1
  6
CONTINUOUS
 62
7
100
AcDbSpline
210
0.000000000000000
220
0.000000000000000
230
1.000000000000000
 70
     8
 71
     3
 72
     8
 73
     4
 74
     0
 42
1.000000000000000e-07
 43
1.000000000000000e-07
 12
-1.166458888373228
 22
-0.1536288618562907
 32
0.000000000000000
 13
-0.4830062411017053
 23
-0.7274267333589677
 33
0.000000000000000
 40
0.000000000000000
 40
0.000000000000000
 40
0.000000000000000
 40
0.000000000000000
 40
2.338052421390458
 40
2.338052421390458
 40
2.338052421390458
 40
2.338052421390458
 10
97.94541530989963
 20
67.27337016003540
 30
0.000000000000000
 10
97.03633463376181
 20
67.15363938254922
 30
0.000000000000000
 10
96.12725395762396
 20
67.03390860506292
 30
0.000000000000000
 10
95.75082265377245
 20
66.46698799329155
 30
0.000000000000000
  0
ARC
  5
C9
100
AcDbEntity
  8
A1
  6
CONTINUOUS
 62
7
100
AcDbCircle
 10
98.22399949766410
 20
65.22447001952656
 30
0.000000000000000
 40
2.767752629172406
100
AcDbArc
 50
153.3251588979066
 51
194.6497680357936
  0
SPLINE
  5
CA
100
AcDbEntity
  8
A5
  6
PHANTOM
 62
6
100
AcDbSpline
210
0.000000000000000
220
0.000000000000000
230
1.000000000000000
 70
     8
 71
     3
 72
     8
 73
     4
 74
     0
 42
1.000000000000000e-07
 43
1.000000000000000e-07
 12
-1.052850398801439
 22
-0.5251039927517382
 32
0.000000000000000
 13
-0.2197976299918025
 23
-0.8450643071379318
 33
0.000000000000000
 40
0.000000000000000
 40
0.000000000000000
 40
0.000000000000000
 40
0.000000000000000
 40
2.338052421390458
 40
2.338052421390458
 40
2.338052421390458
 40
2.338052421390458
 10
104.4940212202569
 20
65.12610725968923
 30
0.000000000000000
 10
103.6734814121637
 20
64.71686703911089
 30
0.000000000000000
 10
102.8529416040705
 20
64.30762681853244
 30
0.000000000000000
 10
102.6816421437310
 20
63.64902526868761
 30
0.000000000000000
  0
ARC
  5
CB
100
AcDbEntity
  8
A5
  6
PHANTOM
 62
6
100
AcDbCircle
 10
105.4246302686931
 20
63.27960577460502
 30
0.000000000000000
 40
2.767752629172406
100
AcDbArc
 50
172.3296855779678
 51
293.9420181030831
  0
ARC
  5
CC
100
AcDbEntity
  8
A5
  6
PHANTOM
 62
6
100
AcDbCircle
 10
105.0821795847664
 20
64.00260475736931
 30
0.000000000000000
 40
2.767752629172406
100
AcDbArc
 50
172.3296855779678
 51
213.6542947158548
  0
SPLINE
  5
CD
100
AcDbEntity
  8
A5
  6
PHANTOM
 62
6
100
AcDbSpline
210
0.000000000000000
220
0.000000000000000
230
1.000000000000000
 70
     8
 71
     3
 72
     8
 73
     4
 74
     0
 42
1.000000000000000e-07
 43
1.000000000000000e-07
 12
-1.052850398801439
 22
-0.5251039927517382
 32
0.000000000000000
 13
-0.2197976299918025
 23
-0.8450643071378892
 33
0.000000000000000
 40
0.000000000000000
 40
0.000000000000000
 40
0.000000000000000
 40
0.000000000000000
 40
2.338052421390458
 40
2.338052421390458
 40
2.338052421390458
 40
2.338052421390458
 10
104.1515705363302
 20
65.84910624245350
 30
0.000000000000000
 10
103.3310307282370
 20
65.43986602187516
 30
0.000000000000000
 10
102.5104909201438
 20
65.03062580129668
 30
0.000000000000000
 10
102.3391914598043
 20
64.37202425145188
 30
0.000000000000000
  0
CIRCLE
  5
CE
100
AcDbEntity
  8
A1
  6
CONTINUOUS
 62
7
100
AcDbCircle
 10
105.3029932608059
 20
85.09999999999906
 30
0.000000000000000
 40
1.000000000000000
  0
ARC
  5
CF
100
AcDbEntity
  8
A1
  6
CONTINUOUS
 62
7
100
AcDbCircle
 10
58.92500000000115
 20
85.09999999999923
 30
0.000000000000000
 40
1.024999999999721
100
AcDbArc
 50
282.6803834918207
 51
437.3196165082064
  0
LINE
  5
D0
100
AcDbEntity
  8
A1
  6
CONTINUOUS
 62
7
100
AcDbLine
 10
97.44594750658295
 20
61.80071119340517
 30
0.000000000000000
 11
97.44594750658304
 21
60.74999999999927
 31
0.000000000000000
  0
LINE
  5
D1
100
AcDbEntity
  8
A1
  6
CONTINUOUS
 62
7
100
AcDbLine
 10
115.6977301029113
 20
137.7065172839701
 30
0.000000000000000
 11
115.6977301029113
 21
144.9652980548775
 31
0.000000000000000
  0
ARC
  5
D2
100
AcDbEntity
  8
A1
  6
CONTINUOUS
 62
7
100
AcDbCircle
 10
105.3236319792448
 20
214.9600703805778
 30
0.000000000000000
 40
71.25355309660802
100
AcDbArc
 50
261.6283153236236
 51
278.3716846763770
  0
ARC
  5
D3
100
AcDbEntity
  8
A1
  6
CONTINUOUS
 62
7
100
AcDbCircle
 10
105.3236319792448
 20
67.71174495826980
 30
0.000000000000000
 40
71.25355309660802
100
AcDbArc
 50
81.62831532362306
 51
98.37168467637639
  0
ARC
  5
D4
100
AcDbEntity
  8
A1
  6
CONTINUOUS
 62
7
100
AcDbCircle
 10
106.3029932608061
 20
142.3359076694231
 30
0.000000000000000
 40
4.500000000000000
100
AcDbArc
 50
20.29190143703523
 51
90.00000000000000
  0
ARC
  5
D5
100
AcDbEntity
  8
A1
  6
CONTINUOUS
 62
7
100
AcDbCircle
 10
106.3029932608061
 20
140.3359076694231
 30
0.000000000000000
 40
4.500000000000000
100
AcDbArc
 50
270.0000000000000
 51
339.7080985629826
  0
LINE
  5
D6
100
AcDbEntity
  8
A1
  6
CONTINUOUS
 62
7
100
AcDbLine
 10
111.7958789078782
 20
137.7065172839701
 30
0.000000000000000
 11
115.6977301029113
 21
137.7065172839701
 31
0.000000000000000
  0
LINE
  5
D7
100
AcDbEntity
  8
A1
  6
CONTINUOUS
 62
7
100
AcDbLine
 10
111.7958789078764
 20
144.9652980548775
 30
0.000000000000000
 11
115.6977301029114
 21
144.9652980548775
 31
0.000000000000000
  0
ARC
  5
D8
100
AcDbEntity
  8
A1
  6
CONTINUOUS
 62
7
100
AcDbCircle
 10
111.7958789078764
 20
149.4652980548775
 30
0.000000000000000
 40
4.500000000000000
100
AcDbArc
 50
232.3873099711195
 51
270.0000000000000
  0
ARC
  5
D9
100
AcDbEntity
  8
A1
  6
CONTINUOUS
 62
7
100
AcDbCircle
 10
111.7958789078782
 20
133.2065172839701
 30
0.000000000000000
 40
4.500000000000000
100
AcDbArc
 50
90.00000000000000
 51
127.6126900288950
  0
ARC
  5
DA
100
AcDbEntity
  8
A1
  6
CONTINUOUS
 62
7
100
AcDbCircle
 10
104.3442706976834
 20
142.3359076694231
 30
0.000000000000000
 40
4.500000000000000
100
AcDbArc
 50
90.00000000000000
 51
127.6126900288805
  0
ARC
  5
DB
100
AcDbEntity
  8
A1
  6
CONTINUOUS
 62
7
100
AcDbCircle
 10
98.85138505061315
 20
149.4652980548775
 30
0.000000000000000
 40
4.500000000000000
100
AcDbArc
 50
270.0000000000000
 51
307.6126900288805
  0
LINE
  5
DC
100
AcDbEntity
  8
A1
  6
CONTINUOUS
 62
7
100
AcDbLine
 10
98.85138505061315
 20
144.9652980548775
 30
0.000000000000000
 11
94.94953385557824
 21
144.9652980548775
 31
0.000000000000000
  0
ARC
  5
DD
100
AcDbEntity
  8
A1
  6
CONTINUOUS
 62
7
100
AcDbCircle
 10
104.3442706976834
 20
140.3359076694231
 30
0.000000000000000
 40
4.500000000000000
100
AcDbArc
 50
232.3873099711051
 51
270.0000000000000
  0
ARC
  5
DE
100
AcDbEntity
  8
A1
  6
CONTINUOUS
 62
7
100
AcDbCircle
 10
98.85138505061138
 20
133.2065172839701
 30
0.000000000000000
 40
4.500000000000000
100
AcDbArc
 50
52.38730997110503
 51
90.00000000000000
  0
LINE
  5
DF
100
AcDbEntity
  8
A1
  6
CONTINUOUS
 62
7
100
AcDbLine
 10
98.85138505061138
 20
137.7065172839701
 30
0.000000000000000
 11
94.94953385557830
 21
137.7065172839701
 31
0.000000000000000
  0
LINE
  5
E0
100
AcDbEntity
  8
A1
  6
CONTINUOUS
 62
7
100
AcDbLine
 10
94.94953385557827
 20
144.9652980548775
 30
0.000000000000000
 11
94.94953385557827
 21
137.7065172839701
 31
0.000000000000000
  0
LINE
  5
E1
100
AcDbEntity
  8
A1
  6
CONTINUOUS
 62
7
100
AcDbLine
 10
104.3442706976834
 20
135.8359076694231
 30
0.000000000000000
 11
106.3029932608061
 21
135.8359076694231
 31
0.000000000000000
  0
LINE
  5
E2
100
AcDbEntity
  8
A1
  6
CONTINUOUS
 62
7
100
AcDbLine
 10
104.3442706976834
 20
146.8359076694231
 30
0.000000000000000
 11
106.3029932608061
 21
146.8359076694231
 31
0.000000000000000
  0
LINE
  5
E3
100
AcDbEntity
  8
A1
  6
CONTINUOUS
 62
7
100
AcDbLine
 10
93.44602416824996
 20
145.3359076694231
 30
0.000000000000000
 11
96.88233334569743
 21
145.3359076694231
 31
0.000000000000000
  0
LINE
  5
E4
100
AcDbEntity
  8
A1
  6
CONTINUOUS
 62
7
100
AcDbLine
 10
93.44602416824996
 20
137.3359076694230
 30
0.000000000000000
 11
96.88233334569743
 21
137.3359076694230
 31
0.000000000000000
  0
LINE
  5
E5
100
AcDbEntity
  8
A1
  6
CONTINUOUS
 62
7
100
AcDbLine
 10
93.44602416824996
 20
138.0359076694230
 30
0.000000000000000
 11
94.68270225235285
 21
138.0359076694230
 31
0.000000000000000
  0
LINE
  5
E6
100
AcDbEntity
  8
A1
  6
CONTINUOUS
 62
7
100
AcDbLine
 10
93.44602416824996
 20
144.6359076694230
 30
0.000000000000000
 11
94.68270225235285
 21
144.6359076694230
 31
0.000000000000000
  0
LINE
  5
E7
100
AcDbEntity
  8
A1
  6
CONTINUOUS
 62
7
100
AcDbLine
 10
93.44602416824996
 20
144.6359076694230
 30
0.000000000000000
 11
93.44602416824996
 21
145.3359076694231
 31
0.000000000000000
  0
LINE
  5
E8
100
AcDbEntity
  8
A1
  6
CONTINUOUS
 62
7
100
AcDbLine
 10
93.44602416824996
 20
137.3359076694230
 30
0.000000000000000
 11
93.44602416824996
 21
138.0359076694230
 31
0.000000000000000
  0
ARC
  5
E9
100
AcDbEntity
  8
A1
  6
CONTINUOUS
 62
7
100
AcDbCircle
 10
94.68270225235284
 20
139.5359076694230
 30
0.000000000000000
 40
1.500000000000000
100
AcDbArc
 50
270.0000000000000
 51
280.2467504794182
  0
ARC
  5
EA
100
AcDbEntity
  8
A1
  6
CONTINUOUS
 62
7
100
AcDbCircle
 10
94.68270225235284
 20
143.1359076694229
 30
0.000000000000000
 40
1.500000000000000
100
AcDbArc
 50
79.75324952058182
 51
90.00000000000000
  0
ARC
  5
EB
100
AcDbEntity
  8
A1
  6
CONTINUOUS
 62
7
100
AcDbCircle
 10
94.68233334569749
 20
139.5359076694230
 30
0.000000000000000
 40
2.200000000000000
100
AcDbArc
 50
270.0000000000000
 51
303.7426284064869
  0
ARC
  5
EC
100
AcDbEntity
  8
A1
  6
CONTINUOUS
 62
7
100
AcDbCircle
 10
94.68233334569743
 20
143.1359076694231
 30
0.000000000000000
 40
2.200000000000000
100
AcDbArc
 50
56.25737159357926
 51
90.00000000000000
  0
ARC
  5
ED
100
AcDbEntity
  8
A1
  6
CONTINUOUS
 62
7
100
AcDbCircle
 10
104.0804940847214
 20
185.7270908963810
 30
0.000000000000000
 40
48.92361528065812
100
AcDbArc
 50
261.5393231055528
 51
266.9288324947089
  0
ARC
  5
EE
100
AcDbEntity
  8
A1
  6
CONTINUOUS
 62
7
100
AcDbCircle
 10
104.0804940847214
 20
96.94472444246489
 30
0.000000000000000
 40
48.92361528065812
100
AcDbArc
 50
93.07116750529188
 51
98.46067689444719
  0
ARC
  5
EF
100
AcDbEntity
  8
A1
  6
CONTINUOUS
 62
7
100
AcDbCircle
 10
98.18022049566559
 20
141.3355587045631
 30
0.000000000000000
 40
4.150000000000000
100
AcDbArc
 50
93.94033719432430
 51
118.9980758334834
  0
ARC
  5
F0
100
AcDbEntity
  8
A1
  6
CONTINUOUS
 62
7
100
AcDbCircle
 10
98.18022049566559
 20
141.3355587045631
 30
0.000000000000000
 40
4.150000000000000
100
AcDbArc
 50
141.1214976479187
 51
180.0000000000000
  0
ARC
  5
F1
100
AcDbEntity
  8
A1
  6
CONTINUOUS
 62
7
100
AcDbCircle
 10
98.18022049566554
 20
141.3362566342829
 30
0.000000000000000
 40
4.150000000000000
100
AcDbArc
 50
180.0000000000000
 51
218.8785023520824
  0
ARC
  5
F2
100
AcDbEntity
  8
A1
  6
CONTINUOUS
 62
7
100
AcDbCircle
 10
98.18022049566554
 20
141.3362566342829
 30
0.000000000000000
 40
4.150000000000000
100
AcDbArc
 50
241.0019241664710
 51
266.0596628056450
  0
LINE
  5
F3
100
AcDbEntity
  8
A4
  6
CENTER
 62
1
100
AcDbLine
 10
90.64737448702579
 20
141.3359076694231
 30
0.000000000000000
 11
117.1977301029113
 21
141.3359076694231
 31
0.000000000000000
  0
LINE
  5
F4
100
AcDbEntity
  8
A4
  6
CENTER
 62
1
100
AcDbLine
 10
105.3236319792451
 20
130.9878501582072
 30
0.000000000000000
 11
105.3236319792451
 21
151.1186745091879
 31
0.000000000000000
  0
ARC
  5
F5
100
AcDbEntity
  8
A1
  6
CONTINUOUS
 62
7
100
AcDbCircle
 10
105.3236319792451
 20
141.3359076694231
 30
0.000000000000000
 40
4.520638718440921
100
AcDbArc
 50
213.1378575890507
 51
326.8621424109489
  0
ARC
  5
F6
100
AcDbEntity
  8
A1
  6
CONTINUOUS
 62
7
100
AcDbCircle
 10
105.3236319792451
 20
141.3359076694231
 30
0.000000000000000
 40
4.520638718440921
100
AcDbArc
 50
33.13785758907086
 51
146.8621424109296
  0
ARC
  5
F7
100
AcDbEntity
  8
A1
  6
CONTINUOUS
 62
7
100
AcDbCircle
 10
94.94594750658322
 20
141.3359076694231
 30
0.000000000000000
 40
2.500000000000938
100
AcDbArc
 50
91.80807967682327
 51
268.1919203231715
  0
ENDSEC
  0
SECTION
  2
OBJECTS
  0
DICTIONARY
  5
126
100
AcDbDictionary
  3
ACAD_GROUP
350
127
  3
ACAD_MLINESTYLE
350
128
  0
DICTIONARY
  5
127
102
{ACAD_REACTORS
330
126
102
}
100
AcDbDictionary
  0
DICTIONARY
  5
128
102
{ACAD_REACTORS
330
126
102
}
100
AcDbDictionary
  3
STANDARD
350
129
  0
MLINESTYLE
  5
129
102
{ACAD_REACTORS
330
128
102
}
100
AcDbMlineStyle
  2
STANDARD
 70
     0
  3

 62
   256
 51
90.00
 52
90.00
 71
     2
 49
0.50
 62
   256
  6
BYLAYER
 49
-0.50
 62
   256
  6
BYLAYER
  0
ENDSEC
  0
EOF
