  0
SECTION
  2
HEADER
  9
$ACADVER
  1
AC1015
  9
$ACADMAINTVER
 70
    20
  9
$DWGCODEPAGE
  3
ANSI_932
  9
$INSBASE
 10
0.0
 20
0.0
 30
0.0
  9
$EXTMIN
 10
10.0
 20
9.999999999999998
 30
0.0
  9
$EXTMAX
 10
231.345952
 20
215.9800999999999
 30
0.0
  9
$LIMMIN
 10
0.0
 20
0.0
  9
$LIMMAX
 10
396.0
 20
273.0
  9
$ORTHOMODE
 70
     1
  9
$REGENMODE
 70
     1
  9
$FILLMODE
 70
     1
  9
$QTEXTMODE
 70
     0
  9
$MIRRTEXT
 70
     1
  9
$LTSCALE
 40
20.0
  9
$ATTMODE
 70
     1
  9
$TEXTSIZE
 40
5.0
  9
$TRACEWID
 40
1.0
  9
$TEXTSTYLE
  7
STANDARD
  9
$CLAYER
  8
0
  9
$CELTYPE
  6
BYLAYER
  9
$CECOLOR
 62
   256
  9
$CELTSCALE
 40
1.0
  9
$DISPSILH
 70
     0
  9
$DIMSCALE
 40
1.0
  9
$DIMASZ
 40
2.5
  9
$DIMEXO
 40
1.0
  9
$DIMDLI
 40
10.0
  9
$DIMRND
 40
0.0
  9
$DIMDLE
 40
0.0
  9
$DIMEXE
 40
1.0
  9
$DIMTP
 40
0.0
  9
$DIMTM
 40
0.0
  9
$DIMTXT
 40
3.2
  9
$DIMCEN
 40
0.0
  9
$DIMTSZ
 40
0.0
  9
$DIMTOL
 70
     0
  9
$DIMLIM
 70
     0
  9
$DIMTIH
 70
     0
  9
$DIMTOH
 70
     0
  9
$DIMSE1
 70
     0
  9
$DIMSE2
 70
     0
  9
$DIMTAD
 70
     3
  9
$DIMZIN
 70
     8
  9
$DIMBLK
  1

  9
$DIMASO
 70
     1
  9
$DIMSHO
 70
     1
  9
$DIMPOST
  1

  9
$DIMAPOST
  1

  9
$DIMALT
 70
     0
  9
$DIMALTD
 70
     2
  9
$DIMALTF
 40
25.4
  9
$DIMLFAC
 40
1.0
  9
$DIMTOFL
 70
     1
  9
$DIMTVP
 40
0.0
  9
$DIMTIX
 70
     0
  9
$DIMSOXD
 70
     0
  9
$DIMSAH
 70
     1
  9
$DIMBLK1
  1

  9
$DIMBLK2
  1

  9
$DIMSTYLE
  2
STANDARD
  9
$DIMCLRD
 70
     0
  9
$DIMCLRE
 70
     0
  9
$DIMCLRT
 70
     0
  9
$DIMTFAC
 40
1.0
  9
$DIMGAP
 40
1.0
  9
$DIMJUST
 70
     0
  9
$DIMSD1
 70
     0
  9
$DIMSD2
 70
     0
  9
$DIMTOLJ
 70
     1
  9
$DIMTZIN
 70
     0
  9
$DIMALTZ
 70
     0
  9
$DIMALTTZ
 70
     0
  9
$DIMUPT
 70
     0
  9
$DIMDEC
 70
     4
  9
$DIMTDEC
 70
     4
  9
$DIMALTU
 70
     2
  9
$DIMALTTD
 70
     2
  9
$DIMTXSTY
  7
STANDARD
  9
$DIMAUNIT
 70
     0
  9
$DIMADEC
 70
     0
  9
$DIMALTRND
 40
0.0
  9
$DIMAZIN
 70
     0
  9
$DIMDSEP
 70
    46
  9
$DIMATFIT
 70
     3
  9
$DIMFRAC
 70
     0
  9
$DIMLDRBLK
  1

  9
$DIMLUNIT
 70
     2
  9
$DIMLWD
 70
    -2
  9
$DIMLWE
 70
    -2
  9
$DIMTMOVE
 70
     0
  9
$LUNITS
 70
     2
  9
$LUPREC
 70
     4
  9
$SKETCHINC
 40
1.0
  9
$FILLETRAD
 40
1.0
  9
$AUNITS
 70
     0
  9
$AUPREC
 70
     2
  9
$MENU
  1
.
  9
$ELEVATION
 40
0.0
  9
$PELEVATION
 40
0.0
  9
$THICKNESS
 40
0.0
  9
$LIMCHECK
 70
     0
  9
$CHAMFERA
 40
10.0
  9
$CHAMFERB
 40
10.0
  9
$CHAMFERC
 40
0.0
  9
$CHAMFERD
 40
0.0
  9
$SKPOLY
 70
     0
  9
$TDCREATE
 40
2451296.794729861
  9
$TDUCREATE
 40
2451296.419729861
  9
$TDUPDATE
 40
2457192.658281597
  9
$TDUUPDATE
 40
2457192.283281597
  9
$TDINDWG
 40
0.0000108912
  9
$TDUSRTIMER
 40
0.0000105787
  9
$USRTIMER
 70
     1
  9
$ANGBASE
 50
0.0
  9
$ANGDIR
 70
     0
  9
$PDMODE
 70
     0
  9
$PDSIZE
 40
0.0
  9
$PLINEWID
 40
0.0
  9
$SPLFRAME
 70
     0
  9
$SPLINETYPE
 70
     6
  9
$SPLINESEGS
 70
     8
  9
$HANDSEED
  5
BB42
  9
$SURFTAB1
 70
     6
  9
$SURFTAB2
 70
     6
  9
$SURFTYPE
 70
     6
  9
$SURFU
 70
     6
  9
$SURFV
 70
     6
  9
$UCSBASE
  2

  9
$UCSNAME
  2

  9
$UCSORG
 10
0.0
 20
0.0
 30
0.0
  9
$UCSXDIR
 10
1.0
 20
0.0
 30
0.0
  9
$UCSYDIR
 10
0.0
 20
1.0
 30
0.0
  9
$UCSORTHOREF
  2

  9
$UCSORTHOVIEW
 70
     0
  9
$UCSORGTOP
 10
0.0
 20
0.0
 30
0.0
  9
$UCSORGBOTTOM
 10
0.0
 20
0.0
 30
0.0
  9
$UCSORGLEFT
 10
0.0
 20
0.0
 30
0.0
  9
$UCSORGRIGHT
 10
0.0
 20
0.0
 30
0.0
  9
$UCSORGFRONT
 10
0.0
 20
0.0
 30
0.0
  9
$UCSORGBACK
 10
0.0
 20
0.0
 30
0.0
  9
$PUCSBASE
  2

  9
$PUCSNAME
  2

  9
$PUCSORG
 10
0.0
 20
0.0
 30
0.0
  9
$PUCSXDIR
 10
1.0
 20
0.0
 30
0.0
  9
$PUCSYDIR
 10
0.0
 20
1.0
 30
0.0
  9
$PUCSORTHOREF
  2

  9
$PUCSORTHOVIEW
 70
     0
  9
$PUCSORGTOP
 10
0.0
 20
0.0
 30
0.0
  9
$PUCSORGBOTTOM
 10
0.0
 20
0.0
 30
0.0
  9
$PUCSORGLEFT
 10
0.0
 20
0.0
 30
0.0
  9
$PUCSORGRIGHT
 10
0.0
 20
0.0
 30
0.0
  9
$PUCSORGFRONT
 10
0.0
 20
0.0
 30
0.0
  9
$PUCSORGBACK
 10
0.0
 20
0.0
 30
0.0
  9
$USERI1
 70
     0
  9
$USERI2
 70
     0
  9
$USERI3
 70
     0
  9
$USERI4
 70
     0
  9
$USERI5
 70
     0
  9
$USERR1
 40
0.0
  9
$USERR2
 40
0.0
  9
$USERR3
 40
0.0
  9
$USERR4
 40
0.0
  9
$USERR5
 40
0.0
  9
$WORLDVIEW
 70
     1
  9
$SHADEDGE
 70
     3
  9
$SHADEDIF
 70
    70
  9
$TILEMODE
 70
     1
  9
$MAXACTVP
 70
    16
  9
$PINSBASE
 10
0.0
 20
0.0
 30
0.0
  9
$PLIMCHECK
 70
     0
  9
$PEXTMIN
 10
1.000000000000000E+20
 20
1.000000000000000E+20
 30
1.000000000000000E+20
  9
$PEXTMAX
 10
-1.000000000000000E+20
 20
-1.000000000000000E+20
 30
-1.000000000000000E+20
  9
$PLIMMIN
 10
0.0
 20
0.0
  9
$PLIMMAX
 10
420.0
 20
297.0
  9
$UNITMODE
 70
     0
  9
$VISRETAIN
 70
     0
  9
$PLINEGEN
 70
     0
  9
$PSLTSCALE
 70
     0
  9
$TREEDEPTH
 70
  3020
  9
$CMLSTYLE
  2
STANDARD
  9
$CMLJUST
 70
     0
  9
$CMLSCALE
 40
1.0
  9
$PROXYGRAPHICS
 70
     1
  9
$MEASUREMENT
 70
     0
  9
$CELWEIGHT
370
    -1
  9
$ENDCAPS
280
     0
  9
$JOINSTYLE
280
     0
  9
$LWDISPLAY
290
     0
  9
$INSUNITS
 70
     0
  9
$HYPERLINKBASE
  1

  9
$STYLESHEET
  1

  9
$XEDIT
290
     1
  9
$CEPSNTYPE
380
     0
  9
$PSTYLEMODE
290
     1
  9
$FINGERPRINTGUID
  2
{C2A2C879-E889-4C52-B811-40C58AD02A95}
  9
$VERSIONGUID
  2
{DD3D8471-B84E-42A8-815D-6AD03524BC14}
  9
$EXTNAMES
290
     1
  9
$PSVPSCALE
 40
0.0
  9
$OLESTARTUP
290
     0
  0
ENDSEC
  0
SECTION
  2
CLASSES
  0
CLASS
  1
ACDBDICTIONARYWDFLT
  2
AcDbDictionaryWithDefault
  3
ObjectDBX Classes
 90
        0
280
     0
281
     0
  0
CLASS
  1
ACDBPLACEHOLDER
  2
AcDbPlaceHolder
  3
ObjectDBX Classes
 90
        0
280
     0
281
     0
  0
CLASS
  1
LAYOUT
  2
AcDbLayout
  3
ObjectDBX Classes
 90
        0
280
     0
281
     0
  0
CLASS
  1
DICTIONARYVAR
  2
AcDbDictionaryVar
  3
ObjectDBX Classes
 90
        0
280
     0
281
     0
  0
CLASS
  1
MATERIAL
  2
AcDbMaterial
  3
ObjectDBX Classes
 90
     1153
280
     0
281
     0
  0
CLASS
  1
VISUALSTYLE
  2
AcDbVisualStyle
  3
ObjectDBX Classes
 90
     4095
280
     0
281
     0
  0
CLASS
  1
TABLESTYLE
  2
AcDbTableStyle
  3
ObjectDBX Classes
 90
     4095
280
     0
281
     0
  0
CLASS
  1
SCALE
  2
AcDbScale
  3
ObjectDBX Classes
 90
     1153
280
     0
281
     0
  0
CLASS
  1
MLEADERSTYLE
  2
AcDbMLeaderStyle
  3
ACDB_MLEADERSTYLE_CLASS
 90
     4095
280
     0
281
     0
  0
CLASS
  1
ACDBSECTIONVIEWSTYLE
  2
AcDbSectionViewStyle
  3
ObjectDBX Classes
 90
     1025
280
     0
281
     0
  0
CLASS
  1
ACDBDETAILVIEWSTYLE
  2
AcDbDetailViewStyle
  3
ObjectDBX Classes
 90
     1025
280
     0
281
     0
  0
CLASS
  1
CELLSTYLEMAP
  2
AcDbCellStyleMap
  3
ObjectDBX Classes
 90
     1152
280
     0
281
     0
  0
ENDSEC
  0
SECTION
  2
TABLES
  0
TABLE
  2
VPORT
  5
B890
330
0
100
AcDbSymbolTable
 70
     1
  0
VPORT
  5
BA8B
330
B890
100
AcDbSymbolTableRecord
100
AcDbViewportTableRecord
  2
*ACTIVE
 70
     0
 10
0.0
 20
0.0
 11
1.0
 21
1.0
 12
183.0624240711399
 22
112.9849096658696
 13
0.0
 23
0.0
 14
10.0
 24
10.0
 15
10.0
 25
10.0
 16
0.0
 26
0.0
 36
1.0
 17
0.0
 27
0.0
 37
0.0
 40
208.2952568948511
 41
1.899603698811096
 42
50.0
 43
0.0
 44
0.0
 50
0.0
 51
0.0
 71
     0
 72
   100
 73
     1
 74
     0
 75
     0
 76
     0
 77
     0
 78
     0
281
     0
 65
     1
110
0.0
120
0.0
130
0.0
111
1.0
121
0.0
131
0.0
112
0.0
122
1.0
132
0.0
 79
     0
146
0.0
1001
ACAD_NAV_VCDISPLAY
1070
     3
  0
ENDTAB
  0
TABLE
  2
LTYPE
  5
B88D
330
0
100
AcDbSymbolTable
 70
     4
  0
LTYPE
  5
B89B
330
B88D
100
AcDbSymbolTableRecord
100
AcDbLinetypeTableRecord
  2
BYBLOCK
 70
     0
  3

 72
    65
 73
     0
 40
0.0
  0
LTYPE
  5
B89C
330
B88D
100
AcDbSymbolTableRecord
100
AcDbLinetypeTableRecord
  2
BYLAYER
 70
     0
  3

 72
    65
 73
     0
 40
0.0
  0
LTYPE
  5
B89D
330
B88D
100
AcDbSymbolTableRecord
100
AcDbLinetypeTableRecord
  2
CONTINUOUS
 70
     0
  3
Solid line
 72
    65
 73
     0
 40
0.0
  0
LTYPE
  5
B8AB
330
B88D
100
AcDbSymbolTableRecord
100
AcDbLinetypeTableRecord
  2
DASHED
 70
     0
  3
__ __ __ __ __ __ __ __ __ __ __ __ __ __ __ __
 72
    65
 73
     2
 40
0.75
 49
0.5
 74
     0
 49
-0.25
 74
     0
  0
LTYPE
  5
B8AC
330
B88D
100
AcDbSymbolTableRecord
100
AcDbLinetypeTableRecord
  2
CENTER
 70
     0
  3
____ _ ____ _ ____ _ ____ _ ____ _ ____ _ ____ 
 72
    65
 73
     4
 40
2.0
 49
1.25
 74
     0
 49
-0.25
 74
     0
 49
0.25
 74
     0
 49
-0.25
 74
     0
  0
LTYPE
  5
B8AD
330
B88D
100
AcDbSymbolTableRecord
100
AcDbLinetypeTableRecord
  2
PHANTOM
 70
     0
  3
______  __  __  ______  __  __  ______  __  __ 
 72
    65
 73
     6
 40
2.5
 49
1.25
 74
     0
 49
-0.25
 74
     0
 49
0.25
 74
     0
 49
-0.25
 74
     0
 49
0.25
 74
     0
 49
-0.25
 74
     0
  0
ENDTAB
  0
TABLE
  2
LAYER
  5
B88A
330
0
100
AcDbSymbolTable
 70
     8
  0
LAYER
  5
B898
102
{ACAD_XDICTIONARY
360
BAE6
102
}
330
B88A
100
AcDbSymbolTableRecord
100
AcDbLayerTableRecord
  2
0
 70
     0
 62
     7
  6
CONTINUOUS
370
    -3
390
BA94
  0
LAYER
  5
B8AE
102
{ACAD_XDICTIONARY
360
BAE8
102
}
330
B88A
100
AcDbSymbolTableRecord
100
AcDbLayerTableRecord
  2
4
 70
     0
 62
     1
  6
CENTER
370
    -3
390
BA94
  0
LAYER
  5
B8AF
102
{ACAD_XDICTIONARY
360
BAEA
102
}
330
B88A
100
AcDbSymbolTableRecord
100
AcDbLayerTableRecord
  2
5
 70
     0
 62
     6
  6
PHANTOM
370
    -3
390
BA94
  0
LAYER
  5
B8B0
102
{ACAD_XDICTIONARY
360
BAEC
102
}
330
B88A
100
AcDbSymbolTableRecord
100
AcDbLayerTableRecord
  2
1
 70
     0
 62
     7
  6
CONTINUOUS
370
    -3
390
BA94
  0
LAYER
  5
B8B1
102
{ACAD_XDICTIONARY
360
BAEE
102
}
330
B88A
100
AcDbSymbolTableRecord
100
AcDbLayerTableRecord
  2
2
 70
     0
 62
     4
  6
CONTINUOUS
370
    -3
390
BA94
  0
LAYER
  5
B8B2
102
{ACAD_XDICTIONARY
360
BAF0
102
}
330
B88A
100
AcDbSymbolTableRecord
100
AcDbLayerTableRecord
  2
3
 70
     0
 62
     2
  6
DASHED
370
    -3
390
BA94
  0
LAYER
  5
B8B3
102
{ACAD_XDICTIONARY
360
BAF2
102
}
330
B88A
100
AcDbSymbolTableRecord
100
AcDbLayerTableRecord
  2
6
 70
     0
 62
     5
  6
CONTINUOUS
370
    -3
390
BA94
  0
LAYER
  5
B8B4
102
{ACAD_XDICTIONARY
360
BAF4
102
}
330
B88A
100
AcDbSymbolTableRecord
100
AcDbLayerTableRecord
  2
7
 70
     0
 62
     3
  6
CONTINUOUS
370
    -3
390
BA94
  0
ENDTAB
  0
TABLE
  2
STYLE
  5
B88B
330
0
100
AcDbSymbolTable
 70
     1
  0
STYLE
  5
B899
330
B88B
100
AcDbSymbolTableRecord
100
AcDbTextStyleTableRecord
  2
STANDARD
 70
     0
 40
0.0
 41
1.0
 50
0.0
 71
     0
 42
5.0
  3
txt
  4

  0
ENDTAB
  0
TABLE
  2
VIEW
  5
B88E
330
0
100
AcDbSymbolTable
 70
     1
  0
VIEW
  5
B8B5
330
B88E
100
AcDbSymbolTableRecord
100
AcDbViewTableRecord
  2
7
 70
     0
 40
245.868108
 10
236.8390529999998
 20
122.934054
 41
473.678107
 11
0.0
 21
0.0
 31
1.0
 12
0.0
 22
0.0
 32
0.0
 42
50.0
 43
0.0
 44
0.0
 50
0.0
 71
     0
281
     0
 72
     0
  0
ENDTAB
  0
TABLE
  2
UCS
  5
B88F
330
0
100
AcDbSymbolTable
 70
     0
  0
ENDTAB
  0
TABLE
  2
APPID
  5
B891
330
0
100
AcDbSymbolTable
 70
     3
  0
APPID
  5
B89A
330
B891
100
AcDbSymbolTableRecord
100
AcDbRegAppTableRecord
  2
ACAD
 70
     0
  0
APPID
  5
BB00
330
B891
100
AcDbSymbolTableRecord
100
AcDbRegAppTableRecord
  2
ACAD_NAV_VCDISPLAY
 70
     0
  0
APPID
  5
BB39
330
B891
100
AcDbSymbolTableRecord
100
AcDbRegAppTableRecord
  2
ACAD_MLEADERVER
 70
     0
  0
ENDTAB
  0
TABLE
  2
DIMSTYLE
  5
B892
330
0
100
AcDbSymbolTable
 70
     1
100
AcDbDimStyleTable
 71
     0
  0
DIMSTYLE
105
B8B7
330
B892
100
AcDbSymbolTableRecord
100
AcDbDimStyleTableRecord
  2
STANDARD
 70
     0
 41
2.5
 42
1.0
 43
10.0
 44
1.0
 73
     0
 74
     0
 77
     3
 78
     8
140
3.2
141
0.0
147
1.0
172
     1
173
     1
284
     8
285
     8
286
     8
340
B899
  0
ENDTAB
  0
TABLE
  2
BLOCK_RECORD
  5
B889
330
0
100
AcDbSymbolTable
 70
     0
  0
BLOCK_RECORD
  5
B8A6
102
{ACAD_XDICTIONARY
360
BA8E
102
}
330
B889
100
AcDbSymbolTableRecord
100
AcDbBlockTableRecord
  2
*MODEL_SPACE
340
BAE2
  0
BLOCK_RECORD
  5
B8A2
102
{ACAD_XDICTIONARY
360
BA8C
102
}
330
B889
100
AcDbSymbolTableRecord
100
AcDbBlockTableRecord
  2
*PAPER_SPACE
340
BAE3
  0
ENDTAB
  0
ENDSEC
  0
SECTION
  2
BLOCKS
  0
BLOCK
  5
B8A7
330
B8A6
100
AcDbEntity
  8
0
100
AcDbBlockBegin
  2
*MODEL_SPACE
 70
     0
 10
0.0
 20
0.0
 30
0.0
  3
*MODEL_SPACE
  1

  0
ENDBLK
  5
B8A8
330
B8A6
100
AcDbEntity
  8
0
100
AcDbBlockEnd
  0
BLOCK
  5
B8A3
330
B8A2
100
AcDbEntity
 67
     1
  8
0
100
AcDbBlockBegin
  2
*PAPER_SPACE
 70
     0
 10
0.0
 20
0.0
 30
0.0
  3
*PAPER_SPACE
  1

  0
ENDBLK
  5
B8A4
330
B8A2
100
AcDbEntity
 67
     1
  8
0
100
AcDbBlockEnd
  0
ENDSEC
  0
SECTION
  2
ENTITIES
  0
TEXT
  5
B8BF
330
B8A6
100
AcDbEntity
  8
7
  6
Continuous
100
AcDbText
 10
10.0
 20
18.0
 30
0.0
 40
3.0
  1
TYPE No.TM-144SS-50
100
AcDbText
  0
TEXT
  5
B8C0
330
B8A6
100
AcDbEntity
  8
7
  6
Continuous
100
AcDbText
 10
10.0
 20
26.0
 30
0.0
 40
3.0
  1
CODE No.5736
100
AcDbText
  0
TEXT
  5
B8C1
330
B8A6
100
AcDbEntity
  8
1
  6
Continuous
100
AcDbText
 10
10.0
 20
10.0
 30
0.0
 40
1.399999999999999
  1
LAYER
100
AcDbText
  0
TEXT
  5
B8C2
330
B8A6
100
AcDbEntity
  8
1
  6
Continuous
100
AcDbText
 10
17.97951099999998
 20
10.04873699999998
 30
0.0
 40
1.399999999999999
  1
1
100
AcDbText
  0
TEXT
  5
B8C3
330
B8A6
100
AcDbEntity
  8
7
  6
Continuous
100
AcDbText
 10
29.97951099999999
 20
10.04873699999998
 30
0.0
 40
1.399999999999999
  1
7
100
AcDbText
  0
TEXT
  5
B8C4
330
B8A6
100
AcDbEntity
  8
4
  6
CENTER
100
AcDbText
 10
23.97951099999999
 20
10.04873699999998
 30
0.0
 40
1.399999999999999
  1
4
100
AcDbText
  0
TEXT
  5
B8C5
330
B8A6
100
AcDbEntity
  8
3
  6
DASHED
100
AcDbText
 10
21.979511
 20
10.04873699999998
 30
0.0
 40
1.399999999999999
  1
3
100
AcDbText
  0
TEXT
  5
B8C6
330
B8A6
100
AcDbEntity
  8
2
  6
Continuous
100
AcDbText
 10
19.97951099999999
 20
10.04873699999998
 30
0.0
 40
1.399999999999999
  1
2
100
AcDbText
  0
TEXT
  5
B8C7
330
B8A6
100
AcDbEntity
  8
6
  6
Continuous
100
AcDbText
 10
27.979511
 20
10.04873699999998
 30
0.0
 40
1.399999999999999
  1
6
100
AcDbText
  0
TEXT
  5
B8C8
330
B8A6
100
AcDbEntity
  8
5
  6
PHANTOM
100
AcDbText
 10
25.97951099999999
 20
10.04873699999998
 30
0.0
 40
1.399999999999999
  1
5
100
AcDbText
  0
LINE
  5
B8C9
330
B8A6
100
AcDbEntity
  8
1
  6
Continuous
100
AcDbLine
 10
121.045952
 20
145.4800999999999
 30
0.0
 11
131.545952
 21
145.4800999999999
 31
0.0
  0
LINE
  5
B8CA
330
B8A6
100
AcDbEntity
  8
1
  6
Continuous
100
AcDbLine
 10
143.545952
 20
146.6110999999999
 30
0.0
 11
143.545952
 21
150.4301
 31
0.0
  0
LINE
  5
B8CB
330
B8A6
100
AcDbEntity
  8
1
  6
Continuous
100
AcDbLine
 10
139.5459519999998
 20
145.9800999999998
 30
0.0
 11
139.5459519999998
 21
156.4800999999999
 31
0.0
  0
LINE
  5
B8CC
330
B8A6
100
AcDbEntity
  8
1
  6
Continuous
100
AcDbLine
 10
135.5459519999998
 20
146.4801
 30
0.0
 11
135.5459519999998
 21
155.9801
 31
0.0
  0
LINE
  5
B8CD
330
B8A6
100
AcDbEntity
  8
1
  6
Continuous
100
AcDbLine
 10
117.045952
 20
148.4801
 30
0.0
 11
117.045952
 21
155.9801
 31
0.0
  0
LINE
  5
B8CE
330
B8A6
100
AcDbEntity
  8
1
  6
Continuous
100
AcDbLine
 10
115.045952
 20
148.4781
 30
0.0
 11
115.045952
 21
154.4781
 31
0.0
  0
LINE
  5
B8CF
330
B8A6
100
AcDbEntity
  8
4
  6
CENTER
100
AcDbLine
 10
126.295952
 20
91.500017
 30
0.0
 11
126.295952
 21
160.4800999999999
 31
0.0
  0
LINE
  5
B8D0
330
B8A6
100
AcDbEntity
  8
1
  6
Continuous
100
AcDbLine
 10
118.5459519999999
 20
157.4800999999999
 30
0.0
 11
134.045952
 21
157.4800999999999
 31
0.0
  0
LINE
  5
B8D1
330
B8A6
100
AcDbEntity
  8
1
  6
Continuous
100
AcDbLine
 10
120.7959519999999
 20
197.4801
 30
0.0
 11
131.795952
 21
197.4801
 31
0.0
  0
LINE
  5
B8D2
330
B8A6
100
AcDbEntity
  8
1
  6
Continuous
100
AcDbLine
 10
120.7959519999999
 20
212.9801
 30
0.0
 11
131.795952
 21
212.9801
 31
0.0
  0
LINE
  5
B8D3
330
B8A6
100
AcDbEntity
  8
4
  6
CENTER
100
AcDbLine
 10
95.495952
 20
205.2300999999999
 30
0.0
 11
157.095952
 21
205.2300999999999
 31
0.0
  0
LINE
  5
B8D4
330
B8A6
100
AcDbEntity
  8
4
  6
CENTER
100
AcDbLine
 10
219.845952
 20
91.500017
 30
0.0
 11
219.845952
 21
160.4801379999998
 31
0.0
  0
LINE
  5
B8D5
330
B8A6
100
AcDbEntity
  8
1
  6
Continuous
100
AcDbLine
 10
143.545952
 20
201.2300999999999
 30
0.0
 11
143.545952
 21
209.2300999999999
 31
0.0
  0
LINE
  5
B8D6
330
B8A6
100
AcDbEntity
  8
1
  6
Continuous
100
AcDbLine
 10
139.5459519999998
 20
199.9800999999999
 30
0.0
 11
139.5459519999998
 21
210.4801
 31
0.0
  0
LINE
  5
B8D7
330
B8A6
100
AcDbEntity
  8
1
  6
Continuous
100
AcDbLine
 10
135.5459519999998
 20
199.9800999999999
 30
0.0
 11
135.5459519999998
 21
210.4801
 31
0.0
  0
LINE
  5
B8D8
330
B8A6
100
AcDbEntity
  8
4
  6
CENTER
100
AcDbLine
 10
126.295952
 20
194.4801
 30
0.0
 11
126.295952
 21
215.9800999999999
 31
0.0
  0
LINE
  5
B8D9
330
B8A6
100
AcDbEntity
  8
1
  6
Continuous
100
AcDbLine
 10
117.045952
 20
199.9800999999999
 30
0.0
 11
117.045952
 21
210.4801
 31
0.0
  0
LINE
  5
B8DA
330
B8A6
100
AcDbEntity
  8
1
  6
Continuous
100
AcDbLine
 10
115.045952
 20
202.2301
 30
0.0
 11
115.045952
 21
208.2301
 31
0.0
  0
LINE
  5
B8DB
330
B8A6
100
AcDbEntity
  8
1
  6
Continuous
100
AcDbLine
 10
115.045952
 20
148.4801
 30
0.0
 11
120.7959519999999
 21
148.4801
 31
0.0
  0
LINE
  5
B8DC
330
B8A6
100
AcDbEntity
  8
1
  6
Continuous
100
AcDbLine
 10
115.045952
 20
154.4800999999999
 30
0.0
 11
117.045952
 21
154.4800999999999
 31
0.0
  0
ARC
  5
B8DD
330
B8A6
100
AcDbEntity
  8
1
  6
Continuous
100
AcDbCircle
 10
118.5459519999999
 20
155.9801
 30
0.0
 40
1.5
100
AcDbArc
 50
90.0
 51
180.0
  0
ARC
  5
B8DE
330
B8A6
100
AcDbEntity
  8
1
  6
Continuous
100
AcDbCircle
 10
134.045952
 20
155.9801
 30
0.0
 40
1.5
100
AcDbArc
 50
0.0
 51
90.0
  0
ARC
  5
B8DF
330
B8A6
100
AcDbEntity
  8
1
  6
Continuous
100
AcDbCircle
 10
126.295952
 20
145.2856559999999
 30
0.0
 40
7.694443999999997
100
AcDbArc
 50
24.52954699999999
 51
155.4704529999999
  0
LINE
  5
B8E0
330
B8A6
100
AcDbEntity
  8
1
  6
Continuous
100
AcDbLine
 10
131.795952
 20
148.4801
 30
0.0
 11
131.545952
 21
145.4800999999999
 31
0.0
  0
LINE
  5
B8E1
330
B8A6
100
AcDbEntity
  8
1
  6
Continuous
100
AcDbLine
 10
120.7959519999999
 20
148.4801
 30
0.0
 11
121.045952
 21
145.4800999999999
 31
0.0
  0
ARC
  5
B8E2
330
B8A6
100
AcDbEntity
  8
1
  6
Continuous
100
AcDbCircle
 10
126.295952
 20
144.478314
 30
0.0
 40
6.801785999999997
100
AcDbArc
 50
36.039539
 51
143.960461
  0
LINE
  5
B8E3
330
B8A6
100
AcDbEntity
  8
1
  6
Continuous
100
AcDbLine
 10
131.795952
 20
148.4801
 30
0.0
 11
135.5459519999998
 21
148.4801
 31
0.0
  0
LINE
  5
B8E4
330
B8A6
100
AcDbEntity
  8
1
  6
Continuous
100
AcDbLine
 10
135.5459519999998
 20
155.9801
 30
0.0
 11
139.5459519999998
 21
156.4800999999999
 31
0.0
  0
LINE
  5
B8E5
330
B8A6
100
AcDbEntity
  8
1
  6
Continuous
100
AcDbLine
 10
135.5459519999998
 20
146.4801
 30
0.0
 11
139.5459519999998
 21
145.9800999999998
 31
0.0
  0
LINE
  5
B8E6
330
B8A6
100
AcDbEntity
  8
4
  6
CENTER
100
AcDbLine
 10
110.045952
 20
151.2300999999999
 30
0.0
 11
146.545952
 21
151.2300999999999
 31
0.0
  0
LINE
  5
B8E7
330
B8A6
100
AcDbEntity
  8
1
  6
Continuous
100
AcDbLine
 10
139.5459519999998
 20
155.8491
 30
0.0
 11
143.545952
 21
155.8491
 31
0.0
  0
LINE
  5
B8E8
330
B8A6
100
AcDbEntity
  8
1
  6
Continuous
100
AcDbLine
 10
139.5459519999998
 20
146.6110999999999
 30
0.0
 11
143.545952
 21
146.6110999999999
 31
0.0
  0
LINE
  5
B8E9
330
B8A6
100
AcDbEntity
  8
1
  6
Continuous
100
AcDbLine
 10
140.5459519999998
 20
152.0301
 30
0.0
 11
143.545952
 21
152.0301
 31
0.0
  0
LINE
  5
B8EA
330
B8A6
100
AcDbEntity
  8
1
  6
Continuous
100
AcDbLine
 10
140.5459519999998
 20
150.4301
 30
0.0
 11
143.545952
 21
150.4301
 31
0.0
  0
LINE
  5
B8EB
330
B8A6
100
AcDbEntity
  8
1
  6
Continuous
100
AcDbLine
 10
140.5459519999998
 20
150.4301
 30
0.0
 11
140.5459519999998
 21
152.0301
 31
0.0
  0
LINE
  5
B8EC
330
B8A6
100
AcDbEntity
  8
1
  6
Continuous
100
AcDbLine
 10
143.545952
 20
152.0301
 30
0.0
 11
143.545952
 21
155.8491
 31
0.0
  0
LINE
  5
B8ED
330
B8A6
100
AcDbEntity
  8
1
  6
Continuous
100
AcDbLine
 10
139.5459519999998
 20
153.5396
 30
0.0
 11
142.045952
 21
153.5396
 31
0.0
  0
LINE
  5
B8EE
330
B8A6
100
AcDbEntity
  8
1
  6
Continuous
100
AcDbLine
 10
139.5459519999998
 20
148.9206
 30
0.0
 11
142.045952
 21
148.9206
 31
0.0
  0
LINE
  5
B8EF
330
B8A6
100
AcDbEntity
  8
1
  6
Continuous
100
AcDbLine
 10
142.045952
 20
153.5396
 30
0.0
 11
143.545952
 21
152.9396
 31
0.0
  0
LINE
  5
B8F0
330
B8A6
100
AcDbEntity
  8
1
  6
Continuous
100
AcDbLine
 10
142.045952
 20
153.5396
 30
0.0
 11
143.545952
 21
154.1395999999998
 31
0.0
  0
LINE
  5
B8F1
330
B8A6
100
AcDbEntity
  8
1
  6
Continuous
100
AcDbLine
 10
142.045952
 20
148.9206
 30
0.0
 11
143.545952
 21
149.5206
 31
0.0
  0
LINE
  5
B8F2
330
B8A6
100
AcDbEntity
  8
1
  6
Continuous
100
AcDbLine
 10
142.045952
 20
148.9206
 30
0.0
 11
143.545952
 21
148.3206
 31
0.0
  0
LINE
  5
B8F3
330
B8A6
100
AcDbEntity
  8
4
  6
CENTER
100
AcDbLine
 10
209.095952
 20
151.2301379999998
 30
0.0
 11
230.595952
 21
151.2301379999998
 31
0.0
  0
ARC
  5
B8F4
330
B8A6
100
AcDbEntity
  8
1
  6
Continuous
100
AcDbCircle
 10
219.845952
 20
151.2301379999998
 30
0.0
 40
3.0
100
AcDbArc
 50
15.46601
 51
164.5339899999999
  0
LINE
  5
B8F5
330
B8A6
100
AcDbEntity
  8
1
  6
Continuous
100
AcDbLine
 10
215.845952
 20
152.030138
 30
0.0
 11
223.845952
 21
152.030138
 31
0.0
  0
LINE
  5
B8F6
330
B8A6
100
AcDbEntity
  8
1
  6
Continuous
100
AcDbLine
 10
215.845952
 20
150.430138
 30
0.0
 11
223.845952
 21
150.430138
 31
0.0
  0
ARC
  5
B8F7
330
B8A6
100
AcDbEntity
  8
1
  6
Continuous
100
AcDbCircle
 10
219.845952
 20
151.2301379999998
 30
0.0
 40
3.0
100
AcDbArc
 50
195.4660099999999
 51
344.53399
  0
CIRCLE
  5
B8F8
330
B8A6
100
AcDbEntity
  8
1
  6
Continuous
100
AcDbCircle
 10
219.845952
 20
151.2301379999998
 30
0.0
 40
5.25
  0
LINE
  5
B8F9
330
B8A6
100
AcDbEntity
  8
1
  6
Continuous
100
AcDbLine
 10
226.095952
 20
148.4801379999999
 30
0.0
 11
226.095952
 21
151.9801379999998
 31
0.0
  0
LINE
  5
B8FA
330
B8A6
100
AcDbEntity
  8
1
  6
Continuous
100
AcDbLine
 10
213.595952
 20
148.4801379999999
 30
0.0
 11
213.595952
 21
151.9801379999998
 31
0.0
  0
LINE
  5
B8FB
330
B8A6
100
AcDbEntity
  8
1
  6
Continuous
100
AcDbLine
 10
213.3421769999999
 20
148.4801379999999
 30
0.0
 11
215.373816
 21
148.4801379999999
 31
0.0
  0
ARC
  5
B8FC
330
B8A6
100
AcDbEntity
  8
1
  6
Continuous
100
AcDbCircle
 10
219.845952
 20
151.179002
 30
0.0
 40
6.301135999999998
100
AcDbArc
 50
7.304446000000001
 51
172.6955539999999
  0
LINE
  5
B8FD
330
B8A6
100
AcDbEntity
  8
1
  6
Continuous
100
AcDbLine
 10
224.3180869999999
 20
148.4801379999999
 30
0.0
 11
226.336102
 21
148.4801379999999
 31
0.0
  0
ARC
  5
B8FE
330
B8A6
100
AcDbEntity
  8
1
  6
Continuous
100
AcDbCircle
 10
213.595952
 20
146.9801379999998
 30
0.0
 40
1.5
100
AcDbArc
 50
180.0
 51
260.405932
  0
ARC
  5
B8FF
330
B8A6
100
AcDbEntity
  8
1
  6
Continuous
100
AcDbCircle
 10
226.095952
 20
146.9801379999998
 30
0.0
 40
1.5
100
AcDbArc
 50
279.594068
 51
355.7894899999998
  0
LINE
  5
B900
330
B8A6
100
AcDbEntity
  8
1
  6
Continuous
100
AcDbLine
 10
139.5459519999998
 20
209.2300999999999
 30
0.0
 11
143.545952
 21
209.2300999999999
 31
0.0
  0
LINE
  5
B901
330
B8A6
100
AcDbEntity
  8
1
  6
Continuous
100
AcDbLine
 10
139.5459519999998
 20
201.2300999999999
 30
0.0
 11
143.545952
 21
201.2300999999999
 31
0.0
  0
LINE
  5
B902
330
B8A6
100
AcDbEntity
  8
1
  6
Continuous
100
AcDbLine
 10
139.5459519999998
 20
210.4801
 30
0.0
 11
135.5459519999998
 21
209.9800999999999
 31
0.0
  0
LINE
  5
B903
330
B8A6
100
AcDbEntity
  8
1
  6
Continuous
100
AcDbLine
 10
139.5459519999998
 20
199.9800999999999
 30
0.0
 11
135.5459519999998
 21
200.4801
 31
0.0
  0
LINE
  5
B904
330
B8A6
100
AcDbEntity
  8
1
  6
Continuous
100
AcDbLine
 10
118.045952
 20
211.4800999999999
 30
0.0
 11
119.295952
 21
211.4800999999999
 31
0.0
  0
LINE
  5
B905
330
B8A6
100
AcDbEntity
  8
1
  6
Continuous
100
AcDbLine
 10
118.045952
 20
198.9800999999999
 30
0.0
 11
119.295952
 21
198.9800999999999
 31
0.0
  0
LINE
  5
B906
330
B8A6
100
AcDbEntity
  8
1
  6
Continuous
100
AcDbLine
 10
115.045952
 20
208.2301
 30
0.0
 11
117.045952
 21
208.2301
 31
0.0
  0
LINE
  5
B907
330
B8A6
100
AcDbEntity
  8
1
  6
Continuous
100
AcDbLine
 10
115.045952
 20
202.2301
 30
0.0
 11
117.045952
 21
202.2301
 31
0.0
  0
ARC
  5
B908
330
B8A6
100
AcDbEntity
  8
1
  6
Continuous
100
AcDbCircle
 10
117.295952
 20
205.2300999999999
 30
0.0
 40
3.75
100
AcDbArc
 50
126.869898
 51
233.130102
  0
ARC
  5
B909
330
B8A6
100
AcDbEntity
  8
1
  6
Continuous
100
AcDbCircle
 10
134.545952
 20
210.4801
 30
0.0
 40
1.0
100
AcDbArc
 50
0.0
 51
90.0
  0
ARC
  5
B90A
330
B8A6
100
AcDbEntity
  8
1
  6
Continuous
100
AcDbCircle
 10
134.545952
 20
199.9800999999999
 30
0.0
 40
1.0
100
AcDbArc
 50
270.0
 51
0.0
  0
ARC
  5
B90B
330
B8A6
100
AcDbEntity
  8
1
  6
Continuous
100
AcDbCircle
 10
118.045952
 20
199.9800999999999
 30
0.0
 40
1.0
100
AcDbArc
 50
180.0
 51
270.0
  0
ARC
  5
B90C
330
B8A6
100
AcDbEntity
  8
1
  6
Continuous
100
AcDbCircle
 10
118.045952
 20
210.4801
 30
0.0
 40
1.0
100
AcDbArc
 50
90.0
 51
180.0
  0
ARC
  5
B90D
330
B8A6
100
AcDbEntity
  8
1
  6
Continuous
100
AcDbCircle
 10
126.295952
 20
230.4551
 30
0.0
 40
20.225
100
AcDbArc
 50
249.750657
 51
290.249343
  0
ARC
  5
B90E
330
B8A6
100
AcDbEntity
  8
1
  6
Continuous
100
AcDbCircle
 10
126.295952
 20
180.0051
 30
0.0
 40
20.225
100
AcDbArc
 50
69.75065699999999
 51
110.249343
  0
LINE
  5
B90F
330
B8A6
100
AcDbEntity
  8
1
  6
Continuous
100
AcDbLine
 10
131.795952
 20
212.9801
 30
0.0
 11
133.2959519999998
 21
211.4800999999999
 31
0.0
  0
LINE
  5
B910
330
B8A6
100
AcDbEntity
  8
1
  6
Continuous
100
AcDbLine
 10
120.7959519999999
 20
212.9801
 30
0.0
 11
119.295952
 21
211.4800999999999
 31
0.0
  0
LINE
  5
B911
330
B8A6
100
AcDbEntity
  8
1
  6
Continuous
100
AcDbLine
 10
119.295952
 20
198.9800999999999
 30
0.0
 11
120.7959519999999
 21
197.4801
 31
0.0
  0
LINE
  5
B912
330
B8A6
100
AcDbEntity
  8
1
  6
Continuous
100
AcDbLine
 10
133.2959519999998
 20
198.9800999999999
 30
0.0
 11
131.795952
 21
197.4801
 31
0.0
  0
LINE
  5
B913
330
B8A6
100
AcDbEntity
  8
1
  6
Continuous
100
AcDbLine
 10
133.2959519999998
 20
211.4800999999999
 30
0.0
 11
134.545952
 21
211.4800999999999
 31
0.0
  0
LINE
  5
B914
330
B8A6
100
AcDbEntity
  8
1
  6
Continuous
100
AcDbLine
 10
133.2959519999998
 20
198.9800999999999
 30
0.0
 11
134.545952
 21
198.9800999999999
 31
0.0
  0
LINE
  5
B915
330
B8A6
100
AcDbEntity
  8
1
  6
Continuous
100
AcDbLine
 10
143.545952
 20
205.8300999999999
 30
0.0
 11
142.045952
 21
205.2300999999999
 31
0.0
  0
LINE
  5
B916
330
B8A6
100
AcDbEntity
  8
1
  6
Continuous
100
AcDbLine
 10
142.045952
 20
205.2300999999999
 30
0.0
 11
143.545952
 21
204.6301
 31
0.0
  0
LINE
  5
B917
330
B8A6
100
AcDbEntity
  8
1
  6
Continuous
100
AcDbLine
 10
142.045952
 20
205.2300999999999
 30
0.0
 11
139.5459519999998
 21
205.2300999999999
 31
0.0
  0
LINE
  5
B918
330
B8A6
100
AcDbEntity
  8
1
  6
Continuous
100
AcDbLine
 10
226.652706
 20
146.3939039999999
 30
0.0
 11
226.345952
 21
146.3800999999999
 31
0.0
  0
LINE
  5
B919
330
B8A6
100
AcDbEntity
  8
1
  6
Continuous
100
AcDbLine
 10
213.016718
 20
146.394916
 30
0.0
 11
213.345952
 21
146.3800999999999
 31
0.0
  0
LINE
  5
B91A
330
B8A6
100
AcDbEntity
  8
1
  6
Continuous
100
AcDbLine
 10
100.495952
 20
211.7300999999999
 30
0.0
 11
119.5459519999999
 21
211.7300999999999
 31
0.0
  0
LINE
  5
B91B
330
B8A6
100
AcDbEntity
  8
1
  6
Continuous
100
AcDbLine
 10
100.495952
 20
198.7301
 30
0.0
 11
119.5459519999999
 21
198.7301
 31
0.0
  0
LINE
  5
B91C
330
B8A6
100
AcDbEntity
  8
1
  6
Continuous
100
AcDbLine
 10
133.045952
 20
211.7300999999999
 30
0.0
 11
152.095952
 21
211.7300999999999
 31
0.0
  0
LINE
  5
B91D
330
B8A6
100
AcDbEntity
  8
1
  6
Continuous
100
AcDbLine
 10
133.045952
 20
198.7301
 30
0.0
 11
152.095952
 21
198.7301
 31
0.0
  0
ARC
  5
B91E
330
B8A6
100
AcDbEntity
  8
1
  6
Continuous
100
AcDbCircle
 10
117.273285
 20
151.4790999999999
 30
0.0
 40
3.735641
100
AcDbArc
 50
126.600977
 51
233.399023
  0
LINE
  5
B91F
330
B8A6
100
AcDbEntity
  8
1
  6
Continuous
100
AcDbLine
 10
226.345952
 20
96.500017
 30
0.0
 11
226.345952
 21
148.0165249999998
 31
0.0
  0
LINE
  5
B920
330
B8A6
100
AcDbEntity
  8
1
  6
Continuous
100
AcDbLine
 10
213.345952
 20
96.500017
 30
0.0
 11
213.345952
 21
148.0165249999998
 31
0.0
  0
ARC
  5
B921
330
B8A6
100
AcDbEntity
  8
1
  6
Continuous
100
AcDbCircle
 10
225.845952
 20
151.7853889999998
 30
0.0
 40
1.0
100
AcDbArc
 50
0.0
 51
84.600387
  0
ARC
  5
B922
330
B8A6
100
AcDbEntity
  8
1
  6
Continuous
100
AcDbCircle
 10
213.845952
 20
151.7853889999998
 30
0.0
 40
1.0
100
AcDbArc
 50
95.39961299999999
 51
180.0
  0
LINE
  5
B923
330
B8A6
100
AcDbEntity
  8
1
  6
Continuous
100
AcDbLine
 10
226.8459519999999
 20
151.7853889999998
 30
0.0
 11
227.5919029999998
 21
146.8700059999999
 31
0.0
  0
LINE
  5
B924
330
B8A6
100
AcDbEntity
  8
1
  6
Continuous
100
AcDbLine
 10
212.845952
 20
151.7853889999998
 30
0.0
 11
212.0959519999999
 21
146.9801379999998
 31
0.0
  0
ARC
  5
B925
330
B8A6
100
AcDbEntity
  8
1
  6
Continuous
100
AcDbCircle
 10
32.75
 20
151.179002
 30
0.0
 40
6.301135999999998
100
AcDbArc
 50
7.304446000000001
 51
172.6955539999999
  0
LINE
  5
B926
330
B8A6
100
AcDbEntity
  8
4
  6
CENTER
100
AcDbLine
 10
32.75
 20
91.500017
 30
0.0
 11
32.75
 21
160.4801379999998
 31
0.0
  0
LINE
  5
B927
330
B8A6
100
AcDbEntity
  8
1
  6
Continuous
100
AcDbLine
 10
26.25
 20
96.500017
 30
0.0
 11
26.25
 21
147.780566
 31
0.0
  0
LINE
  5
B928
330
B8A6
100
AcDbEntity
  8
1
  6
Continuous
100
AcDbLine
 10
39.25
 20
96.500017
 30
0.0
 11
39.25
 21
147.780566
 31
0.0
  0
LINE
  5
B929
330
B8A6
100
AcDbEntity
  8
1
  6
Continuous
100
AcDbLine
 10
25.75
 20
151.7853889999998
 30
0.0
 11
25.0
 21
146.9801379999998
 31
0.0
  0
ARC
  5
B92A
330
B8A6
100
AcDbEntity
  8
1
  6
Continuous
100
AcDbCircle
 10
26.75
 20
151.7853889999998
 30
0.0
 40
1.0
100
AcDbArc
 50
95.39961299999999
 51
180.0
  0
LINE
  5
B92B
330
B8A6
100
AcDbEntity
  8
1
  6
Continuous
100
AcDbLine
 10
25.920766
 20
146.394916
 30
0.0
 11
26.25
 21
146.3800999999999
 31
0.0
  0
ARC
  5
B92C
330
B8A6
100
AcDbEntity
  8
1
  6
Continuous
100
AcDbCircle
 10
26.5
 20
146.9801379999998
 30
0.0
 40
1.5
100
AcDbArc
 50
180.0
 51
260.405932
  0
LINE
  5
B92D
330
B8A6
100
AcDbEntity
  8
1
  6
Continuous
100
AcDbLine
 10
26.246226
 20
148.4801379999999
 30
0.0
 11
27.833508
 21
148.4801379999999
 31
0.0
  0
LINE
  5
B92E
330
B8A6
100
AcDbEntity
  8
1
  6
Continuous
100
AcDbLine
 10
26.5
 20
148.4801379999999
 30
0.0
 11
26.5
 21
151.9801379999998
 31
0.0
  0
LINE
  5
B92F
330
B8A6
100
AcDbEntity
  8
1
  6
Continuous
100
AcDbLine
 10
39.75
 20
151.7853889999998
 30
0.0
 11
40.495952
 21
146.8700059999999
 31
0.0
  0
ARC
  5
B930
330
B8A6
100
AcDbEntity
  8
1
  6
Continuous
100
AcDbCircle
 10
38.75
 20
151.7853889999998
 30
0.0
 40
1.0
100
AcDbArc
 50
0.0
 51
84.600387
  0
LINE
  5
B931
330
B8A6
100
AcDbEntity
  8
1
  6
Continuous
100
AcDbLine
 10
39.556754
 20
146.3939039999999
 30
0.0
 11
39.25
 21
146.3800999999999
 31
0.0
  0
ARC
  5
B932
330
B8A6
100
AcDbEntity
  8
1
  6
Continuous
100
AcDbCircle
 10
39.0
 20
146.9801379999998
 30
0.0
 40
1.5
100
AcDbArc
 50
279.594068
 51
355.7894899999998
  0
LINE
  5
B933
330
B8A6
100
AcDbEntity
  8
1
  6
Continuous
100
AcDbLine
 10
37.66649199999999
 20
148.4801379999999
 30
0.0
 11
39.24015
 21
148.4801379999999
 31
0.0
  0
LINE
  5
B934
330
B8A6
100
AcDbEntity
  8
1
  6
Continuous
100
AcDbLine
 10
39.0
 20
148.4801379999999
 30
0.0
 11
39.0
 21
151.9801379999998
 31
0.0
  0
LINE
  5
B935
330
B8A6
100
AcDbEntity
  8
4
  6
CENTER
100
AcDbLine
 10
126.295952
 20
38.0
 30
0.0
 11
126.295952
 21
59.5
 31
0.0
  0
LINE
  5
B936
330
B8A6
100
AcDbEntity
  8
1
  6
Continuous
100
AcDbLine
 10
100.495952
 20
42.25
 30
0.0
 11
152.095952
 21
42.25
 31
0.0
  0
LINE
  5
B937
330
B8A6
100
AcDbEntity
  8
1
  6
Continuous
100
AcDbLine
 10
120.7959519999999
 20
41.0
 30
0.0
 11
131.795952
 21
41.0
 31
0.0
  0
LINE
  5
B938
330
B8A6
100
AcDbEntity
  8
1
  6
Continuous
100
AcDbLine
 10
100.495952
 20
55.25
 30
0.0
 11
152.095952
 21
55.25
 31
0.0
  0
LINE
  5
B939
330
B8A6
100
AcDbEntity
  8
4
  6
CENTER
100
AcDbLine
 10
95.495952
 20
48.75
 30
0.0
 11
157.095952
 21
48.75
 31
0.0
  0
LINE
  5
B93A
330
B8A6
100
AcDbEntity
  8
1
  6
Continuous
100
AcDbLine
 10
120.7959519999999
 20
56.5
 30
0.0
 11
131.795952
 21
56.5
 31
0.0
  0
LINE
  5
B93B
330
B8A6
100
AcDbEntity
  8
1
  6
Continuous
100
AcDbLine
 10
121.012863
 20
145.877157
 30
0.0
 11
117.397531
 21
141.6314319999999
 31
0.0
  0
LINE
  5
B93C
330
B8A6
100
AcDbEntity
  8
1
  6
Continuous
100
AcDbLine
 10
120.9426159999999
 20
146.7201269999999
 30
0.0
 11
116.9407109999999
 21
142.0204249999999
 31
0.0
  0
LINE
  5
B93D
330
B8A6
100
AcDbEntity
  8
1
  6
Continuous
100
AcDbLine
 10
116.9407109999999
 20
142.0204249999999
 30
0.0
 11
117.397531
 21
141.6314319999999
 31
0.0
  0
LINE
  5
B93E
330
B8A6
100
AcDbEntity
  8
1
  6
Continuous
100
AcDbLine
 10
118.496682
 20
143.8477049999999
 30
0.0
 11
118.953502
 21
143.4587119999999
 31
0.0
  0
CIRCLE
  5
B93F
330
B8A6
100
AcDbEntity
  8
1
  6
Continuous
100
AcDbCircle
 10
32.75
 20
151.4781
 30
0.0
 40
3.0
  0
LINE
  5
B940
330
B8A6
100
AcDbEntity
  8
1
  6
Continuous
100
AcDbLine
 10
29.75
 20
151.4781
 30
0.0
 11
28.75649199999999
 21
149.0953
 31
0.0
  0
LINE
  5
B941
330
B8A6
100
AcDbEntity
  8
1
  6
Continuous
100
AcDbLine
 10
35.75
 20
151.4781
 30
0.0
 11
36.743508
 21
149.0953
 31
0.0
  0
ARC
  5
B942
330
B8A6
100
AcDbEntity
  8
1
  6
Continuous
100
AcDbCircle
 10
37.66649199999999
 20
149.480138
 30
0.0
 40
1.0
100
AcDbArc
 50
202.6336909999999
 51
270.0
  0
ARC
  5
B943
330
B8A6
100
AcDbEntity
  8
1
  6
Continuous
100
AcDbCircle
 10
27.833508
 20
149.480138
 30
0.0
 40
1.0
100
AcDbArc
 50
270.0
 51
337.3663089999999
  0
LINE
  5
B944
330
B8A6
100
AcDbEntity
  8
1
  6
Continuous
100
AcDbLine
 10
121.045952
 20
56.5
 30
0.0
 11
121.045952
 21
55.25
 31
0.0
  0
LINE
  5
B945
330
B8A6
100
AcDbEntity
  8
1
  6
Continuous
100
AcDbLine
 10
131.545952
 20
41.00044699999997
 30
0.0
 11
131.545952
 21
42.25
 31
0.0
  0
LINE
  5
B946
330
B8A6
100
AcDbEntity
  8
1
  6
Continuous
100
AcDbLine
 10
131.795952
 20
56.5
 30
0.0
 11
131.795952
 21
55.25
 31
0.0
  0
LINE
  5
B947
330
B8A6
100
AcDbEntity
  8
1
  6
Continuous
100
AcDbLine
 10
120.7959519999999
 20
56.5
 30
0.0
 11
120.7959519999999
 21
55.25
 31
0.0
  0
LINE
  5
B948
330
B8A6
100
AcDbEntity
  8
1
  6
Continuous
100
AcDbLine
 10
120.7959519999999
 20
56.5
 30
0.0
 11
119.5459519999999
 21
55.25
 31
0.0
  0
LINE
  5
B949
330
B8A6
100
AcDbEntity
  8
1
  6
Continuous
100
AcDbLine
 10
131.795952
 20
56.5
 30
0.0
 11
133.045952
 21
55.25
 31
0.0
  0
LINE
  5
B94A
330
B8A6
100
AcDbEntity
  8
1
  6
Continuous
100
AcDbLine
 10
120.7959519999999
 20
41.00044699999997
 30
0.0
 11
119.5460259999999
 21
42.25
 31
0.0
  0
LINE
  5
B94B
330
B8A6
100
AcDbEntity
  8
1
  6
Continuous
100
AcDbLine
 10
131.795952
 20
41.0
 30
0.0
 11
133.045952
 21
42.25
 31
0.0
  0
LINE
  5
B94C
330
B8A6
100
AcDbEntity
  8
1
  6
Continuous
100
AcDbLine
 10
131.795952
 20
42.25
 30
0.0
 11
131.795952
 21
41.00044699999997
 31
0.0
  0
LINE
  5
B94D
330
B8A6
100
AcDbEntity
  8
1
  6
Continuous
100
AcDbLine
 10
131.545952
 20
55.25
 30
0.0
 11
131.545952
 21
56.5
 31
0.0
  0
LINE
  5
B94E
330
B8A6
100
AcDbEntity
  8
1
  6
Continuous
100
AcDbLine
 10
121.045952
 20
42.25
 30
0.0
 11
121.045952
 21
41.00044699999997
 31
0.0
  0
LINE
  5
B94F
330
B8A6
100
AcDbEntity
  8
1
  6
Continuous
100
AcDbLine
 10
120.7959519999999
 20
42.25
 30
0.0
 11
120.7959519999999
 21
41.00044699999997
 31
0.0
  0
LINE
  5
B950
330
B8A6
100
AcDbEntity
  8
1
  6
Continuous
100
AcDbLine
 10
213.3421769999999
 20
148.4801379999999
 30
0.0
 11
213.016718
 21
146.394916
 31
0.0
  0
LINE
  5
B951
330
B8A6
100
AcDbEntity
  8
1
  6
Continuous
100
AcDbLine
 10
226.336102
 20
148.4801379999999
 30
0.0
 11
226.652706
 21
146.3939039999999
 31
0.0
  0
LINE
  5
B952
330
B8A6
100
AcDbEntity
  8
1
  6
Continuous
100
AcDbLine
 10
26.246226
 20
148.4801379999999
 30
0.0
 11
25.920766
 21
146.394916
 31
0.0
  0
LINE
  5
B953
330
B8A6
100
AcDbEntity
  8
1
  6
Continuous
100
AcDbLine
 10
39.24015
 20
148.4801379999999
 30
0.0
 11
39.556754
 21
146.3939039999999
 31
0.0
  0
LINE
  5
B954
330
B8A6
100
AcDbEntity
  8
1
  6
Continuous
100
AcDbLine
 10
26.25
 20
147.780566
 30
0.0
 11
39.25
 21
147.780566
 31
0.0
  0
ARC
  5
B955
330
B8A6
100
AcDbEntity
  8
5
  6
PHANTOM
100
AcDbCircle
 10
126.52418
 20
126.407534
 30
0.0
 40
21.0
100
AcDbArc
 50
105.3981659999999
 51
42.79738199999999
  0
ARC
  5
B956
330
B8A6
100
AcDbEntity
  8
1
  6
Continuous
100
AcDbCircle
 10
126.295952
 20
122.3000169999999
 30
0.0
 40
25.0
100
AcDbArc
 50
102.364692
 51
43.515101
  0
ARC
  5
B957
330
B8A6
100
AcDbEntity
  8
5
  6
PHANTOM
100
AcDbCircle
 10
126.52418
 20
126.407534
 30
0.0
 40
21.8
100
AcDbArc
 50
105.0036159999998
 51
42.895481
  0
ARC
  5
B958
330
B8A6
100
AcDbEntity
  8
5
  6
PHANTOM
100
AcDbCircle
 10
126.52418
 20
126.407534
 30
0.0
 40
22.6
100
AcDbArc
 50
329.0304349999999
 51
42.986759
  0
ARC
  5
B959
330
B8A6
100
AcDbEntity
  8
1
  6
Continuous
100
AcDbCircle
 10
126.295952
 20
122.3000169999999
 30
0.0
 40
25.8
100
AcDbArc
 50
102.1276729999998
 51
43.55857499999999
  0
LINE
  5
B95A
330
B8A6
100
AcDbEntity
  8
5
  6
PHANTOM
100
AcDbLine
 10
145.216389
 20
115.189631
 30
0.0
 11
145.902342
 21
114.7779649999999
 31
0.0
  0
LINE
  5
B95B
330
B8A6
100
AcDbEntity
  8
4
  6
CENTER
100
AcDbLine
 10
21.25
 20
122.3000169999999
 30
0.0
 11
44.24999999999999
 21
122.3000169999999
 31
0.0
  0
LINE
  5
B95C
330
B8A6
100
AcDbEntity
  8
1
  6
Continuous
100
AcDbLine
 10
145.5591279999999
 20
140.643682
 30
0.0
 11
144.9791529999999
 21
140.0913919999998
 31
0.0
  0
LINE
  5
B95D
330
B8A6
100
AcDbEntity
  8
1
  6
Continuous
100
AcDbLine
 10
100.495952
 20
211.7300999999999
 30
0.0
 11
100.495952
 21
198.7301
 31
0.0
  0
LINE
  5
B95E
330
B8A6
100
AcDbEntity
  8
1
  6
Continuous
100
AcDbLine
 10
152.095952
 20
42.25
 30
0.0
 11
152.095952
 21
55.25
 31
0.0
  0
LINE
  5
B95F
330
B8A6
100
AcDbEntity
  8
1
  6
Continuous
100
AcDbLine
 10
26.25
 20
96.500017
 30
0.0
 11
39.25
 21
96.500017
 31
0.0
  0
LINE
  5
B960
330
B8A6
100
AcDbEntity
  8
4
  6
CENTER
100
AcDbLine
 10
95.495952
 20
122.3000169999999
 30
0.0
 11
157.095952
 21
122.3000169999999
 31
0.0
  0
LINE
  5
B961
330
B8A6
100
AcDbEntity
  8
4
  6
CENTER
100
AcDbLine
 10
208.345952
 20
122.3000169999999
 30
0.0
 11
231.345952
 21
122.3000169999999
 31
0.0
  0
LINE
  5
B962
330
B8A6
100
AcDbEntity
  8
1
  6
Continuous
100
AcDbLine
 10
213.345952
 20
96.500017
 30
0.0
 11
226.345952
 21
96.500017
 31
0.0
  0
LINE
  5
B963
330
B8A6
100
AcDbEntity
  8
1
  6
Continuous
100
AcDbLine
 10
100.495952
 20
55.25
 30
0.0
 11
100.495952
 21
42.25
 31
0.0
  0
LINE
  5
B964
330
B8A6
100
AcDbEntity
  8
1
  6
Continuous
100
AcDbLine
 10
152.095952
 20
198.7301
 30
0.0
 11
152.095952
 21
211.7300999999999
 31
0.0
  0
LINE
  5
B965
330
B8A6
100
AcDbEntity
  8
1
  6
Continuous
100
AcDbLine
 10
213.345952
 20
148.0165249999998
 30
0.0
 11
215.694423
 21
148.0165249999998
 31
0.0
  0
LINE
  5
B966
330
B8A6
100
AcDbEntity
  8
1
  6
Continuous
100
AcDbLine
 10
223.9974799999999
 20
148.0165249999998
 30
0.0
 11
226.345952
 21
148.0165249999998
 31
0.0
  0
LINE
  5
B967
330
B8A6
100
AcDbEntity
  8
1
  6
Continuous
100
AcDbLine
 10
106.60099
 20
48.89934499999998
 30
0.0
 11
106.60099
 21
51.877845
 31
0.0
  0
LINE
  5
B968
330
B8A6
100
AcDbEntity
  8
1
  6
Continuous
100
AcDbLine
 10
105.259958
 20
48.89934499999998
 30
0.0
 11
105.259958
 21
51.896845
 31
0.0
  0
LINE
  5
B969
330
B8A6
100
AcDbEntity
  8
1
  6
Continuous
100
AcDbLine
 10
104.0687189999998
 20
48.89934499999998
 30
0.0
 11
104.0687189999998
 21
51.95934499999999
 31
0.0
  0
LINE
  5
B96A
330
B8A6
100
AcDbEntity
  8
1
  6
Continuous
100
AcDbLine
 10
103.0168629999999
 20
48.89934499999998
 30
0.0
 11
103.0168629999999
 21
51.930845
 31
0.0
  0
LINE
  5
B96B
330
B8A6
100
AcDbEntity
  8
1
  6
Continuous
100
AcDbLine
 10
102.09599
 20
48.89934499999998
 30
0.0
 11
102.09599
 21
51.946595
 31
0.0
  0
LINE
  5
B96C
330
B8A6
100
AcDbEntity
  8
1
  6
Continuous
100
AcDbLine
 10
101.2992909999999
 20
48.89934499999998
 30
0.0
 11
101.2992909999999
 21
51.961345
 31
0.0
  0
ARC
  5
B96D
330
B8A6
100
AcDbEntity
  8
1
  6
Continuous
100
AcDbCircle
 10
109.142607
 20
45.964595
 30
0.0
 40
0.21525
100
AcDbArc
 50
180.0
 51
0.0
  0
ARC
  5
B96E
330
B8A6
100
AcDbEntity
  8
1
  6
Continuous
100
AcDbCircle
 10
109.572624
 20
51.83409499999999
 30
0.0
 40
0.21525
100
AcDbArc
 50
351.619662
 51
180.0
  0
ARC
  5
B96F
330
B8A6
100
AcDbEntity
  8
1
  6
Continuous
100
AcDbCircle
 10
107.912566
 20
51.857095
 30
0.0
 40
0.19225
100
AcDbArc
 50
0.0
 51
180.0
  0
ARC
  5
B970
330
B8A6
100
AcDbEntity
  8
1
  6
Continuous
100
AcDbCircle
 10
107.5279879999998
 20
45.94159499999999
 30
0.0
 40
0.19225
100
AcDbArc
 50
180.0
 51
0.0
  0
LINE
  5
B971
330
B8A6
100
AcDbEntity
  8
1
  6
Continuous
100
AcDbLine
 10
108.927357
 20
45.964595
 30
0.0
 11
109.3573739999998
 21
51.83409499999999
 31
0.0
  0
LINE
  5
B972
330
B8A6
100
AcDbEntity
  8
1
  6
Continuous
100
AcDbLine
 10
109.785576
 20
51.80272399999999
 30
0.0
 11
109.785576
 21
48.89934499999998
 31
0.0
  0
LINE
  5
B973
330
B8A6
100
AcDbEntity
  8
1
  6
Continuous
100
AcDbLine
 10
108.1048159999999
 20
51.857095
 30
0.0
 11
108.1048159999999
 21
48.89934499999998
 31
0.0
  0
LINE
  5
B974
330
B8A6
100
AcDbEntity
  8
1
  6
Continuous
100
AcDbLine
 10
109.357857
 20
45.964595
 30
0.0
 11
109.785576
 21
48.89934499999998
 31
0.0
  0
LINE
  5
B975
330
B8A6
100
AcDbEntity
  8
1
  6
Continuous
100
AcDbLine
 10
107.335738
 20
45.94159499999999
 30
0.0
 11
107.720316
 21
51.857095
 31
0.0
  0
LINE
  5
B976
330
B8A6
100
AcDbEntity
  8
1
  6
Continuous
100
AcDbLine
 10
107.7202379999999
 20
45.94159499999999
 30
0.0
 11
108.1048159999999
 21
48.89934499999998
 31
0.0
  0
ARC
  5
B977
330
B8A6
100
AcDbEntity
  8
1
  6
Continuous
100
AcDbCircle
 10
106.4294899999999
 20
51.877845
 30
0.0
 40
0.1715
100
AcDbArc
 50
0.0
 51
180.0
  0
ARC
  5
B978
330
B8A6
100
AcDbEntity
  8
1
  6
Continuous
100
AcDbCircle
 10
106.08618
 20
45.920845
 30
0.0
 40
0.1715
100
AcDbArc
 50
173.403222
 51
0.0
  0
LINE
  5
B979
330
B8A6
100
AcDbEntity
  8
1
  6
Continuous
100
AcDbLine
 10
105.9158159999998
 20
45.940547
 30
0.0
 11
106.25799
 21
51.877845
 31
0.0
  0
LINE
  5
B97A
330
B8A6
100
AcDbEntity
  8
1
  6
Continuous
100
AcDbLine
 10
106.2576799999998
 20
45.920845
 30
0.0
 11
106.60099
 21
48.89934499999998
 31
0.0
  0
ARC
  5
B97B
330
B8A6
100
AcDbEntity
  8
1
  6
Continuous
100
AcDbCircle
 10
105.1074579999999
 20
51.896845
 30
0.0
 40
0.1525
100
AcDbArc
 50
0.0
 51
180.0
  0
ARC
  5
B97C
330
B8A6
100
AcDbEntity
  8
1
  6
Continuous
100
AcDbCircle
 10
104.802081
 20
45.901845
 30
0.0
 40
0.1525
100
AcDbArc
 50
174.1678959999999
 51
0.0
  0
LINE
  5
B97D
330
B8A6
100
AcDbEntity
  8
1
  6
Continuous
100
AcDbLine
 10
104.6503699999999
 20
45.917341
 30
0.0
 11
104.954958
 21
51.896845
 31
0.0
  0
LINE
  5
B97E
330
B8A6
100
AcDbEntity
  8
1
  6
Continuous
100
AcDbLine
 10
104.954581
 20
45.901845
 30
0.0
 11
105.259958
 21
48.89934499999998
 31
0.0
  0
ARC
  5
B97F
330
B8A6
100
AcDbEntity
  8
1
  6
Continuous
100
AcDbCircle
 10
103.618816
 20
45.839345
 30
0.0
 40
0.09
100
AcDbArc
 50
180.0
 51
0.0
  0
ARC
  5
B980
330
B8A6
100
AcDbEntity
  8
1
  6
Continuous
100
AcDbCircle
 10
103.9787189999999
 20
51.95934499999999
 30
0.0
 40
0.09
100
AcDbArc
 50
0.0
 51
180.0
  0
LINE
  5
B981
330
B8A6
100
AcDbEntity
  8
1
  6
Continuous
100
AcDbLine
 10
103.528816
 20
45.839345
 30
0.0
 11
103.888719
 21
51.95934499999999
 31
0.0
  0
LINE
  5
B982
330
B8A6
100
AcDbEntity
  8
1
  6
Continuous
100
AcDbLine
 10
103.7088159999999
 20
45.839345
 30
0.0
 11
104.0687189999998
 21
48.89934499999998
 31
0.0
  0
ARC
  5
B983
330
B8A6
100
AcDbEntity
  8
1
  6
Continuous
100
AcDbCircle
 10
102.6615349999999
 20
45.867845
 30
0.0
 40
0.1185
100
AcDbArc
 50
175.526194
 51
0.0
  0
ARC
  5
B984
330
B8A6
100
AcDbEntity
  8
1
  6
Continuous
100
AcDbCircle
 10
102.898363
 20
51.930845
 30
0.0
 40
0.1185
100
AcDbArc
 50
0.0
 51
180.0
  0
LINE
  5
B985
330
B8A6
100
AcDbEntity
  8
1
  6
Continuous
100
AcDbLine
 10
102.5433959999999
 20
45.877088
 30
0.0
 11
102.779863
 21
51.930845
 31
0.0
  0
LINE
  5
B986
330
B8A6
100
AcDbEntity
  8
1
  6
Continuous
100
AcDbLine
 10
103.0168629999999
 20
48.89934499999998
 30
0.0
 11
102.7800349999999
 21
45.867845
 31
0.0
  0
ARC
  5
B987
330
B8A6
100
AcDbEntity
  8
1
  6
Continuous
100
AcDbCircle
 10
101.787423
 20
45.852095
 30
0.0
 40
0.10275
100
AcDbArc
 50
180.0
 51
0.0
  0
ARC
  5
B988
330
B8A6
100
AcDbEntity
  8
1
  6
Continuous
100
AcDbCircle
 10
101.99324
 20
51.946595
 30
0.0
 40
0.10275
100
AcDbArc
 50
0.0
 51
180.0
  0
LINE
  5
B989
330
B8A6
100
AcDbEntity
  8
1
  6
Continuous
100
AcDbLine
 10
101.684673
 20
45.852095
 30
0.0
 11
101.89049
 21
51.946595
 31
0.0
  0
LINE
  5
B98A
330
B8A6
100
AcDbEntity
  8
1
  6
Continuous
100
AcDbLine
 10
101.890173
 20
45.852095
 30
0.0
 11
102.09599
 21
48.89934499999998
 31
0.0
  0
ARC
  5
B98B
330
B8A6
100
AcDbEntity
  8
1
  6
Continuous
100
AcDbCircle
 10
101.211291
 20
51.961345
 30
0.0
 40
0.088
100
AcDbArc
 50
0.0
 51
180.0
  0
ARC
  5
B98C
330
B8A6
100
AcDbEntity
  8
1
  6
Continuous
100
AcDbCircle
 10
101.0355969999999
 20
45.837345
 30
0.0
 40
0.088
100
AcDbArc
 50
176.713344
 51
0.0
  0
LINE
  5
B98D
330
B8A6
100
AcDbEntity
  8
1
  6
Continuous
100
AcDbLine
 10
100.947742
 20
45.84239
 30
0.0
 11
101.1232909999999
 21
51.961345
 31
0.0
  0
LINE
  5
B98E
330
B8A6
100
AcDbEntity
  8
1
  6
Continuous
100
AcDbLine
 10
101.1235969999999
 20
45.837345
 30
0.0
 11
101.2992909999999
 21
48.89934499999998
 31
0.0
  0
LINE
  5
B98F
330
B8A6
100
AcDbEntity
  8
1
  6
Continuous
100
AcDbLine
 10
110.346776
 20
46.120419
 30
0.0
 11
110.9402009999999
 21
51.757953
 31
0.0
  0
ARC
  5
B990
330
B8A6
100
AcDbEntity
  8
1
  6
Continuous
100
AcDbCircle
 10
110.640201
 20
46.05795299999999
 30
0.0
 40
0.3
100
AcDbArc
 50
167.981988
 51
0.0
  0
LINE
  5
B991
330
B8A6
100
AcDbEntity
  8
1
  6
Continuous
100
AcDbLine
 10
110.9402009999999
 20
46.05795299999999
 30
0.0
 11
111.508026
 21
48.755121
 31
0.0
  0
LINE
  5
B992
330
B8A6
100
AcDbEntity
  8
1
  6
Continuous
100
AcDbLine
 10
111.5402009999999
 20
49.064136
 30
0.0
 11
111.5402009999999
 21
51.757953
 31
0.0
  0
ARC
  5
B993
330
B8A6
100
AcDbEntity
  8
1
  6
Continuous
100
AcDbCircle
 10
111.240201
 20
51.757953
 30
0.0
 40
0.3
100
AcDbArc
 50
0.0
 51
180.0
  0
ARC
  5
B994
330
B8A6
100
AcDbEntity
  8
1
  6
Continuous
100
AcDbCircle
 10
32.986671
 20
116.9551019999999
 30
0.0
 40
1.5
100
AcDbArc
 50
258.1113419999999
 51
270.0
  0
ARC
  5
B995
330
B8A6
100
AcDbEntity
  8
1
  6
Continuous
100
AcDbCircle
 10
35.68048799999999
 20
115.7551019999999
 30
0.0
 40
0.3
100
AcDbArc
 50
270.0
 51
90.0
  0
LINE
  5
B996
330
B8A6
100
AcDbEntity
  8
1
  6
Continuous
100
AcDbLine
 10
32.986671
 20
115.4551019999999
 30
0.0
 11
35.68048799999999
 21
115.4551019999999
 31
0.0
  0
ARC
  5
B997
330
B8A6
100
AcDbEntity
  8
1
  6
Continuous
100
AcDbCircle
 10
29.980488
 20
116.355102
 30
0.0
 40
0.3
100
AcDbArc
 50
77.981988
 51
270.0
  0
LINE
  5
B998
330
B8A6
100
AcDbEntity
  8
1
  6
Continuous
100
AcDbLine
 10
29.980488
 20
116.0551019999999
 30
0.0
 11
32.677656
 21
115.487277
 31
0.0
  0
LINE
  5
B999
330
B8A6
100
AcDbEntity
  8
1
  6
Continuous
100
AcDbLine
 10
30.042954
 20
116.648527
 30
0.0
 11
35.68048799999999
 21
116.0551019999999
 31
0.0
  0
LINE
  5
B99A
330
B8A6
100
AcDbEntity
  8
1
  6
Continuous
100
AcDbLine
 10
29.73632800000001
 20
139.1155269999999
 30
0.0
 11
35.651828
 21
138.730949
 31
0.0
  0
ARC
  5
B99B
330
B8A6
100
AcDbEntity
  8
1
  6
Continuous
100
AcDbCircle
 10
29.73632800000001
 20
138.923277
 30
0.0
 40
0.19225
100
AcDbArc
 50
90.0
 51
270.0
  0
ARC
  5
B99C
330
B8A6
100
AcDbEntity
  8
1
  6
Continuous
100
AcDbCircle
 10
32.986671
 20
136.155102
 30
0.0
 40
1.5
100
AcDbArc
 50
258.1113419999999
 51
270.0
  0
ARC
  5
B99D
330
B8A6
100
AcDbEntity
  8
1
  6
Continuous
100
AcDbCircle
 10
32.986671
 20
133.755102
 30
0.0
 40
1.5
100
AcDbArc
 50
258.1113419999999
 51
270.0
  0
ARC
  5
B99E
330
B8A6
100
AcDbEntity
  8
1
  6
Continuous
100
AcDbCircle
 10
32.986671
 20
131.355102
 30
0.0
 40
1.5
100
AcDbArc
 50
258.1113419999999
 51
270.0
  0
ARC
  5
B99F
330
B8A6
100
AcDbEntity
  8
1
  6
Continuous
100
AcDbCircle
 10
32.986671
 20
128.955102
 30
0.0
 40
1.5
100
AcDbArc
 50
258.1113419999999
 51
270.0
  0
ARC
  5
B9A0
330
B8A6
100
AcDbEntity
  8
1
  6
Continuous
100
AcDbCircle
 10
32.986671
 20
126.5551019999999
 30
0.0
 40
1.5
100
AcDbArc
 50
258.1113419999999
 51
270.0
  0
ARC
  5
B9A1
330
B8A6
100
AcDbEntity
  8
1
  6
Continuous
100
AcDbCircle
 10
32.986671
 20
124.1551019999999
 30
0.0
 40
1.5
100
AcDbArc
 50
258.1113419999999
 51
270.0
  0
ARC
  5
B9A2
330
B8A6
100
AcDbEntity
  8
1
  6
Continuous
100
AcDbCircle
 10
32.986671
 20
121.7551019999999
 30
0.0
 40
1.5
100
AcDbArc
 50
258.1113419999999
 51
270.0
  0
ARC
  5
B9A3
330
B8A6
100
AcDbEntity
  8
1
  6
Continuous
100
AcDbCircle
 10
32.986671
 20
119.355102
 30
0.0
 40
1.5
100
AcDbArc
 50
258.1113419999999
 51
270.0
  0
ARC
  5
B9A4
330
B8A6
100
AcDbEntity
  8
1
  6
Continuous
100
AcDbCircle
 10
35.68048799999999
 20
134.955102
 30
0.0
 40
0.3
100
AcDbArc
 50
270.0
 51
90.0
  0
ARC
  5
B9A5
330
B8A6
100
AcDbEntity
  8
1
  6
Continuous
100
AcDbCircle
 10
35.68048799999999
 20
132.555102
 30
0.0
 40
0.3
100
AcDbArc
 50
270.0
 51
90.0
  0
LINE
  5
B9A6
330
B8A6
100
AcDbEntity
  8
1
  6
Continuous
100
AcDbLine
 10
32.986671
 20
134.6551019999999
 30
0.0
 11
35.68048799999999
 21
134.6551019999999
 31
0.0
  0
LINE
  5
B9A7
330
B8A6
100
AcDbEntity
  8
1
  6
Continuous
100
AcDbLine
 10
32.986671
 20
132.2551019999999
 30
0.0
 11
35.68048799999999
 21
132.2551019999999
 31
0.0
  0
ARC
  5
B9A8
330
B8A6
100
AcDbEntity
  8
1
  6
Continuous
100
AcDbCircle
 10
35.68048799999999
 20
130.155102
 30
0.0
 40
0.3
100
AcDbArc
 50
270.0
 51
90.0
  0
ARC
  5
B9A9
330
B8A6
100
AcDbEntity
  8
1
  6
Continuous
100
AcDbCircle
 10
35.68048799999999
 20
127.7551019999999
 30
0.0
 40
0.3
100
AcDbArc
 50
270.0
 51
90.0
  0
ARC
  5
B9AA
330
B8A6
100
AcDbEntity
  8
1
  6
Continuous
100
AcDbCircle
 10
35.68048799999999
 20
125.3551019999999
 30
0.0
 40
0.3
100
AcDbArc
 50
270.0
 51
90.0
  0
ARC
  5
B9AB
330
B8A6
100
AcDbEntity
  8
1
  6
Continuous
100
AcDbCircle
 10
35.68048799999999
 20
122.9551019999999
 30
0.0
 40
0.3
100
AcDbArc
 50
270.0
 51
90.0
  0
ARC
  5
B9AC
330
B8A6
100
AcDbEntity
  8
1
  6
Continuous
100
AcDbCircle
 10
35.68048799999999
 20
120.555102
 30
0.0
 40
0.3
100
AcDbArc
 50
270.0
 51
90.0
  0
ARC
  5
B9AD
330
B8A6
100
AcDbEntity
  8
1
  6
Continuous
100
AcDbCircle
 10
35.68048799999999
 20
118.155102
 30
0.0
 40
0.3
100
AcDbArc
 50
270.0
 51
90.0
  0
LINE
  5
B9AE
330
B8A6
100
AcDbEntity
  8
1
  6
Continuous
100
AcDbLine
 10
32.986671
 20
129.8551019999998
 30
0.0
 11
35.68048799999999
 21
129.8551019999998
 31
0.0
  0
LINE
  5
B9AF
330
B8A6
100
AcDbEntity
  8
1
  6
Continuous
100
AcDbLine
 10
32.986671
 20
127.455102
 30
0.0
 11
35.68048799999999
 21
127.455102
 31
0.0
  0
LINE
  5
B9B0
330
B8A6
100
AcDbEntity
  8
1
  6
Continuous
100
AcDbLine
 10
32.986671
 20
125.055102
 30
0.0
 11
35.68048799999999
 21
125.055102
 31
0.0
  0
LINE
  5
B9B1
330
B8A6
100
AcDbEntity
  8
1
  6
Continuous
100
AcDbLine
 10
32.986671
 20
122.655102
 30
0.0
 11
35.68048799999999
 21
122.655102
 31
0.0
  0
LINE
  5
B9B2
330
B8A6
100
AcDbEntity
  8
1
  6
Continuous
100
AcDbLine
 10
32.986671
 20
120.255102
 30
0.0
 11
35.68048799999999
 21
120.255102
 31
0.0
  0
LINE
  5
B9B3
330
B8A6
100
AcDbEntity
  8
1
  6
Continuous
100
AcDbLine
 10
32.986671
 20
117.855102
 30
0.0
 11
35.68048799999999
 21
117.855102
 31
0.0
  0
LINE
  5
B9B4
330
B8A6
100
AcDbEntity
  8
1
  6
Continuous
100
AcDbLine
 10
29.980488
 20
135.2551019999999
 30
0.0
 11
32.677656
 21
134.687277
 31
0.0
  0
ARC
  5
B9B5
330
B8A6
100
AcDbEntity
  8
1
  6
Continuous
100
AcDbCircle
 10
29.980488
 20
135.555102
 30
0.0
 40
0.3
100
AcDbArc
 50
77.981988
 51
270.0
  0
LINE
  5
B9B6
330
B8A6
100
AcDbEntity
  8
1
  6
Continuous
100
AcDbLine
 10
29.980488
 20
132.8551019999999
 30
0.0
 11
32.677656
 21
132.2872769999999
 31
0.0
  0
ARC
  5
B9B7
330
B8A6
100
AcDbEntity
  8
1
  6
Continuous
100
AcDbCircle
 10
29.980488
 20
133.155102
 30
0.0
 40
0.3
100
AcDbArc
 50
77.981988
 51
270.0
  0
LINE
  5
B9B8
330
B8A6
100
AcDbEntity
  8
1
  6
Continuous
100
AcDbLine
 10
30.042954
 20
135.8485269999998
 30
0.0
 11
35.68048799999999
 21
135.2551019999999
 31
0.0
  0
LINE
  5
B9B9
330
B8A6
100
AcDbEntity
  8
1
  6
Continuous
100
AcDbLine
 10
30.042954
 20
133.448527
 30
0.0
 11
35.68048799999999
 21
132.8551019999999
 31
0.0
  0
ARC
  5
B9BA
330
B8A6
100
AcDbEntity
  8
1
  6
Continuous
100
AcDbCircle
 10
29.980488
 20
130.755102
 30
0.0
 40
0.3
100
AcDbArc
 50
77.981988
 51
270.0
  0
LINE
  5
B9BB
330
B8A6
100
AcDbEntity
  8
1
  6
Continuous
100
AcDbLine
 10
29.980488
 20
130.455102
 30
0.0
 11
32.677656
 21
129.887277
 31
0.0
  0
LINE
  5
B9BC
330
B8A6
100
AcDbEntity
  8
1
  6
Continuous
100
AcDbLine
 10
29.980488
 20
128.055102
 30
0.0
 11
32.677656
 21
127.4872769999999
 31
0.0
  0
ARC
  5
B9BD
330
B8A6
100
AcDbEntity
  8
1
  6
Continuous
100
AcDbCircle
 10
29.980488
 20
128.3551019999999
 30
0.0
 40
0.3
100
AcDbArc
 50
77.981988
 51
270.0
  0
ARC
  5
B9BE
330
B8A6
100
AcDbEntity
  8
1
  6
Continuous
100
AcDbCircle
 10
29.980488
 20
125.9551019999999
 30
0.0
 40
0.3
100
AcDbArc
 50
77.981988
 51
270.0
  0
LINE
  5
B9BF
330
B8A6
100
AcDbEntity
  8
1
  6
Continuous
100
AcDbLine
 10
29.980488
 20
125.655102
 30
0.0
 11
32.677656
 21
125.0872769999999
 31
0.0
  0
LINE
  5
B9C0
330
B8A6
100
AcDbEntity
  8
1
  6
Continuous
100
AcDbLine
 10
29.980488
 20
123.255102
 30
0.0
 11
32.677656
 21
122.6872769999999
 31
0.0
  0
ARC
  5
B9C1
330
B8A6
100
AcDbEntity
  8
1
  6
Continuous
100
AcDbCircle
 10
29.980488
 20
123.555102
 30
0.0
 40
0.3
100
AcDbArc
 50
77.981988
 51
270.0
  0
ARC
  5
B9C2
330
B8A6
100
AcDbEntity
  8
1
  6
Continuous
100
AcDbCircle
 10
29.980488
 20
121.1551019999999
 30
0.0
 40
0.3
100
AcDbArc
 50
77.981988
 51
270.0
  0
LINE
  5
B9C3
330
B8A6
100
AcDbEntity
  8
1
  6
Continuous
100
AcDbLine
 10
29.980488
 20
120.855102
 30
0.0
 11
32.677656
 21
120.287277
 31
0.0
  0
LINE
  5
B9C4
330
B8A6
100
AcDbEntity
  8
1
  6
Continuous
100
AcDbLine
 10
29.980488
 20
118.455102
 30
0.0
 11
32.677656
 21
117.8872769999999
 31
0.0
  0
ARC
  5
B9C5
330
B8A6
100
AcDbEntity
  8
1
  6
Continuous
100
AcDbCircle
 10
29.980488
 20
118.7551019999999
 30
0.0
 40
0.3
100
AcDbArc
 50
77.981988
 51
270.0
  0
LINE
  5
B9C6
330
B8A6
100
AcDbEntity
  8
1
  6
Continuous
100
AcDbLine
 10
30.042954
 20
131.048527
 30
0.0
 11
35.68048799999999
 21
130.455102
 31
0.0
  0
LINE
  5
B9C7
330
B8A6
100
AcDbEntity
  8
1
  6
Continuous
100
AcDbLine
 10
30.042954
 20
128.648527
 30
0.0
 11
35.68048799999999
 21
128.055102
 31
0.0
  0
LINE
  5
B9C8
330
B8A6
100
AcDbEntity
  8
1
  6
Continuous
100
AcDbLine
 10
30.042954
 20
126.2485269999999
 30
0.0
 11
35.68048799999999
 21
125.655102
 31
0.0
  0
LINE
  5
B9C9
330
B8A6
100
AcDbEntity
  8
1
  6
Continuous
100
AcDbLine
 10
30.042954
 20
123.8485269999999
 30
0.0
 11
35.68048799999999
 21
123.255102
 31
0.0
  0
LINE
  5
B9CA
330
B8A6
100
AcDbEntity
  8
1
  6
Continuous
100
AcDbLine
 10
30.042954
 20
121.4485269999999
 30
0.0
 11
35.68048799999999
 21
120.855102
 31
0.0
  0
LINE
  5
B9CB
330
B8A6
100
AcDbEntity
  8
1
  6
Continuous
100
AcDbLine
 10
30.042954
 20
119.048527
 30
0.0
 11
35.68048799999999
 21
118.455102
 31
0.0
  0
LINE
  5
B9CC
330
B8A6
100
AcDbEntity
  8
1
  6
Continuous
100
AcDbLine
 10
29.73632800000001
 20
138.731027
 30
0.0
 11
32.69407799999999
 21
138.346449
 31
0.0
  0
LINE
  5
B9CD
330
B8A6
100
AcDbEntity
  8
1
  6
Continuous
100
AcDbLine
 10
29.75932800000001
 20
137.093408
 30
0.0
 11
32.69407799999999
 21
136.6656889999999
 31
0.0
  0
LINE
  5
B9CE
330
B8A6
100
AcDbEntity
  8
1
  6
Continuous
100
AcDbLine
 10
35.651828
 20
138.346449
 30
0.0
 11
32.69407799999999
 21
138.346449
 31
0.0
  0
LINE
  5
B9CF
330
B8A6
100
AcDbEntity
  8
1
  6
Continuous
100
AcDbLine
 10
35.597457
 20
136.6656889999999
 30
0.0
 11
32.69407799999999
 21
136.6656889999999
 31
0.0
  0
LINE
  5
B9D0
330
B8A6
100
AcDbEntity
  8
1
  6
Continuous
100
AcDbLine
 10
29.75932800000001
 20
137.523908
 30
0.0
 11
35.62882800000001
 21
137.0938909999999
 31
0.0
  0
ARC
  5
B9D1
330
B8A6
100
AcDbEntity
  8
1
  6
Continuous
100
AcDbCircle
 10
35.651828
 20
138.538699
 30
0.0
 40
0.19225
100
AcDbArc
 50
270.0
 51
90.0
  0
ARC
  5
B9D2
330
B8A6
100
AcDbEntity
  8
1
  6
Continuous
100
AcDbCircle
 10
35.62882800000001
 20
136.878641
 30
0.0
 40
0.21525
100
AcDbArc
 50
261.619662
 51
90.0
  0
ARC
  5
B9D3
330
B8A6
100
AcDbEntity
  8
1
  6
Continuous
100
AcDbCircle
 10
29.75932800000001
 20
137.308658
 30
0.0
 40
0.21525
100
AcDbArc
 50
90.0
 51
270.0
  0
LINE
  5
B9D4
330
B8A6
100
AcDbEntity
  8
1
  6
Continuous
100
AcDbLine
 10
29.59032800000001
 20
146.9394199999999
 30
0.0
 11
32.69407799999999
 21
146.8469409999999
 31
0.0
  0
LINE
  5
B9D5
330
B8A6
100
AcDbEntity
  8
1
  6
Continuous
100
AcDbLine
 10
35.79782800000001
 20
146.9394409999999
 30
0.0
 11
29.591706
 21
147.031899
 31
0.0
  0
ARC
  5
B9D6
330
B8A6
100
AcDbEntity
  8
1
  6
Continuous
100
AcDbCircle
 10
35.79782800000001
 20
146.893191
 30
0.0
 40
0.04625
100
AcDbArc
 50
270.0
 51
90.0
  0
ARC
  5
B9D7
330
B8A6
100
AcDbEntity
  8
1
  6
Continuous
100
AcDbCircle
 10
29.59032800000001
 20
146.98567
 30
0.0
 40
0.04625
100
AcDbArc
 50
88.292947
 51
270.0
  0
LINE
  5
B9D8
330
B8A6
100
AcDbEntity
  8
1
  6
Continuous
100
AcDbLine
 10
32.69407799999999
 20
146.8469409999999
 30
0.0
 11
35.79782800000001
 21
146.8469409999999
 31
0.0
  0
LINE
  5
B9D9
330
B8A6
100
AcDbEntity
  8
1
  6
Continuous
100
AcDbLine
 10
32.69407799999999
 20
147.191281
 30
0.0
 11
29.577328
 21
147.257661
 31
0.0
  0
LINE
  5
B9DA
330
B8A6
100
AcDbEntity
  8
1
  6
Continuous
100
AcDbLine
 10
29.578036
 20
147.3241529999999
 30
0.0
 11
35.810828
 21
147.2577809999999
 31
0.0
  0
ARC
  5
B9DB
330
B8A6
100
AcDbEntity
  8
1
  6
Continuous
100
AcDbCircle
 10
29.577328
 20
147.2909109999999
 30
0.0
 40
0.03325
100
AcDbArc
 50
88.77976600000001
 51
270.0
  0
ARC
  5
B9DC
330
B8A6
100
AcDbEntity
  8
1
  6
Continuous
100
AcDbCircle
 10
35.810828
 20
147.224531
 30
0.0
 40
0.03325
100
AcDbArc
 50
270.0
 51
90.0
  0
LINE
  5
B9DD
330
B8A6
100
AcDbEntity
  8
1
  6
Continuous
100
AcDbLine
 10
32.69407799999999
 20
147.191281
 30
0.0
 11
35.810828
 21
147.191281
 31
0.0
  0
LINE
  5
B9DE
330
B8A6
100
AcDbEntity
  8
1
  6
Continuous
100
AcDbLine
 10
29.57382799999999
 20
146.5732919999998
 30
0.0
 11
32.69407799999999
 21
146.3938269999999
 31
0.0
  0
LINE
  5
B9DF
330
B8A6
100
AcDbEntity
  8
1
  6
Continuous
100
AcDbLine
 10
35.81432800000001
 20
146.4533269999998
 30
0.0
 11
29.575537
 21
146.6327429999998
 31
0.0
  0
ARC
  5
B9E0
330
B8A6
100
AcDbEntity
  8
1
  6
Continuous
100
AcDbCircle
 10
35.81432800000001
 20
146.4235769999999
 30
0.0
 40
0.02975
100
AcDbArc
 50
270.0
 51
90.0
  0
ARC
  5
B9E1
330
B8A6
100
AcDbEntity
  8
1
  6
Continuous
100
AcDbCircle
 10
29.57382799999999
 20
146.6030419999998
 30
0.0
 40
0.02975
100
AcDbArc
 50
86.70546800000003
 51
270.0
  0
LINE
  5
B9E2
330
B8A6
100
AcDbEntity
  8
1
  6
Continuous
100
AcDbLine
 10
32.69407799999999
 20
145.830012
 30
0.0
 11
29.606328
 21
145.9999129999999
 31
0.0
  0
LINE
  5
B9E3
330
B8A6
100
AcDbEntity
  8
1
  6
Continuous
100
AcDbLine
 10
29.606328
 20
146.1244129999998
 30
0.0
 11
35.78182799999999
 21
145.954512
 31
0.0
  0
ARC
  5
B9E4
330
B8A6
100
AcDbEntity
  8
1
  6
Continuous
100
AcDbCircle
 10
35.78182799999999
 20
145.8922619999999
 30
0.0
 40
0.06225
100
AcDbArc
 50
270.0
 51
90.0
  0
ARC
  5
B9E5
330
B8A6
100
AcDbEntity
  8
1
  6
Continuous
100
AcDbCircle
 10
29.606328
 20
146.062163
 30
0.0
 40
0.06225
100
AcDbArc
 50
90.0
 51
270.0
  0
LINE
  5
B9E6
330
B8A6
100
AcDbEntity
  8
1
  6
Continuous
100
AcDbLine
 10
29.63207800000001
 20
145.3276679999999
 30
0.0
 11
32.69407799999999
 21
145.1519739999999
 31
0.0
  0
LINE
  5
B9E7
330
B8A6
100
AcDbEntity
  8
1
  6
Continuous
100
AcDbLine
 10
29.637123
 20
145.503523
 30
0.0
 11
35.756078
 21
145.327974
 31
0.0
  0
ARC
  5
B9E8
330
B8A6
100
AcDbEntity
  8
1
  6
Continuous
100
AcDbCircle
 10
29.63207800000001
 20
145.4156679999998
 30
0.0
 40
0.088
100
AcDbArc
 50
86.71334399999997
 51
270.0
  0
ARC
  5
B9E9
330
B8A6
100
AcDbEntity
  8
1
  6
Continuous
100
AcDbCircle
 10
35.756078
 20
145.2399739999999
 30
0.0
 40
0.088
100
AcDbArc
 50
270.0
 51
90.0
  0
LINE
  5
B9EA
330
B8A6
100
AcDbEntity
  8
1
  6
Continuous
100
AcDbLine
 10
29.646828
 20
144.561092
 30
0.0
 11
32.69407799999999
 21
144.355275
 31
0.0
  0
LINE
  5
B9EB
330
B8A6
100
AcDbEntity
  8
1
  6
Continuous
100
AcDbLine
 10
29.646828
 20
144.766592
 30
0.0
 11
35.741328
 21
144.560775
 31
0.0
  0
ARC
  5
B9EC
330
B8A6
100
AcDbEntity
  8
1
  6
Continuous
100
AcDbCircle
 10
35.741328
 20
144.458025
 30
0.0
 40
0.10275
100
AcDbArc
 50
270.0
 51
90.0
  0
ARC
  5
B9ED
330
B8A6
100
AcDbEntity
  8
1
  6
Continuous
100
AcDbCircle
 10
29.646828
 20
144.663842
 30
0.0
 40
0.10275
100
AcDbArc
 50
90.0
 51
270.0
  0
LINE
  5
B9EE
330
B8A6
100
AcDbEntity
  8
1
  6
Continuous
100
AcDbLine
 10
32.69407799999999
 20
143.434402
 30
0.0
 11
29.66257800000001
 21
143.67123
 31
0.0
  0
LINE
  5
B9EF
330
B8A6
100
AcDbEntity
  8
1
  6
Continuous
100
AcDbLine
 10
29.671821
 20
143.907869
 30
0.0
 11
35.72557800000001
 21
143.6714019999998
 31
0.0
  0
ARC
  5
B9F0
330
B8A6
100
AcDbEntity
  8
1
  6
Continuous
100
AcDbCircle
 10
35.72557800000001
 20
143.5529019999999
 30
0.0
 40
0.1185
100
AcDbArc
 50
270.0
 51
90.0
  0
ARC
  5
B9F1
330
B8A6
100
AcDbEntity
  8
1
  6
Continuous
100
AcDbCircle
 10
29.66257800000001
 20
143.7897299999999
 30
0.0
 40
0.1185
100
AcDbArc
 50
85.52619399999997
 51
270.0
  0
LINE
  5
B9F2
330
B8A6
100
AcDbEntity
  8
1
  6
Continuous
100
AcDbLine
 10
29.634078
 20
142.7424489999999
 30
0.0
 11
32.69407799999999
 21
142.3825459999999
 31
0.0
  0
LINE
  5
B9F3
330
B8A6
100
AcDbEntity
  8
1
  6
Continuous
100
AcDbLine
 10
29.634078
 20
142.922449
 30
0.0
 11
35.754078
 21
142.562546
 31
0.0
  0
ARC
  5
B9F4
330
B8A6
100
AcDbEntity
  8
1
  6
Continuous
100
AcDbCircle
 10
35.754078
 20
142.4725459999999
 30
0.0
 40
0.09
100
AcDbArc
 50
270.0
 51
90.0
  0
ARC
  5
B9F5
330
B8A6
100
AcDbEntity
  8
1
  6
Continuous
100
AcDbCircle
 10
29.634078
 20
142.832449
 30
0.0
 40
0.09
100
AcDbArc
 50
90.0
 51
270.0
  0
LINE
  5
B9F6
330
B8A6
100
AcDbEntity
  8
1
  6
Continuous
100
AcDbLine
 10
29.696578
 20
141.4966839999999
 30
0.0
 11
32.69407799999999
 21
141.1913069999999
 31
0.0
  0
LINE
  5
B9F7
330
B8A6
100
AcDbEntity
  8
1
  6
Continuous
100
AcDbLine
 10
29.71207399999999
 20
141.8008949999999
 30
0.0
 11
35.691578
 21
141.4963069999998
 31
0.0
  0
ARC
  5
B9F8
330
B8A6
100
AcDbEntity
  8
1
  6
Continuous
100
AcDbCircle
 10
29.696578
 20
141.6491839999999
 30
0.0
 40
0.1525
100
AcDbArc
 50
84.16789599999999
 51
270.0
  0
ARC
  5
B9F9
330
B8A6
100
AcDbEntity
  8
1
  6
Continuous
100
AcDbCircle
 10
35.691578
 20
141.3438069999999
 30
0.0
 40
0.1525
100
AcDbArc
 50
270.0
 51
90.0
  0
LINE
  5
B9FA
330
B8A6
100
AcDbEntity
  8
1
  6
Continuous
100
AcDbLine
 10
29.71557800000001
 20
140.193585
 30
0.0
 11
32.69407799999999
 21
139.850275
 31
0.0
  0
LINE
  5
B9FB
330
B8A6
100
AcDbEntity
  8
1
  6
Continuous
100
AcDbLine
 10
29.73527999999999
 20
140.535449
 30
0.0
 11
35.672578
 21
140.193275
 31
0.0
  0
ARC
  5
B9FC
330
B8A6
100
AcDbEntity
  8
1
  6
Continuous
100
AcDbCircle
 10
29.71557800000001
 20
140.365085
 30
0.0
 40
0.1715
100
AcDbArc
 50
83.40322200000001
 51
270.0
  0
ARC
  5
B9FD
330
B8A6
100
AcDbEntity
  8
1
  6
Continuous
100
AcDbCircle
 10
35.672578
 20
140.0217749999999
 30
0.0
 40
0.1715
100
AcDbArc
 50
270.0
 51
90.0
  0
LINE
  5
B9FE
330
B8A6
100
AcDbEntity
  8
1
  6
Continuous
100
AcDbLine
 10
32.69407799999999
 20
146.3938269999999
 30
0.0
 11
35.81432800000001
 21
146.3938269999999
 31
0.0
  0
LINE
  5
B9FF
330
B8A6
100
AcDbEntity
  8
1
  6
Continuous
100
AcDbLine
 10
32.69407799999999
 20
145.830012
 30
0.0
 11
35.78182799999999
 21
145.830012
 31
0.0
  0
LINE
  5
BA00
330
B8A6
100
AcDbEntity
  8
1
  6
Continuous
100
AcDbLine
 10
32.69407799999999
 20
145.1519739999999
 30
0.0
 11
35.756078
 21
145.1519739999999
 31
0.0
  0
LINE
  5
BA01
330
B8A6
100
AcDbEntity
  8
1
  6
Continuous
100
AcDbLine
 10
32.69407799999999
 20
144.355275
 30
0.0
 11
35.741328
 21
144.355275
 31
0.0
  0
LINE
  5
BA02
330
B8A6
100
AcDbEntity
  8
1
  6
Continuous
100
AcDbLine
 10
32.69407799999999
 20
143.434402
 30
0.0
 11
35.72557800000001
 21
143.434402
 31
0.0
  0
LINE
  5
BA03
330
B8A6
100
AcDbEntity
  8
1
  6
Continuous
100
AcDbLine
 10
32.69407799999999
 20
142.3825459999999
 30
0.0
 11
35.754078
 21
142.3825459999999
 31
0.0
  0
LINE
  5
BA04
330
B8A6
100
AcDbEntity
  8
1
  6
Continuous
100
AcDbLine
 10
32.69407799999999
 20
141.1913069999999
 30
0.0
 11
35.691578
 21
141.1913069999999
 31
0.0
  0
LINE
  5
BA05
330
B8A6
100
AcDbEntity
  8
1
  6
Continuous
100
AcDbLine
 10
32.69407799999999
 20
139.850275
 30
0.0
 11
35.672578
 21
139.850275
 31
0.0
  0
LINE
  5
BA06
330
B8A6
100
AcDbEntity
  8
1
  6
Continuous
100
AcDbLine
 10
29.546044
 20
147.611716
 30
0.0
 11
35.77883599999999
 21
147.545344
 31
0.0
  0
ARC
  5
BA07
330
B8A6
100
AcDbEntity
  8
1
  6
Continuous
100
AcDbCircle
 10
35.77883599999999
 20
147.5120939999999
 30
0.0
 40
0.03325
100
AcDbArc
 50
270.0
 51
90.0
  0
LINE
  5
BA08
330
B8A6
100
AcDbEntity
  8
1
  6
Continuous
100
AcDbLine
 10
32.66208599999998
 20
147.4788439999999
 30
0.0
 11
35.77883599999999
 21
147.4788439999999
 31
0.0
  0
LINE
  5
BA09
330
B8A6
100
AcDbEntity
  8
1
  6
Continuous
100
AcDbLine
 10
32.66208599999998
 20
147.4788439999999
 30
0.0
 11
29.54533599999999
 21
147.5452239999999
 31
0.0
  0
ARC
  5
BA0A
330
B8A6
100
AcDbEntity
  8
1
  6
Continuous
100
AcDbCircle
 10
29.54533599999999
 20
147.5784739999998
 30
0.0
 40
0.03325
100
AcDbArc
 50
88.77976600000001
 51
270.0
  0
ARC
  5
BA0B
330
B8A6
100
AcDbEntity
  8
1
  6
Continuous
100
AcDbCircle
 10
115.6175689999999
 20
202.3769829999999
 30
0.0
 40
0.3
100
AcDbArc
 50
209.315012
 51
330.6849879999999
  0
ARC
  5
BA0C
330
B8A6
100
AcDbEntity
  8
1
  6
Continuous
100
AcDbCircle
 10
116.2175689999999
 20
208.076983
 30
0.0
 40
0.3
100
AcDbArc
 50
30.689749
 51
149.3102509999999
  0
ARC
  5
BA0D
330
B8A6
100
AcDbEntity
  8
1
  6
Continuous
100
AcDbCircle
 10
113.6889419999999
 20
202.375118
 30
0.0
 40
0.3
100
AcDbArc
 50
180.0
 51
0.0
  0
ARC
  5
BA0E
330
B8A6
100
AcDbEntity
  8
1
  6
Continuous
100
AcDbCircle
 10
111.9928399999998
 20
202.375118
 30
0.0
 40
0.3
100
AcDbArc
 50
180.0
 51
0.0
  0
ARC
  5
BA0F
330
B8A6
100
AcDbEntity
  8
1
  6
Continuous
100
AcDbCircle
 10
110.2967379999999
 20
202.375118
 30
0.0
 40
0.3
100
AcDbArc
 50
180.0
 51
0.0
  0
ARC
  5
BA10
330
B8A6
100
AcDbEntity
  8
1
  6
Continuous
100
AcDbCircle
 10
114.8889419999999
 20
205.068935
 30
0.0
 40
1.5
100
AcDbArc
 50
168.1113419999998
 51
180.0
  0
LINE
  5
BA11
330
B8A6
100
AcDbEntity
  8
1
  6
Continuous
100
AcDbLine
 10
113.3889419999998
 20
205.068935
 30
0.0
 11
113.3889419999998
 21
202.375118
 31
0.0
  0
LINE
  5
BA12
330
B8A6
100
AcDbEntity
  8
1
  6
Continuous
100
AcDbLine
 10
111.6928399999999
 20
205.068935
 30
0.0
 11
111.6928399999999
 21
202.375118
 31
0.0
  0
LINE
  5
BA13
330
B8A6
100
AcDbEntity
  8
1
  6
Continuous
100
AcDbLine
 10
109.996738
 20
205.068935
 30
0.0
 11
109.996738
 21
202.375118
 31
0.0
  0
ARC
  5
BA14
330
B8A6
100
AcDbEntity
  8
1
  6
Continuous
100
AcDbCircle
 10
114.2889419999999
 20
208.075118
 30
0.0
 40
0.3
100
AcDbArc
 50
347.9819879999998
 51
180.0
  0
LINE
  5
BA15
330
B8A6
100
AcDbEntity
  8
1
  6
Continuous
100
AcDbLine
 10
113.988942
 20
208.075118
 30
0.0
 11
113.4211169999999
 21
205.37795
 31
0.0
  0
LINE
  5
BA16
330
B8A6
100
AcDbEntity
  8
1
  6
Continuous
100
AcDbLine
 10
112.2928399999999
 20
208.075118
 30
0.0
 11
111.7250149999998
 21
205.37795
 31
0.0
  0
ARC
  5
BA17
330
B8A6
100
AcDbEntity
  8
1
  6
Continuous
100
AcDbCircle
 10
112.59284
 20
208.075118
 30
0.0
 40
0.3
100
AcDbArc
 50
347.9819879999998
 51
180.0
  0
ARC
  5
BA18
330
B8A6
100
AcDbEntity
  8
1
  6
Continuous
100
AcDbCircle
 10
110.8967379999999
 20
208.075118
 30
0.0
 40
0.3
100
AcDbArc
 50
347.9819879999998
 51
180.0
  0
LINE
  5
BA19
330
B8A6
100
AcDbEntity
  8
1
  6
Continuous
100
AcDbLine
 10
110.5967379999998
 20
208.075118
 30
0.0
 11
110.0289129999999
 21
205.37795
 31
0.0
  0
LINE
  5
BA1A
330
B8A6
100
AcDbEntity
  8
1
  6
Continuous
100
AcDbLine
 10
114.5823669999999
 20
208.0126519999998
 30
0.0
 11
114.5593489999999
 21
207.7939849999999
 31
0.0
  0
LINE
  5
BA1B
330
B8A6
100
AcDbEntity
  8
1
  6
Continuous
100
AcDbLine
 10
112.886265
 20
208.0126519999998
 30
0.0
 11
112.2928399999999
 21
202.375118
 31
0.0
  0
LINE
  5
BA1C
330
B8A6
100
AcDbEntity
  8
1
  6
Continuous
100
AcDbLine
 10
111.1901629999999
 20
208.0126519999998
 30
0.0
 11
110.5967379999998
 21
202.375118
 31
0.0
  0
LINE
  5
BA1D
330
B8A6
100
AcDbEntity
  8
1
  6
Continuous
100
AcDbLine
 10
110.0289129999999
 20
205.37795
 30
0.0
 11
109.996738
 21
205.068935
 31
0.0
  0
LINE
  5
BA1E
330
B8A6
100
AcDbEntity
  8
1
  6
Continuous
100
AcDbLine
 10
111.7250149999998
 20
205.37795
 30
0.0
 11
111.6928399999999
 21
205.068935
 31
0.0
  0
ARC
  5
BA1F
330
B8A6
100
AcDbEntity
  8
1
  6
Continuous
100
AcDbCircle
 10
108.6230099999999
 20
202.299483
 30
0.0
 40
0.21525
100
AcDbArc
 50
171.619662
 51
0.0
  0
LINE
  5
BA20
330
B8A6
100
AcDbEntity
  8
1
  6
Continuous
100
AcDbLine
 10
108.837777
 20
208.168983
 30
0.0
 11
108.410058
 21
205.234233
 31
0.0
  0
LINE
  5
BA21
330
B8A6
100
AcDbEntity
  8
1
  6
Continuous
100
AcDbLine
 10
108.410058
 20
202.3308539999999
 30
0.0
 11
108.410058
 21
205.234233
 31
0.0
  0
LINE
  5
BA22
330
B8A6
100
AcDbEntity
  8
1
  6
Continuous
100
AcDbLine
 10
109.2682769999999
 20
208.168983
 30
0.0
 11
108.83826
 21
202.299483
 31
0.0
  0
ARC
  5
BA23
330
B8A6
100
AcDbEntity
  8
1
  6
Continuous
100
AcDbCircle
 10
109.053027
 20
208.168983
 30
0.0
 40
0.21525
100
AcDbArc
 50
0.0
 51
180.0
  0
ARC
  5
BA24
330
B8A6
100
AcDbEntity
  8
1
  6
Continuous
100
AcDbCircle
 10
107.5172519999999
 20
208.105081
 30
0.0
 40
0.21525
100
AcDbArc
 50
0.0
 51
180.0
  0
LINE
  5
BA25
330
B8A6
100
AcDbEntity
  8
1
  6
Continuous
100
AcDbLine
 10
107.7325019999999
 20
208.105081
 30
0.0
 11
107.302485
 21
202.235581
 31
0.0
  0
LINE
  5
BA26
330
B8A6
100
AcDbEntity
  8
1
  6
Continuous
100
AcDbLine
 10
107.3020019999999
 20
208.105081
 30
0.0
 11
106.874283
 21
205.170331
 31
0.0
  0
LINE
  5
BA27
330
B8A6
100
AcDbEntity
  8
1
  6
Continuous
100
AcDbLine
 10
106.874283
 20
202.2669519999999
 30
0.0
 11
106.874283
 21
205.170331
 31
0.0
  0
ARC
  5
BA28
330
B8A6
100
AcDbEntity
  8
1
  6
Continuous
100
AcDbCircle
 10
107.087235
 20
202.235581
 30
0.0
 40
0.21525
100
AcDbArc
 50
171.619662
 51
0.0
  0
LINE
  5
BA29
330
B8A6
100
AcDbEntity
  8
1
  6
Continuous
100
AcDbLine
 10
105.8302219999999
 20
208.0411799999999
 30
0.0
 11
105.402503
 21
205.1064299999999
 31
0.0
  0
LINE
  5
BA2A
330
B8A6
100
AcDbEntity
  8
1
  6
Continuous
100
AcDbLine
 10
106.260722
 20
208.0411799999999
 30
0.0
 11
105.830705
 21
202.17168
 31
0.0
  0
ARC
  5
BA2B
330
B8A6
100
AcDbEntity
  8
1
  6
Continuous
100
AcDbCircle
 10
106.045472
 20
208.0411799999999
 30
0.0
 40
0.21525
100
AcDbArc
 50
0.0
 51
180.0
  0
ARC
  5
BA2C
330
B8A6
100
AcDbEntity
  8
1
  6
Continuous
100
AcDbCircle
 10
105.615455
 20
202.17168
 30
0.0
 40
0.21525
100
AcDbArc
 50
171.619662
 51
0.0
  0
LINE
  5
BA2D
330
B8A6
100
AcDbEntity
  8
1
  6
Continuous
100
AcDbLine
 10
105.402503
 20
202.203051
 30
0.0
 11
105.402503
 21
205.1064299999999
 31
0.0
  0
ARC
  5
BA2E
330
B8A6
100
AcDbEntity
  8
1
  6
Continuous
100
AcDbCircle
 10
104.829649
 20
208.041183
 30
0.0
 40
0.21525
100
AcDbArc
 50
0.0
 51
180.0
  0
LINE
  5
BA2F
330
B8A6
100
AcDbEntity
  8
1
  6
Continuous
100
AcDbLine
 10
105.044899
 20
208.041183
 30
0.0
 11
104.6148819999998
 21
202.1716829999999
 31
0.0
  0
LINE
  5
BA30
330
B8A6
100
AcDbEntity
  8
1
  6
Continuous
100
AcDbLine
 10
104.614399
 20
208.041183
 30
0.0
 11
104.18668
 21
205.1064329999999
 31
0.0
  0
LINE
  5
BA31
330
B8A6
100
AcDbEntity
  8
1
  6
Continuous
100
AcDbLine
 10
104.18668
 20
202.203054
 30
0.0
 11
104.18668
 21
205.1064329999999
 31
0.0
  0
ARC
  5
BA32
330
B8A6
100
AcDbEntity
  8
1
  6
Continuous
100
AcDbCircle
 10
104.3996319999999
 20
202.1716829999999
 30
0.0
 40
0.21525
100
AcDbArc
 50
171.619662
 51
0.0
  0
ARC
  5
BA33
330
B8A6
100
AcDbEntity
  8
1
  6
Continuous
100
AcDbCircle
 10
103.1161299999999
 20
202.084774
 30
0.0
 40
0.19225
100
AcDbArc
 50
180.0
 51
0.0
  0
LINE
  5
BA34
330
B8A6
100
AcDbEntity
  8
1
  6
Continuous
100
AcDbLine
 10
103.308458
 20
208.0002739999999
 30
0.0
 11
102.92388
 21
205.042524
 31
0.0
  0
LINE
  5
BA35
330
B8A6
100
AcDbEntity
  8
1
  6
Continuous
100
AcDbLine
 10
103.692958
 20
208.0002739999999
 30
0.0
 11
103.3083799999999
 21
202.084774
 31
0.0
  0
LINE
  5
BA36
330
B8A6
100
AcDbEntity
  8
1
  6
Continuous
100
AcDbLine
 10
102.92388
 20
202.084774
 30
0.0
 11
102.92388
 21
205.042524
 31
0.0
  0
ARC
  5
BA37
330
B8A6
100
AcDbEntity
  8
1
  6
Continuous
100
AcDbCircle
 10
103.5007079999999
 20
208.0002739999999
 30
0.0
 40
0.19225
100
AcDbArc
 50
0.0
 51
180.0
  0
ARC
  5
BA38
330
B8A6
100
AcDbEntity
  8
1
  6
Continuous
100
AcDbCircle
 10
102.2431969999999
 20
202.011024
 30
0.0
 40
0.1185
100
AcDbArc
 50
180.0
 51
0.0
  0
ARC
  5
BA39
330
B8A6
100
AcDbEntity
  8
1
  6
Continuous
100
AcDbCircle
 10
101.1628409999999
 20
201.982524
 30
0.0
 40
0.09
100
AcDbArc
 50
180.0
 51
0.0
  0
LINE
  5
BA3A
330
B8A6
100
AcDbEntity
  8
1
  6
Continuous
100
AcDbLine
 10
102.1246969999999
 20
205.042524
 30
0.0
 11
102.3615249999999
 21
208.0740239999999
 31
0.0
  0
LINE
  5
BA3B
330
B8A6
100
AcDbEntity
  8
1
  6
Continuous
100
AcDbLine
 10
102.5981639999999
 20
208.064781
 30
0.0
 11
102.3616969999998
 21
202.011024
 31
0.0
  0
ARC
  5
BA3C
330
B8A6
100
AcDbEntity
  8
1
  6
Continuous
100
AcDbCircle
 10
102.4800249999999
 20
208.0740239999999
 30
0.0
 40
0.1185
100
AcDbArc
 50
355.5261939999998
 51
180.0
  0
LINE
  5
BA3D
330
B8A6
100
AcDbEntity
  8
1
  6
Continuous
100
AcDbLine
 10
101.4327439999999
 20
208.1025239999999
 30
0.0
 11
101.072841
 21
205.042524
 31
0.0
  0
LINE
  5
BA3E
330
B8A6
100
AcDbEntity
  8
1
  6
Continuous
100
AcDbLine
 10
101.6127439999999
 20
208.1025239999999
 30
0.0
 11
101.252841
 21
201.982524
 31
0.0
  0
ARC
  5
BA3F
330
B8A6
100
AcDbEntity
  8
1
  6
Continuous
100
AcDbCircle
 10
101.5227439999998
 20
208.1025239999999
 30
0.0
 40
0.09
100
AcDbArc
 50
0.0
 51
180.0
  0
LINE
  5
BA40
330
B8A6
100
AcDbEntity
  8
1
  6
Continuous
100
AcDbLine
 10
102.1246969999999
 20
205.042524
 30
0.0
 11
102.1246969999999
 21
202.011024
 31
0.0
  0
LINE
  5
BA41
330
B8A6
100
AcDbEntity
  8
1
  6
Continuous
100
AcDbLine
 10
101.072841
 20
205.042524
 30
0.0
 11
101.072841
 21
201.982524
 31
0.0
  0
LINE
  5
BA42
330
B8A6
100
AcDbEntity
  8
1
  6
Continuous
100
AcDbLine
 10
213.345952
 20
141.8436819999998
 30
0.0
 11
214.9828929999999
 21
140.861517
 31
0.0
  0
LINE
  5
BA43
330
B8A6
100
AcDbEntity
  8
1
  6
Continuous
100
AcDbLine
 10
215.7550509999999
 20
140.752775
 30
0.0
 11
219.588289
 21
141.7749719999999
 31
0.0
  0
LINE
  5
BA44
330
B8A6
100
AcDbEntity
  8
1
  6
Continuous
100
AcDbLine
 10
220.1036139999999
 20
141.7749719999999
 30
0.0
 11
223.9368519999999
 21
140.752775
 31
0.0
  0
LINE
  5
BA45
330
B8A6
100
AcDbEntity
  8
1
  6
Continuous
100
AcDbLine
 10
224.70901
 20
140.861517
 30
0.0
 11
226.345952
 21
141.8436819999998
 31
0.0
  0
LINE
  5
BA46
330
B8A6
100
AcDbEntity
  8
1
  6
Continuous
100
AcDbLine
 10
226.345952
 20
141.291992
 30
0.0
 11
224.70901
 21
140.309828
 31
0.0
  0
LINE
  5
BA47
330
B8A6
100
AcDbEntity
  8
1
  6
Continuous
100
AcDbLine
 10
223.9368519999999
 20
140.201086
 30
0.0
 11
220.1036139999999
 21
141.223282
 31
0.0
  0
LINE
  5
BA48
330
B8A6
100
AcDbEntity
  8
1
  6
Continuous
100
AcDbLine
 10
219.588289
 20
141.223282
 30
0.0
 11
215.7550509999999
 21
140.201086
 31
0.0
  0
LINE
  5
BA49
330
B8A6
100
AcDbEntity
  8
1
  6
Continuous
100
AcDbLine
 10
214.9828929999999
 20
140.309828
 30
0.0
 11
213.345952
 21
141.291992
 31
0.0
  0
ARC
  5
BA4A
330
B8A6
100
AcDbEntity
  8
1
  6
Continuous
100
AcDbCircle
 10
224.1945149999998
 20
141.1673209999999
 30
0.0
 40
1.0
100
AcDbArc
 50
255.0685829999999
 51
300.9637569999998
  0
ARC
  5
BA4B
330
B8A6
100
AcDbEntity
  8
1
  6
Continuous
100
AcDbCircle
 10
215.497389
 20
141.1673209999999
 30
0.0
 40
1.0
100
AcDbArc
 50
239.036243
 51
284.9314169999999
  0
ARC
  5
BA4C
330
B8A6
100
AcDbEntity
  8
1
  6
Continuous
100
AcDbCircle
 10
215.497389
 20
141.71901
 30
0.0
 40
1.0
100
AcDbArc
 50
239.036243
 51
284.9314169999999
  0
ARC
  5
BA4D
330
B8A6
100
AcDbEntity
  8
1
  6
Continuous
100
AcDbCircle
 10
224.1945149999998
 20
141.71901
 30
0.0
 40
1.0
100
AcDbArc
 50
255.0685829999999
 51
300.9637569999998
  0
ARC
  5
BA4E
330
B8A6
100
AcDbEntity
  8
1
  6
Continuous
100
AcDbCircle
 10
219.845952
 20
140.808737
 30
0.0
 40
1.0
100
AcDbArc
 50
75.06858299999997
 51
104.9314169999999
  0
ARC
  5
BA4F
330
B8A6
100
AcDbEntity
  8
1
  6
Continuous
100
AcDbCircle
 10
219.845952
 20
140.257047
 30
0.0
 40
1.0
100
AcDbArc
 50
75.06858299999997
 51
104.9314169999999
  0
LINE
  5
BA50
330
B8A6
100
AcDbEntity
  8
1
  6
Continuous
100
AcDbLine
 10
144.5591279999999
 20
211.7300999999999
 30
0.0
 11
145.400349
 21
210.047658
 31
0.0
  0
LINE
  5
BA51
330
B8A6
100
AcDbEntity
  8
1
  6
Continuous
100
AcDbLine
 10
145.482109
 20
209.3835139999999
 30
0.0
 11
144.6073349999998
 21
205.44703
 31
0.0
  0
LINE
  5
BA52
330
B8A6
100
AcDbEntity
  8
1
  6
Continuous
100
AcDbLine
 10
144.6073349999998
 20
205.01317
 30
0.0
 11
145.482109
 21
201.076686
 31
0.0
  0
LINE
  5
BA53
330
B8A6
100
AcDbEntity
  8
1
  6
Continuous
100
AcDbLine
 10
145.400349
 20
200.412542
 30
0.0
 11
144.5591279999999
 21
198.7301
 31
0.0
  0
ARC
  5
BA54
330
B8A6
100
AcDbEntity
  8
1
  6
Continuous
100
AcDbCircle
 10
144.505922
 20
209.6004439999999
 30
0.0
 40
1.0
100
AcDbArc
 50
347.4711919999998
 51
26.565051
  0
ARC
  5
BA55
330
B8A6
100
AcDbEntity
  8
1
  6
Continuous
100
AcDbCircle
 10
144.505922
 20
200.859756
 30
0.0
 40
1.0
100
AcDbArc
 50
333.434949
 51
12.52880799999999
  0
ARC
  5
BA56
330
B8A6
100
AcDbEntity
  8
1
  6
Continuous
100
AcDbCircle
 10
217.09825
 20
143.287826
 30
0.0
 40
0.3
100
AcDbArc
 50
90.0
 51
270.0
  0
LINE
  5
BA57
330
B8A6
100
AcDbEntity
  8
1
  6
Continuous
100
AcDbLine
 10
219.6859759999999
 20
143.587826
 30
0.0
 11
217.09825
 21
143.587826
 31
0.0
  0
LINE
  5
BA58
330
B8A6
100
AcDbEntity
  8
1
  6
Continuous
100
AcDbLine
 10
222.7982499999999
 20
142.987826
 30
0.0
 11
220.101082
 21
143.555651
 31
0.0
  0
ARC
  5
BA59
330
B8A6
100
AcDbEntity
  8
1
  6
Continuous
100
AcDbCircle
 10
222.7982499999999
 20
142.687826
 30
0.0
 40
0.3
100
AcDbArc
 50
257.981988
 51
90.0
  0
LINE
  5
BA5A
330
B8A6
100
AcDbEntity
  8
1
  6
Continuous
100
AcDbLine
 10
222.7357839999999
 20
142.3944009999999
 30
0.0
 11
217.09825
 21
142.987826
 31
0.0
  0
ARC
  5
BA5B
330
B8A6
100
AcDbEntity
  8
1
  6
Continuous
100
AcDbCircle
 10
216.925945
 20
144.6516359999999
 30
0.0
 40
0.21525
100
AcDbArc
 50
81.619662
 51
270.0
  0
LINE
  5
BA5C
330
B8A6
100
AcDbEntity
  8
1
  6
Continuous
100
AcDbLine
 10
222.795445
 20
144.436869
 30
0.0
 11
219.8606949999999
 21
144.8645879999999
 31
0.0
  0
LINE
  5
BA5D
330
B8A6
100
AcDbEntity
  8
1
  6
Continuous
100
AcDbLine
 10
216.957316
 20
144.8645879999999
 30
0.0
 11
219.8606949999999
 21
144.8645879999999
 31
0.0
  0
LINE
  5
BA5E
330
B8A6
100
AcDbEntity
  8
1
  6
Continuous
100
AcDbLine
 10
222.795445
 20
144.006369
 30
0.0
 11
216.925945
 21
144.4363859999999
 31
0.0
  0
ARC
  5
BA5F
330
B8A6
100
AcDbEntity
  8
1
  6
Continuous
100
AcDbCircle
 10
222.795445
 20
144.221619
 30
0.0
 40
0.21525
100
AcDbArc
 50
270.0
 51
90.0
  0
ARC
  5
BA60
330
B8A6
100
AcDbEntity
  8
1
  6
Continuous
100
AcDbCircle
 10
216.998931
 20
145.6435439999999
 30
0.0
 40
0.19225
100
AcDbArc
 50
90.0
 51
270.0
  0
LINE
  5
BA61
330
B8A6
100
AcDbEntity
  8
1
  6
Continuous
100
AcDbLine
 10
222.914431
 20
145.4512159999999
 30
0.0
 11
219.9566809999998
 21
145.8357939999999
 31
0.0
  0
LINE
  5
BA62
330
B8A6
100
AcDbEntity
  8
1
  6
Continuous
100
AcDbLine
 10
222.914431
 20
145.0667159999999
 30
0.0
 11
216.998931
 21
145.4512939999998
 31
0.0
  0
LINE
  5
BA63
330
B8A6
100
AcDbEntity
  8
1
  6
Continuous
100
AcDbLine
 10
216.998931
 20
145.8357939999999
 30
0.0
 11
219.9566809999998
 21
145.8357939999999
 31
0.0
  0
ARC
  5
BA64
330
B8A6
100
AcDbEntity
  8
1
  6
Continuous
100
AcDbCircle
 10
222.914431
 20
145.2589659999999
 30
0.0
 40
0.19225
100
AcDbArc
 50
270.0
 51
90.0
  0
LINE
  5
BA65
330
B8A6
100
AcDbEntity
  8
1
  6
Continuous
100
AcDbLine
 10
219.6859759999999
 20
143.587826
 30
0.0
 11
220.101082
 21
143.555651
 31
0.0
  0
ARC
  5
BA66
330
B8A6
100
AcDbEntity
  8
1
  6
Continuous
100
AcDbCircle
 10
217.053923
 20
146.888234
 30
0.0
 40
0.21525
100
AcDbArc
 50
170.2656529999999
 51
270.0
  0
LINE
  5
BA67
330
B8A6
100
AcDbEntity
  8
1
  6
Continuous
100
AcDbLine
 10
222.9234229999999
 20
146.6734669999999
 30
0.0
 11
222.5470819999999
 21
146.7283159999998
 31
0.0
  0
LINE
  5
BA68
330
B8A6
100
AcDbEntity
  8
1
  6
Continuous
100
AcDbLine
 10
222.9234229999999
 20
146.2429669999998
 30
0.0
 11
221.7312129999999
 21
146.3303119999999
 31
0.0
  0
ARC
  5
BA69
330
B8A6
100
AcDbEntity
  8
1
  6
Continuous
100
AcDbCircle
 10
222.9234229999999
 20
146.4582169999999
 30
0.0
 40
0.21525
100
AcDbArc
 50
270.0
 51
90.0
  0
LINE
  5
BA6A
330
B8A6
100
AcDbEntity
  8
1
  6
Continuous
100
AcDbLine
 10
217.266702
 20
146.657396
 30
0.0
 11
217.053923
 21
146.672984
 31
0.0
  0
LINE
  5
BA6B
330
B8A6
100
AcDbEntity
  8
1
  6
Continuous
100
AcDbLine
 10
111.5402009999999
 20
49.064136
 30
0.0
 11
111.508026
 21
48.755121
 31
0.0
  0
LINE
  5
BA6C
330
B8A6
100
AcDbEntity
  8
4
  6
CENTER
100
AcDbLine
 10
21.25
 20
151.2300999999999
 30
0.0
 11
44.24999999999999
 21
151.2300999999999
 31
0.0
  0
ARC
  5
BA6D
330
B8A6
100
AcDbEntity
  8
1
  6
Continuous
100
AcDbCircle
 10
145.5835219999999
 20
205.2300999999999
 30
0.0
 40
1.0
100
AcDbArc
 50
167.471192
 51
192.5288079999999
  0
ARC
  5
BA6E
330
B8A6
100
AcDbEntity
  8
1
  6
Continuous
100
AcDbCircle
 10
145.5835219999999
 20
205.2300999999999
 30
0.0
 40
1.0
100
AcDbArc
 50
167.471192
 51
192.5288079999999
  0
LINE
  5
BA6F
330
B8A6
100
AcDbEntity
  8
1
  6
Continuous
100
AcDbLine
 10
114.085479
 20
203.292223
 30
0.0
 11
113.988942
 21
202.375118
 31
0.0
  0
ARC
  5
BA70
330
B8A6
100
AcDbEntity
  8
1
  6
Continuous
100
AcDbCircle
 10
122.0893299999999
 20
124.9411129999999
 30
0.0
 40
25.31626
100
AcDbArc
 50
57.89039
 51
67.48573600000002
  0
ARC
  5
BA71
330
B8A6
100
AcDbEntity
  8
1
  6
Continuous
100
AcDbCircle
 10
128.991701
 20
123.3508559999999
 30
0.0
 40
23.94830799999998
100
AcDbArc
 50
46.22727600000001
 51
74.11643999999999
  0
ARC
  5
BA72
330
B8A6
100
AcDbEntity
  8
1
  6
Continuous
100
AcDbCircle
 10
122.0893299999999
 20
124.9411129999999
 30
0.0
 40
24.51626
100
AcDbArc
 50
57.954397
 51
66.88622099999999
  0
ARC
  5
BA73
330
B8A6
100
AcDbEntity
  8
1
  6
Continuous
100
AcDbCircle
 10
128.991701
 20
123.3508559999999
 30
0.0
 40
23.148308
100
AcDbArc
 50
46.272655
 51
74.04879099999998
  0
ARC
  5
BA74
330
B8A6
100
AcDbEntity
  8
1
  6
Continuous
100
AcDbCircle
 10
128.991701
 20
123.3508559999999
 30
0.0
 40
22.348308
100
AcDbArc
 50
46.32119799999999
 51
74.04879099999998
  0
ARC
  5
BA75
330
B8A6
100
AcDbEntity
  8
1
  6
Continuous
100
AcDbCircle
 10
122.0893299999999
 20
124.9411129999999
 30
0.0
 40
23.71626
100
AcDbArc
 50
57.954397
 51
66.243955
  0
ARC
  5
BA76
330
B8A6
100
AcDbEntity
  8
1
  6
Continuous
100
AcDbCircle
 10
135.628106
 20
146.5693599999999
 30
0.0
 40
1.0
100
AcDbArc
 50
237.954397
 51
254.0487909999999
  0
ARC
  5
BA77
330
B8A6
100
AcDbEntity
  8
1
  6
Continuous
100
AcDbCircle
 10
135.628106
 20
146.5693599999999
 30
0.0
 40
1.8
100
AcDbArc
 50
237.954397
 51
254.0487909999999
  0
ARC
  5
BA78
330
B8A6
100
AcDbEntity
  8
5
  6
PHANTOM
100
AcDbCircle
 10
122.0996289999999
 20
125.064701
 30
0.0
 40
23.71626
100
AcDbArc
 50
57.178106
 51
66.243955
  0
ARC
  5
BA79
330
B8A6
100
AcDbEntity
  8
5
  6
PHANTOM
100
AcDbCircle
 10
122.0968049999999
 20
125.030813
 30
0.0
 40
24.51626
100
AcDbArc
 50
57.568029
 51
66.88622099999999
  0
ARC
  5
BA7A
330
B8A6
100
AcDbEntity
  8
5
  6
PHANTOM
100
AcDbCircle
 10
122.0941709999999
 20
124.999195
 30
0.0
 40
25.31626
100
AcDbArc
 50
57.89039
 51
67.48573600000002
  0
ARC
  5
BA7B
330
B8A6
100
AcDbEntity
  8
5
  6
PHANTOM
100
AcDbCircle
 10
126.689755
 20
123.664459
 30
0.0
 40
24.441261
100
AcDbArc
 50
47.961552
 51
68.743475
  0
ARC
  5
BA7C
330
B8A6
100
AcDbEntity
  8
5
  6
PHANTOM
100
AcDbCircle
 10
126.689755
 20
123.664459
 30
0.0
 40
23.641261
100
AcDbArc
 50
48.04583699999999
 51
68.349194
  0
ARC
  5
BA7D
330
B8A6
100
AcDbEntity
  8
5
  6
PHANTOM
100
AcDbCircle
 10
126.689755
 20
123.664459
 30
0.0
 40
22.84126099999999
100
AcDbArc
 50
48.136162
 51
67.975778
  0
ARC
  5
BA7E
330
B8A6
100
AcDbEntity
  8
5
  6
PHANTOM
100
AcDbCircle
 10
135.9301909999998
 20
146.507534
 30
0.0
 40
1.8
100
AcDbArc
 50
237.1781059999999
 51
247.9757779999999
  0
ARC
  5
BA7F
330
B8A6
100
AcDbEntity
  8
5
  6
PHANTOM
100
AcDbCircle
 10
135.7811209999999
 20
146.5672709999998
 30
0.0
 40
1.0
100
AcDbArc
 50
237.568029
 51
248.3491939999999
  0
LINE
  5
BA80
330
B8A6
100
AcDbEntity
  8
1
  6
Continuous
100
AcDbLine
 10
215.845952
 20
148.920737
 30
0.0
 11
219.845952
 21
146.611336
 31
0.0
  0
LINE
  5
BA81
330
B8A6
100
AcDbEntity
  8
1
  6
Continuous
100
AcDbLine
 10
219.845952
 20
146.611336
 30
0.0
 11
223.845952
 21
148.920737
 31
0.0
  0
LINE
  5
BA82
330
B8A6
100
AcDbEntity
  8
1
  6
Continuous
100
AcDbLine
 10
223.845952
 20
148.920737
 30
0.0
 11
223.845952
 21
153.5395389999998
 31
0.0
  0
LINE
  5
BA83
330
B8A6
100
AcDbEntity
  8
1
  6
Continuous
100
AcDbLine
 10
223.845952
 20
153.5395389999998
 30
0.0
 11
219.845952
 21
155.84894
 31
0.0
  0
LINE
  5
BA84
330
B8A6
100
AcDbEntity
  8
1
  6
Continuous
100
AcDbLine
 10
219.845952
 20
155.84894
 30
0.0
 11
215.845952
 21
153.5395389999998
 31
0.0
  0
LINE
  5
BA85
330
B8A6
100
AcDbEntity
  8
1
  6
Continuous
100
AcDbLine
 10
215.845952
 20
153.5395389999998
 30
0.0
 11
215.845952
 21
148.920737
 31
0.0
  0
ENDSEC
  0
SECTION
  2
OBJECTS
  0
DICTIONARY
  5
B894
330
0
100
AcDbDictionary
281
     1
  3
ACAD_CIP_PREVIOUS_PRODUCT_INFO
350
BAE5
  3
ACAD_COLOR
350
BAC7
  3
ACAD_DETAILVIEWSTYLE
350
BAE0
  3
ACAD_GROUP
350
B895
  3
ACAD_LAYOUT
350
B8A1
  3
ACAD_MATERIAL
350
BA95
  3
ACAD_MLEADERSTYLE
350
BADC
  3
ACAD_MLINESTYLE
350
B89E
  3
ACAD_PLOTSETTINGS
350
B8A0
  3
ACAD_PLOTSTYLENAME
350
BA93
  3
ACAD_SCALELIST
350
BACA
  3
ACAD_SECTIONVIEWSTYLE
350
BADE
  3
ACAD_TABLESTYLE
350
BAC8
  3
ACAD_VISUALSTYLE
350
BAAE
  3
ACDB_RECOMPOSE_DATA
350
BB03
  3
AcDbVariableDictionary
350
BAF6
  3
DWGPROPS
350
BB04
  0
DICTIONARY
  5
BAE6
330
B898
100
AcDbDictionary
280
     1
281
     1
  3
ADSK_XREC_LAYER_RECONCILED
360
BAE7
  0
DICTIONARY
  5
BAE8
330
B8AE
100
AcDbDictionary
280
     1
281
     1
  3
ADSK_XREC_LAYER_RECONCILED
360
BAE9
  0
DICTIONARY
  5
BAEA
330
B8AF
100
AcDbDictionary
280
     1
281
     1
  3
ADSK_XREC_LAYER_RECONCILED
360
BAEB
  0
DICTIONARY
  5
BAEC
330
B8B0
100
AcDbDictionary
280
     1
281
     1
  3
ADSK_XREC_LAYER_RECONCILED
360
BAED
  0
DICTIONARY
  5
BAEE
330
B8B1
100
AcDbDictionary
280
     1
281
     1
  3
ADSK_XREC_LAYER_RECONCILED
360
BAEF
  0
DICTIONARY
  5
BAF0
330
B8B2
100
AcDbDictionary
280
     1
281
     1
  3
ADSK_XREC_LAYER_RECONCILED
360
BAF1
  0
DICTIONARY
  5
BAF2
330
B8B3
100
AcDbDictionary
280
     1
281
     1
  3
ADSK_XREC_LAYER_RECONCILED
360
BAF3
  0
DICTIONARY
  5
BAF4
330
B8B4
100
AcDbDictionary
280
     1
281
     1
  3
ADSK_XREC_LAYER_RECONCILED
360
BAF5
  0
DICTIONARY
  5
BA8E
330
B8A6
100
AcDbDictionary
281
     1
  3
ACAD_LAYOUTSELFREF
350
BA8F
  0
DICTIONARY
  5
BA8C
330
B8A2
100
AcDbDictionary
281
     1
  3
ACAD_LAYOUTSELFREF
350
BA8D
  0
XRECORD
  5
BAE5
102
{ACAD_REACTORS
330
B894
102
}
330
B894
100
AcDbXrecord
280
     1
300
ACDLT
300
2014
300
ACDLT_F_S
  0
DICTIONARY
  5
BAC7
102
{ACAD_REACTORS
330
B894
102
}
330
B894
100
AcDbDictionary
281
     1
  0
DICTIONARY
  5
BAE0
102
{ACAD_REACTORS
330
B894
102
}
330
B894
100
AcDbDictionary
281
     1
  3
Imperial24
350
BAE1
  0
DICTIONARY
  5
B895
102
{ACAD_REACTORS
330
B894
102
}
330
B894
100
AcDbDictionary
281
     1
  0
DICTIONARY
  5
B8A1
102
{ACAD_REACTORS
330
B894
102
}
330
B894
100
AcDbDictionary
281
     1
  3
Model
350
BAE2
  3
レイアウト1
350
BAE3
  0
DICTIONARY
  5
BA95
102
{ACAD_REACTORS
330
B894
102
}
330
B894
100
AcDbDictionary
281
     1
  3
ByBlock
350
BA9E
  3
ByLayer
350
BA96
  3
Global
350
BAA6
  0
DICTIONARY
  5
BADC
102
{ACAD_REACTORS
330
B894
102
}
330
B894
100
AcDbDictionary
281
     1
  3
Standard
350
BADD
  0
DICTIONARY
  5
B89E
102
{ACAD_REACTORS
330
B894
102
}
330
B894
100
AcDbDictionary
281
     1
  3
STANDARD
350
B89F
  0
DICTIONARY
  5
B8A0
102
{ACAD_REACTORS
330
B894
102
}
330
B894
100
AcDbDictionary
281
     1
  0
ACDBDICTIONARYWDFLT
  5
BA93
102
{ACAD_REACTORS
330
B894
102
}
330
B894
100
AcDbDictionary
281
     1
  3
Normal
350
BA94
100
AcDbDictionaryWithDefault
340
BA94
  0
DICTIONARY
  5
BACA
102
{ACAD_REACTORS
330
B894
102
}
330
B894
100
AcDbDictionary
281
     1
  3
A0
350
BACB
  3
A1
350
BACC
  3
A2
350
BACD
  3
A3
350
BACE
  3
A4
350
BACF
  3
A5
350
BAD0
  3
A6
350
BAD1
  3
A7
350
BAD2
  3
A8
350
BAD3
  3
A9
350
BAD4
  3
B0
350
BAD5
  3
B1
350
BAD6
  3
B2
350
BAD7
  3
B3
350
BAD8
  3
B4
350
BAD9
  3
B5
350
BADA
  3
B6
350
BADB
  0
DICTIONARY
  5
BADE
102
{ACAD_REACTORS
330
B894
102
}
330
B894
100
AcDbDictionary
281
     1
  3
Imperial24
350
BADF
  0
DICTIONARY
  5
BAC8
102
{ACAD_REACTORS
330
B894
102
}
330
B894
100
AcDbDictionary
281
     1
  3
Standard
350
BAC9
  0
DICTIONARY
  5
BAAE
102
{ACAD_REACTORS
330
B894
102
}
330
B894
100
AcDbDictionary
281
     1
  3
2dWireframe
350
BAB4
  3
Basic
350
BAB3
  3
Brighten
350
BABA
  3
ColorChange
350
BABE
  3
Conceptual
350
BAB7
  3
Dim
350
BAB9
  3
EdgeColorOff
350
BAC6
  3
Facepattern
350
BABD
  3
Flat
350
BAAF
  3
FlatWithEdges
350
BAB0
  3
Gouraud
350
BAB1
  3
GouraudWithEdges
350
BAB2
  3
Hidden
350
BAB6
  3
JitterOff
350
BAC4
  3
Linepattern
350
BABC
  3
OverhangOff
350
BAC5
  3
Realistic
350
BAB8
  3
Shaded
350
BAC3
  3
Shaded with edges
350
BAC2
  3
Shades of Gray
350
BABF
  3
Sketchy
350
BAC0
  3
Thicken
350
BABB
  3
Wireframe
350
BAB5
  3
X-Ray
350
BAC1
  0
XRECORD
  5
BB03
102
{ACAD_REACTORS
330
B894
102
}
330
B894
100
AcDbXrecord
280
     1
 90
        1
330
BAC9
  0
DICTIONARY
  5
BAF6
102
{ACAD_REACTORS
330
B894
102
}
330
B894
100
AcDbDictionary
281
     1
  3
CANNOSCALE
350
BAFB
  3
CMLEADERSTYLE
350
BAF8
  3
CTABLESTYLE
350
BAF7
  3
CVIEWDETAILSTYLE
350
BAF9
  3
CVIEWSECTIONSTYLE
350
BAFA
  3
DIMASSOC
350
BAFE
  3
INDEXCTL
350
BAFD
  3
SORTENTS
350
BAFC
  3
XCLIPFRAME
350
BAFF
  0
XRECORD
  5
BB04
102
{ACAD_REACTORS
330
B894
102
}
330
B894
100
AcDbXrecord
280
     1
  1
DWGPROPS COOKIE
  2

  3

  4

  6

  7

  8
Yoshitsune
  9

300
=
301
=
302
=
303
=
304
=
305
=
306
=
307
=
308
=
309
=
 40
0.0000102083333333
 41
2451296.794729861
 42
2457192.658281597
  1

 90
        0
  0
XRECORD
  5
BAE7
102
{ACAD_REACTORS
330
BAE6
102
}
330
BAE6
100
AcDbXrecord
280
     1
290
     1
  0
XRECORD
  5
BAE9
102
{ACAD_REACTORS
330
BAE8
102
}
330
BAE8
100
AcDbXrecord
280
     1
290
     1
  0
XRECORD
  5
BAEB
102
{ACAD_REACTORS
330
BAEA
102
}
330
BAEA
100
AcDbXrecord
280
     1
290
     1
  0
XRECORD
  5
BAED
102
{ACAD_REACTORS
330
BAEC
102
}
330
BAEC
100
AcDbXrecord
280
     1
290
     1
  0
XRECORD
  5
BAEF
102
{ACAD_REACTORS
330
BAEE
102
}
330
BAEE
100
AcDbXrecord
280
     1
290
     1
  0
XRECORD
  5
BAF1
102
{ACAD_REACTORS
330
BAF0
102
}
330
BAF0
100
AcDbXrecord
280
     1
290
     1
  0
XRECORD
  5
BAF3
102
{ACAD_REACTORS
330
BAF2
102
}
330
BAF2
100
AcDbXrecord
280
     1
290
     1
  0
XRECORD
  5
BAF5
102
{ACAD_REACTORS
330
BAF4
102
}
330
BAF4
100
AcDbXrecord
280
     1
290
     1
  0
XRECORD
  5
BA8F
102
{ACAD_REACTORS
330
BA8E
102
}
330
BA8E
100
AcDbXrecord
280
     1
340
B8A6
  0
XRECORD
  5
BA8D
102
{ACAD_REACTORS
330
BA8C
102
}
330
BA8C
100
AcDbXrecord
280
     1
340
B8A2
  0
ACDBDETAILVIEWSTYLE
  5
BAE1
102
{ACAD_XDICTIONARY
360
BB3C
102
}
102
{ACAD_REACTORS
330
BAE0
102
}
330
BAE0
100
AcDbModelDocViewStyle
 70
     0
  3
Imperial24
290
     0
100
AcDbDetailViewStyle
 70
     0
 71
     0
 90
        3
 71
     1
340
B899
 40
0.24
340
0
 40
0.24
300

 40
0.36
280
     3
 71
     2
340
B89D
 90
       25
 71
     3
340
B899
 40
0.24
 90
        1
 40
0.75
 90
        1
300
%<\AcVar ViewType \f "%tc1">% %<\AcVar ViewDetailId>%\PSCALE %<\AcVar ViewScale \f "%sn">%
 71
     4
340
B89D
 90
       25
340
B89D
 90
       25
280
     0
  0
LAYOUT
  5
BAE2
102
{ACAD_XDICTIONARY
360
BB3E
102
}
102
{ACAD_REACTORS
330
B8A1
102
}
330
B8A1
100
AcDbPlotSettings
  1

  2
Canon LBP9100C
  4

  6

 40
0.0
 41
0.0
 42
0.0
 43
0.0
 44
0.0
 45
0.0
 46
0.0
 47
0.0
 48
0.0
 49
0.0
140
0.0
141
0.0
142
1.0
143
1.0
 70
  1712
 72
     0
 73
     0
 74
     0
  7

 75
     0
147
1.0
148
0.0
149
0.0
100
AcDbLayout
  1
Model
 70
     1
 71
     0
 10
0.0
 20
0.0
 11
12.0
 21
9.0
 12
0.0
 22
0.0
 32
0.0
 14
0.0
 24
0.0
 34
0.0
 15
0.0
 25
0.0
 35
0.0
146
0.0
 13
0.0
 23
0.0
 33
0.0
 16
1.0
 26
0.0
 36
0.0
 17
0.0
 27
1.0
 37
0.0
 76
     0
330
B8A6
331
BA8B
  0
LAYOUT
  5
BAE3
102
{ACAD_XDICTIONARY
360
BB40
102
}
102
{ACAD_REACTORS
330
B8A1
102
}
330
B8A1
100
AcDbPlotSettings
  1

  2
Canon LBP9100C
  4

  6

 40
0.0
 41
0.0
 42
0.0
 43
0.0
 44
0.0
 45
0.0
 46
0.0
 47
0.0
 48
0.0
 49
0.0
140
0.0
141
0.0
142
1.0
143
1.0
 70
   688
 72
     0
 73
     0
 74
     5
  7

 75
    16
147
1.0
148
0.0
149
0.0
100
AcDbLayout
  1
レイアウト1
 70
     0
 71
     1
 10
0.0
 20
0.0
 11
420.0
 21
297.0
 12
0.0
 22
0.0
 32
0.0
 14
1.000000000000000E+20
 24
1.000000000000000E+20
 34
1.000000000000000E+20
 15
-1.000000000000000E+20
 25
-1.000000000000000E+20
 35
-1.000000000000000E+20
146
0.0
 13
0.0
 23
0.0
 33
0.0
 16
1.0
 26
0.0
 36
0.0
 17
0.0
 27
1.0
 37
0.0
 76
     0
330
B8A2
  0
MATERIAL
  5
BA9E
102
{ACAD_XDICTIONARY
360
BA9F
102
}
102
{ACAD_REACTORS
330
BA95
102
}
330
BA95
100
AcDbMaterial
  1
ByBlock
 72
     0
 43
0.0208333333333333
 43
0.0
 43
0.0
 43
0.0
 43
0.0
 43
0.0208333333333333
 43
0.0
 43
0.0
 43
0.0
 43
0.0
 43
1.0
 43
0.0
 43
0.0
 43
0.0
 43
0.0
 43
1.0
 77
     0
 47
0.0208333333333333
 47
0.0
 47
0.0
 47
0.0
 47
0.0
 47
0.0208333333333333
 47
0.0
 47
0.0
 47
0.0
 47
0.0
 47
1.0
 47
0.0
 47
0.0
 47
0.0
 47
0.0
 47
1.0
171
     0
 49
0.0208333333333333
 49
0.0
 49
0.0
 49
0.0
 49
0.0
 49
0.0208333333333333
 49
0.0
 49
0.0
 49
0.0
 49
0.0
 49
1.0
 49
0.0
 49
0.0
 49
0.0
 49
0.0
 49
1.0
175
     0
142
0.0208333333333333
142
0.0
142
0.0
142
0.0
142
0.0
142
0.0208333333333333
142
0.0
142
0.0
142
0.0
142
0.0
142
1.0
142
0.0
142
0.0
142
0.0
142
0.0
142
1.0
179
     0
144
0.0208333333333333
144
0.0
144
0.0
144
0.0
144
0.0
144
0.0208333333333333
144
0.0
144
0.0
144
0.0
144
0.0
144
1.0
144
0.0
144
0.0
144
0.0
144
0.0
144
1.0
147
0.0208333333333333
147
0.0
147
0.0
147
0.0
147
0.0
147
0.0208333333333333
147
0.0
147
0.0
147
0.0
147
0.0
147
1.0
147
0.0
147
0.0
147
0.0
147
0.0
147
1.0
  0
MATERIAL
  5
BA96
102
{ACAD_XDICTIONARY
360
BA97
102
}
102
{ACAD_REACTORS
330
BA95
102
}
330
BA95
100
AcDbMaterial
  1
ByLayer
 72
     0
 43
0.0208333333333333
 43
0.0
 43
0.0
 43
0.0
 43
0.0
 43
0.0208333333333333
 43
0.0
 43
0.0
 43
0.0
 43
0.0
 43
1.0
 43
0.0
 43
0.0
 43
0.0
 43
0.0
 43
1.0
 77
     0
 47
0.0208333333333333
 47
0.0
 47
0.0
 47
0.0
 47
0.0
 47
0.0208333333333333
 47
0.0
 47
0.0
 47
0.0
 47
0.0
 47
1.0
 47
0.0
 47
0.0
 47
0.0
 47
0.0
 47
1.0
171
     0
 49
0.0208333333333333
 49
0.0
 49
0.0
 49
0.0
 49
0.0
 49
0.0208333333333333
 49
0.0
 49
0.0
 49
0.0
 49
0.0
 49
1.0
 49
0.0
 49
0.0
 49
0.0
 49
0.0
 49
1.0
175
     0
142
0.0208333333333333
142
0.0
142
0.0
142
0.0
142
0.0
142
0.0208333333333333
142
0.0
142
0.0
142
0.0
142
0.0
142
1.0
142
0.0
142
0.0
142
0.0
142
0.0
142
1.0
179
     0
144
0.0208333333333333
144
0.0
144
0.0
144
0.0
144
0.0
144
0.0208333333333333
144
0.0
144
0.0
144
0.0
144
0.0
144
1.0
144
0.0
144
0.0
144
0.0
144
0.0
144
1.0
147
0.0208333333333333
147
0.0
147
0.0
147
0.0
147
0.0
147
0.0208333333333333
147
0.0
147
0.0
147
0.0
147
0.0
147
1.0
147
0.0
147
0.0
147
0.0
147
0.0
147
1.0
  0
MATERIAL
  5
BAA6
102
{ACAD_XDICTIONARY
360
BAA7
102
}
102
{ACAD_REACTORS
330
BA95
102
}
330
BA95
100
AcDbMaterial
  1
Global
 72
     0
 43
0.0208333333333333
 43
0.0
 43
0.0
 43
0.0
 43
0.0
 43
0.0208333333333333
 43
0.0
 43
0.0
 43
0.0
 43
0.0
 43
1.0
 43
0.0
 43
0.0
 43
0.0
 43
0.0
 43
1.0
 77
     0
 47
0.0208333333333333
 47
0.0
 47
0.0
 47
0.0
 47
0.0
 47
0.0208333333333333
 47
0.0
 47
0.0
 47
0.0
 47
0.0
 47
1.0
 47
0.0
 47
0.0
 47
0.0
 47
0.0
 47
1.0
171
     0
 49
0.0208333333333333
 49
0.0
 49
0.0
 49
0.0
 49
0.0
 49
0.0208333333333333
 49
0.0
 49
0.0
 49
0.0
 49
0.0
 49
1.0
 49
0.0
 49
0.0
 49
0.0
 49
0.0
 49
1.0
175
     0
142
0.0208333333333333
142
0.0
142
0.0
142
0.0
142
0.0
142
0.0208333333333333
142
0.0
142
0.0
142
0.0
142
0.0
142
1.0
142
0.0
142
0.0
142
0.0
142
0.0
142
1.0
179
     0
144
0.0208333333333333
144
0.0
144
0.0
144
0.0
144
0.0
144
0.0208333333333333
144
0.0
144
0.0
144
0.0
144
0.0
144
1.0
144
0.0
144
0.0
144
0.0
144
0.0
144
1.0
147
0.0208333333333333
147
0.0
147
0.0
147
0.0
147
0.0
147
0.0208333333333333
147
0.0
147
0.0
147
0.0
147
0.0
147
1.0
147
0.0
147
0.0
147
0.0
147
0.0
147
1.0
  0
MLEADERSTYLE
  5
BADD
102
{ACAD_REACTORS
330
BADC
102
}
330
BADC
100
AcDbMLeaderStyle
170
     2
171
     1
172
     0
 90
        2
 40
0.0
 41
0.0
173
     1
 91
-1056964608
340
B89B
 92
       -2
290
     1
 42
0.09
291
     1
 43
0.36
  3
Standard
 44
0.18
300

342
B899
174
     1
178
     6
175
     1
176
     0
 93
-1056964608
 45
0.18
292
     0
297
     0
 46
0.18
 94
-1056964608
 47
1.0
 49
1.0
140
1.0
293
     1
141
0.0
294
     1
177
     0
142
1.0
295
     0
296
     0
143
0.125
1001
ACAD_MLEADERVER
1070
     2
  0
MLINESTYLE
  5
B89F
102
{ACAD_REACTORS
330
B89E
102
}
330
B89E
100
AcDbMlineStyle
  2
STANDARD
 70
     0
  3

 62
   256
 51
90.0
 52
90.0
 71
     2
 49
0.5
 62
   256
  6
BYLAYER
 49
-0.5
 62
   256
  6
BYLAYER
  0
ACDBPLACEHOLDER
  5
BA94
102
{ACAD_REACTORS
330
BA93
102
}
330
BA93
  0
SCALE
  5
BACB
102
{ACAD_REACTORS
330
BACA
102
}
330
BACA
100
AcDbScale
 70
     0
300
1:1
140
1.0
141
1.0
290
     1
  0
SCALE
  5
BACC
102
{ACAD_REACTORS
330
BACA
102
}
330
BACA
100
AcDbScale
 70
     0
300
1/128" = 1'-0"
140
0.0078125
141
12.0
290
     0
  0
SCALE
  5
BACD
102
{ACAD_REACTORS
330
BACA
102
}
330
BACA
100
AcDbScale
 70
     0
300
1/64" = 1'-0"
140
0.015625
141
12.0
290
     0
  0
SCALE
  5
BACE
102
{ACAD_REACTORS
330
BACA
102
}
330
BACA
100
AcDbScale
 70
     0
300
1/32" = 1'-0"
140
0.03125
141
12.0
290
     0
  0
SCALE
  5
BACF
102
{ACAD_REACTORS
330
BACA
102
}
330
BACA
100
AcDbScale
 70
     0
300
1/16" = 1'-0"
140
0.0625
141
12.0
290
     0
  0
SCALE
  5
BAD0
102
{ACAD_REACTORS
330
BACA
102
}
330
BACA
100
AcDbScale
 70
     0
300
3/32" = 1'-0"
140
0.09375
141
12.0
290
     0
  0
SCALE
  5
BAD1
102
{ACAD_REACTORS
330
BACA
102
}
330
BACA
100
AcDbScale
 70
     0
300
1/8" = 1'-0"
140
0.125
141
12.0
290
     0
  0
SCALE
  5
BAD2
102
{ACAD_REACTORS
330
BACA
102
}
330
BACA
100
AcDbScale
 70
     0
300
3/16" = 1'-0"
140
0.1875
141
12.0
290
     0
  0
SCALE
  5
BAD3
102
{ACAD_REACTORS
330
BACA
102
}
330
BACA
100
AcDbScale
 70
     0
300
1/4" = 1'-0"
140
0.25
141
12.0
290
     0
  0
SCALE
  5
BAD4
102
{ACAD_REACTORS
330
BACA
102
}
330
BACA
100
AcDbScale
 70
     0
300
3/8" = 1'-0"
140
0.375
141
12.0
290
     0
  0
SCALE
  5
BAD5
102
{ACAD_REACTORS
330
BACA
102
}
330
BACA
100
AcDbScale
 70
     0
300
1/2" = 1'-0"
140
0.5
141
12.0
290
     0
  0
SCALE
  5
BAD6
102
{ACAD_REACTORS
330
BACA
102
}
330
BACA
100
AcDbScale
 70
     0
300
3/4" = 1'-0"
140
0.75
141
12.0
290
     0
  0
SCALE
  5
BAD7
102
{ACAD_REACTORS
330
BACA
102
}
330
BACA
100
AcDbScale
 70
     0
300
1" = 1'-0"
140
1.0
141
12.0
290
     0
  0
SCALE
  5
BAD8
102
{ACAD_REACTORS
330
BACA
102
}
330
BACA
100
AcDbScale
 70
     0
300
1-1/2" = 1'-0"
140
1.5
141
12.0
290
     0
  0
SCALE
  5
BAD9
102
{ACAD_REACTORS
330
BACA
102
}
330
BACA
100
AcDbScale
 70
     0
300
3" = 1'-0"
140
3.0
141
12.0
290
     0
  0
SCALE
  5
BADA
102
{ACAD_REACTORS
330
BACA
102
}
330
BACA
100
AcDbScale
 70
     0
300
6" = 1'-0"
140
6.0
141
12.0
290
     0
  0
SCALE
  5
BADB
102
{ACAD_REACTORS
330
BACA
102
}
330
BACA
100
AcDbScale
 70
     0
300
1'-0" = 1'-0"
140
12.0
141
12.0
290
     0
  0
ACDBSECTIONVIEWSTYLE
  5
BADF
102
{ACAD_XDICTIONARY
360
BB3A
102
}
102
{ACAD_REACTORS
330
BADE
102
}
330
BADE
100
AcDbModelDocViewStyle
 70
     0
  3
Imperial24
290
     0
100
AcDbSectionViewStyle
 70
     0
 71
     0
 90
       78
 71
     1
340
B899
 40
0.24
340
0
340
0
 40
0.24
300
I, O, Q, S, X, Z
 40
0.48
 90
        3
 40
0.18
 90
        1
 71
     2
340
B89D
 90
       25
340
B89D
 90
       50
 40
0.24
 40
0.0
 40
0.24
 71
     3
340
B899
 40
0.24
 90
        1
 40
0.75
 90
        1
300
%<\AcVar ViewType \f "%tc1">% %<\AcVar ViewSectionStartId>%-%<\AcVar ViewSectionEndId>%\PSCALE %<\AcVar ViewScale \f "%sn">%
 71
     4
300
ANSI31
 40
1.0
 90
        0
290
     0
290
     0
 90
        6
 40
0.0
 40
1.570796326794896
 40
0.2617993877991494
 40
1.308996938995747
 40
-0.2617993877991494
 40
1.832595714594046
  0
TABLESTYLE
  5
BAC9
102
{ACAD_XDICTIONARY
360
BB01
102
}
102
{ACAD_REACTORS
330
BAC8
102
}
330
BAC8
100
AcDbTableStyle
  3
Standard
 70
     0
 71
     0
 40
0.06
 41
0.06
280
     0
281
     0
  7
STANDARD
140
0.18
170
     2
 62
     0
 63
     7
283
     0
274
    -2
284
     1
 64
     0
275
    -2
285
     1
 65
     0
276
    -2
286
     1
 66
     0
277
    -2
287
     1
 67
     0
278
    -2
288
     1
 68
     0
279
    -2
289
     1
 69
     0
  7
STANDARD
140
0.25
170
     5
 62
     0
 63
     7
283
     0
274
    -2
284
     1
 64
     0
275
    -2
285
     1
 65
     0
276
    -2
286
     1
 66
     0
277
    -2
287
     1
 67
     0
278
    -2
288
     1
 68
     0
279
    -2
289
     1
 69
     0
  7
STANDARD
140
0.18
170
     5
 62
     0
 63
     7
283
     0
274
    -2
284
     1
 64
     0
275
    -2
285
     1
 65
     0
276
    -2
286
     1
 66
     0
277
    -2
287
     1
 67
     0
278
    -2
288
     1
 68
     0
279
    -2
289
     1
 69
     0
  0
VISUALSTYLE
  5
BAB4
102
{ACAD_XDICTIONARY
360
BB12
102
}
102
{ACAD_REACTORS
330
BAAE
102
}
330
BAAE
100
AcDbVisualStyle
  2
2dWireframe
 70
     4
 71
     0
 72
     2
 73
     0
 90
        0
 40
-0.6
 41
-30.0
 62
     5
 63
     7
 74
     1
 91
        4
 64
     7
 65
   257
 75
     1
175
     1
 42
1.0
 92
        0
 66
   257
 43
1.0
 76
     1
 77
     6
 78
     2
 67
     7
 79
     5
170
     0
171
     0
290
     0
174
     0
 93
        1
 44
0.0
173
     0
291
     0
 45
0.0
1001
ACAD
1000
AcDbSavedByObjectVersion
1070
     0
  0
VISUALSTYLE
  5
BAB3
102
{ACAD_XDICTIONARY
360
BB10
102
}
102
{ACAD_REACTORS
330
BAAE
102
}
330
BAAE
100
AcDbVisualStyle
  2
Basic
 70
     7
 71
     1
 72
     0
 73
     1
 90
        0
 40
-0.6
 41
-30.0
 62
     5
 63
     7
 74
     0
 91
        4
 64
     7
 65
   257
 75
     1
175
     1
 42
1.0
 92
        8
 66
     7
 43
1.0
 76
     1
 77
     6
 78
     2
 67
     7
 79
     5
170
     0
171
     0
290
     0
174
     0
 93
        1
 44
0.0
173
     0
291
     1
 45
0.0
1001
ACAD
1000
AcDbSavedByObjectVersion
1070
     0
  0
VISUALSTYLE
  5
BABA
102
{ACAD_XDICTIONARY
360
BB1E
102
}
102
{ACAD_REACTORS
330
BAAE
102
}
330
BAAE
100
AcDbVisualStyle
  2
Brighten
 70
    12
 71
     2
 72
     2
 73
     0
 90
        0
 40
-0.6
 41
-30.0
 62
     5
 63
     7
 74
     1
 91
        4
 64
     7
 65
   257
 75
     1
175
     1
 42
1.0
 92
        8
 66
     7
 43
1.0
 76
     1
 77
     6
 78
     2
 67
     7
 79
     5
170
     0
171
     0
290
     0
174
     0
 93
        1
 44
50.0
173
     0
291
     1
 45
0.0
1001
ACAD
1000
AcDbSavedByObjectVersion
1070
     0
  0
VISUALSTYLE
  5
BABE
102
{ACAD_XDICTIONARY
360
BB26
102
}
102
{ACAD_REACTORS
330
BAAE
102
}
330
BAAE
100
AcDbVisualStyle
  2
ColorChange
 70
    16
 71
     2
 72
     2
 73
     3
 90
        0
 40
-0.6
 41
-30.0
 62
     5
 63
     8
 74
     1
 91
        4
 64
     7
 65
   257
 75
     1
175
     1
 42
1.0
 92
        8
 66
     8
 43
1.0
 76
     1
 77
     6
 78
     2
 67
     7
 79
     5
170
     0
171
     0
290
     0
174
     0
 93
        1
 44
0.0
173
     0
291
     1
 45
0.0
1001
ACAD
1000
AcDbSavedByObjectVersion
1070
     0
  0
VISUALSTYLE
  5
BAB7
102
{ACAD_XDICTIONARY
360
BB18
102
}
102
{ACAD_REACTORS
330
BAAE
102
}
330
BAAE
100
AcDbVisualStyle
  2
Conceptual
 70
     9
 71
     3
 72
     2
 73
     0
 90
        0
 40
-0.6
 41
-30.0
 62
     5
 63
     7
 74
     2
 91
        2
 64
     7
 65
   257
 75
     1
175
     1
 42
179.0
 92
        8
 66
     7
 43
1.0
 76
     1
 77
     6
 78
     2
 67
     7
 79
     3
170
     0
171
     0
290
     0
174
     0
 93
        1
 44
0.0
173
     0
291
     0
 45
0.0
1001
ACAD
1000
AcDbSavedByObjectVersion
1070
     0
  0
VISUALSTYLE
  5
BAB9
102
{ACAD_XDICTIONARY
360
BB1C
102
}
102
{ACAD_REACTORS
330
BAAE
102
}
330
BAAE
100
AcDbVisualStyle
  2
Dim
 70
    11
 71
     2
 72
     2
 73
     0
 90
        0
 40
-0.6
 41
-30.0
 62
     5
 63
     7
 74
     1
 91
        4
 64
     7
 65
   257
 75
     1
175
     1
 42
1.0
 92
        8
 66
     7
 43
1.0
 76
     1
 77
     6
 78
     2
 67
     7
 79
     5
170
     0
171
     0
290
     0
174
     0
 93
        1
 44
-50.0
173
     0
291
     1
 45
0.0
1001
ACAD
1000
AcDbSavedByObjectVersion
1070
     0
  0
VISUALSTYLE
  5
BAC6
102
{ACAD_XDICTIONARY
360
BB36
102
}
102
{ACAD_REACTORS
330
BAAE
102
}
330
BAAE
100
AcDbVisualStyle
  2
EdgeColorOff
 70
    22
 71
     2
 72
     2
 73
     0
 90
        0
 40
-0.6
 41
-30.0
 62
     5
 63
     7
 74
     1
 91
        4
 64
     7
 65
   257
 75
     1
175
     1
 42
1.0
 92
        8
 66
     7
 43
1.0
 76
     1
 77
     6
 78
     2
 67
     7
 79
     5
170
     0
171
     0
290
     0
174
     0
 93
        1
 44
0.0
173
     0
291
     1
 45
0.0
1001
ACAD
1000
AcDbSavedByObjectVersion
1070
     0
  0
VISUALSTYLE
  5
BABD
102
{ACAD_XDICTIONARY
360
BB24
102
}
102
{ACAD_REACTORS
330
BAAE
102
}
330
BAAE
100
AcDbVisualStyle
  2
Facepattern
 70
    15
 71
     2
 72
     2
 73
     0
 90
        0
 40
-0.6
 41
-30.0
 62
     5
 63
     7
 74
     1
 91
        4
 64
     7
 65
   257
 75
     1
175
     1
 42
1.0
 92
        8
 66
     7
 43
1.0
 76
     1
 77
     6
 78
     2
 67
     7
 79
     5
170
     0
171
     0
290
     0
174
     0
 93
        1
 44
0.0
173
     0
291
     1
 45
0.0
1001
ACAD
1000
AcDbSavedByObjectVersion
1070
     0
  0
VISUALSTYLE
  5
BAAF
102
{ACAD_XDICTIONARY
360
BB08
102
}
102
{ACAD_REACTORS
330
BAAE
102
}
330
BAAE
100
AcDbVisualStyle
  2
Flat
 70
     0
 71
     2
 72
     1
 73
     1
 90
        2
 40
-0.6
 41
30.0
 62
     5
 63
     7
 74
     0
 91
        0
 64
     7
 65
   257
 75
     1
175
     1
 42
1.0
 92
        8
 66
     7
 43
1.0
 76
     1
 77
     6
 78
     2
 67
     7
 79
     5
170
     0
171
     0
290
     0
174
     0
 93
       13
 44
0.0
173
     0
291
     1
 45
0.0
1001
ACAD
1000
AcDbSavedByObjectVersion
1070
     0
  0
VISUALSTYLE
  5
BAB0
102
{ACAD_XDICTIONARY
360
BB0A
102
}
102
{ACAD_REACTORS
330
BAAE
102
}
330
BAAE
100
AcDbVisualStyle
  2
FlatWithEdges
 70
     1
 71
     2
 72
     1
 73
     1
 90
        2
 40
-0.6
 41
30.0
 62
     5
 63
     7
 74
     1
 91
        0
 64
     7
 65
   257
 75
     1
175
     1
 42
1.0
 92
        0
 66
   257
 43
1.0
 76
     1
 77
     6
 78
     2
 67
     7
 79
     5
170
     0
171
     0
290
     0
174
     0
 93
       13
 44
0.0
173
     0
291
     1
 45
0.0
1001
ACAD
1000
AcDbSavedByObjectVersion
1070
     0
  0
VISUALSTYLE
  5
BAB1
102
{ACAD_XDICTIONARY
360
BB0C
102
}
102
{ACAD_REACTORS
330
BAAE
102
}
330
BAAE
100
AcDbVisualStyle
  2
Gouraud
 70
     2
 71
     2
 72
     2
 73
     1
 90
        2
 40
-0.6
 41
30.0
 62
     5
 63
     7
 74
     0
 91
        0
 64
     7
 65
   257
 75
     1
175
     1
 42
1.0
 92
        0
 66
     7
 43
1.0
 76
     1
 77
     6
 78
     2
 67
     7
 79
     5
170
     0
171
     0
290
     0
174
     0
 93
       13
 44
0.0
173
     0
291
     1
 45
0.0
1001
ACAD
1000
AcDbSavedByObjectVersion
1070
     0
  0
VISUALSTYLE
  5
BAB2
102
{ACAD_XDICTIONARY
360
BB0E
102
}
102
{ACAD_REACTORS
330
BAAE
102
}
330
BAAE
100
AcDbVisualStyle
  2
GouraudWithEdges
 70
     3
 71
     2
 72
     2
 73
     1
 90
        2
 40
-0.6
 41
30.0
 62
     5
 63
     7
 74
     1
 91
        0
 64
     7
 65
   257
 75
     1
175
     1
 42
1.0
 92
        0
 66
   257
 43
1.0
 76
     1
 77
     6
 78
     2
 67
     7
 79
     5
170
     0
171
     0
290
     0
174
     0
 93
       13
 44
0.0
173
     0
291
     1
 45
0.0
1001
ACAD
1000
AcDbSavedByObjectVersion
1070
     0
  0
VISUALSTYLE
  5
BAB6
102
{ACAD_XDICTIONARY
360
BB16
102
}
102
{ACAD_REACTORS
330
BAAE
102
}
330
BAAE
100
AcDbVisualStyle
  2
Hidden
 70
     6
 71
     1
 72
     2
 73
     2
 90
        0
 40
-0.6
 41
-30.0
 62
     5
 63
     7
 74
     2
 91
        2
 64
     7
 65
   257
 75
     2
175
     1
 42
40.0
 92
        0
 66
   257
 43
1.0
 76
     1
 77
     6
 78
     2
 67
     7
 79
     3
170
     0
171
     0
290
     0
174
     0
 93
        1
 44
0.0
173
     0
291
     0
 45
0.0
1001
ACAD
1000
AcDbSavedByObjectVersion
1070
     0
  0
VISUALSTYLE
  5
BAC4
102
{ACAD_XDICTIONARY
360
BB32
102
}
102
{ACAD_REACTORS
330
BAAE
102
}
330
BAAE
100
AcDbVisualStyle
  2
JitterOff
 70
    20
 71
     2
 72
     2
 73
     0
 90
        0
 40
-0.6
 41
-30.0
 62
     5
 63
     7
 74
     1
 91
        4
 64
     7
 65
   257
 75
     1
175
     1
 42
1.0
 92
       10
 66
     7
 43
1.0
 76
     1
 77
     6
 78
     2
 67
     7
 79
     5
170
     0
171
     0
290
     0
174
     0
 93
        1
 44
0.0
173
     0
291
     1
 45
0.0
1001
ACAD
1000
AcDbSavedByObjectVersion
1070
     0
  0
VISUALSTYLE
  5
BABC
102
{ACAD_XDICTIONARY
360
BB22
102
}
102
{ACAD_REACTORS
330
BAAE
102
}
330
BAAE
100
AcDbVisualStyle
  2
Linepattern
 70
    14
 71
     2
 72
     2
 73
     0
 90
        0
 40
-0.6
 41
-30.0
 62
     5
 63
     7
 74
     1
 91
        4
 64
     7
 65
   257
 75
     7
175
     7
 42
1.0
 92
        8
 66
     7
 43
1.0
 76
     1
 77
     6
 78
     2
 67
     7
 79
     5
170
     0
171
     0
290
     0
174
     0
 93
        1
 44
0.0
173
     0
291
     1
 45
0.0
1001
ACAD
1000
AcDbSavedByObjectVersion
1070
     0
  0
VISUALSTYLE
  5
BAC5
102
{ACAD_XDICTIONARY
360
BB34
102
}
102
{ACAD_REACTORS
330
BAAE
102
}
330
BAAE
100
AcDbVisualStyle
  2
OverhangOff
 70
    21
 71
     2
 72
     2
 73
     0
 90
        0
 40
-0.6
 41
-30.0
 62
     5
 63
     7
 74
     1
 91
        4
 64
     7
 65
   257
 75
     1
175
     1
 42
1.0
 92
        9
 66
     7
 43
1.0
 76
     1
 77
     6
 78
     2
 67
     7
 79
     5
170
     0
171
     0
290
     0
174
     0
 93
        1
 44
0.0
173
     0
291
     1
 45
0.0
1001
ACAD
1000
AcDbSavedByObjectVersion
1070
     0
  0
VISUALSTYLE
  5
BAB8
102
{ACAD_XDICTIONARY
360
BB1A
102
}
102
{ACAD_REACTORS
330
BAAE
102
}
330
BAAE
100
AcDbVisualStyle
  2
Realistic
 70
     8
 71
     2
 72
     3
 73
     0
 90
        2
 40
-0.6
 41
30.0
 62
     5
 63
     7
 74
     0
 91
        0
 64
     7
 65
   257
 75
     1
175
     1
 42
1.0
 92
        8
 66
   257
 43
1.0
 76
     1
 77
     6
 78
     2
 67
     7
 79
     3
170
     0
171
     0
290
     0
174
     0
 93
       13
 44
0.0
173
     0
291
     0
 45
0.0
1001
ACAD
1000
AcDbSavedByObjectVersion
1070
     0
  0
VISUALSTYLE
  5
BAC3
102
{ACAD_XDICTIONARY
360
BB30
102
}
102
{ACAD_REACTORS
330
BAAE
102
}
330
BAAE
100
AcDbVisualStyle
  2
Shaded
 70
    27
 71
     2
 72
     2
 73
     1
 90
        2
 40
-0.6
 41
30.0
 62
     5
 63
     7
 74
     0
 91
        4
 64
     7
 65
   257
 75
     1
175
     1
 42
1.0
 92
        8
 66
   257
 43
1.0
 76
     1
 77
     6
 78
     2
 67
     8
 79
     3
170
     0
171
     0
290
     0
174
     0
 93
        5
 44
0.0
173
     0
291
     0
 45
0.0
1001
ACAD
1000
AcDbSavedByObjectVersion
1070
     0
  0
VISUALSTYLE
  5
BAC2
102
{ACAD_XDICTIONARY
360
BB2E
102
}
102
{ACAD_REACTORS
330
BAAE
102
}
330
BAAE
100
AcDbVisualStyle
  2
Shaded with edges
 70
    26
 71
     2
 72
     2
 73
     1
 90
        2
 40
-0.6
 41
30.0
 62
     5
 63
     7
 74
     1
 91
       10
 64
     7
 65
   257
 75
     2
175
     1
 42
1.0
 92
        8
 66
   257
 43
1.0
 76
     1
 77
     6
 78
     2
 67
     7
 79
     3
170
     0
171
     0
290
     0
174
     0
 93
        5
 44
0.0
173
     0
291
     0
 45
0.0
1001
ACAD
1000
AcDbSavedByObjectVersion
1070
     0
  0
VISUALSTYLE
  5
BABF
102
{ACAD_XDICTIONARY
360
BB28
102
}
102
{ACAD_REACTORS
330
BAAE
102
}
330
BAAE
100
AcDbVisualStyle
  2
Shades of Gray
 70
    23
 71
     2
 72
     2
 73
     3
 90
        0
 40
-0.6
 41
-30.0
 62
     5
 63
     7
 74
     2
 91
        2
 64
     7
 65
     7
 75
     1
175
     1
 42
40.0
 92
        8
 66
     7
 43
1.0
 76
     1
 77
     6
 78
     2
 67
     7
 79
     3
170
     0
171
     0
290
     0
174
     0
 93
        1
 44
0.0
173
     0
291
     0
 45
0.0
1001
ACAD
1000
AcDbSavedByObjectVersion
1070
     0
  0
VISUALSTYLE
  5
BAC0
102
{ACAD_XDICTIONARY
360
BB2A
102
}
102
{ACAD_REACTORS
330
BAAE
102
}
330
BAAE
100
AcDbVisualStyle
  2
Sketchy
 70
    24
 71
     1
 72
     2
 73
     2
 90
        0
 40
-0.6
 41
-30.0
 62
     5
 63
     7
 74
     2
 91
        2
 64
     7
 65
     7
 75
     1
175
     1
 42
40.0
 92
       11
 66
     7
 43
1.0
 76
     1
 77
     6
 78
     2
 67
     7
 79
     6
170
     0
171
     0
290
     0
174
     0
 93
        1
 44
0.0
173
     0
291
     0
 45
0.0
1001
ACAD
1000
AcDbSavedByObjectVersion
1070
     0
  0
VISUALSTYLE
  5
BABB
102
{ACAD_XDICTIONARY
360
BB20
102
}
102
{ACAD_REACTORS
330
BAAE
102
}
330
BAAE
100
AcDbVisualStyle
  2
Thicken
 70
    13
 71
     2
 72
     2
 73
     0
 90
        0
 40
-0.6
 41
-30.0
 62
     5
 63
     7
 74
     1
 91
        4
 64
     7
 65
   257
 75
     1
175
     1
 42
1.0
 92
       12
 66
     7
 43
1.0
 76
     1
 77
     6
 78
     2
 67
     7
 79
     5
170
     0
171
     0
290
     0
174
     0
 93
        1
 44
0.0
173
     0
291
     1
 45
0.0
1001
ACAD
1000
AcDbSavedByObjectVersion
1070
     0
  0
VISUALSTYLE
  5
BAB5
102
{ACAD_XDICTIONARY
360
BB14
102
}
102
{ACAD_REACTORS
330
BAAE
102
}
330
BAAE
100
AcDbVisualStyle
  2
Wireframe
 70
     5
 71
     0
 72
     2
 73
     0
 90
        0
 40
-0.6
 41
-30.0
 62
     5
 63
     7
 74
     1
 91
        4
 64
     7
 65
   257
 75
     1
175
     1
 42
1.0
 92
        0
 66
   257
 43
1.0
 76
     1
 77
     6
 78
     2
 67
     7
 79
     3
170
     0
171
     0
290
     0
174
     0
 93
        1
 44
0.0
173
     0
291
     0
 45
0.0
1001
ACAD
1000
AcDbSavedByObjectVersion
1070
     0
  0
VISUALSTYLE
  5
BAC1
102
{ACAD_XDICTIONARY
360
BB2C
102
}
102
{ACAD_REACTORS
330
BAAE
102
}
330
BAAE
100
AcDbVisualStyle
  2
X-Ray
 70
    25
 71
     2
 72
     2
 73
     1
 90
        1
 40
0.5
 41
-30.0
 62
     5
 63
     7
 74
     1
 91
        0
 64
     7
 65
   257
 75
     1
175
     1
 42
1.0
 92
        8
 66
     7
 43
1.0
 76
     1
 77
     6
 78
     2
 67
     7
 79
     3
170
     0
171
     0
290
     0
174
     0
 93
       13
 44
0.0
173
     0
291
     0
 45
0.0
1001
ACAD
1000
AcDbSavedByObjectVersion
1070
     0
  0
DICTIONARYVAR
  5
BAFB
102
{ACAD_REACTORS
330
BAF6
102
}
330
BAF6
100
DictionaryVariables
280
     0
  1
1:1
  0
DICTIONARYVAR
  5
BAF8
102
{ACAD_REACTORS
330
BAF6
102
}
330
BAF6
100
DictionaryVariables
280
     0
  1
STANDARD
  0
DICTIONARYVAR
  5
BAF7
102
{ACAD_REACTORS
330
BAF6
102
}
330
BAF6
100
DictionaryVariables
280
     0
  1
STANDARD
  0
DICTIONARYVAR
  5
BAF9
102
{ACAD_REACTORS
330
BAF6
102
}
330
BAF6
100
DictionaryVariables
280
     0
  1
Imperial24
  0
DICTIONARYVAR
  5
BAFA
102
{ACAD_REACTORS
330
BAF6
102
}
330
BAF6
100
DictionaryVariables
280
     0
  1
Imperial24
  0
DICTIONARYVAR
  5
BAFE
102
{ACAD_REACTORS
330
BAF6
102
}
330
BAF6
100
DictionaryVariables
280
     0
  1
1
  0
DICTIONARYVAR
  5
BAFD
102
{ACAD_REACTORS
330
BAF6
102
}
330
BAF6
100
DictionaryVariables
280
     0
  1
0
  0
DICTIONARYVAR
  5
BAFC
102
{ACAD_REACTORS
330
BAF6
102
}
330
BAF6
100
DictionaryVariables
280
     0
  1
127
  0
DICTIONARYVAR
  5
BAFF
102
{ACAD_REACTORS
330
BAF6
102
}
330
BAF6
100
DictionaryVariables
280
     0
  1
2
  0
DICTIONARY
  5
BB3C
330
BAE1
100
AcDbDictionary
280
     1
281
     1
  3
ACAD_XREC_ROUNDTRIP
360
BB3D
  0
DICTIONARY
  5
BB3E
330
BAE2
100
AcDbDictionary
280
     1
281
     1
  3
ACAD_XREC_ROUNDTRIP
360
BB3F
  0
DICTIONARY
  5
BB40
330
BAE3
100
AcDbDictionary
280
     1
281
     1
  3
ACAD_XREC_ROUNDTRIP
360
BB41
  0
DICTIONARY
  5
BA9F
330
BA9E
100
AcDbDictionary
280
     1
281
     1
  3
ACAD_XREC_ROUNDTRIP
360
BB06
  3
BUMPTILE
360
BAA1
  3
DIFFUSETILE
360
BAA0
  3
OPACITYTILE
360
BAA4
  3
REFLECTIONTILE
360
BAA3
  3
REFRACTIONTILE
360
BAA5
  3
SPECULARTILE
360
BAA2
  0
DICTIONARY
  5
BA97
330
BA96
100
AcDbDictionary
280
     1
281
     1
  3
ACAD_XREC_ROUNDTRIP
360
BB05
  3
BUMPTILE
360
BA99
  3
DIFFUSETILE
360
BA98
  3
OPACITYTILE
360
BA9C
  3
REFLECTIONTILE
360
BA9B
  3
REFRACTIONTILE
360
BA9D
  3
SPECULARTILE
360
BA9A
  0
DICTIONARY
  5
BAA7
330
BAA6
100
AcDbDictionary
280
     1
281
     1
  3
ACAD_XREC_ROUNDTRIP
360
BB07
  3
BUMPTILE
360
BAA9
  3
DIFFUSETILE
360
BAA8
  3
OPACITYTILE
360
BAAC
  3
REFLECTIONTILE
360
BAAB
  3
REFRACTIONTILE
360
BAAD
  3
SPECULARTILE
360
BAAA
  0
DICTIONARY
  5
BB3A
330
BADF
100
AcDbDictionary
280
     1
281
     1
  3
ACAD_XREC_ROUNDTRIP
360
BB3B
  0
DICTIONARY
  5
BB01
330
BAC9
100
AcDbDictionary
280
     1
281
     1
  3
ACAD_ROUNDTRIP_2008_TABLESTYLE_CELLSTYLEMAP
360
BB02
  3
ACAD_XREC_ROUNDTRIP
360
BB38
  0
DICTIONARY
  5
BB12
330
BAB4
100
AcDbDictionary
280
     1
281
     1
  3
ACAD_XREC_ROUNDTRIP
360
BB13
  0
DICTIONARY
  5
BB10
330
BAB3
100
AcDbDictionary
280
     1
281
     1
  3
ACAD_XREC_ROUNDTRIP
360
BB11
  0
DICTIONARY
  5
BB1E
330
BABA
100
AcDbDictionary
280
     1
281
     1
  3
ACAD_XREC_ROUNDTRIP
360
BB1F
  0
DICTIONARY
  5
BB26
330
BABE
100
AcDbDictionary
280
     1
281
     1
  3
ACAD_XREC_ROUNDTRIP
360
BB27
  0
DICTIONARY
  5
BB18
330
BAB7
100
AcDbDictionary
280
     1
281
     1
  3
ACAD_XREC_ROUNDTRIP
360
BB19
  0
DICTIONARY
  5
BB1C
330
BAB9
100
AcDbDictionary
280
     1
281
     1
  3
ACAD_XREC_ROUNDTRIP
360
BB1D
  0
DICTIONARY
  5
BB36
330
BAC6
100
AcDbDictionary
280
     1
281
     1
  3
ACAD_XREC_ROUNDTRIP
360
BB37
  0
DICTIONARY
  5
BB24
330
BABD
100
AcDbDictionary
280
     1
281
     1
  3
ACAD_XREC_ROUNDTRIP
360
BB25
  0
DICTIONARY
  5
BB08
330
BAAF
100
AcDbDictionary
280
     1
281
     1
  3
ACAD_XREC_ROUNDTRIP
360
BB09
  0
DICTIONARY
  5
BB0A
330
BAB0
100
AcDbDictionary
280
     1
281
     1
  3
ACAD_XREC_ROUNDTRIP
360
BB0B
  0
DICTIONARY
  5
BB0C
330
BAB1
100
AcDbDictionary
280
     1
281
     1
  3
ACAD_XREC_ROUNDTRIP
360
BB0D
  0
DICTIONARY
  5
BB0E
330
BAB2
100
AcDbDictionary
280
     1
281
     1
  3
ACAD_XREC_ROUNDTRIP
360
BB0F
  0
DICTIONARY
  5
BB16
330
BAB6
100
AcDbDictionary
280
     1
281
     1
  3
ACAD_XREC_ROUNDTRIP
360
BB17
  0
DICTIONARY
  5
BB32
330
BAC4
100
AcDbDictionary
280
     1
281
     1
  3
ACAD_XREC_ROUNDTRIP
360
BB33
  0
DICTIONARY
  5
BB22
330
BABC
100
AcDbDictionary
280
     1
281
     1
  3
ACAD_XREC_ROUNDTRIP
360
BB23
  0
DICTIONARY
  5
BB34
330
BAC5
100
AcDbDictionary
280
     1
281
     1
  3
ACAD_XREC_ROUNDTRIP
360
BB35
  0
DICTIONARY
  5
BB1A
330
BAB8
100
AcDbDictionary
280
     1
281
     1
  3
ACAD_XREC_ROUNDTRIP
360
BB1B
  0
DICTIONARY
  5
BB30
330
BAC3
100
AcDbDictionary
280
     1
281
     1
  3
ACAD_XREC_ROUNDTRIP
360
BB31
  0
DICTIONARY
  5
BB2E
330
BAC2
100
AcDbDictionary
280
     1
281
     1
  3
ACAD_XREC_ROUNDTRIP
360
BB2F
  0
DICTIONARY
  5
BB28
330
BABF
100
AcDbDictionary
280
     1
281
     1
  3
ACAD_XREC_ROUNDTRIP
360
BB29
  0
DICTIONARY
  5
BB2A
330
BAC0
100
AcDbDictionary
280
     1
281
     1
  3
ACAD_XREC_ROUNDTRIP
360
BB2B
  0
DICTIONARY
  5
BB20
330
BABB
100
AcDbDictionary
280
     1
281
     1
  3
ACAD_XREC_ROUNDTRIP
360
BB21
  0
DICTIONARY
  5
BB14
330
BAB5
100
AcDbDictionary
280
     1
281
     1
  3
ACAD_XREC_ROUNDTRIP
360
BB15
  0
DICTIONARY
  5
BB2C
330
BAC1
100
AcDbDictionary
280
     1
281
     1
  3
ACAD_XREC_ROUNDTRIP
360
BB2D
  0
XRECORD
  5
BB3D
102
{ACAD_REACTORS
330
BB3C
102
}
330
BB3C
100
AcDbXrecord
280
     1
102
DISPLAYNAME
  1
Imperial24
102
FLAGS
 90
        0
  0
XRECORD
  5
BB3F
102
{ACAD_REACTORS
330
BB3E
102
}
330
BB3E
100
AcDbXrecord
280
     1
102
SHADEPLOT
 70
     0
102
SHADEPLOTRESLEVEL
 70
     2
102
SHADEPLOTCUSTOMDPI
 70
   300
  0
XRECORD
  5
BB41
102
{ACAD_REACTORS
330
BB40
102
}
330
BB40
100
AcDbXrecord
280
     1
102
SHADEPLOT
 70
     0
102
SHADEPLOTRESLEVEL
 70
     2
102
SHADEPLOTCUSTOMDPI
 70
   300
  0
XRECORD
  5
BB06
102
{ACAD_REACTORS
330
BA9F
102
}
330
BA9F
100
AcDbXrecord
280
     1
102
MATERIAL
148
0.0
149
0.0
149
0.0
 93
        0
 94
      127
282
     0
 72
     0
 77
     0
171
     0
175
     0
179
     0
273
     0
  0
XRECORD
  5
BAA1
102
{ACAD_REACTORS
330
BA9F
102
}
330
BA9F
100
AcDbXrecord
280
     1
270
     1
271
     1
  0
XRECORD
  5
BAA0
102
{ACAD_REACTORS
330
BA9F
102
}
330
BA9F
100
AcDbXrecord
280
     1
270
     1
271
     1
  0
XRECORD
  5
BAA4
102
{ACAD_REACTORS
330
BA9F
102
}
330
BA9F
100
AcDbXrecord
280
     1
270
     1
271
     1
  0
XRECORD
  5
BAA3
102
{ACAD_REACTORS
330
BA9F
102
}
330
BA9F
100
AcDbXrecord
280
     1
270
     1
271
     1
  0
XRECORD
  5
BAA5
102
{ACAD_REACTORS
330
BA9F
102
}
330
BA9F
100
AcDbXrecord
280
     1
270
     1
271
     1
  0
XRECORD
  5
BAA2
102
{ACAD_REACTORS
330
BA9F
102
}
330
BA9F
100
AcDbXrecord
280
     1
270
     1
271
     1
  0
XRECORD
  5
BB05
102
{ACAD_REACTORS
330
BA97
102
}
330
BA97
100
AcDbXrecord
280
     1
102
MATERIAL
148
0.0
149
0.0
149
0.0
 93
        0
 94
      127
282
     0
 72
     0
 77
     0
171
     0
175
     0
179
     0
273
     0
  0
XRECORD
  5
BA99
102
{ACAD_REACTORS
330
BA97
102
}
330
BA97
100
AcDbXrecord
280
     1
270
     1
271
     1
  0
XRECORD
  5
BA98
102
{ACAD_REACTORS
330
BA97
102
}
330
BA97
100
AcDbXrecord
280
     1
270
     1
271
     1
  0
XRECORD
  5
BA9C
102
{ACAD_REACTORS
330
BA97
102
}
330
BA97
100
AcDbXrecord
280
     1
270
     1
271
     1
  0
XRECORD
  5
BA9B
102
{ACAD_REACTORS
330
BA97
102
}
330
BA97
100
AcDbXrecord
280
     1
270
     1
271
     1
  0
XRECORD
  5
BA9D
102
{ACAD_REACTORS
330
BA97
102
}
330
BA97
100
AcDbXrecord
280
     1
270
     1
271
     1
  0
XRECORD
  5
BA9A
102
{ACAD_REACTORS
330
BA97
102
}
330
BA97
100
AcDbXrecord
280
     1
270
     1
271
     1
  0
XRECORD
  5
BB07
102
{ACAD_REACTORS
330
BAA7
102
}
330
BAA7
100
AcDbXrecord
280
     1
102
MATERIAL
148
0.0
149
0.0
149
0.0
 93
        0
 94
      127
282
     0
 72
     0
 77
     0
171
     0
175
     0
179
     0
273
     0
  0
XRECORD
  5
BAA9
102
{ACAD_REACTORS
330
BAA7
102
}
330
BAA7
100
AcDbXrecord
280
     1
270
     1
271
     1
  0
XRECORD
  5
BAA8
102
{ACAD_REACTORS
330
BAA7
102
}
330
BAA7
100
AcDbXrecord
280
     1
270
     1
271
     1
  0
XRECORD
  5
BAAC
102
{ACAD_REACTORS
330
BAA7
102
}
330
BAA7
100
AcDbXrecord
280
     1
270
     1
271
     1
  0
XRECORD
  5
BAAB
102
{ACAD_REACTORS
330
BAA7
102
}
330
BAA7
100
AcDbXrecord
280
     1
270
     1
271
     1
  0
XRECORD
  5
BAAD
102
{ACAD_REACTORS
330
BAA7
102
}
330
BAA7
100
AcDbXrecord
280
     1
270
     1
271
     1
  0
XRECORD
  5
BAAA
102
{ACAD_REACTORS
330
BAA7
102
}
330
BAA7
100
AcDbXrecord
280
     1
270
     1
271
     1
  0
XRECORD
  5
BB3B
102
{ACAD_REACTORS
330
BB3A
102
}
330
BB3A
100
AcDbXrecord
280
     1
102
DISPLAYNAME
  1
Imperial24
102
FLAGS
 90
        0
  0
CELLSTYLEMAP
  5
BB02
102
{ACAD_REACTORS
330
BB01
102
}
330
BB01
100
AcDbCellStyleMap
 90
        3
300
CELLSTYLE
  1
TABLEFORMAT_BEGIN
 90
        5
170
     1
 91
        0
 92
    32768
 62
   257
 93
        1
300
CONTENTFORMAT
  1
CONTENTFORMAT_BEGIN
 90
        0
 91
        0
 92
      512
 93
        0
300

 40
0.0
140
1.0
 94
        5
 62
     0
340
B899
144
0.25
309
CONTENTFORMAT_END
171
     0
 94
        0
309
TABLEFORMAT_END
  1
CELLSTYLE_BEGIN
 90
        1
 91
        1
300
_TITLE
309
CELLSTYLE_END
300
CELLSTYLE
  1
TABLEFORMAT_BEGIN
 90
        5
170
     1
 91
        0
 92
        0
 62
   257
 93
        1
300
CONTENTFORMAT
  1
CONTENTFORMAT_BEGIN
 90
        0
 91
        0
 92
      512
 93
        0
300

 40
0.0
140
1.0
 94
        5
 62
     0
340
B899
144
0.18
309
CONTENTFORMAT_END
171
     0
 94
        0
309
TABLEFORMAT_END
  1
CELLSTYLE_BEGIN
 90
        2
 91
        1
300
_HEADER
309
CELLSTYLE_END
300
CELLSTYLE
  1
TABLEFORMAT_BEGIN
 90
        5
170
     1
 91
        0
 92
        0
 62
   257
 93
        1
300
CONTENTFORMAT
  1
CONTENTFORMAT_BEGIN
 90
        0
 91
        0
 92
      512
 93
        0
300

 40
0.0
140
1.0
 94
        2
 62
     0
340
B899
144
0.18
309
CONTENTFORMAT_END
171
     0
 94
        0
309
TABLEFORMAT_END
  1
CELLSTYLE_BEGIN
 90
        3
 91
        2
300
_DATA
309
CELLSTYLE_END
  0
XRECORD
  5
BB38
102
{ACAD_REACTORS
330
BB01
102
}
330
BB01
100
AcDbXrecord
280
     1
102
ACAD_ROUNDTRIP_PRE2007_TABLESTYLE
 90
      512
 91
        0
  1

 92
      512
 93
        0
  2

 94
      512
 95
        0
  3

  0
XRECORD
  5
BB13
102
{ACAD_REACTORS
330
BB12
102
}
330
BB12
100
AcDbXrecord
280
     1
102
RTVSPost2010Prop28
280
     1
102
RTVSPost2010PropOp28
 70
     1
102
RTVSPost2010Prop29
280
     1
102
RTVSPost2010PropOp29
 70
     1
102
RTVSPost2010Prop30
280
     0
102
RTVSPost2010PropOp30
 70
     1
102
RTVSPost2010Prop31
280
     0
102
RTVSPost2010PropOp31
 70
     1
102
RTVSPost2010Prop32
280
     0
102
RTVSPost2010PropOp32
 70
     1
102
RTVSPost2010Prop33
280
     0
102
RTVSPost2010PropOp33
 70
     1
102
RTVSPost2010Prop34
280
     0
102
RTVSPost2010PropOp34
 70
     1
102
RTVSPost2010Prop35
280
     0
102
RTVSPost2010PropOp35
 70
     1
102
RTVSPost2010Prop36
280
     0
102
RTVSPost2010PropOp36
 70
     1
102
RTVSPost2010Prop37
 90
       50
102
RTVSPost2010PropOp37
 70
     1
102
RTVSPost2010Prop38
140
0.0
102
RTVSPost2010PropOp38
 70
     1
102
RTVSPost2010Prop39
140
1.0
102
RTVSPost2010PropOp39
 70
     1
102
RTVSPost2010Prop40
 90
        0
102
RTVSPost2010PropOp40
 70
     1
102
RTVSPost2010Prop41ColorIndex
 90
       18
102
RTVSPost2010Prop41ColorRGB
 90
        0
102
RTVSPost2010PropOp41
 70
     1
102
RTVSPost2010Prop42
 90
       50
102
RTVSPost2010PropOp42
 70
     1
102
RTVSPost2010Prop43
 90
        3
102
RTVSPost2010PropOp43
 70
     1
102
RTVSPost2010Prop44ColorIndex
 90
        5
102
RTVSPost2010Prop44ColorRGB
 90
      255
102
RTVSPost2010PropOp44
 70
     1
102
RTVSPost2010Prop45
280
     0
102
RTVSPost2010PropOp45
 70
     1
102
RTVSPost2010Prop46
 90
       50
102
RTVSPost2010PropOp46
 70
     1
102
RTVSPost2010Prop47
 90
       50
102
RTVSPost2010PropOp47
 70
     1
102
RTVSPost2010Prop48
 90
       50
102
RTVSPost2010PropOp48
 70
     1
102
RTVSPost2010Prop49
280
     0
102
RTVSPost2010PropOp49
 70
     1
102
RTVSPost2010Prop50
 90
       50
102
RTVSPost2010PropOp50
 70
     1
102
RTVSPost2010Prop51ColorIndex
 90
      256
102
RTVSPost2010Prop51ColorRGB
 90
-16777216
102
RTVSPost2010PropOp51
 70
     0
102
RTVSPost2010Prop52
140
1.0
102
RTVSPost2010PropOp52
 70
     0
102
RTVSPost2010Prop53
 90
        2
102
RTVSPost2010PropOp53
 70
     1
102
RTVSPost2010Prop54
  1
strokes_ogs.tif
102
RTVSPost2010PropOp54
 70
     1
102
RTVSPost2010Prop55
280
     0
102
RTVSPost2010PropOp55
 70
     1
102
RTVSPost2010Prop56
140
1.0
102
RTVSPost2010PropOp56
 70
     1
102
RTVSPost2010Prop57
140
1.0
102
RTVSPost2010PropOp57
 70
     1
102
RTVSPropertyOp0
 70
     1
102
RTVSPropertyOp1
 70
     1
102
RTVSPropertyOp2
 70
     1
102
RTVSPropertyOp3
 70
     1
102
RTVSPropertyOp4
 70
     1
102
RTVSPropertyOp5
 70
     1
102
RTVSPropertyOp6
 70
     1
102
RTVSPropertyOp7
 70
     1
102
RTVSPropertyOp8
 70
     1
102
RTVSPropertyOp9
 70
     1
102
RTVSPropertyOp10
 70
     1
102
RTVSPropertyOp11
 70
     1
102
RTVSPropertyOp12
 70
     1
102
RTVSPropertyOp13
 70
     1
102
RTVSPropertyOp14
 70
     1
102
RTVSPropertyOp15
 70
     1
102
RTVSPropertyOp16
 70
     1
102
RTVSPropertyOp17
 70
     1
102
RTVSPropertyOp18
 70
     1
102
RTVSPropertyOp19
 70
     1
102
RTVSPropertyOp20
 70
     1
102
RTVSPropertyOp21
 70
     1
102
RTVSPropertyOp22
 70
     1
102
RTVSPropertyOp23
 70
     1
102
RTVSPropertyOp24
 70
     1
102
RTVSPropertyOp25
 70
     1
102
RTVSPropertyOp26
 70
     1
102
RTVSPropertyOp27
 70
     1
102
RTVSPropertyOp28
 70
     1
102
RTVSPropertyOp29
 70
     1
102
RTVSPropertyOp30
 70
     1
102
RTVSPropertyOp31
 70
     1
102
RTVSPropertyOp32
 70
     1
102
RTVSPropertyOp33
 70
     1
102
RTVSPropertyOp34
 70
     1
102
RTVSPropertyOp35
 70
     1
102
RTVSPropertyOp36
 70
     1
102
RTVSPropertyOp37
 70
     1
102
RTVSPropertyOp38
 70
     1
102
RTVSPropertyOp39
 70
     1
102
RTVSPropertyOp40
 70
     1
102
RTVSPropertyOp41
 70
     1
102
RTVSPropertyOp42
 70
     1
102
RTVSPropertyOp43
 70
     1
102
RTVSPropertyOp44
 70
     1
102
RTVSPropertyOp45
 70
     1
102
RTVSPropertyOp46
 70
     1
102
RTVSPropertyOp47
 70
     1
102
RTVSPropertyOp48
 70
     1
102
RTVSPropertyOp49
 70
     1
102
RTVSPropertyOp50
 70
     1
102
RTVSPropertyOp51
 70
     0
102
RTVSPropertyOp52
 70
     0
102
RTVSPropertyOp53
 70
     1
102
RTVSPropertyOp54
 70
     1
102
RTVSPropertyOp55
 70
     1
102
RTVSPropertyOp56
 70
     1
102
RTVSPropertyOp57
 70
     1
102
RTVSPropertyOp58
 70
     1
102
RTVSPropertyOp59
 70
     1
102
RTVSPropertyOp60
 70
     1
102
RTVSPropertyOp61
 70
     1
102
RTVSPropertyOp62
 70
     1
  0
XRECORD
  5
BB11
102
{ACAD_REACTORS
330
BB10
102
}
330
BB10
100
AcDbXrecord
280
     1
102
RTVSPost2010Prop28
280
     0
102
RTVSPost2010PropOp28
 70
     1
102
RTVSPost2010Prop29
280
     1
102
RTVSPost2010PropOp29
 70
     1
102
RTVSPost2010Prop30
280
     1
102
RTVSPost2010PropOp30
 70
     1
102
RTVSPost2010Prop31
280
     0
102
RTVSPost2010PropOp31
 70
     1
102
RTVSPost2010Prop32
280
     0
102
RTVSPost2010PropOp32
 70
     1
102
RTVSPost2010Prop33
280
     0
102
RTVSPost2010PropOp33
 70
     1
102
RTVSPost2010Prop34
280
     0
102
RTVSPost2010PropOp34
 70
     1
102
RTVSPost2010Prop35
280
     0
102
RTVSPost2010PropOp35
 70
     1
102
RTVSPost2010Prop36
280
     0
102
RTVSPost2010PropOp36
 70
     1
102
RTVSPost2010Prop37
 90
       50
102
RTVSPost2010PropOp37
 70
     1
102
RTVSPost2010Prop38
140
0.0
102
RTVSPost2010PropOp38
 70
     1
102
RTVSPost2010Prop39
140
1.0
102
RTVSPost2010PropOp39
 70
     1
102
RTVSPost2010Prop40
 90
        0
102
RTVSPost2010PropOp40
 70
     1
102
RTVSPost2010Prop41ColorIndex
 90
       18
102
RTVSPost2010Prop41ColorRGB
 90
        0
102
RTVSPost2010PropOp41
 70
     1
102
RTVSPost2010Prop42
 90
       50
102
RTVSPost2010PropOp42
 70
     1
102
RTVSPost2010Prop43
 90
        3
102
RTVSPost2010PropOp43
 70
     1
102
RTVSPost2010Prop44ColorIndex
 90
        5
102
RTVSPost2010Prop44ColorRGB
 90
      255
102
RTVSPost2010PropOp44
 70
     1
102
RTVSPost2010Prop45
280
     0
102
RTVSPost2010PropOp45
 70
     1
102
RTVSPost2010Prop46
 90
       50
102
RTVSPost2010PropOp46
 70
     1
102
RTVSPost2010Prop47
 90
       50
102
RTVSPost2010PropOp47
 70
     1
102
RTVSPost2010Prop48
 90
       50
102
RTVSPost2010PropOp48
 70
     1
102
RTVSPost2010Prop49
280
     0
102
RTVSPost2010PropOp49
 70
     1
102
RTVSPost2010Prop50
 90
       50
102
RTVSPost2010PropOp50
 70
     1
102
RTVSPost2010Prop51ColorIndex
 90
      256
102
RTVSPost2010Prop51ColorRGB
 90
-16777216
102
RTVSPost2010PropOp51
 70
     0
102
RTVSPost2010Prop52
140
1.0
102
RTVSPost2010PropOp52
 70
     0
102
RTVSPost2010Prop53
 90
        2
102
RTVSPost2010PropOp53
 70
     1
102
RTVSPost2010Prop54
  1
strokes_ogs.tif
102
RTVSPost2010PropOp54
 70
     1
102
RTVSPost2010Prop55
280
     0
102
RTVSPost2010PropOp55
 70
     1
102
RTVSPost2010Prop56
140
1.0
102
RTVSPost2010PropOp56
 70
     1
102
RTVSPost2010Prop57
140
1.0
102
RTVSPost2010PropOp57
 70
     1
102
RTVSPropertyOp0
 70
     1
102
RTVSPropertyOp1
 70
     1
102
RTVSPropertyOp2
 70
     1
102
RTVSPropertyOp3
 70
     1
102
RTVSPropertyOp4
 70
     1
102
RTVSPropertyOp5
 70
     1
102
RTVSPropertyOp6
 70
     1
102
RTVSPropertyOp7
 70
     1
102
RTVSPropertyOp8
 70
     1
102
RTVSPropertyOp9
 70
     1
102
RTVSPropertyOp10
 70
     1
102
RTVSPropertyOp11
 70
     1
102
RTVSPropertyOp12
 70
     1
102
RTVSPropertyOp13
 70
     1
102
RTVSPropertyOp14
 70
     1
102
RTVSPropertyOp15
 70
     1
102
RTVSPropertyOp16
 70
     1
102
RTVSPropertyOp17
 70
     1
102
RTVSPropertyOp18
 70
     1
102
RTVSPropertyOp19
 70
     1
102
RTVSPropertyOp20
 70
     1
102
RTVSPropertyOp21
 70
     1
102
RTVSPropertyOp22
 70
     1
102
RTVSPropertyOp23
 70
     1
102
RTVSPropertyOp24
 70
     1
102
RTVSPropertyOp25
 70
     1
102
RTVSPropertyOp26
 70
     1
102
RTVSPropertyOp27
 70
     1
102
RTVSPropertyOp28
 70
     1
102
RTVSPropertyOp29
 70
     1
102
RTVSPropertyOp30
 70
     1
102
RTVSPropertyOp31
 70
     1
102
RTVSPropertyOp32
 70
     1
102
RTVSPropertyOp33
 70
     1
102
RTVSPropertyOp34
 70
     1
102
RTVSPropertyOp35
 70
     1
102
RTVSPropertyOp36
 70
     1
102
RTVSPropertyOp37
 70
     1
102
RTVSPropertyOp38
 70
     1
102
RTVSPropertyOp39
 70
     1
102
RTVSPropertyOp40
 70
     1
102
RTVSPropertyOp41
 70
     1
102
RTVSPropertyOp42
 70
     1
102
RTVSPropertyOp43
 70
     1
102
RTVSPropertyOp44
 70
     1
102
RTVSPropertyOp45
 70
     1
102
RTVSPropertyOp46
 70
     1
102
RTVSPropertyOp47
 70
     1
102
RTVSPropertyOp48
 70
     1
102
RTVSPropertyOp49
 70
     1
102
RTVSPropertyOp50
 70
     1
102
RTVSPropertyOp51
 70
     0
102
RTVSPropertyOp52
 70
     0
102
RTVSPropertyOp53
 70
     1
102
RTVSPropertyOp54
 70
     1
102
RTVSPropertyOp55
 70
     1
102
RTVSPropertyOp56
 70
     1
102
RTVSPropertyOp57
 70
     1
102
RTVSPropertyOp58
 70
     1
102
RTVSPropertyOp59
 70
     1
102
RTVSPropertyOp60
 70
     1
102
RTVSPropertyOp61
 70
     1
102
RTVSPropertyOp62
 70
     1
  0
XRECORD
  5
BB1F
102
{ACAD_REACTORS
330
BB1E
102
}
330
BB1E
100
AcDbXrecord
280
     1
102
RTVSPost2010Prop28
280
     0
102
RTVSPost2010PropOp28
 70
     1
102
RTVSPost2010Prop29
280
     1
102
RTVSPost2010PropOp29
 70
     1
102
RTVSPost2010Prop30
280
     1
102
RTVSPost2010PropOp30
 70
     1
102
RTVSPost2010Prop31
280
     0
102
RTVSPost2010PropOp31
 70
     1
102
RTVSPost2010Prop32
280
     0
102
RTVSPost2010PropOp32
 70
     1
102
RTVSPost2010Prop33
280
     0
102
RTVSPost2010PropOp33
 70
     1
102
RTVSPost2010Prop34
280
     0
102
RTVSPost2010PropOp34
 70
     1
102
RTVSPost2010Prop35
280
     0
102
RTVSPost2010PropOp35
 70
     1
102
RTVSPost2010Prop36
280
     0
102
RTVSPost2010PropOp36
 70
     1
102
RTVSPost2010Prop37
 90
       50
102
RTVSPost2010PropOp37
 70
     1
102
RTVSPost2010Prop38
140
0.0
102
RTVSPost2010PropOp38
 70
     1
102
RTVSPost2010Prop39
140
1.0
102
RTVSPost2010PropOp39
 70
     1
102
RTVSPost2010Prop40
 90
        0
102
RTVSPost2010PropOp40
 70
     1
102
RTVSPost2010Prop41ColorIndex
 90
       18
102
RTVSPost2010Prop41ColorRGB
 90
        0
102
RTVSPost2010PropOp41
 70
     1
102
RTVSPost2010Prop42
 90
       50
102
RTVSPost2010PropOp42
 70
     1
102
RTVSPost2010Prop43
 90
        3
102
RTVSPost2010PropOp43
 70
     1
102
RTVSPost2010Prop44ColorIndex
 90
        5
102
RTVSPost2010Prop44ColorRGB
 90
      255
102
RTVSPost2010PropOp44
 70
     1
102
RTVSPost2010Prop45
280
     0
102
RTVSPost2010PropOp45
 70
     1
102
RTVSPost2010Prop46
 90
       50
102
RTVSPost2010PropOp46
 70
     1
102
RTVSPost2010Prop47
 90
       50
102
RTVSPost2010PropOp47
 70
     1
102
RTVSPost2010Prop48
 90
       50
102
RTVSPost2010PropOp48
 70
     1
102
RTVSPost2010Prop49
280
     0
102
RTVSPost2010PropOp49
 70
     1
102
RTVSPost2010Prop50
 90
       50
102
RTVSPost2010PropOp50
 70
     1
102
RTVSPost2010Prop51ColorIndex
 90
      256
102
RTVSPost2010Prop51ColorRGB
 90
-16777216
102
RTVSPost2010PropOp51
 70
     0
102
RTVSPost2010Prop52
140
1.0
102
RTVSPost2010PropOp52
 70
     0
102
RTVSPost2010Prop53
 90
        2
102
RTVSPost2010PropOp53
 70
     1
102
RTVSPost2010Prop54
  1
strokes_ogs.tif
102
RTVSPost2010PropOp54
 70
     1
102
RTVSPost2010Prop55
280
     0
102
RTVSPost2010PropOp55
 70
     1
102
RTVSPost2010Prop56
140
1.0
102
RTVSPost2010PropOp56
 70
     1
102
RTVSPost2010Prop57
140
1.0
102
RTVSPost2010PropOp57
 70
     1
102
RTVSPropertyOp0
 70
     1
102
RTVSPropertyOp1
 70
     1
102
RTVSPropertyOp2
 70
     1
102
RTVSPropertyOp3
 70
     1
102
RTVSPropertyOp4
 70
     1
102
RTVSPropertyOp5
 70
     1
102
RTVSPropertyOp6
 70
     1
102
RTVSPropertyOp7
 70
     1
102
RTVSPropertyOp8
 70
     1
102
RTVSPropertyOp9
 70
     1
102
RTVSPropertyOp10
 70
     1
102
RTVSPropertyOp11
 70
     1
102
RTVSPropertyOp12
 70
     1
102
RTVSPropertyOp13
 70
     1
102
RTVSPropertyOp14
 70
     1
102
RTVSPropertyOp15
 70
     1
102
RTVSPropertyOp16
 70
     1
102
RTVSPropertyOp17
 70
     1
102
RTVSPropertyOp18
 70
     1
102
RTVSPropertyOp19
 70
     1
102
RTVSPropertyOp20
 70
     1
102
RTVSPropertyOp21
 70
     1
102
RTVSPropertyOp22
 70
     1
102
RTVSPropertyOp23
 70
     1
102
RTVSPropertyOp24
 70
     1
102
RTVSPropertyOp25
 70
     1
102
RTVSPropertyOp26
 70
     1
102
RTVSPropertyOp27
 70
     1
102
RTVSPropertyOp28
 70
     1
102
RTVSPropertyOp29
 70
     1
102
RTVSPropertyOp30
 70
     1
102
RTVSPropertyOp31
 70
     1
102
RTVSPropertyOp32
 70
     1
102
RTVSPropertyOp33
 70
     1
102
RTVSPropertyOp34
 70
     1
102
RTVSPropertyOp35
 70
     1
102
RTVSPropertyOp36
 70
     1
102
RTVSPropertyOp37
 70
     1
102
RTVSPropertyOp38
 70
     1
102
RTVSPropertyOp39
 70
     1
102
RTVSPropertyOp40
 70
     1
102
RTVSPropertyOp41
 70
     1
102
RTVSPropertyOp42
 70
     1
102
RTVSPropertyOp43
 70
     1
102
RTVSPropertyOp44
 70
     1
102
RTVSPropertyOp45
 70
     1
102
RTVSPropertyOp46
 70
     1
102
RTVSPropertyOp47
 70
     1
102
RTVSPropertyOp48
 70
     1
102
RTVSPropertyOp49
 70
     1
102
RTVSPropertyOp50
 70
     1
102
RTVSPropertyOp51
 70
     0
102
RTVSPropertyOp52
 70
     0
102
RTVSPropertyOp53
 70
     1
102
RTVSPropertyOp54
 70
     1
102
RTVSPropertyOp55
 70
     1
102
RTVSPropertyOp56
 70
     1
102
RTVSPropertyOp57
 70
     1
102
RTVSPropertyOp58
 70
     1
102
RTVSPropertyOp59
 70
     1
102
RTVSPropertyOp60
 70
     1
102
RTVSPropertyOp61
 70
     1
102
RTVSPropertyOp62
 70
     1
  0
XRECORD
  5
BB27
102
{ACAD_REACTORS
330
BB26
102
}
330
BB26
100
AcDbXrecord
280
     1
102
RTVSPost2010Prop28
280
     0
102
RTVSPost2010PropOp28
 70
     1
102
RTVSPost2010Prop29
280
     1
102
RTVSPost2010PropOp29
 70
     1
102
RTVSPost2010Prop30
280
     1
102
RTVSPost2010PropOp30
 70
     1
102
RTVSPost2010Prop31
280
     0
102
RTVSPost2010PropOp31
 70
     1
102
RTVSPost2010Prop32
280
     0
102
RTVSPost2010PropOp32
 70
     1
102
RTVSPost2010Prop33
280
     0
102
RTVSPost2010PropOp33
 70
     1
102
RTVSPost2010Prop34
280
     0
102
RTVSPost2010PropOp34
 70
     1
102
RTVSPost2010Prop35
280
     0
102
RTVSPost2010PropOp35
 70
     1
102
RTVSPost2010Prop36
280
     0
102
RTVSPost2010PropOp36
 70
     1
102
RTVSPost2010Prop37
 90
       50
102
RTVSPost2010PropOp37
 70
     1
102
RTVSPost2010Prop38
140
0.0
102
RTVSPost2010PropOp38
 70
     1
102
RTVSPost2010Prop39
140
1.0
102
RTVSPost2010PropOp39
 70
     1
102
RTVSPost2010Prop40
 90
        0
102
RTVSPost2010PropOp40
 70
     1
102
RTVSPost2010Prop41ColorIndex
 90
       18
102
RTVSPost2010Prop41ColorRGB
 90
        0
102
RTVSPost2010PropOp41
 70
     1
102
RTVSPost2010Prop42
 90
       50
102
RTVSPost2010PropOp42
 70
     1
102
RTVSPost2010Prop43
 90
        3
102
RTVSPost2010PropOp43
 70
     1
102
RTVSPost2010Prop44ColorIndex
 90
        5
102
RTVSPost2010Prop44ColorRGB
 90
      255
102
RTVSPost2010PropOp44
 70
     1
102
RTVSPost2010Prop45
280
     0
102
RTVSPost2010PropOp45
 70
     1
102
RTVSPost2010Prop46
 90
       50
102
RTVSPost2010PropOp46
 70
     1
102
RTVSPost2010Prop47
 90
       50
102
RTVSPost2010PropOp47
 70
     1
102
RTVSPost2010Prop48
 90
       50
102
RTVSPost2010PropOp48
 70
     1
102
RTVSPost2010Prop49
280
     0
102
RTVSPost2010PropOp49
 70
     1
102
RTVSPost2010Prop50
 90
       50
102
RTVSPost2010PropOp50
 70
     1
102
RTVSPost2010Prop51ColorIndex
 90
      256
102
RTVSPost2010Prop51ColorRGB
 90
-16777216
102
RTVSPost2010PropOp51
 70
     0
102
RTVSPost2010Prop52
140
1.0
102
RTVSPost2010PropOp52
 70
     0
102
RTVSPost2010Prop53
 90
        2
102
RTVSPost2010PropOp53
 70
     1
102
RTVSPost2010Prop54
  1
strokes_ogs.tif
102
RTVSPost2010PropOp54
 70
     1
102
RTVSPost2010Prop55
280
     0
102
RTVSPost2010PropOp55
 70
     1
102
RTVSPost2010Prop56
140
1.0
102
RTVSPost2010PropOp56
 70
     1
102
RTVSPost2010Prop57
140
1.0
102
RTVSPost2010PropOp57
 70
     1
102
RTVSPropertyOp0
 70
     1
102
RTVSPropertyOp1
 70
     1
102
RTVSPropertyOp2
 70
     1
102
RTVSPropertyOp3
 70
     1
102
RTVSPropertyOp4
 70
     1
102
RTVSPropertyOp5
 70
     1
102
RTVSPropertyOp6
 70
     1
102
RTVSPropertyOp7
 70
     1
102
RTVSPropertyOp8
 70
     1
102
RTVSPropertyOp9
 70
     1
102
RTVSPropertyOp10
 70
     1
102
RTVSPropertyOp11
 70
     1
102
RTVSPropertyOp12
 70
     1
102
RTVSPropertyOp13
 70
     1
102
RTVSPropertyOp14
 70
     1
102
RTVSPropertyOp15
 70
     1
102
RTVSPropertyOp16
 70
     1
102
RTVSPropertyOp17
 70
     1
102
RTVSPropertyOp18
 70
     1
102
RTVSPropertyOp19
 70
     1
102
RTVSPropertyOp20
 70
     1
102
RTVSPropertyOp21
 70
     1
102
RTVSPropertyOp22
 70
     1
102
RTVSPropertyOp23
 70
     1
102
RTVSPropertyOp24
 70
     1
102
RTVSPropertyOp25
 70
     1
102
RTVSPropertyOp26
 70
     1
102
RTVSPropertyOp27
 70
     1
102
RTVSPropertyOp28
 70
     1
102
RTVSPropertyOp29
 70
     1
102
RTVSPropertyOp30
 70
     1
102
RTVSPropertyOp31
 70
     1
102
RTVSPropertyOp32
 70
     1
102
RTVSPropertyOp33
 70
     1
102
RTVSPropertyOp34
 70
     1
102
RTVSPropertyOp35
 70
     1
102
RTVSPropertyOp36
 70
     1
102
RTVSPropertyOp37
 70
     1
102
RTVSPropertyOp38
 70
     1
102
RTVSPropertyOp39
 70
     1
102
RTVSPropertyOp40
 70
     1
102
RTVSPropertyOp41
 70
     1
102
RTVSPropertyOp42
 70
     1
102
RTVSPropertyOp43
 70
     1
102
RTVSPropertyOp44
 70
     1
102
RTVSPropertyOp45
 70
     1
102
RTVSPropertyOp46
 70
     1
102
RTVSPropertyOp47
 70
     1
102
RTVSPropertyOp48
 70
     1
102
RTVSPropertyOp49
 70
     1
102
RTVSPropertyOp50
 70
     1
102
RTVSPropertyOp51
 70
     0
102
RTVSPropertyOp52
 70
     0
102
RTVSPropertyOp53
 70
     1
102
RTVSPropertyOp54
 70
     1
102
RTVSPropertyOp55
 70
     1
102
RTVSPropertyOp56
 70
     1
102
RTVSPropertyOp57
 70
     1
102
RTVSPropertyOp58
 70
     1
102
RTVSPropertyOp59
 70
     1
102
RTVSPropertyOp60
 70
     1
102
RTVSPropertyOp61
 70
     1
102
RTVSPropertyOp62
 70
     1
  0
XRECORD
  5
BB19
102
{ACAD_REACTORS
330
BB18
102
}
330
BB18
100
AcDbXrecord
280
     1
102
RTVSPost2010Prop28
280
     0
102
RTVSPost2010PropOp28
 70
     1
102
RTVSPost2010Prop29
280
     1
102
RTVSPost2010PropOp29
 70
     1
102
RTVSPost2010Prop30
280
     1
102
RTVSPost2010PropOp30
 70
     1
102
RTVSPost2010Prop31
280
     0
102
RTVSPost2010PropOp31
 70
     1
102
RTVSPost2010Prop32
280
     0
102
RTVSPost2010PropOp32
 70
     1
102
RTVSPost2010Prop33
280
     0
102
RTVSPost2010PropOp33
 70
     1
102
RTVSPost2010Prop34
280
     0
102
RTVSPost2010PropOp34
 70
     1
102
RTVSPost2010Prop35
280
     0
102
RTVSPost2010PropOp35
 70
     1
102
RTVSPost2010Prop36
280
     0
102
RTVSPost2010PropOp36
 70
     1
102
RTVSPost2010Prop37
 90
       50
102
RTVSPost2010PropOp37
 70
     1
102
RTVSPost2010Prop38
140
0.0
102
RTVSPost2010PropOp38
 70
     1
102
RTVSPost2010Prop39
140
1.0
102
RTVSPost2010PropOp39
 70
     1
102
RTVSPost2010Prop40
 90
        0
102
RTVSPost2010PropOp40
 70
     1
102
RTVSPost2010Prop41ColorIndex
 90
       18
102
RTVSPost2010Prop41ColorRGB
 90
        0
102
RTVSPost2010PropOp41
 70
     1
102
RTVSPost2010Prop42
 90
       50
102
RTVSPost2010PropOp42
 70
     1
102
RTVSPost2010Prop43
 90
        3
102
RTVSPost2010PropOp43
 70
     1
102
RTVSPost2010Prop44ColorIndex
 90
        5
102
RTVSPost2010Prop44ColorRGB
 90
      255
102
RTVSPost2010PropOp44
 70
     1
102
RTVSPost2010Prop45
280
     0
102
RTVSPost2010PropOp45
 70
     1
102
RTVSPost2010Prop46
 90
       50
102
RTVSPost2010PropOp46
 70
     1
102
RTVSPost2010Prop47
 90
       50
102
RTVSPost2010PropOp47
 70
     1
102
RTVSPost2010Prop48
 90
       50
102
RTVSPost2010PropOp48
 70
     1
102
RTVSPost2010Prop49
280
     0
102
RTVSPost2010PropOp49
 70
     1
102
RTVSPost2010Prop50
 90
       50
102
RTVSPost2010PropOp50
 70
     1
102
RTVSPost2010Prop51ColorIndex
 90
      256
102
RTVSPost2010Prop51ColorRGB
 90
-16777216
102
RTVSPost2010PropOp51
 70
     0
102
RTVSPost2010Prop52
140
1.0
102
RTVSPost2010PropOp52
 70
     0
102
RTVSPost2010Prop53
 90
        2
102
RTVSPost2010PropOp53
 70
     1
102
RTVSPost2010Prop54
  1
strokes_ogs.tif
102
RTVSPost2010PropOp54
 70
     1
102
RTVSPost2010Prop55
280
     0
102
RTVSPost2010PropOp55
 70
     1
102
RTVSPost2010Prop56
140
1.0
102
RTVSPost2010PropOp56
 70
     1
102
RTVSPost2010Prop57
140
1.0
102
RTVSPost2010PropOp57
 70
     1
102
RTVSPropertyOp0
 70
     1
102
RTVSPropertyOp1
 70
     1
102
RTVSPropertyOp2
 70
     1
102
RTVSPropertyOp3
 70
     1
102
RTVSPropertyOp4
 70
     1
102
RTVSPropertyOp5
 70
     1
102
RTVSPropertyOp6
 70
     1
102
RTVSPropertyOp7
 70
     1
102
RTVSPropertyOp8
 70
     1
102
RTVSPropertyOp9
 70
     1
102
RTVSPropertyOp10
 70
     1
102
RTVSPropertyOp11
 70
     1
102
RTVSPropertyOp12
 70
     1
102
RTVSPropertyOp13
 70
     1
102
RTVSPropertyOp14
 70
     1
102
RTVSPropertyOp15
 70
     1
102
RTVSPropertyOp16
 70
     1
102
RTVSPropertyOp17
 70
     1
102
RTVSPropertyOp18
 70
     1
102
RTVSPropertyOp19
 70
     1
102
RTVSPropertyOp20
 70
     1
102
RTVSPropertyOp21
 70
     1
102
RTVSPropertyOp22
 70
     1
102
RTVSPropertyOp23
 70
     1
102
RTVSPropertyOp24
 70
     1
102
RTVSPropertyOp25
 70
     1
102
RTVSPropertyOp26
 70
     1
102
RTVSPropertyOp27
 70
     1
102
RTVSPropertyOp28
 70
     1
102
RTVSPropertyOp29
 70
     1
102
RTVSPropertyOp30
 70
     1
102
RTVSPropertyOp31
 70
     1
102
RTVSPropertyOp32
 70
     1
102
RTVSPropertyOp33
 70
     1
102
RTVSPropertyOp34
 70
     1
102
RTVSPropertyOp35
 70
     1
102
RTVSPropertyOp36
 70
     1
102
RTVSPropertyOp37
 70
     1
102
RTVSPropertyOp38
 70
     1
102
RTVSPropertyOp39
 70
     1
102
RTVSPropertyOp40
 70
     1
102
RTVSPropertyOp41
 70
     1
102
RTVSPropertyOp42
 70
     1
102
RTVSPropertyOp43
 70
     1
102
RTVSPropertyOp44
 70
     1
102
RTVSPropertyOp45
 70
     1
102
RTVSPropertyOp46
 70
     1
102
RTVSPropertyOp47
 70
     1
102
RTVSPropertyOp48
 70
     1
102
RTVSPropertyOp49
 70
     1
102
RTVSPropertyOp50
 70
     1
102
RTVSPropertyOp51
 70
     0
102
RTVSPropertyOp52
 70
     0
102
RTVSPropertyOp53
 70
     1
102
RTVSPropertyOp54
 70
     1
102
RTVSPropertyOp55
 70
     1
102
RTVSPropertyOp56
 70
     1
102
RTVSPropertyOp57
 70
     1
102
RTVSPropertyOp58
 70
     1
102
RTVSPropertyOp59
 70
     1
102
RTVSPropertyOp60
 70
     1
102
RTVSPropertyOp61
 70
     1
102
RTVSPropertyOp62
 70
     1
  0
XRECORD
  5
BB1D
102
{ACAD_REACTORS
330
BB1C
102
}
330
BB1C
100
AcDbXrecord
280
     1
102
RTVSPost2010Prop28
280
     0
102
RTVSPost2010PropOp28
 70
     1
102
RTVSPost2010Prop29
280
     1
102
RTVSPost2010PropOp29
 70
     1
102
RTVSPost2010Prop30
280
     1
102
RTVSPost2010PropOp30
 70
     1
102
RTVSPost2010Prop31
280
     0
102
RTVSPost2010PropOp31
 70
     1
102
RTVSPost2010Prop32
280
     0
102
RTVSPost2010PropOp32
 70
     1
102
RTVSPost2010Prop33
280
     0
102
RTVSPost2010PropOp33
 70
     1
102
RTVSPost2010Prop34
280
     0
102
RTVSPost2010PropOp34
 70
     1
102
RTVSPost2010Prop35
280
     0
102
RTVSPost2010PropOp35
 70
     1
102
RTVSPost2010Prop36
280
     0
102
RTVSPost2010PropOp36
 70
     1
102
RTVSPost2010Prop37
 90
       50
102
RTVSPost2010PropOp37
 70
     1
102
RTVSPost2010Prop38
140
0.0
102
RTVSPost2010PropOp38
 70
     1
102
RTVSPost2010Prop39
140
1.0
102
RTVSPost2010PropOp39
 70
     1
102
RTVSPost2010Prop40
 90
        0
102
RTVSPost2010PropOp40
 70
     1
102
RTVSPost2010Prop41ColorIndex
 90
       18
102
RTVSPost2010Prop41ColorRGB
 90
        0
102
RTVSPost2010PropOp41
 70
     1
102
RTVSPost2010Prop42
 90
       50
102
RTVSPost2010PropOp42
 70
     1
102
RTVSPost2010Prop43
 90
        3
102
RTVSPost2010PropOp43
 70
     1
102
RTVSPost2010Prop44ColorIndex
 90
        5
102
RTVSPost2010Prop44ColorRGB
 90
      255
102
RTVSPost2010PropOp44
 70
     1
102
RTVSPost2010Prop45
280
     0
102
RTVSPost2010PropOp45
 70
     1
102
RTVSPost2010Prop46
 90
       50
102
RTVSPost2010PropOp46
 70
     1
102
RTVSPost2010Prop47
 90
       50
102
RTVSPost2010PropOp47
 70
     1
102
RTVSPost2010Prop48
 90
       50
102
RTVSPost2010PropOp48
 70
     1
102
RTVSPost2010Prop49
280
     0
102
RTVSPost2010PropOp49
 70
     1
102
RTVSPost2010Prop50
 90
       50
102
RTVSPost2010PropOp50
 70
     1
102
RTVSPost2010Prop51ColorIndex
 90
      256
102
RTVSPost2010Prop51ColorRGB
 90
-16777216
102
RTVSPost2010PropOp51
 70
     0
102
RTVSPost2010Prop52
140
1.0
102
RTVSPost2010PropOp52
 70
     0
102
RTVSPost2010Prop53
 90
        2
102
RTVSPost2010PropOp53
 70
     1
102
RTVSPost2010Prop54
  1
strokes_ogs.tif
102
RTVSPost2010PropOp54
 70
     1
102
RTVSPost2010Prop55
280
     0
102
RTVSPost2010PropOp55
 70
     1
102
RTVSPost2010Prop56
140
1.0
102
RTVSPost2010PropOp56
 70
     1
102
RTVSPost2010Prop57
140
1.0
102
RTVSPost2010PropOp57
 70
     1
102
RTVSPropertyOp0
 70
     1
102
RTVSPropertyOp1
 70
     1
102
RTVSPropertyOp2
 70
     1
102
RTVSPropertyOp3
 70
     1
102
RTVSPropertyOp4
 70
     1
102
RTVSPropertyOp5
 70
     1
102
RTVSPropertyOp6
 70
     1
102
RTVSPropertyOp7
 70
     1
102
RTVSPropertyOp8
 70
     1
102
RTVSPropertyOp9
 70
     1
102
RTVSPropertyOp10
 70
     1
102
RTVSPropertyOp11
 70
     1
102
RTVSPropertyOp12
 70
     1
102
RTVSPropertyOp13
 70
     1
102
RTVSPropertyOp14
 70
     1
102
RTVSPropertyOp15
 70
     1
102
RTVSPropertyOp16
 70
     1
102
RTVSPropertyOp17
 70
     1
102
RTVSPropertyOp18
 70
     1
102
RTVSPropertyOp19
 70
     1
102
RTVSPropertyOp20
 70
     1
102
RTVSPropertyOp21
 70
     1
102
RTVSPropertyOp22
 70
     1
102
RTVSPropertyOp23
 70
     1
102
RTVSPropertyOp24
 70
     1
102
RTVSPropertyOp25
 70
     1
102
RTVSPropertyOp26
 70
     1
102
RTVSPropertyOp27
 70
     1
102
RTVSPropertyOp28
 70
     1
102
RTVSPropertyOp29
 70
     1
102
RTVSPropertyOp30
 70
     1
102
RTVSPropertyOp31
 70
     1
102
RTVSPropertyOp32
 70
     1
102
RTVSPropertyOp33
 70
     1
102
RTVSPropertyOp34
 70
     1
102
RTVSPropertyOp35
 70
     1
102
RTVSPropertyOp36
 70
     1
102
RTVSPropertyOp37
 70
     1
102
RTVSPropertyOp38
 70
     1
102
RTVSPropertyOp39
 70
     1
102
RTVSPropertyOp40
 70
     1
102
RTVSPropertyOp41
 70
     1
102
RTVSPropertyOp42
 70
     1
102
RTVSPropertyOp43
 70
     1
102
RTVSPropertyOp44
 70
     1
102
RTVSPropertyOp45
 70
     1
102
RTVSPropertyOp46
 70
     1
102
RTVSPropertyOp47
 70
     1
102
RTVSPropertyOp48
 70
     1
102
RTVSPropertyOp49
 70
     1
102
RTVSPropertyOp50
 70
     1
102
RTVSPropertyOp51
 70
     0
102
RTVSPropertyOp52
 70
     0
102
RTVSPropertyOp53
 70
     1
102
RTVSPropertyOp54
 70
     1
102
RTVSPropertyOp55
 70
     1
102
RTVSPropertyOp56
 70
     1
102
RTVSPropertyOp57
 70
     1
102
RTVSPropertyOp58
 70
     1
102
RTVSPropertyOp59
 70
     1
102
RTVSPropertyOp60
 70
     1
102
RTVSPropertyOp61
 70
     1
102
RTVSPropertyOp62
 70
     1
  0
XRECORD
  5
BB37
102
{ACAD_REACTORS
330
BB36
102
}
330
BB36
100
AcDbXrecord
280
     1
102
RTVSPost2010Prop28
280
     0
102
RTVSPost2010PropOp28
 70
     1
102
RTVSPost2010Prop29
280
     1
102
RTVSPost2010PropOp29
 70
     1
102
RTVSPost2010Prop30
280
     1
102
RTVSPost2010PropOp30
 70
     1
102
RTVSPost2010Prop31
280
     0
102
RTVSPost2010PropOp31
 70
     1
102
RTVSPost2010Prop32
280
     0
102
RTVSPost2010PropOp32
 70
     1
102
RTVSPost2010Prop33
280
     0
102
RTVSPost2010PropOp33
 70
     1
102
RTVSPost2010Prop34
280
     0
102
RTVSPost2010PropOp34
 70
     1
102
RTVSPost2010Prop35
280
     0
102
RTVSPost2010PropOp35
 70
     1
102
RTVSPost2010Prop36
280
     0
102
RTVSPost2010PropOp36
 70
     1
102
RTVSPost2010Prop37
 90
       50
102
RTVSPost2010PropOp37
 70
     0
102
RTVSPost2010Prop38
140
0.0
102
RTVSPost2010PropOp38
 70
     0
102
RTVSPost2010Prop39
140
1.0
102
RTVSPost2010PropOp39
 70
     0
102
RTVSPost2010Prop40
 90
        0
102
RTVSPost2010PropOp40
 70
     0
102
RTVSPost2010Prop41ColorIndex
 90
       18
102
RTVSPost2010Prop41ColorRGB
 90
        0
102
RTVSPost2010PropOp41
 70
     0
102
RTVSPost2010Prop42
 90
       50
102
RTVSPost2010PropOp42
 70
     0
102
RTVSPost2010Prop43
 90
        3
102
RTVSPost2010PropOp43
 70
     0
102
RTVSPost2010Prop44ColorIndex
 90
        5
102
RTVSPost2010Prop44ColorRGB
 90
      255
102
RTVSPost2010PropOp44
 70
     0
102
RTVSPost2010Prop45
280
     0
102
RTVSPost2010PropOp45
 70
     1
102
RTVSPost2010Prop46
 90
       50
102
RTVSPost2010PropOp46
 70
     0
102
RTVSPost2010Prop47
 90
       50
102
RTVSPost2010PropOp47
 70
     0
102
RTVSPost2010Prop48
 90
       50
102
RTVSPost2010PropOp48
 70
     0
102
RTVSPost2010Prop49
280
     0
102
RTVSPost2010PropOp49
 70
     1
102
RTVSPost2010Prop50
 90
       50
102
RTVSPost2010PropOp50
 70
     0
102
RTVSPost2010Prop51ColorIndex
 90
      256
102
RTVSPost2010Prop51ColorRGB
 90
-16777216
102
RTVSPost2010PropOp51
 70
     0
102
RTVSPost2010Prop52
140
1.0
102
RTVSPost2010PropOp52
 70
     0
102
RTVSPost2010Prop53
 90
        2
102
RTVSPost2010PropOp53
 70
     0
102
RTVSPost2010Prop54
  1
strokes_ogs.tif
102
RTVSPost2010PropOp54
 70
     0
102
RTVSPost2010Prop55
280
     0
102
RTVSPost2010PropOp55
 70
     1
102
RTVSPost2010Prop56
140
1.0
102
RTVSPost2010PropOp56
 70
     0
102
RTVSPost2010Prop57
140
1.0
102
RTVSPost2010PropOp57
 70
     0
102
RTVSPropertyOp0
 70
     0
102
RTVSPropertyOp1
 70
     0
102
RTVSPropertyOp2
 70
     0
102
RTVSPropertyOp3
 70
     0
102
RTVSPropertyOp4
 70
     0
102
RTVSPropertyOp5
 70
     0
102
RTVSPropertyOp6
 70
     0
102
RTVSPropertyOp7
 70
     0
102
RTVSPropertyOp8
 70
     0
102
RTVSPropertyOp9
 70
     0
102
RTVSPropertyOp10
 70
     0
102
RTVSPropertyOp11
 70
     0
102
RTVSPropertyOp12
 70
     0
102
RTVSPropertyOp13
 70
     0
102
RTVSPropertyOp14
 70
     2
102
RTVSPropertyOp15
 70
     0
102
RTVSPropertyOp16
 70
     0
102
RTVSPropertyOp17
 70
     0
102
RTVSPropertyOp18
 70
     0
102
RTVSPropertyOp19
 70
     0
102
RTVSPropertyOp20
 70
     0
102
RTVSPropertyOp21
 70
     0
102
RTVSPropertyOp22
 70
     0
102
RTVSPropertyOp23
 70
     0
102
RTVSPropertyOp24
 70
     0
102
RTVSPropertyOp25
 70
     0
102
RTVSPropertyOp26
 70
     0
102
RTVSPropertyOp27
 70
     0
102
RTVSPropertyOp28
 70
     1
102
RTVSPropertyOp29
 70
     1
102
RTVSPropertyOp30
 70
     1
102
RTVSPropertyOp31
 70
     1
102
RTVSPropertyOp32
 70
     1
102
RTVSPropertyOp33
 70
     1
102
RTVSPropertyOp34
 70
     1
102
RTVSPropertyOp35
 70
     1
102
RTVSPropertyOp36
 70
     1
102
RTVSPropertyOp37
 70
     0
102
RTVSPropertyOp38
 70
     0
102
RTVSPropertyOp39
 70
     0
102
RTVSPropertyOp40
 70
     0
102
RTVSPropertyOp41
 70
     0
102
RTVSPropertyOp42
 70
     0
102
RTVSPropertyOp43
 70
     0
102
RTVSPropertyOp44
 70
     0
102
RTVSPropertyOp45
 70
     1
102
RTVSPropertyOp46
 70
     0
102
RTVSPropertyOp47
 70
     0
102
RTVSPropertyOp48
 70
     0
102
RTVSPropertyOp49
 70
     1
102
RTVSPropertyOp50
 70
     0
102
RTVSPropertyOp51
 70
     0
102
RTVSPropertyOp52
 70
     0
102
RTVSPropertyOp53
 70
     0
102
RTVSPropertyOp54
 70
     0
102
RTVSPropertyOp55
 70
     1
102
RTVSPropertyOp56
 70
     0
102
RTVSPropertyOp57
 70
     0
102
RTVSPropertyOp58
 70
     0
102
RTVSPropertyOp59
 70
     0
102
RTVSPropertyOp60
 70
     0
102
RTVSPropertyOp61
 70
     0
102
RTVSPropertyOp62
 70
     0
  0
XRECORD
  5
BB25
102
{ACAD_REACTORS
330
BB24
102
}
330
BB24
100
AcDbXrecord
280
     1
102
RTVSPost2010Prop28
280
     0
102
RTVSPost2010PropOp28
 70
     1
102
RTVSPost2010Prop29
280
     1
102
RTVSPost2010PropOp29
 70
     1
102
RTVSPost2010Prop30
280
     1
102
RTVSPost2010PropOp30
 70
     1
102
RTVSPost2010Prop31
280
     0
102
RTVSPost2010PropOp31
 70
     1
102
RTVSPost2010Prop32
280
     0
102
RTVSPost2010PropOp32
 70
     1
102
RTVSPost2010Prop33
280
     0
102
RTVSPost2010PropOp33
 70
     1
102
RTVSPost2010Prop34
280
     0
102
RTVSPost2010PropOp34
 70
     1
102
RTVSPost2010Prop35
280
     0
102
RTVSPost2010PropOp35
 70
     1
102
RTVSPost2010Prop36
280
     0
102
RTVSPost2010PropOp36
 70
     1
102
RTVSPost2010Prop37
 90
       50
102
RTVSPost2010PropOp37
 70
     1
102
RTVSPost2010Prop38
140
0.0
102
RTVSPost2010PropOp38
 70
     1
102
RTVSPost2010Prop39
140
1.0
102
RTVSPost2010PropOp39
 70
     1
102
RTVSPost2010Prop40
 90
        0
102
RTVSPost2010PropOp40
 70
     1
102
RTVSPost2010Prop41ColorIndex
 90
       18
102
RTVSPost2010Prop41ColorRGB
 90
        0
102
RTVSPost2010PropOp41
 70
     1
102
RTVSPost2010Prop42
 90
       50
102
RTVSPost2010PropOp42
 70
     1
102
RTVSPost2010Prop43
 90
        3
102
RTVSPost2010PropOp43
 70
     1
102
RTVSPost2010Prop44ColorIndex
 90
        5
102
RTVSPost2010Prop44ColorRGB
 90
      255
102
RTVSPost2010PropOp44
 70
     1
102
RTVSPost2010Prop45
280
     0
102
RTVSPost2010PropOp45
 70
     1
102
RTVSPost2010Prop46
 90
       50
102
RTVSPost2010PropOp46
 70
     1
102
RTVSPost2010Prop47
 90
       50
102
RTVSPost2010PropOp47
 70
     1
102
RTVSPost2010Prop48
 90
       50
102
RTVSPost2010PropOp48
 70
     1
102
RTVSPost2010Prop49
280
     0
102
RTVSPost2010PropOp49
 70
     1
102
RTVSPost2010Prop50
 90
       50
102
RTVSPost2010PropOp50
 70
     1
102
RTVSPost2010Prop51ColorIndex
 90
      256
102
RTVSPost2010Prop51ColorRGB
 90
-16777216
102
RTVSPost2010PropOp51
 70
     0
102
RTVSPost2010Prop52
140
1.0
102
RTVSPost2010PropOp52
 70
     0
102
RTVSPost2010Prop53
 90
        2
102
RTVSPost2010PropOp53
 70
     1
102
RTVSPost2010Prop54
  1
strokes_ogs.tif
102
RTVSPost2010PropOp54
 70
     1
102
RTVSPost2010Prop55
280
     0
102
RTVSPost2010PropOp55
 70
     1
102
RTVSPost2010Prop56
140
1.0
102
RTVSPost2010PropOp56
 70
     1
102
RTVSPost2010Prop57
140
1.0
102
RTVSPost2010PropOp57
 70
     1
102
RTVSPropertyOp0
 70
     1
102
RTVSPropertyOp1
 70
     1
102
RTVSPropertyOp2
 70
     1
102
RTVSPropertyOp3
 70
     1
102
RTVSPropertyOp4
 70
     1
102
RTVSPropertyOp5
 70
     1
102
RTVSPropertyOp6
 70
     1
102
RTVSPropertyOp7
 70
     1
102
RTVSPropertyOp8
 70
     1
102
RTVSPropertyOp9
 70
     1
102
RTVSPropertyOp10
 70
     1
102
RTVSPropertyOp11
 70
     1
102
RTVSPropertyOp12
 70
     1
102
RTVSPropertyOp13
 70
     1
102
RTVSPropertyOp14
 70
     1
102
RTVSPropertyOp15
 70
     1
102
RTVSPropertyOp16
 70
     1
102
RTVSPropertyOp17
 70
     1
102
RTVSPropertyOp18
 70
     1
102
RTVSPropertyOp19
 70
     1
102
RTVSPropertyOp20
 70
     1
102
RTVSPropertyOp21
 70
     1
102
RTVSPropertyOp22
 70
     1
102
RTVSPropertyOp23
 70
     1
102
RTVSPropertyOp24
 70
     1
102
RTVSPropertyOp25
 70
     1
102
RTVSPropertyOp26
 70
     1
102
RTVSPropertyOp27
 70
     1
102
RTVSPropertyOp28
 70
     1
102
RTVSPropertyOp29
 70
     1
102
RTVSPropertyOp30
 70
     1
102
RTVSPropertyOp31
 70
     1
102
RTVSPropertyOp32
 70
     1
102
RTVSPropertyOp33
 70
     1
102
RTVSPropertyOp34
 70
     1
102
RTVSPropertyOp35
 70
     1
102
RTVSPropertyOp36
 70
     1
102
RTVSPropertyOp37
 70
     1
102
RTVSPropertyOp38
 70
     1
102
RTVSPropertyOp39
 70
     1
102
RTVSPropertyOp40
 70
     1
102
RTVSPropertyOp41
 70
     1
102
RTVSPropertyOp42
 70
     1
102
RTVSPropertyOp43
 70
     1
102
RTVSPropertyOp44
 70
     1
102
RTVSPropertyOp45
 70
     1
102
RTVSPropertyOp46
 70
     1
102
RTVSPropertyOp47
 70
     1
102
RTVSPropertyOp48
 70
     1
102
RTVSPropertyOp49
 70
     1
102
RTVSPropertyOp50
 70
     1
102
RTVSPropertyOp51
 70
     0
102
RTVSPropertyOp52
 70
     0
102
RTVSPropertyOp53
 70
     1
102
RTVSPropertyOp54
 70
     1
102
RTVSPropertyOp55
 70
     1
102
RTVSPropertyOp56
 70
     1
102
RTVSPropertyOp57
 70
     1
102
RTVSPropertyOp58
 70
     1
102
RTVSPropertyOp59
 70
     1
102
RTVSPropertyOp60
 70
     1
102
RTVSPropertyOp61
 70
     1
102
RTVSPropertyOp62
 70
     1
  0
XRECORD
  5
BB09
102
{ACAD_REACTORS
330
BB08
102
}
330
BB08
100
AcDbXrecord
280
     1
102
RTVSPost2010Prop28
280
     0
102
RTVSPost2010PropOp28
 70
     1
102
RTVSPost2010Prop29
280
     1
102
RTVSPost2010PropOp29
 70
     1
102
RTVSPost2010Prop30
280
     1
102
RTVSPost2010PropOp30
 70
     1
102
RTVSPost2010Prop31
280
     0
102
RTVSPost2010PropOp31
 70
     1
102
RTVSPost2010Prop32
280
     0
102
RTVSPost2010PropOp32
 70
     1
102
RTVSPost2010Prop33
280
     0
102
RTVSPost2010PropOp33
 70
     1
102
RTVSPost2010Prop34
280
     0
102
RTVSPost2010PropOp34
 70
     1
102
RTVSPost2010Prop35
280
     0
102
RTVSPost2010PropOp35
 70
     1
102
RTVSPost2010Prop36
280
     0
102
RTVSPost2010PropOp36
 70
     1
102
RTVSPost2010Prop37
 90
       50
102
RTVSPost2010PropOp37
 70
     1
102
RTVSPost2010Prop38
140
0.0
102
RTVSPost2010PropOp38
 70
     1
102
RTVSPost2010Prop39
140
1.0
102
RTVSPost2010PropOp39
 70
     1
102
RTVSPost2010Prop40
 90
        0
102
RTVSPost2010PropOp40
 70
     1
102
RTVSPost2010Prop41ColorIndex
 90
       18
102
RTVSPost2010Prop41ColorRGB
 90
        0
102
RTVSPost2010PropOp41
 70
     1
102
RTVSPost2010Prop42
 90
       50
102
RTVSPost2010PropOp42
 70
     1
102
RTVSPost2010Prop43
 90
        3
102
RTVSPost2010PropOp43
 70
     1
102
RTVSPost2010Prop44ColorIndex
 90
        5
102
RTVSPost2010Prop44ColorRGB
 90
      255
102
RTVSPost2010PropOp44
 70
     1
102
RTVSPost2010Prop45
280
     0
102
RTVSPost2010PropOp45
 70
     1
102
RTVSPost2010Prop46
 90
       50
102
RTVSPost2010PropOp46
 70
     1
102
RTVSPost2010Prop47
 90
       50
102
RTVSPost2010PropOp47
 70
     1
102
RTVSPost2010Prop48
 90
       50
102
RTVSPost2010PropOp48
 70
     1
102
RTVSPost2010Prop49
280
     0
102
RTVSPost2010PropOp49
 70
     1
102
RTVSPost2010Prop50
 90
       50
102
RTVSPost2010PropOp50
 70
     1
102
RTVSPost2010Prop51ColorIndex
 90
      256
102
RTVSPost2010Prop51ColorRGB
 90
-16777216
102
RTVSPost2010PropOp51
 70
     0
102
RTVSPost2010Prop52
140
1.0
102
RTVSPost2010PropOp52
 70
     0
102
RTVSPost2010Prop53
 90
        2
102
RTVSPost2010PropOp53
 70
     1
102
RTVSPost2010Prop54
  1
strokes_ogs.tif
102
RTVSPost2010PropOp54
 70
     1
102
RTVSPost2010Prop55
280
     0
102
RTVSPost2010PropOp55
 70
     1
102
RTVSPost2010Prop56
140
1.0
102
RTVSPost2010PropOp56
 70
     1
102
RTVSPost2010Prop57
140
1.0
102
RTVSPost2010PropOp57
 70
     1
102
RTVSPropertyOp0
 70
     1
102
RTVSPropertyOp1
 70
     1
102
RTVSPropertyOp2
 70
     1
102
RTVSPropertyOp3
 70
     1
102
RTVSPropertyOp4
 70
     1
102
RTVSPropertyOp5
 70
     1
102
RTVSPropertyOp6
 70
     1
102
RTVSPropertyOp7
 70
     1
102
RTVSPropertyOp8
 70
     1
102
RTVSPropertyOp9
 70
     1
102
RTVSPropertyOp10
 70
     1
102
RTVSPropertyOp11
 70
     1
102
RTVSPropertyOp12
 70
     1
102
RTVSPropertyOp13
 70
     1
102
RTVSPropertyOp14
 70
     1
102
RTVSPropertyOp15
 70
     1
102
RTVSPropertyOp16
 70
     1
102
RTVSPropertyOp17
 70
     1
102
RTVSPropertyOp18
 70
     1
102
RTVSPropertyOp19
 70
     1
102
RTVSPropertyOp20
 70
     1
102
RTVSPropertyOp21
 70
     1
102
RTVSPropertyOp22
 70
     1
102
RTVSPropertyOp23
 70
     1
102
RTVSPropertyOp24
 70
     1
102
RTVSPropertyOp25
 70
     1
102
RTVSPropertyOp26
 70
     1
102
RTVSPropertyOp27
 70
     1
102
RTVSPropertyOp28
 70
     1
102
RTVSPropertyOp29
 70
     1
102
RTVSPropertyOp30
 70
     1
102
RTVSPropertyOp31
 70
     1
102
RTVSPropertyOp32
 70
     1
102
RTVSPropertyOp33
 70
     1
102
RTVSPropertyOp34
 70
     1
102
RTVSPropertyOp35
 70
     1
102
RTVSPropertyOp36
 70
     1
102
RTVSPropertyOp37
 70
     1
102
RTVSPropertyOp38
 70
     1
102
RTVSPropertyOp39
 70
     1
102
RTVSPropertyOp40
 70
     1
102
RTVSPropertyOp41
 70
     1
102
RTVSPropertyOp42
 70
     1
102
RTVSPropertyOp43
 70
     1
102
RTVSPropertyOp44
 70
     1
102
RTVSPropertyOp45
 70
     1
102
RTVSPropertyOp46
 70
     1
102
RTVSPropertyOp47
 70
     1
102
RTVSPropertyOp48
 70
     1
102
RTVSPropertyOp49
 70
     1
102
RTVSPropertyOp50
 70
     1
102
RTVSPropertyOp51
 70
     0
102
RTVSPropertyOp52
 70
     0
102
RTVSPropertyOp53
 70
     1
102
RTVSPropertyOp54
 70
     1
102
RTVSPropertyOp55
 70
     1
102
RTVSPropertyOp56
 70
     1
102
RTVSPropertyOp57
 70
     1
102
RTVSPropertyOp58
 70
     1
102
RTVSPropertyOp59
 70
     1
102
RTVSPropertyOp60
 70
     1
102
RTVSPropertyOp61
 70
     1
102
RTVSPropertyOp62
 70
     1
  0
XRECORD
  5
BB0B
102
{ACAD_REACTORS
330
BB0A
102
}
330
BB0A
100
AcDbXrecord
280
     1
102
RTVSPost2010Prop28
280
     0
102
RTVSPost2010PropOp28
 70
     1
102
RTVSPost2010Prop29
280
     1
102
RTVSPost2010PropOp29
 70
     1
102
RTVSPost2010Prop30
280
     1
102
RTVSPost2010PropOp30
 70
     1
102
RTVSPost2010Prop31
280
     0
102
RTVSPost2010PropOp31
 70
     1
102
RTVSPost2010Prop32
280
     0
102
RTVSPost2010PropOp32
 70
     1
102
RTVSPost2010Prop33
280
     0
102
RTVSPost2010PropOp33
 70
     1
102
RTVSPost2010Prop34
280
     0
102
RTVSPost2010PropOp34
 70
     1
102
RTVSPost2010Prop35
280
     0
102
RTVSPost2010PropOp35
 70
     1
102
RTVSPost2010Prop36
280
     0
102
RTVSPost2010PropOp36
 70
     1
102
RTVSPost2010Prop37
 90
       50
102
RTVSPost2010PropOp37
 70
     1
102
RTVSPost2010Prop38
140
0.0
102
RTVSPost2010PropOp38
 70
     1
102
RTVSPost2010Prop39
140
1.0
102
RTVSPost2010PropOp39
 70
     1
102
RTVSPost2010Prop40
 90
        0
102
RTVSPost2010PropOp40
 70
     1
102
RTVSPost2010Prop41ColorIndex
 90
       18
102
RTVSPost2010Prop41ColorRGB
 90
        0
102
RTVSPost2010PropOp41
 70
     1
102
RTVSPost2010Prop42
 90
       50
102
RTVSPost2010PropOp42
 70
     1
102
RTVSPost2010Prop43
 90
        3
102
RTVSPost2010PropOp43
 70
     1
102
RTVSPost2010Prop44ColorIndex
 90
        5
102
RTVSPost2010Prop44ColorRGB
 90
      255
102
RTVSPost2010PropOp44
 70
     1
102
RTVSPost2010Prop45
280
     0
102
RTVSPost2010PropOp45
 70
     1
102
RTVSPost2010Prop46
 90
       50
102
RTVSPost2010PropOp46
 70
     1
102
RTVSPost2010Prop47
 90
       50
102
RTVSPost2010PropOp47
 70
     1
102
RTVSPost2010Prop48
 90
       50
102
RTVSPost2010PropOp48
 70
     1
102
RTVSPost2010Prop49
280
     0
102
RTVSPost2010PropOp49
 70
     1
102
RTVSPost2010Prop50
 90
       50
102
RTVSPost2010PropOp50
 70
     1
102
RTVSPost2010Prop51ColorIndex
 90
      256
102
RTVSPost2010Prop51ColorRGB
 90
-16777216
102
RTVSPost2010PropOp51
 70
     0
102
RTVSPost2010Prop52
140
1.0
102
RTVSPost2010PropOp52
 70
     0
102
RTVSPost2010Prop53
 90
        2
102
RTVSPost2010PropOp53
 70
     1
102
RTVSPost2010Prop54
  1
strokes_ogs.tif
102
RTVSPost2010PropOp54
 70
     1
102
RTVSPost2010Prop55
280
     0
102
RTVSPost2010PropOp55
 70
     1
102
RTVSPost2010Prop56
140
1.0
102
RTVSPost2010PropOp56
 70
     1
102
RTVSPost2010Prop57
140
1.0
102
RTVSPost2010PropOp57
 70
     1
102
RTVSPropertyOp0
 70
     1
102
RTVSPropertyOp1
 70
     1
102
RTVSPropertyOp2
 70
     1
102
RTVSPropertyOp3
 70
     1
102
RTVSPropertyOp4
 70
     1
102
RTVSPropertyOp5
 70
     1
102
RTVSPropertyOp6
 70
     1
102
RTVSPropertyOp7
 70
     1
102
RTVSPropertyOp8
 70
     1
102
RTVSPropertyOp9
 70
     1
102
RTVSPropertyOp10
 70
     1
102
RTVSPropertyOp11
 70
     1
102
RTVSPropertyOp12
 70
     1
102
RTVSPropertyOp13
 70
     1
102
RTVSPropertyOp14
 70
     1
102
RTVSPropertyOp15
 70
     1
102
RTVSPropertyOp16
 70
     1
102
RTVSPropertyOp17
 70
     1
102
RTVSPropertyOp18
 70
     1
102
RTVSPropertyOp19
 70
     1
102
RTVSPropertyOp20
 70
     1
102
RTVSPropertyOp21
 70
     1
102
RTVSPropertyOp22
 70
     1
102
RTVSPropertyOp23
 70
     1
102
RTVSPropertyOp24
 70
     1
102
RTVSPropertyOp25
 70
     1
102
RTVSPropertyOp26
 70
     1
102
RTVSPropertyOp27
 70
     1
102
RTVSPropertyOp28
 70
     1
102
RTVSPropertyOp29
 70
     1
102
RTVSPropertyOp30
 70
     1
102
RTVSPropertyOp31
 70
     1
102
RTVSPropertyOp32
 70
     1
102
RTVSPropertyOp33
 70
     1
102
RTVSPropertyOp34
 70
     1
102
RTVSPropertyOp35
 70
     1
102
RTVSPropertyOp36
 70
     1
102
RTVSPropertyOp37
 70
     1
102
RTVSPropertyOp38
 70
     1
102
RTVSPropertyOp39
 70
     1
102
RTVSPropertyOp40
 70
     1
102
RTVSPropertyOp41
 70
     1
102
RTVSPropertyOp42
 70
     1
102
RTVSPropertyOp43
 70
     1
102
RTVSPropertyOp44
 70
     1
102
RTVSPropertyOp45
 70
     1
102
RTVSPropertyOp46
 70
     1
102
RTVSPropertyOp47
 70
     1
102
RTVSPropertyOp48
 70
     1
102
RTVSPropertyOp49
 70
     1
102
RTVSPropertyOp50
 70
     1
102
RTVSPropertyOp51
 70
     0
102
RTVSPropertyOp52
 70
     0
102
RTVSPropertyOp53
 70
     1
102
RTVSPropertyOp54
 70
     1
102
RTVSPropertyOp55
 70
     1
102
RTVSPropertyOp56
 70
     1
102
RTVSPropertyOp57
 70
     1
102
RTVSPropertyOp58
 70
     1
102
RTVSPropertyOp59
 70
     1
102
RTVSPropertyOp60
 70
     1
102
RTVSPropertyOp61
 70
     1
102
RTVSPropertyOp62
 70
     1
  0
XRECORD
  5
BB0D
102
{ACAD_REACTORS
330
BB0C
102
}
330
BB0C
100
AcDbXrecord
280
     1
102
RTVSPost2010Prop28
280
     0
102
RTVSPost2010PropOp28
 70
     1
102
RTVSPost2010Prop29
280
     1
102
RTVSPost2010PropOp29
 70
     1
102
RTVSPost2010Prop30
280
     1
102
RTVSPost2010PropOp30
 70
     1
102
RTVSPost2010Prop31
280
     0
102
RTVSPost2010PropOp31
 70
     1
102
RTVSPost2010Prop32
280
     0
102
RTVSPost2010PropOp32
 70
     1
102
RTVSPost2010Prop33
280
     0
102
RTVSPost2010PropOp33
 70
     1
102
RTVSPost2010Prop34
280
     0
102
RTVSPost2010PropOp34
 70
     1
102
RTVSPost2010Prop35
280
     0
102
RTVSPost2010PropOp35
 70
     1
102
RTVSPost2010Prop36
280
     0
102
RTVSPost2010PropOp36
 70
     1
102
RTVSPost2010Prop37
 90
       50
102
RTVSPost2010PropOp37
 70
     1
102
RTVSPost2010Prop38
140
0.0
102
RTVSPost2010PropOp38
 70
     1
102
RTVSPost2010Prop39
140
1.0
102
RTVSPost2010PropOp39
 70
     1
102
RTVSPost2010Prop40
 90
        0
102
RTVSPost2010PropOp40
 70
     1
102
RTVSPost2010Prop41ColorIndex
 90
       18
102
RTVSPost2010Prop41ColorRGB
 90
        0
102
RTVSPost2010PropOp41
 70
     1
102
RTVSPost2010Prop42
 90
       50
102
RTVSPost2010PropOp42
 70
     1
102
RTVSPost2010Prop43
 90
        3
102
RTVSPost2010PropOp43
 70
     1
102
RTVSPost2010Prop44ColorIndex
 90
        5
102
RTVSPost2010Prop44ColorRGB
 90
      255
102
RTVSPost2010PropOp44
 70
     1
102
RTVSPost2010Prop45
280
     0
102
RTVSPost2010PropOp45
 70
     1
102
RTVSPost2010Prop46
 90
       50
102
RTVSPost2010PropOp46
 70
     1
102
RTVSPost2010Prop47
 90
       50
102
RTVSPost2010PropOp47
 70
     1
102
RTVSPost2010Prop48
 90
       50
102
RTVSPost2010PropOp48
 70
     1
102
RTVSPost2010Prop49
280
     0
102
RTVSPost2010PropOp49
 70
     1
102
RTVSPost2010Prop50
 90
       50
102
RTVSPost2010PropOp50
 70
     1
102
RTVSPost2010Prop51ColorIndex
 90
      256
102
RTVSPost2010Prop51ColorRGB
 90
-16777216
102
RTVSPost2010PropOp51
 70
     0
102
RTVSPost2010Prop52
140
1.0
102
RTVSPost2010PropOp52
 70
     0
102
RTVSPost2010Prop53
 90
        2
102
RTVSPost2010PropOp53
 70
     1
102
RTVSPost2010Prop54
  1
strokes_ogs.tif
102
RTVSPost2010PropOp54
 70
     1
102
RTVSPost2010Prop55
280
     0
102
RTVSPost2010PropOp55
 70
     1
102
RTVSPost2010Prop56
140
1.0
102
RTVSPost2010PropOp56
 70
     1
102
RTVSPost2010Prop57
140
1.0
102
RTVSPost2010PropOp57
 70
     1
102
RTVSPropertyOp0
 70
     1
102
RTVSPropertyOp1
 70
     1
102
RTVSPropertyOp2
 70
     1
102
RTVSPropertyOp3
 70
     1
102
RTVSPropertyOp4
 70
     1
102
RTVSPropertyOp5
 70
     1
102
RTVSPropertyOp6
 70
     1
102
RTVSPropertyOp7
 70
     1
102
RTVSPropertyOp8
 70
     1
102
RTVSPropertyOp9
 70
     1
102
RTVSPropertyOp10
 70
     1
102
RTVSPropertyOp11
 70
     1
102
RTVSPropertyOp12
 70
     1
102
RTVSPropertyOp13
 70
     1
102
RTVSPropertyOp14
 70
     1
102
RTVSPropertyOp15
 70
     1
102
RTVSPropertyOp16
 70
     1
102
RTVSPropertyOp17
 70
     1
102
RTVSPropertyOp18
 70
     1
102
RTVSPropertyOp19
 70
     1
102
RTVSPropertyOp20
 70
     1
102
RTVSPropertyOp21
 70
     1
102
RTVSPropertyOp22
 70
     1
102
RTVSPropertyOp23
 70
     1
102
RTVSPropertyOp24
 70
     1
102
RTVSPropertyOp25
 70
     1
102
RTVSPropertyOp26
 70
     1
102
RTVSPropertyOp27
 70
     1
102
RTVSPropertyOp28
 70
     1
102
RTVSPropertyOp29
 70
     1
102
RTVSPropertyOp30
 70
     1
102
RTVSPropertyOp31
 70
     1
102
RTVSPropertyOp32
 70
     1
102
RTVSPropertyOp33
 70
     1
102
RTVSPropertyOp34
 70
     1
102
RTVSPropertyOp35
 70
     1
102
RTVSPropertyOp36
 70
     1
102
RTVSPropertyOp37
 70
     1
102
RTVSPropertyOp38
 70
     1
102
RTVSPropertyOp39
 70
     1
102
RTVSPropertyOp40
 70
     1
102
RTVSPropertyOp41
 70
     1
102
RTVSPropertyOp42
 70
     1
102
RTVSPropertyOp43
 70
     1
102
RTVSPropertyOp44
 70
     1
102
RTVSPropertyOp45
 70
     1
102
RTVSPropertyOp46
 70
     1
102
RTVSPropertyOp47
 70
     1
102
RTVSPropertyOp48
 70
     1
102
RTVSPropertyOp49
 70
     1
102
RTVSPropertyOp50
 70
     1
102
RTVSPropertyOp51
 70
     0
102
RTVSPropertyOp52
 70
     0
102
RTVSPropertyOp53
 70
     1
102
RTVSPropertyOp54
 70
     1
102
RTVSPropertyOp55
 70
     1
102
RTVSPropertyOp56
 70
     1
102
RTVSPropertyOp57
 70
     1
102
RTVSPropertyOp58
 70
     1
102
RTVSPropertyOp59
 70
     1
102
RTVSPropertyOp60
 70
     1
102
RTVSPropertyOp61
 70
     1
102
RTVSPropertyOp62
 70
     1
  0
XRECORD
  5
BB0F
102
{ACAD_REACTORS
330
BB0E
102
}
330
BB0E
100
AcDbXrecord
280
     1
102
RTVSPost2010Prop28
280
     0
102
RTVSPost2010PropOp28
 70
     1
102
RTVSPost2010Prop29
280
     1
102
RTVSPost2010PropOp29
 70
     1
102
RTVSPost2010Prop30
280
     1
102
RTVSPost2010PropOp30
 70
     1
102
RTVSPost2010Prop31
280
     0
102
RTVSPost2010PropOp31
 70
     1
102
RTVSPost2010Prop32
280
     0
102
RTVSPost2010PropOp32
 70
     1
102
RTVSPost2010Prop33
280
     0
102
RTVSPost2010PropOp33
 70
     1
102
RTVSPost2010Prop34
280
     0
102
RTVSPost2010PropOp34
 70
     1
102
RTVSPost2010Prop35
280
     0
102
RTVSPost2010PropOp35
 70
     1
102
RTVSPost2010Prop36
280
     0
102
RTVSPost2010PropOp36
 70
     1
102
RTVSPost2010Prop37
 90
       50
102
RTVSPost2010PropOp37
 70
     1
102
RTVSPost2010Prop38
140
0.0
102
RTVSPost2010PropOp38
 70
     1
102
RTVSPost2010Prop39
140
1.0
102
RTVSPost2010PropOp39
 70
     1
102
RTVSPost2010Prop40
 90
        0
102
RTVSPost2010PropOp40
 70
     1
102
RTVSPost2010Prop41ColorIndex
 90
       18
102
RTVSPost2010Prop41ColorRGB
 90
        0
102
RTVSPost2010PropOp41
 70
     1
102
RTVSPost2010Prop42
 90
       50
102
RTVSPost2010PropOp42
 70
     1
102
RTVSPost2010Prop43
 90
        3
102
RTVSPost2010PropOp43
 70
     1
102
RTVSPost2010Prop44ColorIndex
 90
        5
102
RTVSPost2010Prop44ColorRGB
 90
      255
102
RTVSPost2010PropOp44
 70
     1
102
RTVSPost2010Prop45
280
     0
102
RTVSPost2010PropOp45
 70
     1
102
RTVSPost2010Prop46
 90
       50
102
RTVSPost2010PropOp46
 70
     1
102
RTVSPost2010Prop47
 90
       50
102
RTVSPost2010PropOp47
 70
     1
102
RTVSPost2010Prop48
 90
       50
102
RTVSPost2010PropOp48
 70
     1
102
RTVSPost2010Prop49
280
     0
102
RTVSPost2010PropOp49
 70
     1
102
RTVSPost2010Prop50
 90
       50
102
RTVSPost2010PropOp50
 70
     1
102
RTVSPost2010Prop51ColorIndex
 90
      256
102
RTVSPost2010Prop51ColorRGB
 90
-16777216
102
RTVSPost2010PropOp51
 70
     0
102
RTVSPost2010Prop52
140
1.0
102
RTVSPost2010PropOp52
 70
     0
102
RTVSPost2010Prop53
 90
        2
102
RTVSPost2010PropOp53
 70
     1
102
RTVSPost2010Prop54
  1
strokes_ogs.tif
102
RTVSPost2010PropOp54
 70
     1
102
RTVSPost2010Prop55
280
     0
102
RTVSPost2010PropOp55
 70
     1
102
RTVSPost2010Prop56
140
1.0
102
RTVSPost2010PropOp56
 70
     1
102
RTVSPost2010Prop57
140
1.0
102
RTVSPost2010PropOp57
 70
     1
102
RTVSPropertyOp0
 70
     1
102
RTVSPropertyOp1
 70
     1
102
RTVSPropertyOp2
 70
     1
102
RTVSPropertyOp3
 70
     1
102
RTVSPropertyOp4
 70
     1
102
RTVSPropertyOp5
 70
     1
102
RTVSPropertyOp6
 70
     1
102
RTVSPropertyOp7
 70
     1
102
RTVSPropertyOp8
 70
     1
102
RTVSPropertyOp9
 70
     1
102
RTVSPropertyOp10
 70
     1
102
RTVSPropertyOp11
 70
     1
102
RTVSPropertyOp12
 70
     1
102
RTVSPropertyOp13
 70
     1
102
RTVSPropertyOp14
 70
     1
102
RTVSPropertyOp15
 70
     1
102
RTVSPropertyOp16
 70
     1
102
RTVSPropertyOp17
 70
     1
102
RTVSPropertyOp18
 70
     1
102
RTVSPropertyOp19
 70
     1
102
RTVSPropertyOp20
 70
     1
102
RTVSPropertyOp21
 70
     1
102
RTVSPropertyOp22
 70
     1
102
RTVSPropertyOp23
 70
     1
102
RTVSPropertyOp24
 70
     1
102
RTVSPropertyOp25
 70
     1
102
RTVSPropertyOp26
 70
     1
102
RTVSPropertyOp27
 70
     1
102
RTVSPropertyOp28
 70
     1
102
RTVSPropertyOp29
 70
     1
102
RTVSPropertyOp30
 70
     1
102
RTVSPropertyOp31
 70
     1
102
RTVSPropertyOp32
 70
     1
102
RTVSPropertyOp33
 70
     1
102
RTVSPropertyOp34
 70
     1
102
RTVSPropertyOp35
 70
     1
102
RTVSPropertyOp36
 70
     1
102
RTVSPropertyOp37
 70
     1
102
RTVSPropertyOp38
 70
     1
102
RTVSPropertyOp39
 70
     1
102
RTVSPropertyOp40
 70
     1
102
RTVSPropertyOp41
 70
     1
102
RTVSPropertyOp42
 70
     1
102
RTVSPropertyOp43
 70
     1
102
RTVSPropertyOp44
 70
     1
102
RTVSPropertyOp45
 70
     1
102
RTVSPropertyOp46
 70
     1
102
RTVSPropertyOp47
 70
     1
102
RTVSPropertyOp48
 70
     1
102
RTVSPropertyOp49
 70
     1
102
RTVSPropertyOp50
 70
     1
102
RTVSPropertyOp51
 70
     0
102
RTVSPropertyOp52
 70
     0
102
RTVSPropertyOp53
 70
     1
102
RTVSPropertyOp54
 70
     1
102
RTVSPropertyOp55
 70
     1
102
RTVSPropertyOp56
 70
     1
102
RTVSPropertyOp57
 70
     1
102
RTVSPropertyOp58
 70
     1
102
RTVSPropertyOp59
 70
     1
102
RTVSPropertyOp60
 70
     1
102
RTVSPropertyOp61
 70
     1
102
RTVSPropertyOp62
 70
     1
  0
XRECORD
  5
BB17
102
{ACAD_REACTORS
330
BB16
102
}
330
BB16
100
AcDbXrecord
280
     1
102
RTVSPost2010Prop28
280
     0
102
RTVSPost2010PropOp28
 70
     1
102
RTVSPost2010Prop29
280
     1
102
RTVSPost2010PropOp29
 70
     1
102
RTVSPost2010Prop30
280
     1
102
RTVSPost2010PropOp30
 70
     1
102
RTVSPost2010Prop31
280
     0
102
RTVSPost2010PropOp31
 70
     1
102
RTVSPost2010Prop32
280
     0
102
RTVSPost2010PropOp32
 70
     1
102
RTVSPost2010Prop33
280
     0
102
RTVSPost2010PropOp33
 70
     1
102
RTVSPost2010Prop34
280
     0
102
RTVSPost2010PropOp34
 70
     1
102
RTVSPost2010Prop35
280
     0
102
RTVSPost2010PropOp35
 70
     1
102
RTVSPost2010Prop36
280
     0
102
RTVSPost2010PropOp36
 70
     1
102
RTVSPost2010Prop37
 90
       50
102
RTVSPost2010PropOp37
 70
     1
102
RTVSPost2010Prop38
140
0.0
102
RTVSPost2010PropOp38
 70
     1
102
RTVSPost2010Prop39
140
1.0
102
RTVSPost2010PropOp39
 70
     1
102
RTVSPost2010Prop40
 90
        0
102
RTVSPost2010PropOp40
 70
     1
102
RTVSPost2010Prop41ColorIndex
 90
       18
102
RTVSPost2010Prop41ColorRGB
 90
        0
102
RTVSPost2010PropOp41
 70
     1
102
RTVSPost2010Prop42
 90
       50
102
RTVSPost2010PropOp42
 70
     1
102
RTVSPost2010Prop43
 90
        3
102
RTVSPost2010PropOp43
 70
     1
102
RTVSPost2010Prop44ColorIndex
 90
        5
102
RTVSPost2010Prop44ColorRGB
 90
      255
102
RTVSPost2010PropOp44
 70
     1
102
RTVSPost2010Prop45
280
     0
102
RTVSPost2010PropOp45
 70
     1
102
RTVSPost2010Prop46
 90
       50
102
RTVSPost2010PropOp46
 70
     1
102
RTVSPost2010Prop47
 90
       50
102
RTVSPost2010PropOp47
 70
     1
102
RTVSPost2010Prop48
 90
       50
102
RTVSPost2010PropOp48
 70
     1
102
RTVSPost2010Prop49
280
     0
102
RTVSPost2010PropOp49
 70
     1
102
RTVSPost2010Prop50
 90
       50
102
RTVSPost2010PropOp50
 70
     1
102
RTVSPost2010Prop51ColorIndex
 90
      256
102
RTVSPost2010Prop51ColorRGB
 90
-16777216
102
RTVSPost2010PropOp51
 70
     0
102
RTVSPost2010Prop52
140
1.0
102
RTVSPost2010PropOp52
 70
     0
102
RTVSPost2010Prop53
 90
        2
102
RTVSPost2010PropOp53
 70
     1
102
RTVSPost2010Prop54
  1
strokes_ogs.tif
102
RTVSPost2010PropOp54
 70
     1
102
RTVSPost2010Prop55
280
     0
102
RTVSPost2010PropOp55
 70
     1
102
RTVSPost2010Prop56
140
1.0
102
RTVSPost2010PropOp56
 70
     1
102
RTVSPost2010Prop57
140
1.0
102
RTVSPost2010PropOp57
 70
     1
102
RTVSPropertyOp0
 70
     1
102
RTVSPropertyOp1
 70
     1
102
RTVSPropertyOp2
 70
     1
102
RTVSPropertyOp3
 70
     1
102
RTVSPropertyOp4
 70
     1
102
RTVSPropertyOp5
 70
     1
102
RTVSPropertyOp6
 70
     1
102
RTVSPropertyOp7
 70
     1
102
RTVSPropertyOp8
 70
     1
102
RTVSPropertyOp9
 70
     1
102
RTVSPropertyOp10
 70
     1
102
RTVSPropertyOp11
 70
     1
102
RTVSPropertyOp12
 70
     1
102
RTVSPropertyOp13
 70
     1
102
RTVSPropertyOp14
 70
     1
102
RTVSPropertyOp15
 70
     1
102
RTVSPropertyOp16
 70
     1
102
RTVSPropertyOp17
 70
     1
102
RTVSPropertyOp18
 70
     1
102
RTVSPropertyOp19
 70
     1
102
RTVSPropertyOp20
 70
     1
102
RTVSPropertyOp21
 70
     1
102
RTVSPropertyOp22
 70
     1
102
RTVSPropertyOp23
 70
     1
102
RTVSPropertyOp24
 70
     1
102
RTVSPropertyOp25
 70
     1
102
RTVSPropertyOp26
 70
     1
102
RTVSPropertyOp27
 70
     1
102
RTVSPropertyOp28
 70
     1
102
RTVSPropertyOp29
 70
     1
102
RTVSPropertyOp30
 70
     1
102
RTVSPropertyOp31
 70
     1
102
RTVSPropertyOp32
 70
     1
102
RTVSPropertyOp33
 70
     1
102
RTVSPropertyOp34
 70
     1
102
RTVSPropertyOp35
 70
     1
102
RTVSPropertyOp36
 70
     1
102
RTVSPropertyOp37
 70
     1
102
RTVSPropertyOp38
 70
     1
102
RTVSPropertyOp39
 70
     1
102
RTVSPropertyOp40
 70
     1
102
RTVSPropertyOp41
 70
     1
102
RTVSPropertyOp42
 70
     1
102
RTVSPropertyOp43
 70
     1
102
RTVSPropertyOp44
 70
     1
102
RTVSPropertyOp45
 70
     1
102
RTVSPropertyOp46
 70
     1
102
RTVSPropertyOp47
 70
     1
102
RTVSPropertyOp48
 70
     1
102
RTVSPropertyOp49
 70
     1
102
RTVSPropertyOp50
 70
     1
102
RTVSPropertyOp51
 70
     0
102
RTVSPropertyOp52
 70
     0
102
RTVSPropertyOp53
 70
     1
102
RTVSPropertyOp54
 70
     1
102
RTVSPropertyOp55
 70
     1
102
RTVSPropertyOp56
 70
     1
102
RTVSPropertyOp57
 70
     1
102
RTVSPropertyOp58
 70
     1
102
RTVSPropertyOp59
 70
     1
102
RTVSPropertyOp60
 70
     1
102
RTVSPropertyOp61
 70
     1
102
RTVSPropertyOp62
 70
     1
  0
XRECORD
  5
BB33
102
{ACAD_REACTORS
330
BB32
102
}
330
BB32
100
AcDbXrecord
280
     1
102
RTVSPost2010Prop28
280
     0
102
RTVSPost2010PropOp28
 70
     1
102
RTVSPost2010Prop29
280
     1
102
RTVSPost2010PropOp29
 70
     1
102
RTVSPost2010Prop30
280
     1
102
RTVSPost2010PropOp30
 70
     1
102
RTVSPost2010Prop31
280
     0
102
RTVSPost2010PropOp31
 70
     1
102
RTVSPost2010Prop32
280
     0
102
RTVSPost2010PropOp32
 70
     1
102
RTVSPost2010Prop33
280
     0
102
RTVSPost2010PropOp33
 70
     1
102
RTVSPost2010Prop34
280
     0
102
RTVSPost2010PropOp34
 70
     1
102
RTVSPost2010Prop35
280
     0
102
RTVSPost2010PropOp35
 70
     1
102
RTVSPost2010Prop36
280
     0
102
RTVSPost2010PropOp36
 70
     1
102
RTVSPost2010Prop37
 90
       50
102
RTVSPost2010PropOp37
 70
     0
102
RTVSPost2010Prop38
140
0.0
102
RTVSPost2010PropOp38
 70
     0
102
RTVSPost2010Prop39
140
1.0
102
RTVSPost2010PropOp39
 70
     0
102
RTVSPost2010Prop40
 90
        0
102
RTVSPost2010PropOp40
 70
     0
102
RTVSPost2010Prop41ColorIndex
 90
       18
102
RTVSPost2010Prop41ColorRGB
 90
        0
102
RTVSPost2010PropOp41
 70
     0
102
RTVSPost2010Prop42
 90
       50
102
RTVSPost2010PropOp42
 70
     0
102
RTVSPost2010Prop43
 90
        3
102
RTVSPost2010PropOp43
 70
     0
102
RTVSPost2010Prop44ColorIndex
 90
        5
102
RTVSPost2010Prop44ColorRGB
 90
      255
102
RTVSPost2010PropOp44
 70
     0
102
RTVSPost2010Prop45
280
     0
102
RTVSPost2010PropOp45
 70
     1
102
RTVSPost2010Prop46
 90
       50
102
RTVSPost2010PropOp46
 70
     0
102
RTVSPost2010Prop47
 90
       50
102
RTVSPost2010PropOp47
 70
     0
102
RTVSPost2010Prop48
 90
       50
102
RTVSPost2010PropOp48
 70
     0
102
RTVSPost2010Prop49
280
     0
102
RTVSPost2010PropOp49
 70
     1
102
RTVSPost2010Prop50
 90
       50
102
RTVSPost2010PropOp50
 70
     0
102
RTVSPost2010Prop51ColorIndex
 90
      256
102
RTVSPost2010Prop51ColorRGB
 90
-16777216
102
RTVSPost2010PropOp51
 70
     0
102
RTVSPost2010Prop52
140
1.0
102
RTVSPost2010PropOp52
 70
     0
102
RTVSPost2010Prop53
 90
        2
102
RTVSPost2010PropOp53
 70
     0
102
RTVSPost2010Prop54
  1
strokes_ogs.tif
102
RTVSPost2010PropOp54
 70
     0
102
RTVSPost2010Prop55
280
     0
102
RTVSPost2010PropOp55
 70
     1
102
RTVSPost2010Prop56
140
1.0
102
RTVSPost2010PropOp56
 70
     0
102
RTVSPost2010Prop57
140
1.0
102
RTVSPost2010PropOp57
 70
     0
102
RTVSPropertyOp0
 70
     0
102
RTVSPropertyOp1
 70
     0
102
RTVSPropertyOp2
 70
     0
102
RTVSPropertyOp3
 70
     0
102
RTVSPropertyOp4
 70
     0
102
RTVSPropertyOp5
 70
     0
102
RTVSPropertyOp6
 70
     0
102
RTVSPropertyOp7
 70
     0
102
RTVSPropertyOp8
 70
     0
102
RTVSPropertyOp9
 70
     0
102
RTVSPropertyOp10
 70
     0
102
RTVSPropertyOp11
 70
     0
102
RTVSPropertyOp12
 70
     0
102
RTVSPropertyOp13
 70
     0
102
RTVSPropertyOp14
 70
     2
102
RTVSPropertyOp15
 70
     0
102
RTVSPropertyOp16
 70
     0
102
RTVSPropertyOp17
 70
     0
102
RTVSPropertyOp18
 70
     0
102
RTVSPropertyOp19
 70
     0
102
RTVSPropertyOp20
 70
     0
102
RTVSPropertyOp21
 70
     0
102
RTVSPropertyOp22
 70
     0
102
RTVSPropertyOp23
 70
     0
102
RTVSPropertyOp24
 70
     0
102
RTVSPropertyOp25
 70
     0
102
RTVSPropertyOp26
 70
     0
102
RTVSPropertyOp27
 70
     0
102
RTVSPropertyOp28
 70
     1
102
RTVSPropertyOp29
 70
     1
102
RTVSPropertyOp30
 70
     1
102
RTVSPropertyOp31
 70
     1
102
RTVSPropertyOp32
 70
     1
102
RTVSPropertyOp33
 70
     1
102
RTVSPropertyOp34
 70
     1
102
RTVSPropertyOp35
 70
     1
102
RTVSPropertyOp36
 70
     1
102
RTVSPropertyOp37
 70
     0
102
RTVSPropertyOp38
 70
     0
102
RTVSPropertyOp39
 70
     0
102
RTVSPropertyOp40
 70
     0
102
RTVSPropertyOp41
 70
     0
102
RTVSPropertyOp42
 70
     0
102
RTVSPropertyOp43
 70
     0
102
RTVSPropertyOp44
 70
     0
102
RTVSPropertyOp45
 70
     1
102
RTVSPropertyOp46
 70
     0
102
RTVSPropertyOp47
 70
     0
102
RTVSPropertyOp48
 70
     0
102
RTVSPropertyOp49
 70
     1
102
RTVSPropertyOp50
 70
     0
102
RTVSPropertyOp51
 70
     0
102
RTVSPropertyOp52
 70
     0
102
RTVSPropertyOp53
 70
     0
102
RTVSPropertyOp54
 70
     0
102
RTVSPropertyOp55
 70
     1
102
RTVSPropertyOp56
 70
     0
102
RTVSPropertyOp57
 70
     0
102
RTVSPropertyOp58
 70
     0
102
RTVSPropertyOp59
 70
     0
102
RTVSPropertyOp60
 70
     0
102
RTVSPropertyOp61
 70
     0
102
RTVSPropertyOp62
 70
     0
  0
XRECORD
  5
BB23
102
{ACAD_REACTORS
330
BB22
102
}
330
BB22
100
AcDbXrecord
280
     1
102
RTVSPost2010Prop28
280
     0
102
RTVSPost2010PropOp28
 70
     1
102
RTVSPost2010Prop29
280
     1
102
RTVSPost2010PropOp29
 70
     1
102
RTVSPost2010Prop30
280
     1
102
RTVSPost2010PropOp30
 70
     1
102
RTVSPost2010Prop31
280
     0
102
RTVSPost2010PropOp31
 70
     1
102
RTVSPost2010Prop32
280
     0
102
RTVSPost2010PropOp32
 70
     1
102
RTVSPost2010Prop33
280
     0
102
RTVSPost2010PropOp33
 70
     1
102
RTVSPost2010Prop34
280
     0
102
RTVSPost2010PropOp34
 70
     1
102
RTVSPost2010Prop35
280
     0
102
RTVSPost2010PropOp35
 70
     1
102
RTVSPost2010Prop36
280
     0
102
RTVSPost2010PropOp36
 70
     1
102
RTVSPost2010Prop37
 90
       50
102
RTVSPost2010PropOp37
 70
     1
102
RTVSPost2010Prop38
140
0.0
102
RTVSPost2010PropOp38
 70
     1
102
RTVSPost2010Prop39
140
1.0
102
RTVSPost2010PropOp39
 70
     1
102
RTVSPost2010Prop40
 90
        0
102
RTVSPost2010PropOp40
 70
     1
102
RTVSPost2010Prop41ColorIndex
 90
       18
102
RTVSPost2010Prop41ColorRGB
 90
        0
102
RTVSPost2010PropOp41
 70
     1
102
RTVSPost2010Prop42
 90
       50
102
RTVSPost2010PropOp42
 70
     1
102
RTVSPost2010Prop43
 90
        3
102
RTVSPost2010PropOp43
 70
     1
102
RTVSPost2010Prop44ColorIndex
 90
        5
102
RTVSPost2010Prop44ColorRGB
 90
      255
102
RTVSPost2010PropOp44
 70
     1
102
RTVSPost2010Prop45
280
     0
102
RTVSPost2010PropOp45
 70
     1
102
RTVSPost2010Prop46
 90
       50
102
RTVSPost2010PropOp46
 70
     1
102
RTVSPost2010Prop47
 90
       50
102
RTVSPost2010PropOp47
 70
     1
102
RTVSPost2010Prop48
 90
       50
102
RTVSPost2010PropOp48
 70
     1
102
RTVSPost2010Prop49
280
     0
102
RTVSPost2010PropOp49
 70
     1
102
RTVSPost2010Prop50
 90
       50
102
RTVSPost2010PropOp50
 70
     1
102
RTVSPost2010Prop51ColorIndex
 90
      256
102
RTVSPost2010Prop51ColorRGB
 90
-16777216
102
RTVSPost2010PropOp51
 70
     0
102
RTVSPost2010Prop52
140
1.0
102
RTVSPost2010PropOp52
 70
     0
102
RTVSPost2010Prop53
 90
        2
102
RTVSPost2010PropOp53
 70
     1
102
RTVSPost2010Prop54
  1
strokes_ogs.tif
102
RTVSPost2010PropOp54
 70
     1
102
RTVSPost2010Prop55
280
     0
102
RTVSPost2010PropOp55
 70
     1
102
RTVSPost2010Prop56
140
1.0
102
RTVSPost2010PropOp56
 70
     1
102
RTVSPost2010Prop57
140
1.0
102
RTVSPost2010PropOp57
 70
     1
102
RTVSPropertyOp0
 70
     1
102
RTVSPropertyOp1
 70
     1
102
RTVSPropertyOp2
 70
     1
102
RTVSPropertyOp3
 70
     1
102
RTVSPropertyOp4
 70
     1
102
RTVSPropertyOp5
 70
     1
102
RTVSPropertyOp6
 70
     1
102
RTVSPropertyOp7
 70
     1
102
RTVSPropertyOp8
 70
     1
102
RTVSPropertyOp9
 70
     1
102
RTVSPropertyOp10
 70
     1
102
RTVSPropertyOp11
 70
     1
102
RTVSPropertyOp12
 70
     1
102
RTVSPropertyOp13
 70
     1
102
RTVSPropertyOp14
 70
     1
102
RTVSPropertyOp15
 70
     1
102
RTVSPropertyOp16
 70
     1
102
RTVSPropertyOp17
 70
     1
102
RTVSPropertyOp18
 70
     1
102
RTVSPropertyOp19
 70
     1
102
RTVSPropertyOp20
 70
     1
102
RTVSPropertyOp21
 70
     1
102
RTVSPropertyOp22
 70
     1
102
RTVSPropertyOp23
 70
     1
102
RTVSPropertyOp24
 70
     1
102
RTVSPropertyOp25
 70
     1
102
RTVSPropertyOp26
 70
     1
102
RTVSPropertyOp27
 70
     1
102
RTVSPropertyOp28
 70
     1
102
RTVSPropertyOp29
 70
     1
102
RTVSPropertyOp30
 70
     1
102
RTVSPropertyOp31
 70
     1
102
RTVSPropertyOp32
 70
     1
102
RTVSPropertyOp33
 70
     1
102
RTVSPropertyOp34
 70
     1
102
RTVSPropertyOp35
 70
     1
102
RTVSPropertyOp36
 70
     1
102
RTVSPropertyOp37
 70
     1
102
RTVSPropertyOp38
 70
     1
102
RTVSPropertyOp39
 70
     1
102
RTVSPropertyOp40
 70
     1
102
RTVSPropertyOp41
 70
     1
102
RTVSPropertyOp42
 70
     1
102
RTVSPropertyOp43
 70
     1
102
RTVSPropertyOp44
 70
     1
102
RTVSPropertyOp45
 70
     1
102
RTVSPropertyOp46
 70
     1
102
RTVSPropertyOp47
 70
     1
102
RTVSPropertyOp48
 70
     1
102
RTVSPropertyOp49
 70
     1
102
RTVSPropertyOp50
 70
     1
102
RTVSPropertyOp51
 70
     0
102
RTVSPropertyOp52
 70
     0
102
RTVSPropertyOp53
 70
     1
102
RTVSPropertyOp54
 70
     1
102
RTVSPropertyOp55
 70
     1
102
RTVSPropertyOp56
 70
     1
102
RTVSPropertyOp57
 70
     1
102
RTVSPropertyOp58
 70
     1
102
RTVSPropertyOp59
 70
     1
102
RTVSPropertyOp60
 70
     1
102
RTVSPropertyOp61
 70
     1
102
RTVSPropertyOp62
 70
     1
  0
XRECORD
  5
BB35
102
{ACAD_REACTORS
330
BB34
102
}
330
BB34
100
AcDbXrecord
280
     1
102
RTVSPost2010Prop28
280
     0
102
RTVSPost2010PropOp28
 70
     1
102
RTVSPost2010Prop29
280
     1
102
RTVSPost2010PropOp29
 70
     1
102
RTVSPost2010Prop30
280
     1
102
RTVSPost2010PropOp30
 70
     1
102
RTVSPost2010Prop31
280
     0
102
RTVSPost2010PropOp31
 70
     1
102
RTVSPost2010Prop32
280
     0
102
RTVSPost2010PropOp32
 70
     1
102
RTVSPost2010Prop33
280
     0
102
RTVSPost2010PropOp33
 70
     1
102
RTVSPost2010Prop34
280
     0
102
RTVSPost2010PropOp34
 70
     1
102
RTVSPost2010Prop35
280
     0
102
RTVSPost2010PropOp35
 70
     1
102
RTVSPost2010Prop36
280
     0
102
RTVSPost2010PropOp36
 70
     1
102
RTVSPost2010Prop37
 90
       50
102
RTVSPost2010PropOp37
 70
     0
102
RTVSPost2010Prop38
140
0.0
102
RTVSPost2010PropOp38
 70
     0
102
RTVSPost2010Prop39
140
1.0
102
RTVSPost2010PropOp39
 70
     0
102
RTVSPost2010Prop40
 90
        0
102
RTVSPost2010PropOp40
 70
     0
102
RTVSPost2010Prop41ColorIndex
 90
       18
102
RTVSPost2010Prop41ColorRGB
 90
        0
102
RTVSPost2010PropOp41
 70
     0
102
RTVSPost2010Prop42
 90
       50
102
RTVSPost2010PropOp42
 70
     0
102
RTVSPost2010Prop43
 90
        3
102
RTVSPost2010PropOp43
 70
     0
102
RTVSPost2010Prop44ColorIndex
 90
        5
102
RTVSPost2010Prop44ColorRGB
 90
      255
102
RTVSPost2010PropOp44
 70
     0
102
RTVSPost2010Prop45
280
     0
102
RTVSPost2010PropOp45
 70
     1
102
RTVSPost2010Prop46
 90
       50
102
RTVSPost2010PropOp46
 70
     0
102
RTVSPost2010Prop47
 90
       50
102
RTVSPost2010PropOp47
 70
     0
102
RTVSPost2010Prop48
 90
       50
102
RTVSPost2010PropOp48
 70
     0
102
RTVSPost2010Prop49
280
     0
102
RTVSPost2010PropOp49
 70
     1
102
RTVSPost2010Prop50
 90
       50
102
RTVSPost2010PropOp50
 70
     0
102
RTVSPost2010Prop51ColorIndex
 90
      256
102
RTVSPost2010Prop51ColorRGB
 90
-16777216
102
RTVSPost2010PropOp51
 70
     0
102
RTVSPost2010Prop52
140
1.0
102
RTVSPost2010PropOp52
 70
     0
102
RTVSPost2010Prop53
 90
        2
102
RTVSPost2010PropOp53
 70
     0
102
RTVSPost2010Prop54
  1
strokes_ogs.tif
102
RTVSPost2010PropOp54
 70
     0
102
RTVSPost2010Prop55
280
     0
102
RTVSPost2010PropOp55
 70
     1
102
RTVSPost2010Prop56
140
1.0
102
RTVSPost2010PropOp56
 70
     0
102
RTVSPost2010Prop57
140
1.0
102
RTVSPost2010PropOp57
 70
     0
102
RTVSPropertyOp0
 70
     0
102
RTVSPropertyOp1
 70
     0
102
RTVSPropertyOp2
 70
     0
102
RTVSPropertyOp3
 70
     0
102
RTVSPropertyOp4
 70
     0
102
RTVSPropertyOp5
 70
     0
102
RTVSPropertyOp6
 70
     0
102
RTVSPropertyOp7
 70
     0
102
RTVSPropertyOp8
 70
     0
102
RTVSPropertyOp9
 70
     0
102
RTVSPropertyOp10
 70
     0
102
RTVSPropertyOp11
 70
     0
102
RTVSPropertyOp12
 70
     0
102
RTVSPropertyOp13
 70
     0
102
RTVSPropertyOp14
 70
     2
102
RTVSPropertyOp15
 70
     0
102
RTVSPropertyOp16
 70
     0
102
RTVSPropertyOp17
 70
     0
102
RTVSPropertyOp18
 70
     0
102
RTVSPropertyOp19
 70
     0
102
RTVSPropertyOp20
 70
     0
102
RTVSPropertyOp21
 70
     0
102
RTVSPropertyOp22
 70
     0
102
RTVSPropertyOp23
 70
     0
102
RTVSPropertyOp24
 70
     0
102
RTVSPropertyOp25
 70
     0
102
RTVSPropertyOp26
 70
     0
102
RTVSPropertyOp27
 70
     0
102
RTVSPropertyOp28
 70
     1
102
RTVSPropertyOp29
 70
     1
102
RTVSPropertyOp30
 70
     1
102
RTVSPropertyOp31
 70
     1
102
RTVSPropertyOp32
 70
     1
102
RTVSPropertyOp33
 70
     1
102
RTVSPropertyOp34
 70
     1
102
RTVSPropertyOp35
 70
     1
102
RTVSPropertyOp36
 70
     1
102
RTVSPropertyOp37
 70
     0
102
RTVSPropertyOp38
 70
     0
102
RTVSPropertyOp39
 70
     0
102
RTVSPropertyOp40
 70
     0
102
RTVSPropertyOp41
 70
     0
102
RTVSPropertyOp42
 70
     0
102
RTVSPropertyOp43
 70
     0
102
RTVSPropertyOp44
 70
     0
102
RTVSPropertyOp45
 70
     1
102
RTVSPropertyOp46
 70
     0
102
RTVSPropertyOp47
 70
     0
102
RTVSPropertyOp48
 70
     0
102
RTVSPropertyOp49
 70
     1
102
RTVSPropertyOp50
 70
     0
102
RTVSPropertyOp51
 70
     0
102
RTVSPropertyOp52
 70
     0
102
RTVSPropertyOp53
 70
     0
102
RTVSPropertyOp54
 70
     0
102
RTVSPropertyOp55
 70
     1
102
RTVSPropertyOp56
 70
     0
102
RTVSPropertyOp57
 70
     0
102
RTVSPropertyOp58
 70
     0
102
RTVSPropertyOp59
 70
     0
102
RTVSPropertyOp60
 70
     0
102
RTVSPropertyOp61
 70
     0
102
RTVSPropertyOp62
 70
     0
  0
XRECORD
  5
BB1B
102
{ACAD_REACTORS
330
BB1A
102
}
330
BB1A
100
AcDbXrecord
280
     1
102
RTVSPost2010Prop28
280
     0
102
RTVSPost2010PropOp28
 70
     1
102
RTVSPost2010Prop29
280
     1
102
RTVSPost2010PropOp29
 70
     1
102
RTVSPost2010Prop30
280
     1
102
RTVSPost2010PropOp30
 70
     1
102
RTVSPost2010Prop31
280
     0
102
RTVSPost2010PropOp31
 70
     1
102
RTVSPost2010Prop32
280
     0
102
RTVSPost2010PropOp32
 70
     1
102
RTVSPost2010Prop33
280
     0
102
RTVSPost2010PropOp33
 70
     1
102
RTVSPost2010Prop34
280
     0
102
RTVSPost2010PropOp34
 70
     1
102
RTVSPost2010Prop35
280
     0
102
RTVSPost2010PropOp35
 70
     1
102
RTVSPost2010Prop36
280
     0
102
RTVSPost2010PropOp36
 70
     1
102
RTVSPost2010Prop37
 90
       50
102
RTVSPost2010PropOp37
 70
     1
102
RTVSPost2010Prop38
140
0.0
102
RTVSPost2010PropOp38
 70
     1
102
RTVSPost2010Prop39
140
1.0
102
RTVSPost2010PropOp39
 70
     1
102
RTVSPost2010Prop40
 90
        0
102
RTVSPost2010PropOp40
 70
     1
102
RTVSPost2010Prop41ColorIndex
 90
       18
102
RTVSPost2010Prop41ColorRGB
 90
        0
102
RTVSPost2010PropOp41
 70
     1
102
RTVSPost2010Prop42
 90
       50
102
RTVSPost2010PropOp42
 70
     1
102
RTVSPost2010Prop43
 90
        3
102
RTVSPost2010PropOp43
 70
     1
102
RTVSPost2010Prop44ColorIndex
 90
        5
102
RTVSPost2010Prop44ColorRGB
 90
      255
102
RTVSPost2010PropOp44
 70
     1
102
RTVSPost2010Prop45
280
     0
102
RTVSPost2010PropOp45
 70
     1
102
RTVSPost2010Prop46
 90
       50
102
RTVSPost2010PropOp46
 70
     1
102
RTVSPost2010Prop47
 90
       50
102
RTVSPost2010PropOp47
 70
     1
102
RTVSPost2010Prop48
 90
       50
102
RTVSPost2010PropOp48
 70
     1
102
RTVSPost2010Prop49
280
     0
102
RTVSPost2010PropOp49
 70
     1
102
RTVSPost2010Prop50
 90
       50
102
RTVSPost2010PropOp50
 70
     1
102
RTVSPost2010Prop51ColorIndex
 90
      256
102
RTVSPost2010Prop51ColorRGB
 90
-16777216
102
RTVSPost2010PropOp51
 70
     0
102
RTVSPost2010Prop52
140
1.0
102
RTVSPost2010PropOp52
 70
     0
102
RTVSPost2010Prop53
 90
        2
102
RTVSPost2010PropOp53
 70
     1
102
RTVSPost2010Prop54
  1
strokes_ogs.tif
102
RTVSPost2010PropOp54
 70
     1
102
RTVSPost2010Prop55
280
     0
102
RTVSPost2010PropOp55
 70
     1
102
RTVSPost2010Prop56
140
1.0
102
RTVSPost2010PropOp56
 70
     1
102
RTVSPost2010Prop57
140
1.0
102
RTVSPost2010PropOp57
 70
     1
102
RTVSPropertyOp0
 70
     1
102
RTVSPropertyOp1
 70
     1
102
RTVSPropertyOp2
 70
     1
102
RTVSPropertyOp3
 70
     1
102
RTVSPropertyOp4
 70
     1
102
RTVSPropertyOp5
 70
     1
102
RTVSPropertyOp6
 70
     1
102
RTVSPropertyOp7
 70
     1
102
RTVSPropertyOp8
 70
     1
102
RTVSPropertyOp9
 70
     1
102
RTVSPropertyOp10
 70
     1
102
RTVSPropertyOp11
 70
     1
102
RTVSPropertyOp12
 70
     1
102
RTVSPropertyOp13
 70
     1
102
RTVSPropertyOp14
 70
     1
102
RTVSPropertyOp15
 70
     1
102
RTVSPropertyOp16
 70
     1
102
RTVSPropertyOp17
 70
     1
102
RTVSPropertyOp18
 70
     1
102
RTVSPropertyOp19
 70
     1
102
RTVSPropertyOp20
 70
     1
102
RTVSPropertyOp21
 70
     1
102
RTVSPropertyOp22
 70
     1
102
RTVSPropertyOp23
 70
     1
102
RTVSPropertyOp24
 70
     1
102
RTVSPropertyOp25
 70
     1
102
RTVSPropertyOp26
 70
     1
102
RTVSPropertyOp27
 70
     1
102
RTVSPropertyOp28
 70
     1
102
RTVSPropertyOp29
 70
     1
102
RTVSPropertyOp30
 70
     1
102
RTVSPropertyOp31
 70
     1
102
RTVSPropertyOp32
 70
     1
102
RTVSPropertyOp33
 70
     1
102
RTVSPropertyOp34
 70
     1
102
RTVSPropertyOp35
 70
     1
102
RTVSPropertyOp36
 70
     1
102
RTVSPropertyOp37
 70
     1
102
RTVSPropertyOp38
 70
     1
102
RTVSPropertyOp39
 70
     1
102
RTVSPropertyOp40
 70
     1
102
RTVSPropertyOp41
 70
     1
102
RTVSPropertyOp42
 70
     1
102
RTVSPropertyOp43
 70
     1
102
RTVSPropertyOp44
 70
     1
102
RTVSPropertyOp45
 70
     1
102
RTVSPropertyOp46
 70
     1
102
RTVSPropertyOp47
 70
     1
102
RTVSPropertyOp48
 70
     1
102
RTVSPropertyOp49
 70
     1
102
RTVSPropertyOp50
 70
     1
102
RTVSPropertyOp51
 70
     0
102
RTVSPropertyOp52
 70
     0
102
RTVSPropertyOp53
 70
     1
102
RTVSPropertyOp54
 70
     1
102
RTVSPropertyOp55
 70
     1
102
RTVSPropertyOp56
 70
     1
102
RTVSPropertyOp57
 70
     1
102
RTVSPropertyOp58
 70
     1
102
RTVSPropertyOp59
 70
     1
102
RTVSPropertyOp60
 70
     1
102
RTVSPropertyOp61
 70
     1
102
RTVSPropertyOp62
 70
     1
  0
XRECORD
  5
BB31
102
{ACAD_REACTORS
330
BB30
102
}
330
BB30
100
AcDbXrecord
280
     1
102
RTVSPost2010Prop28
280
     0
102
RTVSPost2010PropOp28
 70
     1
102
RTVSPost2010Prop29
280
     1
102
RTVSPost2010PropOp29
 70
     1
102
RTVSPost2010Prop30
280
     1
102
RTVSPost2010PropOp30
 70
     1
102
RTVSPost2010Prop31
280
     0
102
RTVSPost2010PropOp31
 70
     1
102
RTVSPost2010Prop32
280
     0
102
RTVSPost2010PropOp32
 70
     1
102
RTVSPost2010Prop33
280
     0
102
RTVSPost2010PropOp33
 70
     1
102
RTVSPost2010Prop34
280
     0
102
RTVSPost2010PropOp34
 70
     1
102
RTVSPost2010Prop35
280
     0
102
RTVSPost2010PropOp35
 70
     1
102
RTVSPost2010Prop36
280
     0
102
RTVSPost2010PropOp36
 70
     1
102
RTVSPost2010Prop37
 90
       50
102
RTVSPost2010PropOp37
 70
     1
102
RTVSPost2010Prop38
140
0.0
102
RTVSPost2010PropOp38
 70
     1
102
RTVSPost2010Prop39
140
1.0
102
RTVSPost2010PropOp39
 70
     1
102
RTVSPost2010Prop40
 90
        0
102
RTVSPost2010PropOp40
 70
     1
102
RTVSPost2010Prop41ColorIndex
 90
       18
102
RTVSPost2010Prop41ColorRGB
 90
        0
102
RTVSPost2010PropOp41
 70
     1
102
RTVSPost2010Prop42
 90
       50
102
RTVSPost2010PropOp42
 70
     1
102
RTVSPost2010Prop43
 90
        3
102
RTVSPost2010PropOp43
 70
     1
102
RTVSPost2010Prop44ColorIndex
 90
        5
102
RTVSPost2010Prop44ColorRGB
 90
      255
102
RTVSPost2010PropOp44
 70
     1
102
RTVSPost2010Prop45
280
     0
102
RTVSPost2010PropOp45
 70
     1
102
RTVSPost2010Prop46
 90
       50
102
RTVSPost2010PropOp46
 70
     1
102
RTVSPost2010Prop47
 90
       50
102
RTVSPost2010PropOp47
 70
     1
102
RTVSPost2010Prop48
 90
       50
102
RTVSPost2010PropOp48
 70
     1
102
RTVSPost2010Prop49
280
     0
102
RTVSPost2010PropOp49
 70
     1
102
RTVSPost2010Prop50
 90
       50
102
RTVSPost2010PropOp50
 70
     1
102
RTVSPost2010Prop51ColorIndex
 90
      256
102
RTVSPost2010Prop51ColorRGB
 90
-16777216
102
RTVSPost2010PropOp51
 70
     0
102
RTVSPost2010Prop52
140
1.0
102
RTVSPost2010PropOp52
 70
     0
102
RTVSPost2010Prop53
 90
        2
102
RTVSPost2010PropOp53
 70
     1
102
RTVSPost2010Prop54
  1
strokes_ogs.tif
102
RTVSPost2010PropOp54
 70
     1
102
RTVSPost2010Prop55
280
     0
102
RTVSPost2010PropOp55
 70
     1
102
RTVSPost2010Prop56
140
1.0
102
RTVSPost2010PropOp56
 70
     1
102
RTVSPost2010Prop57
140
1.0
102
RTVSPost2010PropOp57
 70
     1
102
RTVSPropertyOp0
 70
     1
102
RTVSPropertyOp1
 70
     1
102
RTVSPropertyOp2
 70
     1
102
RTVSPropertyOp3
 70
     1
102
RTVSPropertyOp4
 70
     1
102
RTVSPropertyOp5
 70
     1
102
RTVSPropertyOp6
 70
     1
102
RTVSPropertyOp7
 70
     1
102
RTVSPropertyOp8
 70
     1
102
RTVSPropertyOp9
 70
     1
102
RTVSPropertyOp10
 70
     1
102
RTVSPropertyOp11
 70
     1
102
RTVSPropertyOp12
 70
     1
102
RTVSPropertyOp13
 70
     1
102
RTVSPropertyOp14
 70
     1
102
RTVSPropertyOp15
 70
     1
102
RTVSPropertyOp16
 70
     1
102
RTVSPropertyOp17
 70
     1
102
RTVSPropertyOp18
 70
     1
102
RTVSPropertyOp19
 70
     1
102
RTVSPropertyOp20
 70
     1
102
RTVSPropertyOp21
 70
     1
102
RTVSPropertyOp22
 70
     1
102
RTVSPropertyOp23
 70
     1
102
RTVSPropertyOp24
 70
     1
102
RTVSPropertyOp25
 70
     1
102
RTVSPropertyOp26
 70
     1
102
RTVSPropertyOp27
 70
     1
102
RTVSPropertyOp28
 70
     1
102
RTVSPropertyOp29
 70
     1
102
RTVSPropertyOp30
 70
     1
102
RTVSPropertyOp31
 70
     1
102
RTVSPropertyOp32
 70
     1
102
RTVSPropertyOp33
 70
     1
102
RTVSPropertyOp34
 70
     1
102
RTVSPropertyOp35
 70
     1
102
RTVSPropertyOp36
 70
     1
102
RTVSPropertyOp37
 70
     1
102
RTVSPropertyOp38
 70
     1
102
RTVSPropertyOp39
 70
     1
102
RTVSPropertyOp40
 70
     1
102
RTVSPropertyOp41
 70
     1
102
RTVSPropertyOp42
 70
     1
102
RTVSPropertyOp43
 70
     1
102
RTVSPropertyOp44
 70
     1
102
RTVSPropertyOp45
 70
     1
102
RTVSPropertyOp46
 70
     1
102
RTVSPropertyOp47
 70
     1
102
RTVSPropertyOp48
 70
     1
102
RTVSPropertyOp49
 70
     1
102
RTVSPropertyOp50
 70
     1
102
RTVSPropertyOp51
 70
     0
102
RTVSPropertyOp52
 70
     0
102
RTVSPropertyOp53
 70
     1
102
RTVSPropertyOp54
 70
     1
102
RTVSPropertyOp55
 70
     1
102
RTVSPropertyOp56
 70
     1
102
RTVSPropertyOp57
 70
     1
102
RTVSPropertyOp58
 70
     1
102
RTVSPropertyOp59
 70
     1
102
RTVSPropertyOp60
 70
     1
102
RTVSPropertyOp61
 70
     1
102
RTVSPropertyOp62
 70
     1
  0
XRECORD
  5
BB2F
102
{ACAD_REACTORS
330
BB2E
102
}
330
BB2E
100
AcDbXrecord
280
     1
102
RTVSPost2010Prop28
280
     0
102
RTVSPost2010PropOp28
 70
     1
102
RTVSPost2010Prop29
280
     1
102
RTVSPost2010PropOp29
 70
     1
102
RTVSPost2010Prop30
280
     1
102
RTVSPost2010PropOp30
 70
     1
102
RTVSPost2010Prop31
280
     0
102
RTVSPost2010PropOp31
 70
     1
102
RTVSPost2010Prop32
280
     0
102
RTVSPost2010PropOp32
 70
     1
102
RTVSPost2010Prop33
280
     0
102
RTVSPost2010PropOp33
 70
     1
102
RTVSPost2010Prop34
280
     0
102
RTVSPost2010PropOp34
 70
     1
102
RTVSPost2010Prop35
280
     0
102
RTVSPost2010PropOp35
 70
     1
102
RTVSPost2010Prop36
280
     0
102
RTVSPost2010PropOp36
 70
     1
102
RTVSPost2010Prop37
 90
       50
102
RTVSPost2010PropOp37
 70
     1
102
RTVSPost2010Prop38
140
0.0
102
RTVSPost2010PropOp38
 70
     1
102
RTVSPost2010Prop39
140
1.0
102
RTVSPost2010PropOp39
 70
     1
102
RTVSPost2010Prop40
 90
        0
102
RTVSPost2010PropOp40
 70
     1
102
RTVSPost2010Prop41ColorIndex
 90
       18
102
RTVSPost2010Prop41ColorRGB
 90
        0
102
RTVSPost2010PropOp41
 70
     1
102
RTVSPost2010Prop42
 90
       50
102
RTVSPost2010PropOp42
 70
     1
102
RTVSPost2010Prop43
 90
        3
102
RTVSPost2010PropOp43
 70
     1
102
RTVSPost2010Prop44ColorIndex
 90
        5
102
RTVSPost2010Prop44ColorRGB
 90
      255
102
RTVSPost2010PropOp44
 70
     1
102
RTVSPost2010Prop45
280
     0
102
RTVSPost2010PropOp45
 70
     1
102
RTVSPost2010Prop46
 90
       50
102
RTVSPost2010PropOp46
 70
     1
102
RTVSPost2010Prop47
 90
       50
102
RTVSPost2010PropOp47
 70
     1
102
RTVSPost2010Prop48
 90
       50
102
RTVSPost2010PropOp48
 70
     1
102
RTVSPost2010Prop49
280
     0
102
RTVSPost2010PropOp49
 70
     1
102
RTVSPost2010Prop50
 90
       50
102
RTVSPost2010PropOp50
 70
     1
102
RTVSPost2010Prop51ColorIndex
 90
      256
102
RTVSPost2010Prop51ColorRGB
 90
-16777216
102
RTVSPost2010PropOp51
 70
     0
102
RTVSPost2010Prop52
140
1.0
102
RTVSPost2010PropOp52
 70
     0
102
RTVSPost2010Prop53
 90
        2
102
RTVSPost2010PropOp53
 70
     1
102
RTVSPost2010Prop54
  1
strokes_ogs.tif
102
RTVSPost2010PropOp54
 70
     1
102
RTVSPost2010Prop55
280
     0
102
RTVSPost2010PropOp55
 70
     1
102
RTVSPost2010Prop56
140
1.0
102
RTVSPost2010PropOp56
 70
     1
102
RTVSPost2010Prop57
140
1.0
102
RTVSPost2010PropOp57
 70
     1
102
RTVSPropertyOp0
 70
     1
102
RTVSPropertyOp1
 70
     1
102
RTVSPropertyOp2
 70
     1
102
RTVSPropertyOp3
 70
     1
102
RTVSPropertyOp4
 70
     1
102
RTVSPropertyOp5
 70
     1
102
RTVSPropertyOp6
 70
     1
102
RTVSPropertyOp7
 70
     1
102
RTVSPropertyOp8
 70
     1
102
RTVSPropertyOp9
 70
     1
102
RTVSPropertyOp10
 70
     1
102
RTVSPropertyOp11
 70
     1
102
RTVSPropertyOp12
 70
     1
102
RTVSPropertyOp13
 70
     1
102
RTVSPropertyOp14
 70
     1
102
RTVSPropertyOp15
 70
     1
102
RTVSPropertyOp16
 70
     1
102
RTVSPropertyOp17
 70
     1
102
RTVSPropertyOp18
 70
     1
102
RTVSPropertyOp19
 70
     1
102
RTVSPropertyOp20
 70
     1
102
RTVSPropertyOp21
 70
     1
102
RTVSPropertyOp22
 70
     1
102
RTVSPropertyOp23
 70
     1
102
RTVSPropertyOp24
 70
     1
102
RTVSPropertyOp25
 70
     1
102
RTVSPropertyOp26
 70
     1
102
RTVSPropertyOp27
 70
     1
102
RTVSPropertyOp28
 70
     1
102
RTVSPropertyOp29
 70
     1
102
RTVSPropertyOp30
 70
     1
102
RTVSPropertyOp31
 70
     1
102
RTVSPropertyOp32
 70
     1
102
RTVSPropertyOp33
 70
     1
102
RTVSPropertyOp34
 70
     1
102
RTVSPropertyOp35
 70
     1
102
RTVSPropertyOp36
 70
     1
102
RTVSPropertyOp37
 70
     1
102
RTVSPropertyOp38
 70
     1
102
RTVSPropertyOp39
 70
     1
102
RTVSPropertyOp40
 70
     1
102
RTVSPropertyOp41
 70
     1
102
RTVSPropertyOp42
 70
     1
102
RTVSPropertyOp43
 70
     1
102
RTVSPropertyOp44
 70
     1
102
RTVSPropertyOp45
 70
     1
102
RTVSPropertyOp46
 70
     1
102
RTVSPropertyOp47
 70
     1
102
RTVSPropertyOp48
 70
     1
102
RTVSPropertyOp49
 70
     1
102
RTVSPropertyOp50
 70
     1
102
RTVSPropertyOp51
 70
     0
102
RTVSPropertyOp52
 70
     0
102
RTVSPropertyOp53
 70
     1
102
RTVSPropertyOp54
 70
     1
102
RTVSPropertyOp55
 70
     1
102
RTVSPropertyOp56
 70
     1
102
RTVSPropertyOp57
 70
     1
102
RTVSPropertyOp58
 70
     1
102
RTVSPropertyOp59
 70
     1
102
RTVSPropertyOp60
 70
     1
102
RTVSPropertyOp61
 70
     1
102
RTVSPropertyOp62
 70
     1
  0
XRECORD
  5
BB29
102
{ACAD_REACTORS
330
BB28
102
}
330
BB28
100
AcDbXrecord
280
     1
102
RTVSPost2010Prop28
280
     0
102
RTVSPost2010PropOp28
 70
     1
102
RTVSPost2010Prop29
280
     1
102
RTVSPost2010PropOp29
 70
     1
102
RTVSPost2010Prop30
280
     1
102
RTVSPost2010PropOp30
 70
     1
102
RTVSPost2010Prop31
280
     0
102
RTVSPost2010PropOp31
 70
     1
102
RTVSPost2010Prop32
280
     0
102
RTVSPost2010PropOp32
 70
     1
102
RTVSPost2010Prop33
280
     0
102
RTVSPost2010PropOp33
 70
     1
102
RTVSPost2010Prop34
280
     0
102
RTVSPost2010PropOp34
 70
     1
102
RTVSPost2010Prop35
280
     0
102
RTVSPost2010PropOp35
 70
     1
102
RTVSPost2010Prop36
280
     0
102
RTVSPost2010PropOp36
 70
     1
102
RTVSPost2010Prop37
 90
       50
102
RTVSPost2010PropOp37
 70
     1
102
RTVSPost2010Prop38
140
0.0
102
RTVSPost2010PropOp38
 70
     1
102
RTVSPost2010Prop39
140
1.0
102
RTVSPost2010PropOp39
 70
     1
102
RTVSPost2010Prop40
 90
        0
102
RTVSPost2010PropOp40
 70
     1
102
RTVSPost2010Prop41ColorIndex
 90
       18
102
RTVSPost2010Prop41ColorRGB
 90
        0
102
RTVSPost2010PropOp41
 70
     1
102
RTVSPost2010Prop42
 90
       50
102
RTVSPost2010PropOp42
 70
     1
102
RTVSPost2010Prop43
 90
        3
102
RTVSPost2010PropOp43
 70
     1
102
RTVSPost2010Prop44ColorIndex
 90
        5
102
RTVSPost2010Prop44ColorRGB
 90
      255
102
RTVSPost2010PropOp44
 70
     1
102
RTVSPost2010Prop45
280
     0
102
RTVSPost2010PropOp45
 70
     1
102
RTVSPost2010Prop46
 90
       50
102
RTVSPost2010PropOp46
 70
     1
102
RTVSPost2010Prop47
 90
       50
102
RTVSPost2010PropOp47
 70
     1
102
RTVSPost2010Prop48
 90
       50
102
RTVSPost2010PropOp48
 70
     1
102
RTVSPost2010Prop49
280
     0
102
RTVSPost2010PropOp49
 70
     1
102
RTVSPost2010Prop50
 90
       50
102
RTVSPost2010PropOp50
 70
     1
102
RTVSPost2010Prop51ColorIndex
 90
      256
102
RTVSPost2010Prop51ColorRGB
 90
-16777216
102
RTVSPost2010PropOp51
 70
     0
102
RTVSPost2010Prop52
140
1.0
102
RTVSPost2010PropOp52
 70
     0
102
RTVSPost2010Prop53
 90
        2
102
RTVSPost2010PropOp53
 70
     1
102
RTVSPost2010Prop54
  1
strokes_ogs.tif
102
RTVSPost2010PropOp54
 70
     1
102
RTVSPost2010Prop55
280
     0
102
RTVSPost2010PropOp55
 70
     1
102
RTVSPost2010Prop56
140
1.0
102
RTVSPost2010PropOp56
 70
     1
102
RTVSPost2010Prop57
140
1.0
102
RTVSPost2010PropOp57
 70
     1
102
RTVSPropertyOp0
 70
     1
102
RTVSPropertyOp1
 70
     1
102
RTVSPropertyOp2
 70
     1
102
RTVSPropertyOp3
 70
     1
102
RTVSPropertyOp4
 70
     1
102
RTVSPropertyOp5
 70
     1
102
RTVSPropertyOp6
 70
     1
102
RTVSPropertyOp7
 70
     1
102
RTVSPropertyOp8
 70
     1
102
RTVSPropertyOp9
 70
     1
102
RTVSPropertyOp10
 70
     1
102
RTVSPropertyOp11
 70
     1
102
RTVSPropertyOp12
 70
     1
102
RTVSPropertyOp13
 70
     1
102
RTVSPropertyOp14
 70
     1
102
RTVSPropertyOp15
 70
     1
102
RTVSPropertyOp16
 70
     1
102
RTVSPropertyOp17
 70
     1
102
RTVSPropertyOp18
 70
     1
102
RTVSPropertyOp19
 70
     1
102
RTVSPropertyOp20
 70
     1
102
RTVSPropertyOp21
 70
     1
102
RTVSPropertyOp22
 70
     1
102
RTVSPropertyOp23
 70
     1
102
RTVSPropertyOp24
 70
     1
102
RTVSPropertyOp25
 70
     1
102
RTVSPropertyOp26
 70
     1
102
RTVSPropertyOp27
 70
     1
102
RTVSPropertyOp28
 70
     1
102
RTVSPropertyOp29
 70
     1
102
RTVSPropertyOp30
 70
     1
102
RTVSPropertyOp31
 70
     1
102
RTVSPropertyOp32
 70
     1
102
RTVSPropertyOp33
 70
     1
102
RTVSPropertyOp34
 70
     1
102
RTVSPropertyOp35
 70
     1
102
RTVSPropertyOp36
 70
     1
102
RTVSPropertyOp37
 70
     1
102
RTVSPropertyOp38
 70
     1
102
RTVSPropertyOp39
 70
     1
102
RTVSPropertyOp40
 70
     1
102
RTVSPropertyOp41
 70
     1
102
RTVSPropertyOp42
 70
     1
102
RTVSPropertyOp43
 70
     1
102
RTVSPropertyOp44
 70
     1
102
RTVSPropertyOp45
 70
     1
102
RTVSPropertyOp46
 70
     1
102
RTVSPropertyOp47
 70
     1
102
RTVSPropertyOp48
 70
     1
102
RTVSPropertyOp49
 70
     1
102
RTVSPropertyOp50
 70
     1
102
RTVSPropertyOp51
 70
     0
102
RTVSPropertyOp52
 70
     0
102
RTVSPropertyOp53
 70
     1
102
RTVSPropertyOp54
 70
     1
102
RTVSPropertyOp55
 70
     1
102
RTVSPropertyOp56
 70
     1
102
RTVSPropertyOp57
 70
     1
102
RTVSPropertyOp58
 70
     1
102
RTVSPropertyOp59
 70
     1
102
RTVSPropertyOp60
 70
     1
102
RTVSPropertyOp61
 70
     1
102
RTVSPropertyOp62
 70
     1
  0
XRECORD
  5
BB2B
102
{ACAD_REACTORS
330
BB2A
102
}
330
BB2A
100
AcDbXrecord
280
     1
102
RTVSPost2010Prop28
280
     0
102
RTVSPost2010PropOp28
 70
     1
102
RTVSPost2010Prop29
280
     1
102
RTVSPost2010PropOp29
 70
     1
102
RTVSPost2010Prop30
280
     1
102
RTVSPost2010PropOp30
 70
     1
102
RTVSPost2010Prop31
280
     0
102
RTVSPost2010PropOp31
 70
     1
102
RTVSPost2010Prop32
280
     0
102
RTVSPost2010PropOp32
 70
     1
102
RTVSPost2010Prop33
280
     0
102
RTVSPost2010PropOp33
 70
     1
102
RTVSPost2010Prop34
280
     0
102
RTVSPost2010PropOp34
 70
     1
102
RTVSPost2010Prop35
280
     0
102
RTVSPost2010PropOp35
 70
     1
102
RTVSPost2010Prop36
280
     0
102
RTVSPost2010PropOp36
 70
     1
102
RTVSPost2010Prop37
 90
       50
102
RTVSPost2010PropOp37
 70
     1
102
RTVSPost2010Prop38
140
0.0
102
RTVSPost2010PropOp38
 70
     1
102
RTVSPost2010Prop39
140
1.0
102
RTVSPost2010PropOp39
 70
     1
102
RTVSPost2010Prop40
 90
        0
102
RTVSPost2010PropOp40
 70
     1
102
RTVSPost2010Prop41ColorIndex
 90
       18
102
RTVSPost2010Prop41ColorRGB
 90
        0
102
RTVSPost2010PropOp41
 70
     1
102
RTVSPost2010Prop42
 90
       50
102
RTVSPost2010PropOp42
 70
     1
102
RTVSPost2010Prop43
 90
        3
102
RTVSPost2010PropOp43
 70
     1
102
RTVSPost2010Prop44ColorIndex
 90
        5
102
RTVSPost2010Prop44ColorRGB
 90
      255
102
RTVSPost2010PropOp44
 70
     1
102
RTVSPost2010Prop45
280
     0
102
RTVSPost2010PropOp45
 70
     1
102
RTVSPost2010Prop46
 90
       50
102
RTVSPost2010PropOp46
 70
     1
102
RTVSPost2010Prop47
 90
       50
102
RTVSPost2010PropOp47
 70
     1
102
RTVSPost2010Prop48
 90
       50
102
RTVSPost2010PropOp48
 70
     1
102
RTVSPost2010Prop49
280
     0
102
RTVSPost2010PropOp49
 70
     1
102
RTVSPost2010Prop50
 90
       50
102
RTVSPost2010PropOp50
 70
     1
102
RTVSPost2010Prop51ColorIndex
 90
      256
102
RTVSPost2010Prop51ColorRGB
 90
-16777216
102
RTVSPost2010PropOp51
 70
     0
102
RTVSPost2010Prop52
140
1.0
102
RTVSPost2010PropOp52
 70
     0
102
RTVSPost2010Prop53
 90
        2
102
RTVSPost2010PropOp53
 70
     1
102
RTVSPost2010Prop54
  1
strokes_ogs.tif
102
RTVSPost2010PropOp54
 70
     1
102
RTVSPost2010Prop55
280
     0
102
RTVSPost2010PropOp55
 70
     1
102
RTVSPost2010Prop56
140
1.0
102
RTVSPost2010PropOp56
 70
     1
102
RTVSPost2010Prop57
140
1.0
102
RTVSPost2010PropOp57
 70
     1
102
RTVSPropertyOp0
 70
     1
102
RTVSPropertyOp1
 70
     1
102
RTVSPropertyOp2
 70
     1
102
RTVSPropertyOp3
 70
     1
102
RTVSPropertyOp4
 70
     1
102
RTVSPropertyOp5
 70
     1
102
RTVSPropertyOp6
 70
     1
102
RTVSPropertyOp7
 70
     1
102
RTVSPropertyOp8
 70
     1
102
RTVSPropertyOp9
 70
     1
102
RTVSPropertyOp10
 70
     1
102
RTVSPropertyOp11
 70
     1
102
RTVSPropertyOp12
 70
     1
102
RTVSPropertyOp13
 70
     1
102
RTVSPropertyOp14
 70
     1
102
RTVSPropertyOp15
 70
     1
102
RTVSPropertyOp16
 70
     1
102
RTVSPropertyOp17
 70
     1
102
RTVSPropertyOp18
 70
     1
102
RTVSPropertyOp19
 70
     1
102
RTVSPropertyOp20
 70
     1
102
RTVSPropertyOp21
 70
     1
102
RTVSPropertyOp22
 70
     1
102
RTVSPropertyOp23
 70
     1
102
RTVSPropertyOp24
 70
     1
102
RTVSPropertyOp25
 70
     1
102
RTVSPropertyOp26
 70
     1
102
RTVSPropertyOp27
 70
     1
102
RTVSPropertyOp28
 70
     1
102
RTVSPropertyOp29
 70
     1
102
RTVSPropertyOp30
 70
     1
102
RTVSPropertyOp31
 70
     1
102
RTVSPropertyOp32
 70
     1
102
RTVSPropertyOp33
 70
     1
102
RTVSPropertyOp34
 70
     1
102
RTVSPropertyOp35
 70
     1
102
RTVSPropertyOp36
 70
     1
102
RTVSPropertyOp37
 70
     1
102
RTVSPropertyOp38
 70
     1
102
RTVSPropertyOp39
 70
     1
102
RTVSPropertyOp40
 70
     1
102
RTVSPropertyOp41
 70
     1
102
RTVSPropertyOp42
 70
     1
102
RTVSPropertyOp43
 70
     1
102
RTVSPropertyOp44
 70
     1
102
RTVSPropertyOp45
 70
     1
102
RTVSPropertyOp46
 70
     1
102
RTVSPropertyOp47
 70
     1
102
RTVSPropertyOp48
 70
     1
102
RTVSPropertyOp49
 70
     1
102
RTVSPropertyOp50
 70
     1
102
RTVSPropertyOp51
 70
     0
102
RTVSPropertyOp52
 70
     0
102
RTVSPropertyOp53
 70
     1
102
RTVSPropertyOp54
 70
     1
102
RTVSPropertyOp55
 70
     1
102
RTVSPropertyOp56
 70
     1
102
RTVSPropertyOp57
 70
     1
102
RTVSPropertyOp58
 70
     1
102
RTVSPropertyOp59
 70
     1
102
RTVSPropertyOp60
 70
     1
102
RTVSPropertyOp61
 70
     1
102
RTVSPropertyOp62
 70
     1
  0
XRECORD
  5
BB21
102
{ACAD_REACTORS
330
BB20
102
}
330
BB20
100
AcDbXrecord
280
     1
102
RTVSPost2010Prop28
280
     0
102
RTVSPost2010PropOp28
 70
     1
102
RTVSPost2010Prop29
280
     1
102
RTVSPost2010PropOp29
 70
     1
102
RTVSPost2010Prop30
280
     1
102
RTVSPost2010PropOp30
 70
     1
102
RTVSPost2010Prop31
280
     0
102
RTVSPost2010PropOp31
 70
     1
102
RTVSPost2010Prop32
280
     0
102
RTVSPost2010PropOp32
 70
     1
102
RTVSPost2010Prop33
280
     0
102
RTVSPost2010PropOp33
 70
     1
102
RTVSPost2010Prop34
280
     0
102
RTVSPost2010PropOp34
 70
     1
102
RTVSPost2010Prop35
280
     0
102
RTVSPost2010PropOp35
 70
     1
102
RTVSPost2010Prop36
280
     0
102
RTVSPost2010PropOp36
 70
     1
102
RTVSPost2010Prop37
 90
       50
102
RTVSPost2010PropOp37
 70
     1
102
RTVSPost2010Prop38
140
0.0
102
RTVSPost2010PropOp38
 70
     1
102
RTVSPost2010Prop39
140
1.0
102
RTVSPost2010PropOp39
 70
     1
102
RTVSPost2010Prop40
 90
        0
102
RTVSPost2010PropOp40
 70
     1
102
RTVSPost2010Prop41ColorIndex
 90
       18
102
RTVSPost2010Prop41ColorRGB
 90
        0
102
RTVSPost2010PropOp41
 70
     1
102
RTVSPost2010Prop42
 90
       50
102
RTVSPost2010PropOp42
 70
     1
102
RTVSPost2010Prop43
 90
        3
102
RTVSPost2010PropOp43
 70
     1
102
RTVSPost2010Prop44ColorIndex
 90
        5
102
RTVSPost2010Prop44ColorRGB
 90
      255
102
RTVSPost2010PropOp44
 70
     1
102
RTVSPost2010Prop45
280
     0
102
RTVSPost2010PropOp45
 70
     1
102
RTVSPost2010Prop46
 90
       50
102
RTVSPost2010PropOp46
 70
     1
102
RTVSPost2010Prop47
 90
       50
102
RTVSPost2010PropOp47
 70
     1
102
RTVSPost2010Prop48
 90
       50
102
RTVSPost2010PropOp48
 70
     1
102
RTVSPost2010Prop49
280
     0
102
RTVSPost2010PropOp49
 70
     1
102
RTVSPost2010Prop50
 90
       50
102
RTVSPost2010PropOp50
 70
     1
102
RTVSPost2010Prop51ColorIndex
 90
      256
102
RTVSPost2010Prop51ColorRGB
 90
-16777216
102
RTVSPost2010PropOp51
 70
     0
102
RTVSPost2010Prop52
140
1.0
102
RTVSPost2010PropOp52
 70
     0
102
RTVSPost2010Prop53
 90
        2
102
RTVSPost2010PropOp53
 70
     1
102
RTVSPost2010Prop54
  1
strokes_ogs.tif
102
RTVSPost2010PropOp54
 70
     1
102
RTVSPost2010Prop55
280
     0
102
RTVSPost2010PropOp55
 70
     1
102
RTVSPost2010Prop56
140
1.0
102
RTVSPost2010PropOp56
 70
     1
102
RTVSPost2010Prop57
140
1.0
102
RTVSPost2010PropOp57
 70
     1
102
RTVSPropertyOp0
 70
     1
102
RTVSPropertyOp1
 70
     1
102
RTVSPropertyOp2
 70
     1
102
RTVSPropertyOp3
 70
     1
102
RTVSPropertyOp4
 70
     1
102
RTVSPropertyOp5
 70
     1
102
RTVSPropertyOp6
 70
     1
102
RTVSPropertyOp7
 70
     1
102
RTVSPropertyOp8
 70
     1
102
RTVSPropertyOp9
 70
     1
102
RTVSPropertyOp10
 70
     1
102
RTVSPropertyOp11
 70
     1
102
RTVSPropertyOp12
 70
     1
102
RTVSPropertyOp13
 70
     1
102
RTVSPropertyOp14
 70
     1
102
RTVSPropertyOp15
 70
     1
102
RTVSPropertyOp16
 70
     1
102
RTVSPropertyOp17
 70
     1
102
RTVSPropertyOp18
 70
     1
102
RTVSPropertyOp19
 70
     1
102
RTVSPropertyOp20
 70
     1
102
RTVSPropertyOp21
 70
     1
102
RTVSPropertyOp22
 70
     1
102
RTVSPropertyOp23
 70
     1
102
RTVSPropertyOp24
 70
     1
102
RTVSPropertyOp25
 70
     1
102
RTVSPropertyOp26
 70
     1
102
RTVSPropertyOp27
 70
     1
102
RTVSPropertyOp28
 70
     1
102
RTVSPropertyOp29
 70
     1
102
RTVSPropertyOp30
 70
     1
102
RTVSPropertyOp31
 70
     1
102
RTVSPropertyOp32
 70
     1
102
RTVSPropertyOp33
 70
     1
102
RTVSPropertyOp34
 70
     1
102
RTVSPropertyOp35
 70
     1
102
RTVSPropertyOp36
 70
     1
102
RTVSPropertyOp37
 70
     1
102
RTVSPropertyOp38
 70
     1
102
RTVSPropertyOp39
 70
     1
102
RTVSPropertyOp40
 70
     1
102
RTVSPropertyOp41
 70
     1
102
RTVSPropertyOp42
 70
     1
102
RTVSPropertyOp43
 70
     1
102
RTVSPropertyOp44
 70
     1
102
RTVSPropertyOp45
 70
     1
102
RTVSPropertyOp46
 70
     1
102
RTVSPropertyOp47
 70
     1
102
RTVSPropertyOp48
 70
     1
102
RTVSPropertyOp49
 70
     1
102
RTVSPropertyOp50
 70
     1
102
RTVSPropertyOp51
 70
     0
102
RTVSPropertyOp52
 70
     0
102
RTVSPropertyOp53
 70
     1
102
RTVSPropertyOp54
 70
     1
102
RTVSPropertyOp55
 70
     1
102
RTVSPropertyOp56
 70
     1
102
RTVSPropertyOp57
 70
     1
102
RTVSPropertyOp58
 70
     1
102
RTVSPropertyOp59
 70
     1
102
RTVSPropertyOp60
 70
     1
102
RTVSPropertyOp61
 70
     1
102
RTVSPropertyOp62
 70
     1
  0
XRECORD
  5
BB15
102
{ACAD_REACTORS
330
BB14
102
}
330
BB14
100
AcDbXrecord
280
     1
102
RTVSPost2010Prop28
280
     0
102
RTVSPost2010PropOp28
 70
     1
102
RTVSPost2010Prop29
280
     1
102
RTVSPost2010PropOp29
 70
     1
102
RTVSPost2010Prop30
280
     1
102
RTVSPost2010PropOp30
 70
     1
102
RTVSPost2010Prop31
280
     0
102
RTVSPost2010PropOp31
 70
     1
102
RTVSPost2010Prop32
280
     0
102
RTVSPost2010PropOp32
 70
     1
102
RTVSPost2010Prop33
280
     0
102
RTVSPost2010PropOp33
 70
     1
102
RTVSPost2010Prop34
280
     0
102
RTVSPost2010PropOp34
 70
     1
102
RTVSPost2010Prop35
280
     0
102
RTVSPost2010PropOp35
 70
     1
102
RTVSPost2010Prop36
280
     0
102
RTVSPost2010PropOp36
 70
     1
102
RTVSPost2010Prop37
 90
       50
102
RTVSPost2010PropOp37
 70
     1
102
RTVSPost2010Prop38
140
0.0
102
RTVSPost2010PropOp38
 70
     1
102
RTVSPost2010Prop39
140
1.0
102
RTVSPost2010PropOp39
 70
     1
102
RTVSPost2010Prop40
 90
        0
102
RTVSPost2010PropOp40
 70
     1
102
RTVSPost2010Prop41ColorIndex
 90
       18
102
RTVSPost2010Prop41ColorRGB
 90
        0
102
RTVSPost2010PropOp41
 70
     1
102
RTVSPost2010Prop42
 90
       50
102
RTVSPost2010PropOp42
 70
     1
102
RTVSPost2010Prop43
 90
        3
102
RTVSPost2010PropOp43
 70
     1
102
RTVSPost2010Prop44ColorIndex
 90
        5
102
RTVSPost2010Prop44ColorRGB
 90
      255
102
RTVSPost2010PropOp44
 70
     1
102
RTVSPost2010Prop45
280
     0
102
RTVSPost2010PropOp45
 70
     1
102
RTVSPost2010Prop46
 90
       50
102
RTVSPost2010PropOp46
 70
     1
102
RTVSPost2010Prop47
 90
       50
102
RTVSPost2010PropOp47
 70
     1
102
RTVSPost2010Prop48
 90
       50
102
RTVSPost2010PropOp48
 70
     1
102
RTVSPost2010Prop49
280
     0
102
RTVSPost2010PropOp49
 70
     1
102
RTVSPost2010Prop50
 90
       50
102
RTVSPost2010PropOp50
 70
     1
102
RTVSPost2010Prop51ColorIndex
 90
      256
102
RTVSPost2010Prop51ColorRGB
 90
-16777216
102
RTVSPost2010PropOp51
 70
     0
102
RTVSPost2010Prop52
140
1.0
102
RTVSPost2010PropOp52
 70
     0
102
RTVSPost2010Prop53
 90
        2
102
RTVSPost2010PropOp53
 70
     1
102
RTVSPost2010Prop54
  1
strokes_ogs.tif
102
RTVSPost2010PropOp54
 70
     1
102
RTVSPost2010Prop55
280
     0
102
RTVSPost2010PropOp55
 70
     1
102
RTVSPost2010Prop56
140
1.0
102
RTVSPost2010PropOp56
 70
     1
102
RTVSPost2010Prop57
140
1.0
102
RTVSPost2010PropOp57
 70
     1
102
RTVSPropertyOp0
 70
     1
102
RTVSPropertyOp1
 70
     1
102
RTVSPropertyOp2
 70
     1
102
RTVSPropertyOp3
 70
     1
102
RTVSPropertyOp4
 70
     1
102
RTVSPropertyOp5
 70
     1
102
RTVSPropertyOp6
 70
     1
102
RTVSPropertyOp7
 70
     1
102
RTVSPropertyOp8
 70
     1
102
RTVSPropertyOp9
 70
     1
102
RTVSPropertyOp10
 70
     1
102
RTVSPropertyOp11
 70
     1
102
RTVSPropertyOp12
 70
     1
102
RTVSPropertyOp13
 70
     1
102
RTVSPropertyOp14
 70
     1
102
RTVSPropertyOp15
 70
     1
102
RTVSPropertyOp16
 70
     1
102
RTVSPropertyOp17
 70
     1
102
RTVSPropertyOp18
 70
     1
102
RTVSPropertyOp19
 70
     1
102
RTVSPropertyOp20
 70
     1
102
RTVSPropertyOp21
 70
     1
102
RTVSPropertyOp22
 70
     1
102
RTVSPropertyOp23
 70
     1
102
RTVSPropertyOp24
 70
     1
102
RTVSPropertyOp25
 70
     1
102
RTVSPropertyOp26
 70
     1
102
RTVSPropertyOp27
 70
     1
102
RTVSPropertyOp28
 70
     1
102
RTVSPropertyOp29
 70
     1
102
RTVSPropertyOp30
 70
     1
102
RTVSPropertyOp31
 70
     1
102
RTVSPropertyOp32
 70
     1
102
RTVSPropertyOp33
 70
     1
102
RTVSPropertyOp34
 70
     1
102
RTVSPropertyOp35
 70
     1
102
RTVSPropertyOp36
 70
     1
102
RTVSPropertyOp37
 70
     1
102
RTVSPropertyOp38
 70
     1
102
RTVSPropertyOp39
 70
     1
102
RTVSPropertyOp40
 70
     1
102
RTVSPropertyOp41
 70
     1
102
RTVSPropertyOp42
 70
     1
102
RTVSPropertyOp43
 70
     1
102
RTVSPropertyOp44
 70
     1
102
RTVSPropertyOp45
 70
     1
102
RTVSPropertyOp46
 70
     1
102
RTVSPropertyOp47
 70
     1
102
RTVSPropertyOp48
 70
     1
102
RTVSPropertyOp49
 70
     1
102
RTVSPropertyOp50
 70
     1
102
RTVSPropertyOp51
 70
     0
102
RTVSPropertyOp52
 70
     0
102
RTVSPropertyOp53
 70
     1
102
RTVSPropertyOp54
 70
     1
102
RTVSPropertyOp55
 70
     1
102
RTVSPropertyOp56
 70
     1
102
RTVSPropertyOp57
 70
     1
102
RTVSPropertyOp58
 70
     1
102
RTVSPropertyOp59
 70
     1
102
RTVSPropertyOp60
 70
     1
102
RTVSPropertyOp61
 70
     1
102
RTVSPropertyOp62
 70
     1
  0
XRECORD
  5
BB2D
102
{ACAD_REACTORS
330
BB2C
102
}
330
BB2C
100
AcDbXrecord
280
     1
102
RTVSPost2010Prop28
280
     0
102
RTVSPost2010PropOp28
 70
     1
102
RTVSPost2010Prop29
280
     1
102
RTVSPost2010PropOp29
 70
     1
102
RTVSPost2010Prop30
280
     1
102
RTVSPost2010PropOp30
 70
     1
102
RTVSPost2010Prop31
280
     0
102
RTVSPost2010PropOp31
 70
     1
102
RTVSPost2010Prop32
280
     0
102
RTVSPost2010PropOp32
 70
     1
102
RTVSPost2010Prop33
280
     0
102
RTVSPost2010PropOp33
 70
     1
102
RTVSPost2010Prop34
280
     0
102
RTVSPost2010PropOp34
 70
     1
102
RTVSPost2010Prop35
280
     0
102
RTVSPost2010PropOp35
 70
     1
102
RTVSPost2010Prop36
280
     0
102
RTVSPost2010PropOp36
 70
     1
102
RTVSPost2010Prop37
 90
       50
102
RTVSPost2010PropOp37
 70
     1
102
RTVSPost2010Prop38
140
0.0
102
RTVSPost2010PropOp38
 70
     1
102
RTVSPost2010Prop39
140
1.0
102
RTVSPost2010PropOp39
 70
     1
102
RTVSPost2010Prop40
 90
        0
102
RTVSPost2010PropOp40
 70
     1
102
RTVSPost2010Prop41ColorIndex
 90
       18
102
RTVSPost2010Prop41ColorRGB
 90
        0
102
RTVSPost2010PropOp41
 70
     1
102
RTVSPost2010Prop42
 90
       50
102
RTVSPost2010PropOp42
 70
     1
102
RTVSPost2010Prop43
 90
        3
102
RTVSPost2010PropOp43
 70
     1
102
RTVSPost2010Prop44ColorIndex
 90
        5
102
RTVSPost2010Prop44ColorRGB
 90
      255
102
RTVSPost2010PropOp44
 70
     1
102
RTVSPost2010Prop45
280
     0
102
RTVSPost2010PropOp45
 70
     1
102
RTVSPost2010Prop46
 90
       50
102
RTVSPost2010PropOp46
 70
     1
102
RTVSPost2010Prop47
 90
       50
102
RTVSPost2010PropOp47
 70
     1
102
RTVSPost2010Prop48
 90
       50
102
RTVSPost2010PropOp48
 70
     1
102
RTVSPost2010Prop49
280
     0
102
RTVSPost2010PropOp49
 70
     1
102
RTVSPost2010Prop50
 90
       50
102
RTVSPost2010PropOp50
 70
     1
102
RTVSPost2010Prop51ColorIndex
 90
      256
102
RTVSPost2010Prop51ColorRGB
 90
-16777216
102
RTVSPost2010PropOp51
 70
     0
102
RTVSPost2010Prop52
140
1.0
102
RTVSPost2010PropOp52
 70
     0
102
RTVSPost2010Prop53
 90
        2
102
RTVSPost2010PropOp53
 70
     1
102
RTVSPost2010Prop54
  1
strokes_ogs.tif
102
RTVSPost2010PropOp54
 70
     1
102
RTVSPost2010Prop55
280
     0
102
RTVSPost2010PropOp55
 70
     1
102
RTVSPost2010Prop56
140
1.0
102
RTVSPost2010PropOp56
 70
     1
102
RTVSPost2010Prop57
140
1.0
102
RTVSPost2010PropOp57
 70
     1
102
RTVSPropertyOp0
 70
     1
102
RTVSPropertyOp1
 70
     1
102
RTVSPropertyOp2
 70
     1
102
RTVSPropertyOp3
 70
     1
102
RTVSPropertyOp4
 70
     1
102
RTVSPropertyOp5
 70
     1
102
RTVSPropertyOp6
 70
     1
102
RTVSPropertyOp7
 70
     1
102
RTVSPropertyOp8
 70
     1
102
RTVSPropertyOp9
 70
     1
102
RTVSPropertyOp10
 70
     1
102
RTVSPropertyOp11
 70
     1
102
RTVSPropertyOp12
 70
     1
102
RTVSPropertyOp13
 70
     1
102
RTVSPropertyOp14
 70
     1
102
RTVSPropertyOp15
 70
     1
102
RTVSPropertyOp16
 70
     1
102
RTVSPropertyOp17
 70
     1
102
RTVSPropertyOp18
 70
     1
102
RTVSPropertyOp19
 70
     1
102
RTVSPropertyOp20
 70
     1
102
RTVSPropertyOp21
 70
     1
102
RTVSPropertyOp22
 70
     1
102
RTVSPropertyOp23
 70
     1
102
RTVSPropertyOp24
 70
     1
102
RTVSPropertyOp25
 70
     1
102
RTVSPropertyOp26
 70
     1
102
RTVSPropertyOp27
 70
     1
102
RTVSPropertyOp28
 70
     1
102
RTVSPropertyOp29
 70
     1
102
RTVSPropertyOp30
 70
     1
102
RTVSPropertyOp31
 70
     1
102
RTVSPropertyOp32
 70
     1
102
RTVSPropertyOp33
 70
     1
102
RTVSPropertyOp34
 70
     1
102
RTVSPropertyOp35
 70
     1
102
RTVSPropertyOp36
 70
     1
102
RTVSPropertyOp37
 70
     1
102
RTVSPropertyOp38
 70
     1
102
RTVSPropertyOp39
 70
     1
102
RTVSPropertyOp40
 70
     1
102
RTVSPropertyOp41
 70
     1
102
RTVSPropertyOp42
 70
     1
102
RTVSPropertyOp43
 70
     1
102
RTVSPropertyOp44
 70
     1
102
RTVSPropertyOp45
 70
     1
102
RTVSPropertyOp46
 70
     1
102
RTVSPropertyOp47
 70
     1
102
RTVSPropertyOp48
 70
     1
102
RTVSPropertyOp49
 70
     1
102
RTVSPropertyOp50
 70
     1
102
RTVSPropertyOp51
 70
     0
102
RTVSPropertyOp52
 70
     0
102
RTVSPropertyOp53
 70
     1
102
RTVSPropertyOp54
 70
     1
102
RTVSPropertyOp55
 70
     1
102
RTVSPropertyOp56
 70
     1
102
RTVSPropertyOp57
 70
     1
102
RTVSPropertyOp58
 70
     1
102
RTVSPropertyOp59
 70
     1
102
RTVSPropertyOp60
 70
     1
102
RTVSPropertyOp61
 70
     1
102
RTVSPropertyOp62
 70
     1
  0
ENDSEC
  0
EOF
