  0
SECTION
  2
HEADER
  9
$ACADVER
  1
AC1015
  9
$ACADMAINTVER
 70
    20
  9
$DWGCODEPAGE
  3
ANSI_932
  9
$INSBASE
 10
0.0
 20
0.0
 30
0.0
  9
$EXTMIN
 10
10.0
 20
9.999999999999998
 30
0.0
  9
$EXTMAX
 10
259.345952
 20
241.1567999999999
 30
0.0
  9
$LIMMIN
 10
0.0
 20
0.0
  9
$LIMMAX
 10
396.0
 20
273.0
  9
$ORTHOMODE
 70
     1
  9
$REGENMODE
 70
     1
  9
$FILLMODE
 70
     1
  9
$QTEXTMODE
 70
     0
  9
$MIRRTEXT
 70
     1
  9
$LTSCALE
 40
20.0
  9
$ATTMODE
 70
     1
  9
$TEXTSIZE
 40
5.0
  9
$TRACEWID
 40
1.0
  9
$TEXTSTYLE
  7
STANDARD
  9
$CLAYER
  8
0
  9
$CELTYPE
  6
BYLAYER
  9
$CECOLOR
 62
   256
  9
$CELTSCALE
 40
1.0
  9
$DISPSILH
 70
     0
  9
$DIMSCALE
 40
1.0
  9
$DIMASZ
 40
2.5
  9
$DIMEXO
 40
1.0
  9
$DIMDLI
 40
10.0
  9
$DIMRND
 40
0.0
  9
$DIMDLE
 40
0.0
  9
$DIMEXE
 40
1.0
  9
$DIMTP
 40
0.0
  9
$DIMTM
 40
0.0
  9
$DIMTXT
 40
3.2
  9
$DIMCEN
 40
0.0
  9
$DIMTSZ
 40
0.0
  9
$DIMTOL
 70
     0
  9
$DIMLIM
 70
     0
  9
$DIMTIH
 70
     0
  9
$DIMTOH
 70
     0
  9
$DIMSE1
 70
     0
  9
$DIMSE2
 70
     0
  9
$DIMTAD
 70
     3
  9
$DIMZIN
 70
     8
  9
$DIMBLK
  1

  9
$DIMASO
 70
     1
  9
$DIMSHO
 70
     1
  9
$DIMPOST
  1

  9
$DIMAPOST
  1

  9
$DIMALT
 70
     0
  9
$DIMALTD
 70
     2
  9
$DIMALTF
 40
25.4
  9
$DIMLFAC
 40
1.0
  9
$DIMTOFL
 70
     1
  9
$DIMTVP
 40
0.0
  9
$DIMTIX
 70
     0
  9
$DIMSOXD
 70
     0
  9
$DIMSAH
 70
     1
  9
$DIMBLK1
  1

  9
$DIMBLK2
  1

  9
$DIMSTYLE
  2
STANDARD
  9
$DIMCLRD
 70
     0
  9
$DIMCLRE
 70
     0
  9
$DIMCLRT
 70
     0
  9
$DIMTFAC
 40
1.0
  9
$DIMGAP
 40
1.0
  9
$DIMJUST
 70
     0
  9
$DIMSD1
 70
     0
  9
$DIMSD2
 70
     0
  9
$DIMTOLJ
 70
     1
  9
$DIMTZIN
 70
     0
  9
$DIMALTZ
 70
     0
  9
$DIMALTTZ
 70
     0
  9
$DIMUPT
 70
     0
  9
$DIMDEC
 70
     4
  9
$DIMTDEC
 70
     4
  9
$DIMALTU
 70
     2
  9
$DIMALTTD
 70
     2
  9
$DIMTXSTY
  7
STANDARD
  9
$DIMAUNIT
 70
     0
  9
$DIMADEC
 70
     0
  9
$DIMALTRND
 40
0.0
  9
$DIMAZIN
 70
     0
  9
$DIMDSEP
 70
    46
  9
$DIMATFIT
 70
     3
  9
$DIMFRAC
 70
     0
  9
$DIMLDRBLK
  1

  9
$DIMLUNIT
 70
     2
  9
$DIMLWD
 70
    -2
  9
$DIMLWE
 70
    -2
  9
$DIMTMOVE
 70
     0
  9
$LUNITS
 70
     2
  9
$LUPREC
 70
     4
  9
$SKETCHINC
 40
1.0
  9
$FILLETRAD
 40
1.0
  9
$AUNITS
 70
     0
  9
$AUPREC
 70
     2
  9
$MENU
  1
.
  9
$ELEVATION
 40
0.0
  9
$PELEVATION
 40
0.0
  9
$THICKNESS
 40
0.0
  9
$LIMCHECK
 70
     0
  9
$CHAMFERA
 40
10.0
  9
$CHAMFERB
 40
10.0
  9
$CHAMFERC
 40
0.0
  9
$CHAMFERD
 40
0.0
  9
$SKPOLY
 70
     0
  9
$TDCREATE
 40
2451296.795134144
  9
$TDUCREATE
 40
2451296.420134144
  9
$TDUPDATE
 40
2457192.658299201
  9
$TDUUPDATE
 40
2457192.283299201
  9
$TDINDWG
 40
0.0000109144
  9
$TDUSRTIMER
 40
0.0000104398
  9
$USRTIMER
 70
     1
  9
$ANGBASE
 50
0.0
  9
$ANGDIR
 70
     0
  9
$PDMODE
 70
     0
  9
$PDSIZE
 40
0.0
  9
$PLINEWID
 40
0.0
  9
$SPLFRAME
 70
     0
  9
$SPLINETYPE
 70
     6
  9
$SPLINESEGS
 70
     8
  9
$HANDSEED
  5
C6D0
  9
$SURFTAB1
 70
     6
  9
$SURFTAB2
 70
     6
  9
$SURFTYPE
 70
     6
  9
$SURFU
 70
     6
  9
$SURFV
 70
     6
  9
$UCSBASE
  2

  9
$UCSNAME
  2

  9
$UCSORG
 10
0.0
 20
0.0
 30
0.0
  9
$UCSXDIR
 10
1.0
 20
0.0
 30
0.0
  9
$UCSYDIR
 10
0.0
 20
1.0
 30
0.0
  9
$UCSORTHOREF
  2

  9
$UCSORTHOVIEW
 70
     0
  9
$UCSORGTOP
 10
0.0
 20
0.0
 30
0.0
  9
$UCSORGBOTTOM
 10
0.0
 20
0.0
 30
0.0
  9
$UCSORGLEFT
 10
0.0
 20
0.0
 30
0.0
  9
$UCSORGRIGHT
 10
0.0
 20
0.0
 30
0.0
  9
$UCSORGFRONT
 10
0.0
 20
0.0
 30
0.0
  9
$UCSORGBACK
 10
0.0
 20
0.0
 30
0.0
  9
$PUCSBASE
  2

  9
$PUCSNAME
  2

  9
$PUCSORG
 10
0.0
 20
0.0
 30
0.0
  9
$PUCSXDIR
 10
1.0
 20
0.0
 30
0.0
  9
$PUCSYDIR
 10
0.0
 20
1.0
 30
0.0
  9
$PUCSORTHOREF
  2

  9
$PUCSORTHOVIEW
 70
     0
  9
$PUCSORGTOP
 10
0.0
 20
0.0
 30
0.0
  9
$PUCSORGBOTTOM
 10
0.0
 20
0.0
 30
0.0
  9
$PUCSORGLEFT
 10
0.0
 20
0.0
 30
0.0
  9
$PUCSORGRIGHT
 10
0.0
 20
0.0
 30
0.0
  9
$PUCSORGFRONT
 10
0.0
 20
0.0
 30
0.0
  9
$PUCSORGBACK
 10
0.0
 20
0.0
 30
0.0
  9
$USERI1
 70
     0
  9
$USERI2
 70
     0
  9
$USERI3
 70
     0
  9
$USERI4
 70
     0
  9
$USERI5
 70
     0
  9
$USERR1
 40
0.0
  9
$USERR2
 40
0.0
  9
$USERR3
 40
0.0
  9
$USERR4
 40
0.0
  9
$USERR5
 40
0.0
  9
$WORLDVIEW
 70
     1
  9
$SHADEDGE
 70
     3
  9
$SHADEDIF
 70
    70
  9
$TILEMODE
 70
     1
  9
$MAXACTVP
 70
    16
  9
$PINSBASE
 10
0.0
 20
0.0
 30
0.0
  9
$PLIMCHECK
 70
     0
  9
$PEXTMIN
 10
1.000000000000000E+20
 20
1.000000000000000E+20
 30
1.000000000000000E+20
  9
$PEXTMAX
 10
-1.000000000000000E+20
 20
-1.000000000000000E+20
 30
-1.000000000000000E+20
  9
$PLIMMIN
 10
0.0
 20
0.0
  9
$PLIMMAX
 10
420.0
 20
297.0
  9
$UNITMODE
 70
     0
  9
$VISRETAIN
 70
     0
  9
$PLINEGEN
 70
     0
  9
$PSLTSCALE
 70
     0
  9
$TREEDEPTH
 70
  3020
  9
$CMLSTYLE
  2
STANDARD
  9
$CMLJUST
 70
     0
  9
$CMLSCALE
 40
1.0
  9
$PROXYGRAPHICS
 70
     1
  9
$MEASUREMENT
 70
     0
  9
$CELWEIGHT
370
    -1
  9
$ENDCAPS
280
     0
  9
$JOINSTYLE
280
     0
  9
$LWDISPLAY
290
     0
  9
$INSUNITS
 70
     0
  9
$HYPERLINKBASE
  1

  9
$STYLESHEET
  1

  9
$XEDIT
290
     1
  9
$CEPSNTYPE
380
     0
  9
$PSTYLEMODE
290
     1
  9
$FINGERPRINTGUID
  2
{C9EFDE75-EF76-44C9-AA76-395EB26ECECC}
  9
$VERSIONGUID
  2
{D304AC19-1EDD-4A68-BEA2-38A9751FBEFB}
  9
$EXTNAMES
290
     1
  9
$PSVPSCALE
 40
0.0
  9
$OLESTARTUP
290
     0
  0
ENDSEC
  0
SECTION
  2
CLASSES
  0
CLASS
  1
ACDBDICTIONARYWDFLT
  2
AcDbDictionaryWithDefault
  3
ObjectDBX Classes
 90
        0
280
     0
281
     0
  0
CLASS
  1
ACDBPLACEHOLDER
  2
AcDbPlaceHolder
  3
ObjectDBX Classes
 90
        0
280
     0
281
     0
  0
CLASS
  1
LAYOUT
  2
AcDbLayout
  3
ObjectDBX Classes
 90
        0
280
     0
281
     0
  0
CLASS
  1
DICTIONARYVAR
  2
AcDbDictionaryVar
  3
ObjectDBX Classes
 90
        0
280
     0
281
     0
  0
CLASS
  1
MATERIAL
  2
AcDbMaterial
  3
ObjectDBX Classes
 90
     1153
280
     0
281
     0
  0
CLASS
  1
VISUALSTYLE
  2
AcDbVisualStyle
  3
ObjectDBX Classes
 90
     4095
280
     0
281
     0
  0
CLASS
  1
TABLESTYLE
  2
AcDbTableStyle
  3
ObjectDBX Classes
 90
     4095
280
     0
281
     0
  0
CLASS
  1
SCALE
  2
AcDbScale
  3
ObjectDBX Classes
 90
     1153
280
     0
281
     0
  0
CLASS
  1
MLEADERSTYLE
  2
AcDbMLeaderStyle
  3
ACDB_MLEADERSTYLE_CLASS
 90
     4095
280
     0
281
     0
  0
CLASS
  1
ACDBSECTIONVIEWSTYLE
  2
AcDbSectionViewStyle
  3
ObjectDBX Classes
 90
     1025
280
     0
281
     0
  0
CLASS
  1
ACDBDETAILVIEWSTYLE
  2
AcDbDetailViewStyle
  3
ObjectDBX Classes
 90
     1025
280
     0
281
     0
  0
CLASS
  1
CELLSTYLEMAP
  2
AcDbCellStyleMap
  3
ObjectDBX Classes
 90
     1152
280
     0
281
     0
  0
ENDSEC
  0
SECTION
  2
TABLES
  0
TABLE
  2
VPORT
  5
C40D
330
0
100
AcDbSymbolTable
 70
     1
  0
VPORT
  5
C619
330
C40D
100
AcDbSymbolTableRecord
100
AcDbViewportTableRecord
  2
*ACTIVE
 70
     0
 10
0.0
 20
0.0
 11
1.0
 21
1.0
 12
204.6928493346698
 22
125.575585034531
 13
0.0
 23
0.0
 14
10.0
 24
10.0
 15
10.0
 25
10.0
 16
0.0
 26
0.0
 36
1.0
 17
0.0
 27
0.0
 37
0.0
 40
233.7582463765912
 41
1.899603698811096
 42
50.0
 43
0.0
 44
0.0
 50
0.0
 51
0.0
 71
     0
 72
   100
 73
     1
 74
     0
 75
     0
 76
     0
 77
     0
 78
     0
281
     0
 65
     1
110
0.0
120
0.0
130
0.0
111
1.0
121
0.0
131
0.0
112
0.0
122
1.0
132
0.0
 79
     0
146
0.0
1001
ACAD_NAV_VCDISPLAY
1070
     3
  0
ENDTAB
  0
TABLE
  2
LTYPE
  5
C40A
330
0
100
AcDbSymbolTable
 70
     4
  0
LTYPE
  5
C418
330
C40A
100
AcDbSymbolTableRecord
100
AcDbLinetypeTableRecord
  2
BYBLOCK
 70
     0
  3

 72
    65
 73
     0
 40
0.0
  0
LTYPE
  5
C419
330
C40A
100
AcDbSymbolTableRecord
100
AcDbLinetypeTableRecord
  2
BYLAYER
 70
     0
  3

 72
    65
 73
     0
 40
0.0
  0
LTYPE
  5
C41A
330
C40A
100
AcDbSymbolTableRecord
100
AcDbLinetypeTableRecord
  2
CONTINUOUS
 70
     0
  3
Solid line
 72
    65
 73
     0
 40
0.0
  0
LTYPE
  5
C428
330
C40A
100
AcDbSymbolTableRecord
100
AcDbLinetypeTableRecord
  2
DASHED
 70
     0
  3
__ __ __ __ __ __ __ __ __ __ __ __ __ __ __ __
 72
    65
 73
     2
 40
0.75
 49
0.5
 74
     0
 49
-0.25
 74
     0
  0
LTYPE
  5
C429
330
C40A
100
AcDbSymbolTableRecord
100
AcDbLinetypeTableRecord
  2
CENTER
 70
     0
  3
____ _ ____ _ ____ _ ____ _ ____ _ ____ _ ____ 
 72
    65
 73
     4
 40
2.0
 49
1.25
 74
     0
 49
-0.25
 74
     0
 49
0.25
 74
     0
 49
-0.25
 74
     0
  0
LTYPE
  5
C42A
330
C40A
100
AcDbSymbolTableRecord
100
AcDbLinetypeTableRecord
  2
PHANTOM
 70
     0
  3
______  __  __  ______  __  __  ______  __  __ 
 72
    65
 73
     6
 40
2.5
 49
1.25
 74
     0
 49
-0.25
 74
     0
 49
0.25
 74
     0
 49
-0.25
 74
     0
 49
0.25
 74
     0
 49
-0.25
 74
     0
  0
ENDTAB
  0
TABLE
  2
LAYER
  5
C407
330
0
100
AcDbSymbolTable
 70
     8
  0
LAYER
  5
C415
102
{ACAD_XDICTIONARY
360
C674
102
}
330
C407
100
AcDbSymbolTableRecord
100
AcDbLayerTableRecord
  2
0
 70
     0
 62
     7
  6
CONTINUOUS
370
    -3
390
C622
  0
LAYER
  5
C42B
102
{ACAD_XDICTIONARY
360
C676
102
}
330
C407
100
AcDbSymbolTableRecord
100
AcDbLayerTableRecord
  2
4
 70
     0
 62
     1
  6
CENTER
370
    -3
390
C622
  0
LAYER
  5
C42C
102
{ACAD_XDICTIONARY
360
C678
102
}
330
C407
100
AcDbSymbolTableRecord
100
AcDbLayerTableRecord
  2
5
 70
     0
 62
     6
  6
PHANTOM
370
    -3
390
C622
  0
LAYER
  5
C42D
102
{ACAD_XDICTIONARY
360
C67A
102
}
330
C407
100
AcDbSymbolTableRecord
100
AcDbLayerTableRecord
  2
1
 70
     0
 62
     7
  6
CONTINUOUS
370
    -3
390
C622
  0
LAYER
  5
C42E
102
{ACAD_XDICTIONARY
360
C67C
102
}
330
C407
100
AcDbSymbolTableRecord
100
AcDbLayerTableRecord
  2
2
 70
     0
 62
     4
  6
CONTINUOUS
370
    -3
390
C622
  0
LAYER
  5
C42F
102
{ACAD_XDICTIONARY
360
C67E
102
}
330
C407
100
AcDbSymbolTableRecord
100
AcDbLayerTableRecord
  2
3
 70
     0
 62
     2
  6
DASHED
370
    -3
390
C622
  0
LAYER
  5
C430
102
{ACAD_XDICTIONARY
360
C680
102
}
330
C407
100
AcDbSymbolTableRecord
100
AcDbLayerTableRecord
  2
6
 70
     0
 62
     5
  6
CONTINUOUS
370
    -3
390
C622
  0
LAYER
  5
C431
102
{ACAD_XDICTIONARY
360
C682
102
}
330
C407
100
AcDbSymbolTableRecord
100
AcDbLayerTableRecord
  2
7
 70
     0
 62
     3
  6
CONTINUOUS
370
    -3
390
C622
  0
ENDTAB
  0
TABLE
  2
STYLE
  5
C408
330
0
100
AcDbSymbolTable
 70
     1
  0
STYLE
  5
C416
330
C408
100
AcDbSymbolTableRecord
100
AcDbTextStyleTableRecord
  2
STANDARD
 70
     0
 40
0.0
 41
1.0
 50
0.0
 71
     0
 42
5.0
  3
txt
  4

  0
ENDTAB
  0
TABLE
  2
VIEW
  5
C40B
330
0
100
AcDbSymbolTable
 70
     1
  0
VIEW
  5
C432
330
C40B
100
AcDbSymbolTableRecord
100
AcDbViewTableRecord
  2
7
 70
     0
 40
262.403034
 10
252.766764
 20
131.201517
 41
505.533528
 11
0.0
 21
0.0
 31
1.0
 12
0.0
 22
0.0
 32
0.0
 42
50.0
 43
0.0
 44
0.0
 50
0.0
 71
     0
281
     0
 72
     0
  0
ENDTAB
  0
TABLE
  2
UCS
  5
C40C
330
0
100
AcDbSymbolTable
 70
     0
  0
ENDTAB
  0
TABLE
  2
APPID
  5
C40E
330
0
100
AcDbSymbolTable
 70
     3
  0
APPID
  5
C417
330
C40E
100
AcDbSymbolTableRecord
100
AcDbRegAppTableRecord
  2
ACAD
 70
     0
  0
APPID
  5
C68E
330
C40E
100
AcDbSymbolTableRecord
100
AcDbRegAppTableRecord
  2
ACAD_NAV_VCDISPLAY
 70
     0
  0
APPID
  5
C6C7
330
C40E
100
AcDbSymbolTableRecord
100
AcDbRegAppTableRecord
  2
ACAD_MLEADERVER
 70
     0
  0
ENDTAB
  0
TABLE
  2
DIMSTYLE
  5
C40F
330
0
100
AcDbSymbolTable
 70
     1
100
AcDbDimStyleTable
 71
     0
  0
DIMSTYLE
105
C434
330
C40F
100
AcDbSymbolTableRecord
100
AcDbDimStyleTableRecord
  2
STANDARD
 70
     0
 41
2.5
 42
1.0
 43
10.0
 44
1.0
 73
     0
 74
     0
 77
     3
 78
     8
140
3.2
141
0.0
147
1.0
172
     1
173
     1
284
     8
285
     8
286
     8
340
C416
  0
ENDTAB
  0
TABLE
  2
BLOCK_RECORD
  5
C406
330
0
100
AcDbSymbolTable
 70
     0
  0
BLOCK_RECORD
  5
C423
102
{ACAD_XDICTIONARY
360
C61C
102
}
330
C406
100
AcDbSymbolTableRecord
100
AcDbBlockTableRecord
  2
*MODEL_SPACE
340
C670
  0
BLOCK_RECORD
  5
C41F
102
{ACAD_XDICTIONARY
360
C61A
102
}
330
C406
100
AcDbSymbolTableRecord
100
AcDbBlockTableRecord
  2
*PAPER_SPACE
340
C671
  0
ENDTAB
  0
ENDSEC
  0
SECTION
  2
BLOCKS
  0
BLOCK
  5
C424
330
C423
100
AcDbEntity
  8
0
100
AcDbBlockBegin
  2
*MODEL_SPACE
 70
     0
 10
0.0
 20
0.0
 30
0.0
  3
*MODEL_SPACE
  1

  0
ENDBLK
  5
C425
330
C423
100
AcDbEntity
  8
0
100
AcDbBlockEnd
  0
BLOCK
  5
C420
330
C41F
100
AcDbEntity
 67
     1
  8
0
100
AcDbBlockBegin
  2
*PAPER_SPACE
 70
     0
 10
0.0
 20
0.0
 30
0.0
  3
*PAPER_SPACE
  1

  0
ENDBLK
  5
C421
330
C41F
100
AcDbEntity
 67
     1
  8
0
100
AcDbBlockEnd
  0
ENDSEC
  0
SECTION
  2
ENTITIES
  0
TEXT
  5
C43C
330
C423
100
AcDbEntity
  8
7
  6
Continuous
100
AcDbText
 10
10.0
 20
18.0
 30
0.0
 40
3.0
  1
TYPE No.TM-144SS-75
100
AcDbText
  0
TEXT
  5
C43D
330
C423
100
AcDbEntity
  8
7
  6
Continuous
100
AcDbText
 10
10.0
 20
26.0
 30
0.0
 40
3.0
  1
CODE No.5738
100
AcDbText
  0
TEXT
  5
C43E
330
C423
100
AcDbEntity
  8
1
  6
Continuous
100
AcDbText
 10
17.97951099999998
 20
10.04873699999998
 30
0.0
 40
1.399999999999999
  1
1
100
AcDbText
  0
TEXT
  5
C43F
330
C423
100
AcDbEntity
  8
7
  6
Continuous
100
AcDbText
 10
29.97951099999999
 20
10.04873699999998
 30
0.0
 40
1.399999999999999
  1
7
100
AcDbText
  0
TEXT
  5
C440
330
C423
100
AcDbEntity
  8
4
  6
CENTER
100
AcDbText
 10
23.97951099999999
 20
10.04873699999998
 30
0.0
 40
1.399999999999999
  1
4
100
AcDbText
  0
TEXT
  5
C441
330
C423
100
AcDbEntity
  8
3
  6
DASHED
100
AcDbText
 10
21.979511
 20
10.04873699999998
 30
0.0
 40
1.399999999999999
  1
3
100
AcDbText
  0
TEXT
  5
C442
330
C423
100
AcDbEntity
  8
2
  6
Continuous
100
AcDbText
 10
19.97951099999999
 20
10.04873699999998
 30
0.0
 40
1.399999999999999
  1
2
100
AcDbText
  0
TEXT
  5
C443
330
C423
100
AcDbEntity
  8
6
  6
Continuous
100
AcDbText
 10
27.979511
 20
10.04873699999998
 30
0.0
 40
1.399999999999999
  1
6
100
AcDbText
  0
TEXT
  5
C444
330
C423
100
AcDbEntity
  8
5
  6
PHANTOM
100
AcDbText
 10
25.97951099999999
 20
10.04873699999998
 30
0.0
 40
1.399999999999999
  1
5
100
AcDbText
  0
LINE
  5
C445
330
C423
100
AcDbEntity
  8
1
  6
Continuous
100
AcDbLine
 10
133.545952
 20
170.6559999999998
 30
0.0
 11
144.045952
 21
170.6559999999998
 31
0.0
  0
LINE
  5
C446
330
C423
100
AcDbEntity
  8
1
  6
Continuous
100
AcDbLine
 10
156.045952
 20
171.787
 30
0.0
 11
156.045952
 21
175.6059999999999
 31
0.0
  0
LINE
  5
C447
330
C423
100
AcDbEntity
  8
1
  6
Continuous
100
AcDbLine
 10
152.0459519999998
 20
171.1559999999998
 30
0.0
 11
152.0459519999998
 21
181.6559999999999
 31
0.0
  0
LINE
  5
C448
330
C423
100
AcDbEntity
  8
1
  6
Continuous
100
AcDbLine
 10
148.0459519999998
 20
171.6559999999998
 30
0.0
 11
148.0459519999998
 21
181.1559999999998
 31
0.0
  0
LINE
  5
C449
330
C423
100
AcDbEntity
  8
1
  6
Continuous
100
AcDbLine
 10
129.545952
 20
173.6559999999998
 30
0.0
 11
129.545952
 21
181.1559999999998
 31
0.0
  0
LINE
  5
C44A
330
C423
100
AcDbEntity
  8
1
  6
Continuous
100
AcDbLine
 10
127.545952
 20
173.654
 30
0.0
 11
127.545952
 21
179.654
 31
0.0
  0
LINE
  5
C44B
330
C423
100
AcDbEntity
  8
4
  6
CENTER
100
AcDbLine
 10
138.795952
 20
88.49997100000001
 30
0.0
 11
138.795952
 21
185.6559999999998
 31
0.0
  0
LINE
  5
C44C
330
C423
100
AcDbEntity
  8
1
  6
Continuous
100
AcDbLine
 10
131.0459519999998
 20
182.6559999999998
 30
0.0
 11
146.545952
 21
182.6559999999998
 31
0.0
  0
LINE
  5
C44D
330
C423
100
AcDbEntity
  8
1
  6
Continuous
100
AcDbLine
 10
133.2959519999998
 20
222.6567999999998
 30
0.0
 11
144.295952
 21
222.6567999999998
 31
0.0
  0
LINE
  5
C44E
330
C423
100
AcDbEntity
  8
1
  6
Continuous
100
AcDbLine
 10
133.2959519999998
 20
238.1568
 30
0.0
 11
144.295952
 21
238.1568
 31
0.0
  0
LINE
  5
C44F
330
C423
100
AcDbEntity
  8
4
  6
CENTER
100
AcDbLine
 10
92.49595199999999
 20
230.4068
 30
0.0
 11
185.095952
 21
230.4068
 31
0.0
  0
LINE
  5
C450
330
C423
100
AcDbEntity
  8
4
  6
CENTER
100
AcDbLine
 10
244.845952
 20
88.49997100000001
 30
0.0
 11
244.845952
 21
185.6560379999999
 31
0.0
  0
LINE
  5
C451
330
C423
100
AcDbEntity
  8
1
  6
Continuous
100
AcDbLine
 10
156.045952
 20
226.4067999999999
 30
0.0
 11
156.045952
 21
234.4068
 31
0.0
  0
LINE
  5
C452
330
C423
100
AcDbEntity
  8
1
  6
Continuous
100
AcDbLine
 10
152.0459519999998
 20
225.1568
 30
0.0
 11
152.0459519999998
 21
235.6568
 31
0.0
  0
LINE
  5
C453
330
C423
100
AcDbEntity
  8
1
  6
Continuous
100
AcDbLine
 10
148.0459519999998
 20
225.1568
 30
0.0
 11
148.0459519999998
 21
235.6568
 31
0.0
  0
LINE
  5
C454
330
C423
100
AcDbEntity
  8
4
  6
CENTER
100
AcDbLine
 10
138.795952
 20
219.6568
 30
0.0
 11
138.795952
 21
241.1567999999999
 31
0.0
  0
LINE
  5
C455
330
C423
100
AcDbEntity
  8
1
  6
Continuous
100
AcDbLine
 10
129.545952
 20
225.1568
 30
0.0
 11
129.545952
 21
235.6568
 31
0.0
  0
LINE
  5
C456
330
C423
100
AcDbEntity
  8
1
  6
Continuous
100
AcDbLine
 10
127.545952
 20
227.4068
 30
0.0
 11
127.545952
 21
233.4068
 31
0.0
  0
LINE
  5
C457
330
C423
100
AcDbEntity
  8
1
  6
Continuous
100
AcDbLine
 10
127.545952
 20
173.6559999999998
 30
0.0
 11
133.2959519999998
 21
173.6559999999998
 31
0.0
  0
LINE
  5
C458
330
C423
100
AcDbEntity
  8
1
  6
Continuous
100
AcDbLine
 10
127.545952
 20
179.6559999999999
 30
0.0
 11
129.545952
 21
179.6559999999999
 31
0.0
  0
ARC
  5
C459
330
C423
100
AcDbEntity
  8
1
  6
Continuous
100
AcDbCircle
 10
131.0459519999998
 20
181.1559999999998
 30
0.0
 40
1.5
100
AcDbArc
 50
90.0
 51
180.0
  0
ARC
  5
C45A
330
C423
100
AcDbEntity
  8
1
  6
Continuous
100
AcDbCircle
 10
146.545952
 20
181.1559999999998
 30
0.0
 40
1.5
100
AcDbArc
 50
0.0
 51
90.0
  0
ARC
  5
C45B
330
C423
100
AcDbEntity
  8
1
  6
Continuous
100
AcDbCircle
 10
138.795952
 20
170.461556
 30
0.0
 40
7.694443999999997
100
AcDbArc
 50
24.52954699999999
 51
155.4704529999999
  0
LINE
  5
C45C
330
C423
100
AcDbEntity
  8
1
  6
Continuous
100
AcDbLine
 10
144.295952
 20
173.6559999999998
 30
0.0
 11
144.045952
 21
170.6559999999998
 31
0.0
  0
LINE
  5
C45D
330
C423
100
AcDbEntity
  8
1
  6
Continuous
100
AcDbLine
 10
133.2959519999998
 20
173.6559999999998
 30
0.0
 11
133.545952
 21
170.6559999999998
 31
0.0
  0
ARC
  5
C45E
330
C423
100
AcDbEntity
  8
1
  6
Continuous
100
AcDbCircle
 10
138.795952
 20
169.654214
 30
0.0
 40
6.801785999999997
100
AcDbArc
 50
36.039539
 51
143.960461
  0
LINE
  5
C45F
330
C423
100
AcDbEntity
  8
1
  6
Continuous
100
AcDbLine
 10
144.295952
 20
173.6559999999998
 30
0.0
 11
148.0459519999998
 21
173.6559999999998
 31
0.0
  0
LINE
  5
C460
330
C423
100
AcDbEntity
  8
1
  6
Continuous
100
AcDbLine
 10
148.0459519999998
 20
181.1559999999998
 30
0.0
 11
152.0459519999998
 21
181.6559999999999
 31
0.0
  0
LINE
  5
C461
330
C423
100
AcDbEntity
  8
1
  6
Continuous
100
AcDbLine
 10
148.0459519999998
 20
171.6559999999998
 30
0.0
 11
152.0459519999998
 21
171.1559999999998
 31
0.0
  0
LINE
  5
C462
330
C423
100
AcDbEntity
  8
4
  6
CENTER
100
AcDbLine
 10
122.545952
 20
176.4059999999998
 30
0.0
 11
159.045952
 21
176.4059999999998
 31
0.0
  0
LINE
  5
C463
330
C423
100
AcDbEntity
  8
1
  6
Continuous
100
AcDbLine
 10
152.0459519999998
 20
181.025
 30
0.0
 11
156.045952
 21
181.025
 31
0.0
  0
LINE
  5
C464
330
C423
100
AcDbEntity
  8
1
  6
Continuous
100
AcDbLine
 10
152.0459519999998
 20
171.787
 30
0.0
 11
156.045952
 21
171.787
 31
0.0
  0
LINE
  5
C465
330
C423
100
AcDbEntity
  8
1
  6
Continuous
100
AcDbLine
 10
153.0459519999998
 20
177.2059999999999
 30
0.0
 11
156.045952
 21
177.2059999999999
 31
0.0
  0
LINE
  5
C466
330
C423
100
AcDbEntity
  8
1
  6
Continuous
100
AcDbLine
 10
153.0459519999998
 20
175.6059999999999
 30
0.0
 11
156.045952
 21
175.6059999999999
 31
0.0
  0
LINE
  5
C467
330
C423
100
AcDbEntity
  8
1
  6
Continuous
100
AcDbLine
 10
153.0459519999998
 20
175.6059999999999
 30
0.0
 11
153.0459519999998
 21
177.2059999999999
 31
0.0
  0
LINE
  5
C468
330
C423
100
AcDbEntity
  8
1
  6
Continuous
100
AcDbLine
 10
156.045952
 20
177.2059999999999
 30
0.0
 11
156.045952
 21
181.025
 31
0.0
  0
LINE
  5
C469
330
C423
100
AcDbEntity
  8
1
  6
Continuous
100
AcDbLine
 10
152.0459519999998
 20
178.7155
 30
0.0
 11
154.545952
 21
178.7155
 31
0.0
  0
LINE
  5
C46A
330
C423
100
AcDbEntity
  8
1
  6
Continuous
100
AcDbLine
 10
152.0459519999998
 20
174.0964999999999
 30
0.0
 11
154.545952
 21
174.0964999999999
 31
0.0
  0
LINE
  5
C46B
330
C423
100
AcDbEntity
  8
1
  6
Continuous
100
AcDbLine
 10
154.545952
 20
178.7155
 30
0.0
 11
156.045952
 21
178.1155
 31
0.0
  0
LINE
  5
C46C
330
C423
100
AcDbEntity
  8
1
  6
Continuous
100
AcDbLine
 10
154.545952
 20
178.7155
 30
0.0
 11
156.045952
 21
179.3154999999999
 31
0.0
  0
LINE
  5
C46D
330
C423
100
AcDbEntity
  8
1
  6
Continuous
100
AcDbLine
 10
154.545952
 20
174.0964999999999
 30
0.0
 11
156.045952
 21
174.6964999999999
 31
0.0
  0
LINE
  5
C46E
330
C423
100
AcDbEntity
  8
1
  6
Continuous
100
AcDbLine
 10
154.545952
 20
174.0964999999999
 30
0.0
 11
156.045952
 21
173.4965
 31
0.0
  0
LINE
  5
C46F
330
C423
100
AcDbEntity
  8
4
  6
CENTER
100
AcDbLine
 10
234.095952
 20
176.406038
 30
0.0
 11
255.595952
 21
176.406038
 31
0.0
  0
ARC
  5
C470
330
C423
100
AcDbEntity
  8
1
  6
Continuous
100
AcDbCircle
 10
244.845952
 20
176.406038
 30
0.0
 40
3.0
100
AcDbArc
 50
15.46601
 51
164.5339899999999
  0
LINE
  5
C471
330
C423
100
AcDbEntity
  8
1
  6
Continuous
100
AcDbLine
 10
240.845952
 20
177.2060379999999
 30
0.0
 11
248.845952
 21
177.2060379999999
 31
0.0
  0
LINE
  5
C472
330
C423
100
AcDbEntity
  8
1
  6
Continuous
100
AcDbLine
 10
240.845952
 20
175.6060379999999
 30
0.0
 11
248.845952
 21
175.6060379999999
 31
0.0
  0
ARC
  5
C473
330
C423
100
AcDbEntity
  8
1
  6
Continuous
100
AcDbCircle
 10
244.845952
 20
176.406038
 30
0.0
 40
3.0
100
AcDbArc
 50
195.4660099999999
 51
344.53399
  0
CIRCLE
  5
C474
330
C423
100
AcDbEntity
  8
1
  6
Continuous
100
AcDbCircle
 10
244.845952
 20
176.406038
 30
0.0
 40
5.25
  0
LINE
  5
C475
330
C423
100
AcDbEntity
  8
1
  6
Continuous
100
AcDbLine
 10
251.095952
 20
173.656038
 30
0.0
 11
251.095952
 21
177.1560379999999
 31
0.0
  0
LINE
  5
C476
330
C423
100
AcDbEntity
  8
1
  6
Continuous
100
AcDbLine
 10
238.595952
 20
173.656038
 30
0.0
 11
238.595952
 21
177.1560379999999
 31
0.0
  0
LINE
  5
C477
330
C423
100
AcDbEntity
  8
1
  6
Continuous
100
AcDbLine
 10
238.3421769999999
 20
173.656038
 30
0.0
 11
240.373816
 21
173.656038
 31
0.0
  0
ARC
  5
C478
330
C423
100
AcDbEntity
  8
1
  6
Continuous
100
AcDbCircle
 10
244.845952
 20
176.354902
 30
0.0
 40
6.301135999999998
100
AcDbArc
 50
7.304446000000001
 51
172.6955539999999
  0
LINE
  5
C479
330
C423
100
AcDbEntity
  8
1
  6
Continuous
100
AcDbLine
 10
249.3180869999999
 20
173.656038
 30
0.0
 11
251.336102
 21
173.656038
 31
0.0
  0
ARC
  5
C47A
330
C423
100
AcDbEntity
  8
1
  6
Continuous
100
AcDbCircle
 10
238.595952
 20
172.1560379999999
 30
0.0
 40
1.5
100
AcDbArc
 50
180.0
 51
260.405932
  0
ARC
  5
C47B
330
C423
100
AcDbEntity
  8
1
  6
Continuous
100
AcDbCircle
 10
251.095952
 20
172.1560379999999
 30
0.0
 40
1.5
100
AcDbArc
 50
279.594068
 51
355.7894899999998
  0
LINE
  5
C47C
330
C423
100
AcDbEntity
  8
1
  6
Continuous
100
AcDbLine
 10
152.0459519999998
 20
234.4068
 30
0.0
 11
156.045952
 21
234.4068
 31
0.0
  0
LINE
  5
C47D
330
C423
100
AcDbEntity
  8
1
  6
Continuous
100
AcDbLine
 10
152.0459519999998
 20
226.4067999999999
 30
0.0
 11
156.045952
 21
226.4067999999999
 31
0.0
  0
LINE
  5
C47E
330
C423
100
AcDbEntity
  8
1
  6
Continuous
100
AcDbLine
 10
152.0459519999998
 20
235.6568
 30
0.0
 11
148.0459519999998
 21
235.1567999999998
 31
0.0
  0
LINE
  5
C47F
330
C423
100
AcDbEntity
  8
1
  6
Continuous
100
AcDbLine
 10
152.0459519999998
 20
225.1568
 30
0.0
 11
148.0459519999998
 21
225.6568
 31
0.0
  0
LINE
  5
C480
330
C423
100
AcDbEntity
  8
1
  6
Continuous
100
AcDbLine
 10
130.545952
 20
236.6568
 30
0.0
 11
131.795952
 21
236.6568
 31
0.0
  0
LINE
  5
C481
330
C423
100
AcDbEntity
  8
1
  6
Continuous
100
AcDbLine
 10
130.545952
 20
224.1568
 30
0.0
 11
131.795952
 21
224.1568
 31
0.0
  0
LINE
  5
C482
330
C423
100
AcDbEntity
  8
1
  6
Continuous
100
AcDbLine
 10
127.545952
 20
233.4068
 30
0.0
 11
129.545952
 21
233.4068
 31
0.0
  0
LINE
  5
C483
330
C423
100
AcDbEntity
  8
1
  6
Continuous
100
AcDbLine
 10
127.545952
 20
227.4068
 30
0.0
 11
129.545952
 21
227.4068
 31
0.0
  0
ARC
  5
C484
330
C423
100
AcDbEntity
  8
1
  6
Continuous
100
AcDbCircle
 10
129.795952
 20
230.4068
 30
0.0
 40
3.75
100
AcDbArc
 50
126.869898
 51
233.130102
  0
ARC
  5
C485
330
C423
100
AcDbEntity
  8
1
  6
Continuous
100
AcDbCircle
 10
147.045952
 20
235.6568
 30
0.0
 40
1.0
100
AcDbArc
 50
0.0
 51
90.0
  0
ARC
  5
C486
330
C423
100
AcDbEntity
  8
1
  6
Continuous
100
AcDbCircle
 10
147.045952
 20
225.1568
 30
0.0
 40
1.0
100
AcDbArc
 50
270.0
 51
0.0
  0
ARC
  5
C487
330
C423
100
AcDbEntity
  8
1
  6
Continuous
100
AcDbCircle
 10
130.545952
 20
225.1568
 30
0.0
 40
1.0
100
AcDbArc
 50
180.0
 51
270.0
  0
ARC
  5
C488
330
C423
100
AcDbEntity
  8
1
  6
Continuous
100
AcDbCircle
 10
130.545952
 20
235.6568
 30
0.0
 40
1.0
100
AcDbArc
 50
90.0
 51
180.0
  0
ARC
  5
C489
330
C423
100
AcDbEntity
  8
1
  6
Continuous
100
AcDbCircle
 10
138.795952
 20
255.6318
 30
0.0
 40
20.225
100
AcDbArc
 50
249.750657
 51
290.249343
  0
ARC
  5
C48A
330
C423
100
AcDbEntity
  8
1
  6
Continuous
100
AcDbCircle
 10
138.795952
 20
205.1817999999999
 30
0.0
 40
20.225
100
AcDbArc
 50
69.75065699999999
 51
110.249343
  0
LINE
  5
C48B
330
C423
100
AcDbEntity
  8
1
  6
Continuous
100
AcDbLine
 10
144.295952
 20
238.1568
 30
0.0
 11
145.7959519999998
 21
236.6568
 31
0.0
  0
LINE
  5
C48C
330
C423
100
AcDbEntity
  8
1
  6
Continuous
100
AcDbLine
 10
133.2959519999998
 20
238.1568
 30
0.0
 11
131.795952
 21
236.6568
 31
0.0
  0
LINE
  5
C48D
330
C423
100
AcDbEntity
  8
1
  6
Continuous
100
AcDbLine
 10
131.795952
 20
224.1568
 30
0.0
 11
133.2959519999998
 21
222.6567999999998
 31
0.0
  0
LINE
  5
C48E
330
C423
100
AcDbEntity
  8
1
  6
Continuous
100
AcDbLine
 10
145.7959519999998
 20
224.1568
 30
0.0
 11
144.295952
 21
222.6567999999998
 31
0.0
  0
LINE
  5
C48F
330
C423
100
AcDbEntity
  8
1
  6
Continuous
100
AcDbLine
 10
145.7959519999998
 20
236.6568
 30
0.0
 11
147.045952
 21
236.6568
 31
0.0
  0
LINE
  5
C490
330
C423
100
AcDbEntity
  8
1
  6
Continuous
100
AcDbLine
 10
145.7959519999998
 20
224.1568
 30
0.0
 11
147.045952
 21
224.1568
 31
0.0
  0
LINE
  5
C491
330
C423
100
AcDbEntity
  8
1
  6
Continuous
100
AcDbLine
 10
156.045952
 20
231.0068
 30
0.0
 11
154.545952
 21
230.4068
 31
0.0
  0
LINE
  5
C492
330
C423
100
AcDbEntity
  8
1
  6
Continuous
100
AcDbLine
 10
154.545952
 20
230.4068
 30
0.0
 11
156.045952
 21
229.8068
 31
0.0
  0
LINE
  5
C493
330
C423
100
AcDbEntity
  8
1
  6
Continuous
100
AcDbLine
 10
154.545952
 20
230.4068
 30
0.0
 11
152.0459519999998
 21
230.4068
 31
0.0
  0
LINE
  5
C494
330
C423
100
AcDbEntity
  8
1
  6
Continuous
100
AcDbLine
 10
251.652706
 20
171.569804
 30
0.0
 11
251.345952
 21
171.5559999999999
 31
0.0
  0
LINE
  5
C495
330
C423
100
AcDbEntity
  8
1
  6
Continuous
100
AcDbLine
 10
238.016718
 20
171.5708159999998
 30
0.0
 11
238.345952
 21
171.5559999999999
 31
0.0
  0
LINE
  5
C496
330
C423
100
AcDbEntity
  8
1
  6
Continuous
100
AcDbLine
 10
100.495952
 20
236.9067999999999
 30
0.0
 11
132.0459519999998
 21
236.9067999999999
 31
0.0
  0
LINE
  5
C497
330
C423
100
AcDbEntity
  8
1
  6
Continuous
100
AcDbLine
 10
100.495952
 20
223.9068
 30
0.0
 11
132.0459519999998
 21
223.9068
 31
0.0
  0
LINE
  5
C498
330
C423
100
AcDbEntity
  8
1
  6
Continuous
100
AcDbLine
 10
145.5459519999998
 20
236.9067999999999
 30
0.0
 11
177.095952
 21
236.9067999999999
 31
0.0
  0
LINE
  5
C499
330
C423
100
AcDbEntity
  8
1
  6
Continuous
100
AcDbLine
 10
145.5459519999998
 20
223.9068
 30
0.0
 11
177.095952
 21
223.9068
 31
0.0
  0
ARC
  5
C49A
330
C423
100
AcDbEntity
  8
1
  6
Continuous
100
AcDbCircle
 10
129.7732849999999
 20
176.655
 30
0.0
 40
3.735641
100
AcDbArc
 50
126.600977
 51
233.399023
  0
LINE
  5
C49B
330
C423
100
AcDbEntity
  8
1
  6
Continuous
100
AcDbLine
 10
251.345952
 20
96.499971
 30
0.0
 11
251.345952
 21
173.1924249999999
 31
0.0
  0
LINE
  5
C49C
330
C423
100
AcDbEntity
  8
1
  6
Continuous
100
AcDbLine
 10
238.345952
 20
96.499971
 30
0.0
 11
238.345952
 21
173.1924249999999
 31
0.0
  0
ARC
  5
C49D
330
C423
100
AcDbEntity
  8
1
  6
Continuous
100
AcDbCircle
 10
250.845952
 20
176.9612889999999
 30
0.0
 40
1.0
100
AcDbArc
 50
0.0
 51
84.600387
  0
ARC
  5
C49E
330
C423
100
AcDbEntity
  8
1
  6
Continuous
100
AcDbCircle
 10
238.845952
 20
176.9612889999999
 30
0.0
 40
1.0
100
AcDbArc
 50
95.39961299999999
 51
180.0
  0
LINE
  5
C49F
330
C423
100
AcDbEntity
  8
1
  6
Continuous
100
AcDbLine
 10
251.8459519999999
 20
176.9612889999999
 30
0.0
 11
252.5919029999998
 21
172.045906
 31
0.0
  0
LINE
  5
C4A0
330
C423
100
AcDbEntity
  8
1
  6
Continuous
100
AcDbLine
 10
237.845952
 20
176.9612889999999
 30
0.0
 11
237.0959519999999
 21
172.1560379999999
 31
0.0
  0
ARC
  5
C4A1
330
C423
100
AcDbEntity
  8
1
  6
Continuous
100
AcDbCircle
 10
32.75
 20
176.354902
 30
0.0
 40
6.301135999999998
100
AcDbArc
 50
7.304446000000001
 51
172.6955539999999
  0
LINE
  5
C4A2
330
C423
100
AcDbEntity
  8
4
  6
CENTER
100
AcDbLine
 10
32.75
 20
88.49997100000001
 30
0.0
 11
32.75
 21
185.6560379999999
 31
0.0
  0
LINE
  5
C4A3
330
C423
100
AcDbEntity
  8
1
  6
Continuous
100
AcDbLine
 10
26.25
 20
96.499971
 30
0.0
 11
26.25
 21
172.9564659999998
 31
0.0
  0
LINE
  5
C4A4
330
C423
100
AcDbEntity
  8
1
  6
Continuous
100
AcDbLine
 10
39.25
 20
96.499971
 30
0.0
 11
39.25
 21
172.9564659999998
 31
0.0
  0
LINE
  5
C4A5
330
C423
100
AcDbEntity
  8
4
  6
CENTER
100
AcDbLine
 10
22.0
 20
176.406038
 30
0.0
 11
43.5
 21
176.406038
 31
0.0
  0
LINE
  5
C4A6
330
C423
100
AcDbEntity
  8
1
  6
Continuous
100
AcDbLine
 10
25.75
 20
176.9612889999999
 30
0.0
 11
25.0
 21
172.1560379999999
 31
0.0
  0
ARC
  5
C4A7
330
C423
100
AcDbEntity
  8
1
  6
Continuous
100
AcDbCircle
 10
26.75
 20
176.9612889999999
 30
0.0
 40
1.0
100
AcDbArc
 50
95.39961299999999
 51
180.0
  0
LINE
  5
C4A8
330
C423
100
AcDbEntity
  8
1
  6
Continuous
100
AcDbLine
 10
25.920766
 20
171.5708159999998
 30
0.0
 11
26.25
 21
171.5559999999999
 31
0.0
  0
ARC
  5
C4A9
330
C423
100
AcDbEntity
  8
1
  6
Continuous
100
AcDbCircle
 10
26.5
 20
172.1560379999999
 30
0.0
 40
1.5
100
AcDbArc
 50
180.0
 51
260.405932
  0
LINE
  5
C4AA
330
C423
100
AcDbEntity
  8
1
  6
Continuous
100
AcDbLine
 10
26.246226
 20
173.656038
 30
0.0
 11
27.833508
 21
173.656038
 31
0.0
  0
LINE
  5
C4AB
330
C423
100
AcDbEntity
  8
1
  6
Continuous
100
AcDbLine
 10
26.5
 20
173.656038
 30
0.0
 11
26.5
 21
177.1560379999999
 31
0.0
  0
LINE
  5
C4AC
330
C423
100
AcDbEntity
  8
1
  6
Continuous
100
AcDbLine
 10
39.75
 20
176.9612889999999
 30
0.0
 11
40.495952
 21
172.045906
 31
0.0
  0
ARC
  5
C4AD
330
C423
100
AcDbEntity
  8
1
  6
Continuous
100
AcDbCircle
 10
38.75
 20
176.9612889999999
 30
0.0
 40
1.0
100
AcDbArc
 50
0.0
 51
84.600387
  0
LINE
  5
C4AE
330
C423
100
AcDbEntity
  8
1
  6
Continuous
100
AcDbLine
 10
39.556754
 20
171.569804
 30
0.0
 11
39.25
 21
171.5559999999999
 31
0.0
  0
ARC
  5
C4AF
330
C423
100
AcDbEntity
  8
1
  6
Continuous
100
AcDbCircle
 10
39.0
 20
172.1560379999999
 30
0.0
 40
1.5
100
AcDbArc
 50
279.594068
 51
355.7894899999998
  0
LINE
  5
C4B0
330
C423
100
AcDbEntity
  8
1
  6
Continuous
100
AcDbLine
 10
37.66649199999999
 20
173.656038
 30
0.0
 11
39.24015
 21
173.656038
 31
0.0
  0
LINE
  5
C4B1
330
C423
100
AcDbEntity
  8
1
  6
Continuous
100
AcDbLine
 10
39.0
 20
173.656038
 30
0.0
 11
39.0
 21
177.1560379999999
 31
0.0
  0
LINE
  5
C4B2
330
C423
100
AcDbEntity
  8
4
  6
CENTER
100
AcDbLine
 10
138.795952
 20
36.0
 30
0.0
 11
138.795952
 21
61.5
 31
0.0
  0
LINE
  5
C4B3
330
C423
100
AcDbEntity
  8
1
  6
Continuous
100
AcDbLine
 10
100.495952
 20
42.25
 30
0.0
 11
177.095952
 21
42.25
 31
0.0
  0
LINE
  5
C4B4
330
C423
100
AcDbEntity
  8
1
  6
Continuous
100
AcDbLine
 10
133.2959519999998
 20
41.0
 30
0.0
 11
144.295952
 21
41.0
 31
0.0
  0
LINE
  5
C4B5
330
C423
100
AcDbEntity
  8
1
  6
Continuous
100
AcDbLine
 10
100.495952
 20
55.25
 30
0.0
 11
177.095952
 21
55.25
 31
0.0
  0
LINE
  5
C4B6
330
C423
100
AcDbEntity
  8
4
  6
CENTER
100
AcDbLine
 10
92.49595199999999
 20
48.75
 30
0.0
 11
185.095952
 21
48.75
 31
0.0
  0
LINE
  5
C4B7
330
C423
100
AcDbEntity
  8
1
  6
Continuous
100
AcDbLine
 10
133.2959519999998
 20
56.5
 30
0.0
 11
144.295952
 21
56.5
 31
0.0
  0
LINE
  5
C4B8
330
C423
100
AcDbEntity
  8
1
  6
Continuous
100
AcDbLine
 10
133.5112279999999
 20
171.0726879999999
 30
0.0
 11
129.895895
 21
166.8269629999998
 31
0.0
  0
LINE
  5
C4B9
330
C423
100
AcDbEntity
  8
1
  6
Continuous
100
AcDbLine
 10
133.4409799999999
 20
171.915658
 30
0.0
 11
129.439075
 21
167.215956
 31
0.0
  0
LINE
  5
C4BA
330
C423
100
AcDbEntity
  8
1
  6
Continuous
100
AcDbLine
 10
129.439075
 20
167.215956
 30
0.0
 11
129.895895
 21
166.8269629999998
 31
0.0
  0
LINE
  5
C4BB
330
C423
100
AcDbEntity
  8
1
  6
Continuous
100
AcDbLine
 10
130.995046
 20
169.043236
 30
0.0
 11
131.451866
 21
168.6542429999998
 31
0.0
  0
CIRCLE
  5
C4BC
330
C423
100
AcDbEntity
  8
1
  6
Continuous
100
AcDbCircle
 10
32.75
 20
176.654
 30
0.0
 40
3.0
  0
LINE
  5
C4BD
330
C423
100
AcDbEntity
  8
1
  6
Continuous
100
AcDbLine
 10
29.75
 20
176.654
 30
0.0
 11
28.75649199999999
 21
174.2712
 31
0.0
  0
LINE
  5
C4BE
330
C423
100
AcDbEntity
  8
1
  6
Continuous
100
AcDbLine
 10
35.75
 20
176.654
 30
0.0
 11
36.743508
 21
174.2712
 31
0.0
  0
ARC
  5
C4BF
330
C423
100
AcDbEntity
  8
1
  6
Continuous
100
AcDbCircle
 10
37.66649199999999
 20
174.656038
 30
0.0
 40
1.0
100
AcDbArc
 50
202.6336909999999
 51
270.0
  0
ARC
  5
C4C0
330
C423
100
AcDbEntity
  8
1
  6
Continuous
100
AcDbCircle
 10
27.833508
 20
174.656038
 30
0.0
 40
1.0
100
AcDbArc
 50
270.0
 51
337.3663089999999
  0
LINE
  5
C4C1
330
C423
100
AcDbEntity
  8
1
  6
Continuous
100
AcDbLine
 10
133.545952
 20
56.5
 30
0.0
 11
133.545952
 21
55.25
 31
0.0
  0
LINE
  5
C4C2
330
C423
100
AcDbEntity
  8
1
  6
Continuous
100
AcDbLine
 10
144.045952
 20
41.00044699999997
 30
0.0
 11
144.045952
 21
42.25
 31
0.0
  0
LINE
  5
C4C3
330
C423
100
AcDbEntity
  8
1
  6
Continuous
100
AcDbLine
 10
144.295952
 20
56.5
 30
0.0
 11
144.295952
 21
55.25
 31
0.0
  0
LINE
  5
C4C4
330
C423
100
AcDbEntity
  8
1
  6
Continuous
100
AcDbLine
 10
133.2959519999998
 20
56.5
 30
0.0
 11
133.2959519999998
 21
55.25
 31
0.0
  0
LINE
  5
C4C5
330
C423
100
AcDbEntity
  8
1
  6
Continuous
100
AcDbLine
 10
133.2959519999998
 20
56.5
 30
0.0
 11
132.0459519999998
 21
55.25
 31
0.0
  0
LINE
  5
C4C6
330
C423
100
AcDbEntity
  8
1
  6
Continuous
100
AcDbLine
 10
144.295952
 20
56.5
 30
0.0
 11
145.5459519999998
 21
55.25
 31
0.0
  0
LINE
  5
C4C7
330
C423
100
AcDbEntity
  8
1
  6
Continuous
100
AcDbLine
 10
133.2959519999998
 20
41.00044699999997
 30
0.0
 11
132.046026
 21
42.25
 31
0.0
  0
LINE
  5
C4C8
330
C423
100
AcDbEntity
  8
1
  6
Continuous
100
AcDbLine
 10
144.295952
 20
41.0
 30
0.0
 11
145.5459519999998
 21
42.25
 31
0.0
  0
LINE
  5
C4C9
330
C423
100
AcDbEntity
  8
1
  6
Continuous
100
AcDbLine
 10
144.295952
 20
42.25
 30
0.0
 11
144.295952
 21
41.00044699999997
 31
0.0
  0
LINE
  5
C4CA
330
C423
100
AcDbEntity
  8
1
  6
Continuous
100
AcDbLine
 10
144.045952
 20
55.25
 30
0.0
 11
144.045952
 21
56.5
 31
0.0
  0
LINE
  5
C4CB
330
C423
100
AcDbEntity
  8
1
  6
Continuous
100
AcDbLine
 10
133.545952
 20
42.25
 30
0.0
 11
133.545952
 21
41.00044699999997
 31
0.0
  0
LINE
  5
C4CC
330
C423
100
AcDbEntity
  8
1
  6
Continuous
100
AcDbLine
 10
133.2959519999998
 20
42.25
 30
0.0
 11
133.2959519999998
 21
41.00044699999997
 31
0.0
  0
LINE
  5
C4CD
330
C423
100
AcDbEntity
  8
1
  6
Continuous
100
AcDbLine
 10
238.3421769999999
 20
173.656038
 30
0.0
 11
238.016718
 21
171.5708159999998
 31
0.0
  0
LINE
  5
C4CE
330
C423
100
AcDbEntity
  8
1
  6
Continuous
100
AcDbLine
 10
251.336102
 20
173.656038
 30
0.0
 11
251.652706
 21
171.569804
 31
0.0
  0
LINE
  5
C4CF
330
C423
100
AcDbEntity
  8
1
  6
Continuous
100
AcDbLine
 10
26.246226
 20
173.656038
 30
0.0
 11
25.920766
 21
171.5708159999998
 31
0.0
  0
LINE
  5
C4D0
330
C423
100
AcDbEntity
  8
1
  6
Continuous
100
AcDbLine
 10
39.24015
 20
173.656038
 30
0.0
 11
39.556754
 21
171.569804
 31
0.0
  0
LINE
  5
C4D1
330
C423
100
AcDbEntity
  8
1
  6
Continuous
100
AcDbLine
 10
26.25
 20
172.9564659999998
 30
0.0
 11
39.25
 21
172.9564659999998
 31
0.0
  0
LINE
  5
C4D2
330
C423
100
AcDbEntity
  8
1
  6
Continuous
100
AcDbLine
 10
238.345952
 20
173.1924249999999
 30
0.0
 11
240.694423
 21
173.1924249999999
 31
0.0
  0
LINE
  5
C4D3
330
C423
100
AcDbEntity
  8
1
  6
Continuous
100
AcDbLine
 10
248.9974799999999
 20
173.1924249999999
 30
0.0
 11
251.345952
 21
173.1924249999999
 31
0.0
  0
ARC
  5
C4D4
330
C423
100
AcDbEntity
  8
5
  6
PHANTOM
100
AcDbCircle
 10
139.0218989999999
 20
138.839865
 30
0.0
 40
33.5
100
AcDbArc
 50
99.583618
 51
52.39281199999999
  0
ARC
  5
C4D5
330
C423
100
AcDbEntity
  8
1
  6
Continuous
100
AcDbCircle
 10
138.795952
 20
134.799971
 30
0.0
 40
37.5
100
AcDbArc
 50
98.209859
 51
53.424853
  0
ARC
  5
C4D6
330
C423
100
AcDbEntity
  8
5
  6
PHANTOM
100
AcDbCircle
 10
139.0218989999999
 20
138.839865
 30
0.0
 40
34.29999999999999
100
AcDbArc
 50
99.47094200000002
 51
52.47473000000002
  0
ARC
  5
C4D7
330
C423
100
AcDbEntity
  8
5
  6
PHANTOM
100
AcDbCircle
 10
139.0218989999999
 20
138.839865
 30
0.0
 40
35.1
100
AcDbArc
 50
7.335403999999999
 51
52.55302
  0
ARC
  5
C4D8
330
C423
100
AcDbEntity
  8
1
  6
Continuous
100
AcDbCircle
 10
138.795952
 20
134.799971
 30
0.0
 40
38.3
100
AcDbArc
 50
98.13779100000001
 51
53.49721899999998
  0
LINE
  5
C4D9
330
C423
100
AcDbEntity
  8
5
  6
PHANTOM
100
AcDbLine
 10
173.0411789999998
 20
143.219202
 30
0.0
 11
173.8346319999999
 21
143.3213439999998
 31
0.0
  0
LINE
  5
C4DA
330
C423
100
AcDbEntity
  8
4
  6
CENTER
100
AcDbLine
 10
18.25
 20
134.799971
 30
0.0
 11
47.25
 21
134.799971
 31
0.0
  0
LINE
  5
C4DB
330
C423
100
AcDbEntity
  8
1
  6
Continuous
100
AcDbLine
 10
162.016903
 20
166.257838
 30
0.0
 11
161.5385149999999
 21
165.609757
 31
0.0
  0
LINE
  5
C4DC
330
C423
100
AcDbEntity
  8
1
  6
Continuous
100
AcDbLine
 10
26.25
 20
96.499971
 30
0.0
 11
39.25
 21
96.499971
 31
0.0
  0
LINE
  5
C4DD
330
C423
100
AcDbEntity
  8
1
  6
Continuous
100
AcDbLine
 10
100.495952
 20
236.9067999999999
 30
0.0
 11
100.495952
 21
223.9068
 31
0.0
  0
LINE
  5
C4DE
330
C423
100
AcDbEntity
  8
1
  6
Continuous
100
AcDbLine
 10
177.095952
 20
236.9067999999999
 30
0.0
 11
177.095952
 21
223.9068
 31
0.0
  0
LINE
  5
C4DF
330
C423
100
AcDbEntity
  8
4
  6
CENTER
100
AcDbLine
 10
92.49595199999999
 20
134.799971
 30
0.0
 11
185.095952
 21
134.799971
 31
0.0
  0
LINE
  5
C4E0
330
C423
100
AcDbEntity
  8
4
  6
CENTER
100
AcDbLine
 10
230.345952
 20
134.799971
 30
0.0
 11
259.345952
 21
134.799971
 31
0.0
  0
LINE
  5
C4E1
330
C423
100
AcDbEntity
  8
1
  6
Continuous
100
AcDbLine
 10
238.345952
 20
96.499971
 30
0.0
 11
251.345952
 21
96.499971
 31
0.0
  0
LINE
  5
C4E2
330
C423
100
AcDbEntity
  8
1
  6
Continuous
100
AcDbLine
 10
177.095952
 20
55.25
 30
0.0
 11
177.095952
 21
42.25
 31
0.0
  0
LINE
  5
C4E3
330
C423
100
AcDbEntity
  8
1
  6
Continuous
100
AcDbLine
 10
100.495952
 20
55.25
 30
0.0
 11
100.495952
 21
42.25
 31
0.0
  0
TEXT
  5
C4E4
330
C423
100
AcDbEntity
  8
1
  6
Continuous
100
AcDbText
 10
10.0
 20
10.0
 30
0.0
 40
1.399999999999999
  1
LAYER
100
AcDbText
  0
LINE
  5
C4E5
330
C423
100
AcDbEntity
  8
1
  6
Continuous
100
AcDbLine
 10
32.98460099999999
 20
148.5633729999999
 30
0.0
 11
35.54407799999999
 21
148.5633729999999
 31
0.0
  0
ARC
  5
C4E6
330
C423
100
AcDbEntity
  8
1
  6
Continuous
100
AcDbCircle
 10
35.54407799999999
 20
148.8633729999999
 30
0.0
 40
0.3
100
AcDbArc
 50
270.0
 51
90.0
  0
ARC
  5
C4E7
330
C423
100
AcDbEntity
  8
1
  6
Continuous
100
AcDbCircle
 10
29.84407800000001
 20
149.4633729999998
 30
0.0
 40
0.3
100
AcDbArc
 50
90.0
 51
270.0
  0
LINE
  5
C4E8
330
C423
100
AcDbEntity
  8
1
  6
Continuous
100
AcDbLine
 10
29.84407800000001
 20
149.163373
 30
0.0
 11
32.689631
 21
148.5926619999999
 31
0.0
  0
LINE
  5
C4E9
330
C423
100
AcDbEntity
  8
1
  6
Continuous
100
AcDbLine
 10
35.54407799999999
 20
149.163373
 30
0.0
 11
29.84407800000001
 21
149.7633729999998
 31
0.0
  0
ARC
  5
C4EA
330
C423
100
AcDbEntity
  8
1
  6
Continuous
100
AcDbCircle
 10
32.98460099999999
 20
150.0633729999998
 30
0.0
 40
1.5
100
AcDbArc
 50
258.6590749999999
 51
270.0
  0
LINE
  5
C4EB
330
C423
100
AcDbEntity
  8
1
  6
Continuous
100
AcDbLine
 10
35.54407799999999
 20
165.0310949999999
 30
0.0
 11
29.84407800000001
 21
165.6310949999999
 31
0.0
  0
ARC
  5
C4EC
330
C423
100
AcDbEntity
  8
1
  6
Continuous
100
AcDbCircle
 10
35.54407799999999
 20
164.7310949999998
 30
0.0
 40
0.3
100
AcDbArc
 50
318.189685
 51
90.0
  0
ARC
  5
C4ED
330
C423
100
AcDbEntity
  8
1
  6
Continuous
100
AcDbCircle
 10
29.84407800000001
 20
165.331095
 30
0.0
 40
0.3
100
AcDbArc
 50
90.0
 51
208.985474
  0
LINE
  5
C4EE
330
C423
100
AcDbEntity
  8
1
  6
Continuous
100
AcDbLine
 10
35.54407799999999
 20
170.7633729999998
 30
0.0
 11
29.84407800000001
 21
171.3633729999999
 31
0.0
  0
ARC
  5
C4EF
330
C423
100
AcDbEntity
  8
1
  6
Continuous
100
AcDbCircle
 10
35.54407799999999
 20
170.4633729999999
 30
0.0
 40
0.3
100
AcDbArc
 50
340.528779
 51
90.0
  0
ARC
  5
C4F0
330
C423
100
AcDbEntity
  8
1
  6
Continuous
100
AcDbCircle
 10
29.84407800000001
 20
171.0633729999998
 30
0.0
 40
0.3
100
AcDbArc
 50
90.0
 51
186.947931
  0
LINE
  5
C4F1
330
C423
100
AcDbEntity
  8
1
  6
Continuous
100
AcDbLine
 10
35.54407799999999
 20
146.763373
 30
0.0
 11
29.84407800000001
 21
147.3633729999999
 31
0.0
  0
LINE
  5
C4F2
330
C423
100
AcDbEntity
  8
1
  6
Continuous
100
AcDbLine
 10
32.98460099999999
 20
146.163373
 30
0.0
 11
35.54407799999999
 21
146.163373
 31
0.0
  0
ARC
  5
C4F3
330
C423
100
AcDbEntity
  8
1
  6
Continuous
100
AcDbCircle
 10
35.54407799999999
 20
146.4633729999999
 30
0.0
 40
0.3
100
AcDbArc
 50
270.0
 51
90.0
  0
ARC
  5
C4F4
330
C423
100
AcDbEntity
  8
1
  6
Continuous
100
AcDbCircle
 10
32.98460099999999
 20
147.663373
 30
0.0
 40
1.5
100
AcDbArc
 50
258.6590749999999
 51
270.0
  0
LINE
  5
C4F5
330
C423
100
AcDbEntity
  8
1
  6
Continuous
100
AcDbLine
 10
29.84407800000001
 20
146.763373
 30
0.0
 11
32.689631
 21
146.192662
 31
0.0
  0
ARC
  5
C4F6
330
C423
100
AcDbEntity
  8
1
  6
Continuous
100
AcDbCircle
 10
29.84407800000001
 20
147.0633729999998
 30
0.0
 40
0.3
100
AcDbArc
 50
90.0
 51
270.0
  0
ARC
  5
C4F7
330
C423
100
AcDbEntity
  8
1
  6
Continuous
100
AcDbCircle
 10
35.54407799999999
 20
144.0633729999998
 30
0.0
 40
0.3
100
AcDbArc
 50
270.0
 51
90.0
  0
LINE
  5
C4F8
330
C423
100
AcDbEntity
  8
1
  6
Continuous
100
AcDbLine
 10
32.98460099999999
 20
143.7633729999998
 30
0.0
 11
35.54407799999999
 21
143.7633729999998
 31
0.0
  0
LINE
  5
C4F9
330
C423
100
AcDbEntity
  8
1
  6
Continuous
100
AcDbLine
 10
35.54407799999999
 20
144.3633729999999
 30
0.0
 11
29.84407800000001
 21
144.9633729999999
 31
0.0
  0
ARC
  5
C4FA
330
C423
100
AcDbEntity
  8
1
  6
Continuous
100
AcDbCircle
 10
32.98460099999999
 20
145.263373
 30
0.0
 40
1.5
100
AcDbArc
 50
258.6590749999999
 51
270.0
  0
LINE
  5
C4FB
330
C423
100
AcDbEntity
  8
1
  6
Continuous
100
AcDbLine
 10
29.84407800000001
 20
144.3633729999999
 30
0.0
 11
32.689631
 21
143.7926619999998
 31
0.0
  0
ARC
  5
C4FC
330
C423
100
AcDbEntity
  8
1
  6
Continuous
100
AcDbCircle
 10
29.84407800000001
 20
144.663373
 30
0.0
 40
0.3
100
AcDbArc
 50
90.0
 51
270.0
  0
LINE
  5
C4FD
330
C423
100
AcDbEntity
  8
1
  6
Continuous
100
AcDbLine
 10
35.54407799999999
 20
141.9633729999999
 30
0.0
 11
29.84407800000001
 21
142.5633729999999
 31
0.0
  0
LINE
  5
C4FE
330
C423
100
AcDbEntity
  8
1
  6
Continuous
100
AcDbLine
 10
32.98460099999999
 20
141.3633729999999
 30
0.0
 11
35.54407799999999
 21
141.3633729999999
 31
0.0
  0
ARC
  5
C4FF
330
C423
100
AcDbEntity
  8
1
  6
Continuous
100
AcDbCircle
 10
35.54407799999999
 20
141.663373
 30
0.0
 40
0.3
100
AcDbArc
 50
270.0
 51
90.0
  0
ARC
  5
C500
330
C423
100
AcDbEntity
  8
1
  6
Continuous
100
AcDbCircle
 10
32.98460099999999
 20
142.863373
 30
0.0
 40
1.5
100
AcDbArc
 50
258.6590749999999
 51
270.0
  0
LINE
  5
C501
330
C423
100
AcDbEntity
  8
1
  6
Continuous
100
AcDbLine
 10
29.84407800000001
 20
141.9633729999999
 30
0.0
 11
32.689631
 21
141.3926619999998
 31
0.0
  0
ARC
  5
C502
330
C423
100
AcDbEntity
  8
1
  6
Continuous
100
AcDbCircle
 10
29.84407800000001
 20
142.263373
 30
0.0
 40
0.3
100
AcDbArc
 50
90.0
 51
270.0
  0
ARC
  5
C503
330
C423
100
AcDbEntity
  8
1
  6
Continuous
100
AcDbCircle
 10
125.240443
 20
233.0174509999999
 30
0.0
 40
0.3
100
AcDbArc
 50
0.0
 51
180.0
  0
ARC
  5
C504
330
C423
100
AcDbEntity
  8
1
  6
Continuous
100
AcDbCircle
 10
124.6404429999999
 20
227.317451
 30
0.0
 40
0.3
100
AcDbArc
 50
180.0
 51
0.0
  0
ARC
  5
C505
330
C423
100
AcDbEntity
  8
1
  6
Continuous
100
AcDbCircle
 10
127.0404429999999
 20
227.317451
 30
0.0
 40
0.3
100
AcDbArc
 50
180.0
 51
0.0
  0
LINE
  5
C506
330
C423
100
AcDbEntity
  8
1
  6
Continuous
100
AcDbLine
 10
35.54407799999999
 20
139.5633729999999
 30
0.0
 11
29.84407800000001
 21
140.163373
 31
0.0
  0
LINE
  5
C507
330
C423
100
AcDbEntity
  8
1
  6
Continuous
100
AcDbLine
 10
29.84407800000001
 20
139.5633729999999
 30
0.0
 11
32.689631
 21
138.992662
 31
0.0
  0
LINE
  5
C508
330
C423
100
AcDbEntity
  8
1
  6
Continuous
100
AcDbLine
 10
32.98460099999999
 20
138.9633729999999
 30
0.0
 11
35.54407799999999
 21
138.9633729999999
 31
0.0
  0
ARC
  5
C509
330
C423
100
AcDbEntity
  8
1
  6
Continuous
100
AcDbCircle
 10
35.54407799999999
 20
139.263373
 30
0.0
 40
0.3
100
AcDbArc
 50
270.0
 51
90.0
  0
ARC
  5
C50A
330
C423
100
AcDbEntity
  8
1
  6
Continuous
100
AcDbCircle
 10
32.98460099999999
 20
140.463373
 30
0.0
 40
1.5
100
AcDbArc
 50
258.6590749999999
 51
270.0
  0
ARC
  5
C50B
330
C423
100
AcDbEntity
  8
1
  6
Continuous
100
AcDbCircle
 10
29.84407800000001
 20
139.863373
 30
0.0
 40
0.3
100
AcDbArc
 50
90.0
 51
270.0
  0
ARC
  5
C50C
330
C423
100
AcDbEntity
  8
1
  6
Continuous
100
AcDbCircle
 10
32.98460099999999
 20
138.0633729999999
 30
0.0
 40
1.5
100
AcDbArc
 50
258.6590749999999
 51
270.0
  0
ARC
  5
C50D
330
C423
100
AcDbEntity
  8
1
  6
Continuous
100
AcDbCircle
 10
35.54407799999999
 20
136.8633729999999
 30
0.0
 40
0.3
100
AcDbArc
 50
270.0
 51
90.0
  0
LINE
  5
C50E
330
C423
100
AcDbEntity
  8
1
  6
Continuous
100
AcDbLine
 10
32.98460099999999
 20
136.5633729999998
 30
0.0
 11
35.54407799999999
 21
136.5633729999998
 31
0.0
  0
LINE
  5
C50F
330
C423
100
AcDbEntity
  8
1
  6
Continuous
100
AcDbLine
 10
35.54407799999999
 20
137.163373
 30
0.0
 11
29.84407800000001
 21
137.763373
 31
0.0
  0
LINE
  5
C510
330
C423
100
AcDbEntity
  8
1
  6
Continuous
100
AcDbLine
 10
29.84407800000001
 20
137.163373
 30
0.0
 11
32.689631
 21
136.5926619999999
 31
0.0
  0
ARC
  5
C511
330
C423
100
AcDbEntity
  8
1
  6
Continuous
100
AcDbCircle
 10
29.84407800000001
 20
137.4633729999999
 30
0.0
 40
0.3
100
AcDbArc
 50
90.0
 51
270.0
  0
LINE
  5
C512
330
C423
100
AcDbEntity
  8
1
  6
Continuous
100
AcDbLine
 10
35.54407799999999
 20
134.763373
 30
0.0
 11
29.84407800000001
 21
135.363373
 31
0.0
  0
LINE
  5
C513
330
C423
100
AcDbEntity
  8
1
  6
Continuous
100
AcDbLine
 10
32.98460099999999
 20
134.163373
 30
0.0
 11
35.54407799999999
 21
134.163373
 31
0.0
  0
ARC
  5
C514
330
C423
100
AcDbEntity
  8
1
  6
Continuous
100
AcDbCircle
 10
35.54407799999999
 20
134.4633729999999
 30
0.0
 40
0.3
100
AcDbArc
 50
270.0
 51
90.0
  0
ARC
  5
C515
330
C423
100
AcDbEntity
  8
1
  6
Continuous
100
AcDbCircle
 10
32.98460099999999
 20
135.663373
 30
0.0
 40
1.5
100
AcDbArc
 50
258.6590749999999
 51
270.0
  0
LINE
  5
C516
330
C423
100
AcDbEntity
  8
1
  6
Continuous
100
AcDbLine
 10
29.84407800000001
 20
134.763373
 30
0.0
 11
32.689631
 21
134.192662
 31
0.0
  0
ARC
  5
C517
330
C423
100
AcDbEntity
  8
1
  6
Continuous
100
AcDbCircle
 10
29.84407800000001
 20
135.0633729999999
 30
0.0
 40
0.3
100
AcDbArc
 50
90.0
 51
270.0
  0
ARC
  5
C518
330
C423
100
AcDbEntity
  8
1
  6
Continuous
100
AcDbCircle
 10
122.8404429999998
 20
233.0174509999999
 30
0.0
 40
0.3
100
AcDbArc
 50
0.0
 51
180.0
  0
ARC
  5
C519
330
C423
100
AcDbEntity
  8
1
  6
Continuous
100
AcDbCircle
 10
122.240443
 20
227.317451
 30
0.0
 40
0.3
100
AcDbArc
 50
180.0
 51
0.0
  0
ARC
  5
C51A
330
C423
100
AcDbEntity
  8
1
  6
Continuous
100
AcDbCircle
 10
120.4404429999998
 20
233.0174509999999
 30
0.0
 40
0.3
100
AcDbArc
 50
0.0
 51
180.0
  0
ARC
  5
C51B
330
C423
100
AcDbEntity
  8
1
  6
Continuous
100
AcDbCircle
 10
119.8404429999998
 20
227.317451
 30
0.0
 40
0.3
100
AcDbArc
 50
180.0
 51
0.0
  0
ARC
  5
C51C
330
C423
100
AcDbEntity
  8
1
  6
Continuous
100
AcDbCircle
 10
118.384384
 20
233.0174509999999
 30
0.0
 40
0.3
100
AcDbArc
 50
0.0
 51
180.0
  0
ARC
  5
C51D
330
C423
100
AcDbEntity
  8
1
  6
Continuous
100
AcDbCircle
 10
117.7843839999999
 20
227.317451
 30
0.0
 40
0.3
100
AcDbArc
 50
180.0
 51
0.0
  0
ARC
  5
C51E
330
C423
100
AcDbEntity
  8
1
  6
Continuous
100
AcDbCircle
 10
32.98460099999999
 20
133.2633729999998
 30
0.0
 40
1.5
100
AcDbArc
 50
258.6590749999999
 51
270.0
  0
ARC
  5
C51F
330
C423
100
AcDbEntity
  8
1
  6
Continuous
100
AcDbCircle
 10
35.54407799999999
 20
132.0633729999999
 30
0.0
 40
0.3
100
AcDbArc
 50
270.0
 51
90.0
  0
LINE
  5
C520
330
C423
100
AcDbEntity
  8
1
  6
Continuous
100
AcDbLine
 10
32.98460099999999
 20
131.763373
 30
0.0
 11
35.54407799999999
 21
131.763373
 31
0.0
  0
LINE
  5
C521
330
C423
100
AcDbEntity
  8
1
  6
Continuous
100
AcDbLine
 10
35.54407799999999
 20
132.363373
 30
0.0
 11
29.84407800000001
 21
132.9633729999999
 31
0.0
  0
LINE
  5
C522
330
C423
100
AcDbEntity
  8
1
  6
Continuous
100
AcDbLine
 10
29.84407800000001
 20
132.363373
 30
0.0
 11
32.689631
 21
131.792662
 31
0.0
  0
ARC
  5
C523
330
C423
100
AcDbEntity
  8
1
  6
Continuous
100
AcDbCircle
 10
29.84407800000001
 20
132.663373
 30
0.0
 40
0.3
100
AcDbArc
 50
90.0
 51
270.0
  0
LINE
  5
C524
330
C423
100
AcDbEntity
  8
1
  6
Continuous
100
AcDbLine
 10
35.54407799999999
 20
129.9633729999999
 30
0.0
 11
29.84407800000001
 21
130.5633729999998
 31
0.0
  0
LINE
  5
C525
330
C423
100
AcDbEntity
  8
1
  6
Continuous
100
AcDbLine
 10
32.98460099999999
 20
129.363373
 30
0.0
 11
35.54407799999999
 21
129.363373
 31
0.0
  0
ARC
  5
C526
330
C423
100
AcDbEntity
  8
1
  6
Continuous
100
AcDbCircle
 10
35.54407799999999
 20
129.663373
 30
0.0
 40
0.3
100
AcDbArc
 50
270.0
 51
90.0
  0
ARC
  5
C527
330
C423
100
AcDbEntity
  8
1
  6
Continuous
100
AcDbCircle
 10
32.98460099999999
 20
130.8633729999999
 30
0.0
 40
1.5
100
AcDbArc
 50
258.6590749999999
 51
270.0
  0
LINE
  5
C528
330
C423
100
AcDbEntity
  8
1
  6
Continuous
100
AcDbLine
 10
29.84407800000001
 20
129.9633729999999
 30
0.0
 11
32.689631
 21
129.392662
 31
0.0
  0
ARC
  5
C529
330
C423
100
AcDbEntity
  8
1
  6
Continuous
100
AcDbCircle
 10
29.84407800000001
 20
130.2633729999998
 30
0.0
 40
0.3
100
AcDbArc
 50
90.0
 51
270.0
  0
ARC
  5
C52A
330
C423
100
AcDbEntity
  8
1
  6
Continuous
100
AcDbCircle
 10
116.475735
 20
233.0174509999999
 30
0.0
 40
0.3
100
AcDbArc
 50
0.0
 51
180.0
  0
ARC
  5
C52B
330
C423
100
AcDbEntity
  8
1
  6
Continuous
100
AcDbCircle
 10
115.875735
 20
227.317451
 30
0.0
 40
0.3
100
AcDbArc
 50
180.0
 51
0.0
  0
ARC
  5
C52C
330
C423
100
AcDbEntity
  8
1
  6
Continuous
100
AcDbCircle
 10
102.557943
 20
51.600451
 30
0.0
 40
0.3
100
AcDbArc
 50
70.528779
 51
180.0
  0
LINE
  5
C52D
330
C423
100
AcDbEntity
  8
1
  6
Continuous
100
AcDbLine
 10
102.257943
 20
51.600451
 30
0.0
 11
101.6579429999999
 21
45.900451
 31
0.0
  0
ARC
  5
C52E
330
C423
100
AcDbEntity
  8
1
  6
Continuous
100
AcDbCircle
 10
101.957943
 20
45.900451
 30
0.0
 40
0.3
100
AcDbArc
 50
180.0
 51
276.2840949999999
  0
LINE
  5
C52F
330
C423
100
AcDbEntity
  8
1
  6
Continuous
100
AcDbLine
 10
127.3650689999999
 20
227.5514
 30
0.0
 11
127.340443
 21
227.317451
 31
0.0
  0
LINE
  5
C530
330
C423
100
AcDbEntity
  8
1
  6
Continuous
100
AcDbLine
 10
125.540443
 20
233.0174509999999
 30
0.0
 11
124.940443
 21
227.317451
 31
0.0
  0
LINE
  5
C531
330
C423
100
AcDbEntity
  8
1
  6
Continuous
100
AcDbLine
 10
123.1404429999999
 20
233.0174509999999
 30
0.0
 11
122.5404429999999
 21
227.317451
 31
0.0
  0
LINE
  5
C532
330
C423
100
AcDbEntity
  8
1
  6
Continuous
100
AcDbLine
 10
120.7404429999999
 20
233.0174509999999
 30
0.0
 11
120.1404429999999
 21
227.317451
 31
0.0
  0
LINE
  5
C533
330
C423
100
AcDbEntity
  8
1
  6
Continuous
100
AcDbLine
 10
118.6843839999999
 20
233.0174509999999
 30
0.0
 11
118.084384
 21
227.317451
 31
0.0
  0
LINE
  5
C534
330
C423
100
AcDbEntity
  8
1
  6
Continuous
100
AcDbLine
 10
116.775735
 20
233.0174509999999
 30
0.0
 11
116.175735
 21
227.317451
 31
0.0
  0
LINE
  5
C535
330
C423
100
AcDbEntity
  8
1
  6
Continuous
100
AcDbLine
 10
126.740443
 20
227.317451
 30
0.0
 11
126.740443
 21
228.232779
 31
0.0
  0
LINE
  5
C536
330
C423
100
AcDbEntity
  8
1
  6
Continuous
100
AcDbLine
 10
124.340443
 20
227.317451
 30
0.0
 11
124.340443
 21
230.1674509999998
 31
0.0
  0
LINE
  5
C537
330
C423
100
AcDbEntity
  8
1
  6
Continuous
100
AcDbLine
 10
121.9404429999999
 20
227.317451
 30
0.0
 11
121.9404429999999
 21
230.1674509999998
 31
0.0
  0
LINE
  5
C538
330
C423
100
AcDbEntity
  8
1
  6
Continuous
100
AcDbLine
 10
119.5404429999999
 20
227.317451
 30
0.0
 11
119.5404429999999
 21
230.1674509999998
 31
0.0
  0
LINE
  5
C539
330
C423
100
AcDbEntity
  8
1
  6
Continuous
100
AcDbLine
 10
117.484384
 20
227.317451
 30
0.0
 11
117.484384
 21
230.1674509999998
 31
0.0
  0
LINE
  5
C53A
330
C423
100
AcDbEntity
  8
1
  6
Continuous
100
AcDbLine
 10
115.575735
 20
227.317451
 30
0.0
 11
115.575735
 21
230.1674509999998
 31
0.0
  0
LINE
  5
C53B
330
C423
100
AcDbEntity
  8
1
  6
Continuous
100
AcDbLine
 10
124.940443
 20
233.0174509999999
 30
0.0
 11
124.340443
 21
230.1674509999998
 31
0.0
  0
LINE
  5
C53C
330
C423
100
AcDbEntity
  8
1
  6
Continuous
100
AcDbLine
 10
122.5404429999999
 20
233.0174509999999
 30
0.0
 11
121.9404429999999
 21
230.1674509999998
 31
0.0
  0
LINE
  5
C53D
330
C423
100
AcDbEntity
  8
1
  6
Continuous
100
AcDbLine
 10
120.1404429999999
 20
233.0174509999999
 30
0.0
 11
119.5404429999999
 21
230.1674509999998
 31
0.0
  0
LINE
  5
C53E
330
C423
100
AcDbEntity
  8
1
  6
Continuous
100
AcDbLine
 10
118.084384
 20
233.0174509999999
 30
0.0
 11
117.484384
 21
230.1674509999998
 31
0.0
  0
LINE
  5
C53F
330
C423
100
AcDbEntity
  8
1
  6
Continuous
100
AcDbLine
 10
116.175735
 20
233.0174509999999
 30
0.0
 11
115.575735
 21
230.1674509999998
 31
0.0
  0
LINE
  5
C540
330
C423
100
AcDbEntity
  8
1
  6
Continuous
100
AcDbLine
 10
32.98460099999999
 20
170.3633729999999
 30
0.0
 11
35.826921
 21
170.3633729999999
 31
0.0
  0
LINE
  5
C541
330
C423
100
AcDbEntity
  8
1
  6
Continuous
100
AcDbLine
 10
29.546281
 20
171.0270829999998
 30
0.0
 11
32.69408
 21
170.3957519999999
 31
0.0
  0
LINE
  5
C542
330
C423
100
AcDbEntity
  8
1
  6
Continuous
100
AcDbLine
 10
32.69407799999999
 20
170.395753
 30
0.0
 11
32.98460099999999
 21
170.3633729999999
 31
0.0
  0
ARC
  5
C543
330
C423
100
AcDbEntity
  8
1
  6
Continuous
100
AcDbCircle
 10
35.54407799999999
 20
171.542852
 30
0.0
 40
0.3
100
AcDbArc
 50
340.528779
 51
90.0
  0
LINE
  5
C544
330
C423
100
AcDbEntity
  8
1
  6
Continuous
100
AcDbLine
 10
32.98460099999999
 20
171.442852
 30
0.0
 11
35.826921
 21
171.442852
 31
0.0
  0
LINE
  5
C545
330
C423
100
AcDbEntity
  8
1
  6
Continuous
100
AcDbLine
 10
32.69407799999999
 20
171.475231
 30
0.0
 11
32.98460099999999
 21
171.442852
 31
0.0
  0
LINE
  5
C546
330
C423
100
AcDbEntity
  8
1
  6
Continuous
100
AcDbLine
 10
35.54407799999999
 20
171.8428519999999
 30
0.0
 11
29.84407800000001
 21
172.442852
 31
0.0
  0
ARC
  5
C547
330
C423
100
AcDbEntity
  8
1
  6
Continuous
100
AcDbCircle
 10
29.84407800000001
 20
172.142852
 30
0.0
 40
0.3
100
AcDbArc
 50
90.0
 51
186.947931
  0
LINE
  5
C548
330
C423
100
AcDbEntity
  8
1
  6
Continuous
100
AcDbLine
 10
29.546281
 20
172.106561
 30
0.0
 11
32.69408
 21
171.47523
 31
0.0
  0
ARC
  5
C549
330
C423
100
AcDbEntity
  8
1
  6
Continuous
100
AcDbCircle
 10
35.54407799999999
 20
169.114025
 30
0.0
 40
0.3
100
AcDbArc
 50
340.528779
 51
90.0
  0
LINE
  5
C54A
330
C423
100
AcDbEntity
  8
1
  6
Continuous
100
AcDbLine
 10
32.98460099999999
 20
169.0140249999998
 30
0.0
 11
35.826921
 21
169.0140249999998
 31
0.0
  0
LINE
  5
C54B
330
C423
100
AcDbEntity
  8
1
  6
Continuous
100
AcDbLine
 10
35.54407799999999
 20
169.414025
 30
0.0
 11
29.84407800000001
 21
170.014025
 31
0.0
  0
LINE
  5
C54C
330
C423
100
AcDbEntity
  8
1
  6
Continuous
100
AcDbLine
 10
32.69407799999999
 20
169.0464049999999
 30
0.0
 11
32.98460099999999
 21
169.0140249999998
 31
0.0
  0
ARC
  5
C54D
330
C423
100
AcDbEntity
  8
1
  6
Continuous
100
AcDbCircle
 10
29.84407800000001
 20
169.7140249999999
 30
0.0
 40
0.3
100
AcDbArc
 50
90.0
 51
186.947931
  0
LINE
  5
C54E
330
C423
100
AcDbEntity
  8
1
  6
Continuous
100
AcDbLine
 10
29.546281
 20
169.677735
 30
0.0
 11
32.69408
 21
169.0464039999999
 31
0.0
  0
LINE
  5
C54F
330
C423
100
AcDbEntity
  8
1
  6
Continuous
100
AcDbLine
 10
32.98460099999999
 20
164.531095
 30
0.0
 11
35.767685
 21
164.531095
 31
0.0
  0
LINE
  5
C550
330
C423
100
AcDbEntity
  8
1
  6
Continuous
100
AcDbLine
 10
29.58165499999999
 20
165.185719
 30
0.0
 11
32.69407899999999
 21
164.561482
 31
0.0
  0
LINE
  5
C551
330
C423
100
AcDbEntity
  8
1
  6
Continuous
100
AcDbLine
 10
32.69407799999999
 20
164.561483
 30
0.0
 11
32.98460099999999
 21
164.531095
 31
0.0
  0
ARC
  5
C552
330
C423
100
AcDbEntity
  8
1
  6
Continuous
100
AcDbCircle
 10
35.54407799999999
 20
167.8468629999999
 30
0.0
 40
0.3
100
AcDbArc
 50
318.189685
 51
90.0
  0
LINE
  5
C553
330
C423
100
AcDbEntity
  8
1
  6
Continuous
100
AcDbLine
 10
32.98460099999999
 20
167.646863
 30
0.0
 11
35.767685
 21
167.646863
 31
0.0
  0
LINE
  5
C554
330
C423
100
AcDbEntity
  8
1
  6
Continuous
100
AcDbLine
 10
32.69407799999999
 20
167.677251
 30
0.0
 11
32.98460099999999
 21
167.646863
 31
0.0
  0
LINE
  5
C555
330
C423
100
AcDbEntity
  8
1
  6
Continuous
100
AcDbLine
 10
35.54407799999999
 20
168.1468629999999
 30
0.0
 11
29.84407800000001
 21
168.7468629999998
 31
0.0
  0
ARC
  5
C556
330
C423
100
AcDbEntity
  8
1
  6
Continuous
100
AcDbCircle
 10
29.84407800000001
 20
168.4468629999998
 30
0.0
 40
0.3
100
AcDbArc
 50
90.0
 51
208.985474
  0
LINE
  5
C557
330
C423
100
AcDbEntity
  8
1
  6
Continuous
100
AcDbLine
 10
29.58165499999999
 20
168.301487
 30
0.0
 11
32.69407899999999
 21
167.67725
 31
0.0
  0
ARC
  5
C558
330
C423
100
AcDbEntity
  8
1
  6
Continuous
100
AcDbCircle
 10
35.54407799999999
 20
166.423915
 30
0.0
 40
0.3
100
AcDbArc
 50
318.189685
 51
90.0
  0
LINE
  5
C559
330
C423
100
AcDbEntity
  8
1
  6
Continuous
100
AcDbLine
 10
32.98460099999999
 20
166.2239149999998
 30
0.0
 11
35.767685
 21
166.2239149999998
 31
0.0
  0
LINE
  5
C55A
330
C423
100
AcDbEntity
  8
1
  6
Continuous
100
AcDbLine
 10
35.54407799999999
 20
166.7239149999998
 30
0.0
 11
29.84407800000001
 21
167.323915
 31
0.0
  0
ARC
  5
C55B
330
C423
100
AcDbEntity
  8
1
  6
Continuous
100
AcDbCircle
 10
29.84407800000001
 20
167.023915
 30
0.0
 40
0.3
100
AcDbArc
 50
90.0
 51
208.985474
  0
LINE
  5
C55C
330
C423
100
AcDbEntity
  8
1
  6
Continuous
100
AcDbLine
 10
29.58165499999999
 20
166.878539
 30
0.0
 11
32.69407899999999
 21
166.254302
 31
0.0
  0
LINE
  5
C55D
330
C423
100
AcDbEntity
  8
1
  6
Continuous
100
AcDbLine
 10
32.69407799999999
 20
166.2543029999999
 30
0.0
 11
32.98460099999999
 21
166.2239149999998
 31
0.0
  0
LINE
  5
C55E
330
C423
100
AcDbEntity
  8
1
  6
Continuous
100
AcDbLine
 10
35.54407799999999
 20
163.362811
 30
0.0
 11
29.84407800000001
 21
163.9628109999999
 31
0.0
  0
LINE
  5
C55F
330
C423
100
AcDbEntity
  8
1
  6
Continuous
100
AcDbLine
 10
32.98460099999999
 20
162.862811
 30
0.0
 11
35.767685
 21
162.862811
 31
0.0
  0
ARC
  5
C560
330
C423
100
AcDbEntity
  8
1
  6
Continuous
100
AcDbCircle
 10
35.54407799999999
 20
163.062811
 30
0.0
 40
0.3
100
AcDbArc
 50
318.189685
 51
90.0
  0
LINE
  5
C561
330
C423
100
AcDbEntity
  8
1
  6
Continuous
100
AcDbLine
 10
32.69407799999999
 20
162.893199
 30
0.0
 11
32.98460099999999
 21
162.862811
 31
0.0
  0
LINE
  5
C562
330
C423
100
AcDbEntity
  8
1
  6
Continuous
100
AcDbLine
 10
29.58165499999999
 20
163.5174349999998
 30
0.0
 11
32.69407899999999
 21
162.8931979999999
 31
0.0
  0
ARC
  5
C563
330
C423
100
AcDbEntity
  8
1
  6
Continuous
100
AcDbCircle
 10
29.84407800000001
 20
163.662811
 30
0.0
 40
0.3
100
AcDbArc
 50
90.0
 51
208.985474
  0
LINE
  5
C564
330
C423
100
AcDbEntity
  8
1
  6
Continuous
100
AcDbLine
 10
35.54407799999999
 20
161.91533
 30
0.0
 11
29.84407800000001
 21
162.51533
 31
0.0
  0
LINE
  5
C565
330
C423
100
AcDbEntity
  8
1
  6
Continuous
100
AcDbLine
 10
32.69407799999999
 20
157.79021
 30
0.0
 11
32.98460099999999
 21
157.759823
 31
0.0
  0
ARC
  5
C566
330
C423
100
AcDbEntity
  8
1
  6
Continuous
100
AcDbCircle
 10
35.54407799999999
 20
157.959823
 30
0.0
 40
0.3
100
AcDbArc
 50
318.189685
 51
90.0
  0
LINE
  5
C567
330
C423
100
AcDbEntity
  8
1
  6
Continuous
100
AcDbLine
 10
32.98460099999999
 20
157.759823
 30
0.0
 11
35.767685
 21
157.759823
 31
0.0
  0
LINE
  5
C568
330
C423
100
AcDbEntity
  8
1
  6
Continuous
100
AcDbLine
 10
35.54407799999999
 20
158.259823
 30
0.0
 11
29.84407800000001
 21
158.859823
 31
0.0
  0
LINE
  5
C569
330
C423
100
AcDbEntity
  8
1
  6
Continuous
100
AcDbLine
 10
32.69406899999999
 20
159.7528989999998
 30
0.0
 11
32.98460099999999
 21
159.7225099999998
 31
0.0
  0
LINE
  5
C56A
330
C423
100
AcDbEntity
  8
1
  6
Continuous
100
AcDbLine
 10
35.54407799999999
 20
160.22251
 30
0.0
 11
29.84407800000001
 21
160.82251
 31
0.0
  0
LINE
  5
C56B
330
C423
100
AcDbEntity
  8
1
  6
Continuous
100
AcDbLine
 10
32.98460099999999
 20
159.7225099999998
 30
0.0
 11
35.767685
 21
159.7225099999998
 31
0.0
  0
ARC
  5
C56C
330
C423
100
AcDbEntity
  8
1
  6
Continuous
100
AcDbCircle
 10
35.54407799999999
 20
159.9225099999999
 30
0.0
 40
0.3
100
AcDbArc
 50
318.189685
 51
90.0
  0
LINE
  5
C56D
330
C423
100
AcDbEntity
  8
1
  6
Continuous
100
AcDbLine
 10
32.69407799999999
 20
161.445718
 30
0.0
 11
32.98460099999999
 21
161.41533
 31
0.0
  0
LINE
  5
C56E
330
C423
100
AcDbEntity
  8
1
  6
Continuous
100
AcDbLine
 10
32.98460099999999
 20
161.41533
 30
0.0
 11
35.767685
 21
161.41533
 31
0.0
  0
ARC
  5
C56F
330
C423
100
AcDbEntity
  8
1
  6
Continuous
100
AcDbCircle
 10
35.54407799999999
 20
161.61533
 30
0.0
 40
0.3
100
AcDbArc
 50
318.189685
 51
90.0
  0
LINE
  5
C570
330
C423
100
AcDbEntity
  8
1
  6
Continuous
100
AcDbLine
 10
29.58165499999999
 20
158.414446
 30
0.0
 11
32.69407899999999
 21
157.790209
 31
0.0
  0
LINE
  5
C571
330
C423
100
AcDbEntity
  8
1
  6
Continuous
100
AcDbLine
 10
29.58165499999999
 20
160.3771329999999
 30
0.0
 11
32.69406899999999
 21
159.7528989999998
 31
0.0
  0
ARC
  5
C572
330
C423
100
AcDbEntity
  8
1
  6
Continuous
100
AcDbCircle
 10
29.84407800000001
 20
162.2153299999999
 30
0.0
 40
0.3
100
AcDbArc
 50
90.0
 51
208.985474
  0
ARC
  5
C573
330
C423
100
AcDbEntity
  8
1
  6
Continuous
100
AcDbCircle
 10
29.84407800000001
 20
158.5598229999999
 30
0.0
 40
0.3
100
AcDbArc
 50
90.0
 51
208.985474
  0
ARC
  5
C574
330
C423
100
AcDbEntity
  8
1
  6
Continuous
100
AcDbCircle
 10
29.84407800000001
 20
160.52251
 30
0.0
 40
0.3
100
AcDbArc
 50
90.0
 51
208.985474
  0
LINE
  5
C575
330
C423
100
AcDbEntity
  8
1
  6
Continuous
100
AcDbLine
 10
29.58165499999999
 20
162.0699529999999
 30
0.0
 11
32.69407899999999
 21
161.445717
 31
0.0
  0
ARC
  5
C576
330
C423
100
AcDbEntity
  8
1
  6
Continuous
100
AcDbCircle
 10
35.54407799999999
 20
154.6968569999999
 30
0.0
 40
0.3
100
AcDbArc
 50
318.189685
 51
90.0
  0
LINE
  5
C577
330
C423
100
AcDbEntity
  8
1
  6
Continuous
100
AcDbLine
 10
32.98460099999999
 20
154.4968569999998
 30
0.0
 11
35.767685
 21
154.4968569999998
 31
0.0
  0
LINE
  5
C578
330
C423
100
AcDbEntity
  8
1
  6
Continuous
100
AcDbLine
 10
32.69407799999999
 20
154.5272449999998
 30
0.0
 11
32.98460099999999
 21
154.4968569999998
 31
0.0
  0
ARC
  5
C579
330
C423
100
AcDbEntity
  8
1
  6
Continuous
100
AcDbCircle
 10
35.54407799999999
 20
152.9549669999999
 30
0.0
 40
0.3
100
AcDbArc
 50
318.189685
 51
90.0
  0
LINE
  5
C57A
330
C423
100
AcDbEntity
  8
1
  6
Continuous
100
AcDbLine
 10
32.98460099999999
 20
152.7549669999999
 30
0.0
 11
35.767685
 21
152.7549669999999
 31
0.0
  0
LINE
  5
C57B
330
C423
100
AcDbEntity
  8
1
  6
Continuous
100
AcDbLine
 10
35.54407799999999
 20
153.2549669999999
 30
0.0
 11
29.84407800000001
 21
153.8549669999999
 31
0.0
  0
LINE
  5
C57C
330
C423
100
AcDbEntity
  8
1
  6
Continuous
100
AcDbLine
 10
32.69407799999999
 20
152.785355
 30
0.0
 11
32.98460099999999
 21
152.7549669999999
 31
0.0
  0
LINE
  5
C57D
330
C423
100
AcDbEntity
  8
1
  6
Continuous
100
AcDbLine
 10
35.54407799999999
 20
151.29228
 30
0.0
 11
29.84407800000001
 21
151.89228
 31
0.0
  0
LINE
  5
C57E
330
C423
100
AcDbEntity
  8
1
  6
Continuous
100
AcDbLine
 10
32.98460099999999
 20
150.79228
 30
0.0
 11
35.767685
 21
150.79228
 31
0.0
  0
ARC
  5
C57F
330
C423
100
AcDbEntity
  8
1
  6
Continuous
100
AcDbCircle
 10
35.54407799999999
 20
150.99228
 30
0.0
 40
0.3
100
AcDbArc
 50
318.189685
 51
90.0
  0
LINE
  5
C580
330
C423
100
AcDbEntity
  8
1
  6
Continuous
100
AcDbLine
 10
32.69407799999999
 20
150.8226679999999
 30
0.0
 11
32.98460099999999
 21
150.79228
 31
0.0
  0
LINE
  5
C581
330
C423
100
AcDbEntity
  8
1
  6
Continuous
100
AcDbLine
 10
35.54407799999999
 20
154.996857
 30
0.0
 11
29.84407800000001
 21
155.596857
 31
0.0
  0
LINE
  5
C582
330
C423
100
AcDbEntity
  8
1
  6
Continuous
100
AcDbLine
 10
32.69406899999999
 20
156.0728609999999
 30
0.0
 11
32.98460099999999
 21
156.042472
 31
0.0
  0
ARC
  5
C583
330
C423
100
AcDbEntity
  8
1
  6
Continuous
100
AcDbCircle
 10
35.54407799999999
 20
156.2424719999999
 30
0.0
 40
0.3
100
AcDbArc
 50
318.189685
 51
90.0
  0
LINE
  5
C584
330
C423
100
AcDbEntity
  8
1
  6
Continuous
100
AcDbLine
 10
32.98460099999999
 20
156.042472
 30
0.0
 11
35.767685
 21
156.042472
 31
0.0
  0
LINE
  5
C585
330
C423
100
AcDbEntity
  8
1
  6
Continuous
100
AcDbLine
 10
35.54407799999999
 20
156.542472
 30
0.0
 11
29.84407800000001
 21
157.1424719999999
 31
0.0
  0
LINE
  5
C586
330
C423
100
AcDbEntity
  8
1
  6
Continuous
100
AcDbLine
 10
29.58165499999999
 20
155.151481
 30
0.0
 11
32.69407899999999
 21
154.5272439999999
 31
0.0
  0
LINE
  5
C587
330
C423
100
AcDbEntity
  8
1
  6
Continuous
100
AcDbLine
 10
29.58165499999999
 20
153.4095909999998
 30
0.0
 11
32.69407899999999
 21
152.785354
 31
0.0
  0
LINE
  5
C588
330
C423
100
AcDbEntity
  8
1
  6
Continuous
100
AcDbLine
 10
29.58165499999999
 20
151.4469039999999
 30
0.0
 11
32.69407899999999
 21
150.8226669999999
 31
0.0
  0
LINE
  5
C589
330
C423
100
AcDbEntity
  8
1
  6
Continuous
100
AcDbLine
 10
29.58165499999999
 20
156.6970949999999
 30
0.0
 11
32.69406899999999
 21
156.0728609999999
 31
0.0
  0
ARC
  5
C58A
330
C423
100
AcDbEntity
  8
1
  6
Continuous
100
AcDbCircle
 10
29.84407800000001
 20
156.8424719999998
 30
0.0
 40
0.3
100
AcDbArc
 50
90.0
 51
208.985474
  0
ARC
  5
C58B
330
C423
100
AcDbEntity
  8
1
  6
Continuous
100
AcDbCircle
 10
29.84407800000001
 20
155.2968569999999
 30
0.0
 40
0.3
100
AcDbArc
 50
90.0
 51
208.985474
  0
ARC
  5
C58C
330
C423
100
AcDbEntity
  8
1
  6
Continuous
100
AcDbCircle
 10
29.84407800000001
 20
153.5549669999998
 30
0.0
 40
0.3
100
AcDbArc
 50
90.0
 51
208.985474
  0
ARC
  5
C58D
330
C423
100
AcDbEntity
  8
1
  6
Continuous
100
AcDbCircle
 10
29.84407800000001
 20
151.59228
 30
0.0
 40
0.3
100
AcDbArc
 50
90.0
 51
208.985474
  0
LINE
  5
C58E
330
C423
100
AcDbEntity
  8
1
  6
Continuous
100
AcDbLine
 10
102.20852
 20
227.487259
 30
0.0
 11
102.80852
 21
233.1872589999999
 31
0.0
  0
LINE
  5
C58F
330
C423
100
AcDbEntity
  8
1
  6
Continuous
100
AcDbLine
 10
101.80852
 20
230.0467359999999
 30
0.0
 11
101.80852
 21
227.204416
 31
0.0
  0
ARC
  5
C590
330
C423
100
AcDbEntity
  8
1
  6
Continuous
100
AcDbCircle
 10
101.9085199999999
 20
227.487259
 30
0.0
 40
0.3
100
AcDbArc
 50
250.5287789999999
 51
0.0
  0
ARC
  5
C591
330
C423
100
AcDbEntity
  8
1
  6
Continuous
100
AcDbCircle
 10
100.829041
 20
227.487259
 30
0.0
 40
0.3
100
AcDbArc
 50
250.5287789999999
 51
0.0
  0
LINE
  5
C592
330
C423
100
AcDbEntity
  8
1
  6
Continuous
100
AcDbLine
 10
100.729041
 20
230.0467359999999
 30
0.0
 11
100.729041
 21
227.204416
 31
0.0
  0
LINE
  5
C593
330
C423
100
AcDbEntity
  8
1
  6
Continuous
100
AcDbLine
 10
101.1290409999999
 20
227.487259
 30
0.0
 11
101.729041
 21
233.1872589999999
 31
0.0
  0
LINE
  5
C594
330
C423
100
AcDbEntity
  8
1
  6
Continuous
100
AcDbLine
 10
102.47223
 20
233.485056
 30
0.0
 11
101.8408989999998
 21
230.337256
 31
0.0
  0
ARC
  5
C595
330
C423
100
AcDbEntity
  8
1
  6
Continuous
100
AcDbCircle
 10
101.429041
 20
233.1872589999999
 30
0.0
 40
0.3
100
AcDbArc
 50
0.0
 51
96.94793100000005
  0
LINE
  5
C596
330
C423
100
AcDbEntity
  8
1
  6
Continuous
100
AcDbLine
 10
101.392751
 20
233.485056
 30
0.0
 11
100.761421
 21
230.337256
 31
0.0
  0
LINE
  5
C597
330
C423
100
AcDbEntity
  8
1
  6
Continuous
100
AcDbLine
 10
101.8408989999998
 20
230.3372589999999
 30
0.0
 11
101.80852
 21
230.0467359999999
 31
0.0
  0
LINE
  5
C598
330
C423
100
AcDbEntity
  8
1
  6
Continuous
100
AcDbLine
 10
100.761421
 20
230.3372589999999
 30
0.0
 11
100.729041
 21
230.0467359999999
 31
0.0
  0
LINE
  5
C599
330
C423
100
AcDbEntity
  8
1
  6
Continuous
100
AcDbLine
 10
102.47223
 20
233.485056
 30
0.0
 11
102.80852
 21
233.1872589999999
 31
0.0
  0
LINE
  5
C59A
330
C423
100
AcDbEntity
  8
1
  6
Continuous
100
AcDbLine
 10
105.3220419999999
 20
233.485056
 30
0.0
 11
104.690711
 21
230.337256
 31
0.0
  0
LINE
  5
C59B
330
C423
100
AcDbEntity
  8
1
  6
Continuous
100
AcDbLine
 10
103.8003479999999
 20
233.485056
 30
0.0
 11
103.169017
 21
230.337256
 31
0.0
  0
LINE
  5
C59C
330
C423
100
AcDbEntity
  8
1
  6
Continuous
100
AcDbLine
 10
103.5366379999999
 20
227.487259
 30
0.0
 11
104.136638
 21
233.1872589999999
 31
0.0
  0
ARC
  5
C59D
330
C423
100
AcDbEntity
  8
1
  6
Continuous
100
AcDbCircle
 10
103.836638
 20
233.1872589999999
 30
0.0
 40
0.3
100
AcDbArc
 50
0.0
 51
96.94793100000005
  0
LINE
  5
C59E
330
C423
100
AcDbEntity
  8
1
  6
Continuous
100
AcDbLine
 10
105.0583319999999
 20
227.487259
 30
0.0
 11
105.658332
 21
233.1872589999999
 31
0.0
  0
LINE
  5
C59F
330
C423
100
AcDbEntity
  8
1
  6
Continuous
100
AcDbLine
 10
105.3220419999999
 20
233.485056
 30
0.0
 11
105.658332
 21
233.1872589999999
 31
0.0
  0
ARC
  5
C5A0
330
C423
100
AcDbEntity
  8
1
  6
Continuous
100
AcDbCircle
 10
104.7583319999999
 20
227.487259
 30
0.0
 40
0.3
100
AcDbArc
 50
250.5287789999999
 51
0.0
  0
LINE
  5
C5A1
330
C423
100
AcDbEntity
  8
1
  6
Continuous
100
AcDbLine
 10
103.136638
 20
230.0467359999999
 30
0.0
 11
103.136638
 21
227.204416
 31
0.0
  0
ARC
  5
C5A2
330
C423
100
AcDbEntity
  8
1
  6
Continuous
100
AcDbCircle
 10
103.236638
 20
227.487259
 30
0.0
 40
0.3
100
AcDbArc
 50
250.5287789999999
 51
0.0
  0
LINE
  5
C5A3
330
C423
100
AcDbEntity
  8
1
  6
Continuous
100
AcDbLine
 10
104.658332
 20
230.0467359999999
 30
0.0
 11
104.658332
 21
227.204416
 31
0.0
  0
LINE
  5
C5A4
330
C423
100
AcDbEntity
  8
1
  6
Continuous
100
AcDbLine
 10
103.169017
 20
230.3372589999999
 30
0.0
 11
103.136638
 21
230.0467359999999
 31
0.0
  0
LINE
  5
C5A5
330
C423
100
AcDbEntity
  8
1
  6
Continuous
100
AcDbLine
 10
104.690711
 20
230.3372589999999
 30
0.0
 11
104.658332
 21
230.0467359999999
 31
0.0
  0
LINE
  5
C5A6
330
C423
100
AcDbEntity
  8
1
  6
Continuous
100
AcDbLine
 10
106.867993
 20
227.391208
 30
0.0
 11
107.467993
 21
233.091208
 31
0.0
  0
LINE
  5
C5A7
330
C423
100
AcDbEntity
  8
1
  6
Continuous
100
AcDbLine
 10
108.684017
 20
227.391208
 30
0.0
 11
109.2840169999999
 21
233.091208
 31
0.0
  0
ARC
  5
C5A8
330
C423
100
AcDbEntity
  8
1
  6
Continuous
100
AcDbCircle
 10
107.1679929999999
 20
233.091208
 30
0.0
 40
0.3
100
AcDbArc
 50
0.0
 51
118.9854739999999
  0
LINE
  5
C5A9
330
C423
100
AcDbEntity
  8
1
  6
Continuous
100
AcDbLine
 10
107.0226169999999
 20
233.3536309999999
 30
0.0
 11
106.395329
 21
230.22599
 31
0.0
  0
LINE
  5
C5AA
330
C423
100
AcDbEntity
  8
1
  6
Continuous
100
AcDbLine
 10
108.838641
 20
233.3536309999999
 30
0.0
 11
108.2113529999999
 21
230.22599
 31
0.0
  0
ARC
  5
C5AB
330
C423
100
AcDbEntity
  8
1
  6
Continuous
100
AcDbCircle
 10
108.9840169999998
 20
233.091208
 30
0.0
 40
0.3
100
AcDbArc
 50
0.0
 51
118.9854739999999
  0
LINE
  5
C5AC
330
C423
100
AcDbEntity
  8
1
  6
Continuous
100
AcDbLine
 10
106.3679929999999
 20
229.9506849999999
 30
0.0
 11
106.3679929999999
 21
227.1676009999999
 31
0.0
  0
ARC
  5
C5AD
330
C423
100
AcDbEntity
  8
1
  6
Continuous
100
AcDbCircle
 10
106.5679929999999
 20
227.391208
 30
0.0
 40
0.3
100
AcDbArc
 50
228.1896849999998
 51
0.0
  0
LINE
  5
C5AE
330
C423
100
AcDbEntity
  8
1
  6
Continuous
100
AcDbLine
 10
108.1840169999999
 20
229.9506849999999
 30
0.0
 11
108.1840169999999
 21
227.1676009999999
 31
0.0
  0
ARC
  5
C5AF
330
C423
100
AcDbEntity
  8
1
  6
Continuous
100
AcDbCircle
 10
108.384017
 20
227.391208
 30
0.0
 40
0.3
100
AcDbArc
 50
228.1896849999998
 51
0.0
  0
LINE
  5
C5B0
330
C423
100
AcDbEntity
  8
1
  6
Continuous
100
AcDbLine
 10
108.2113529999999
 20
230.22599
 30
0.0
 11
108.1840169999999
 21
229.9506849999999
 31
0.0
  0
LINE
  5
C5B1
330
C423
100
AcDbEntity
  8
1
  6
Continuous
100
AcDbLine
 10
106.395329
 20
230.22599
 30
0.0
 11
106.3679929999999
 21
229.9506849999999
 31
0.0
  0
LINE
  5
C5B2
330
C423
100
AcDbEntity
  8
1
  6
Continuous
100
AcDbLine
 10
112.3272019999999
 20
233.3536309999999
 30
0.0
 11
111.6999139999998
 21
230.22599
 31
0.0
  0
LINE
  5
C5B3
330
C423
100
AcDbEntity
  8
1
  6
Continuous
100
AcDbLine
 10
110.70771
 20
233.3536309999999
 30
0.0
 11
110.080422
 21
230.22599
 31
0.0
  0
LINE
  5
C5B4
330
C423
100
AcDbEntity
  8
1
  6
Continuous
100
AcDbLine
 10
112.172578
 20
227.391208
 30
0.0
 11
112.772578
 21
233.091208
 31
0.0
  0
LINE
  5
C5B5
330
C423
100
AcDbEntity
  8
1
  6
Continuous
100
AcDbLine
 10
110.553087
 20
227.391208
 30
0.0
 11
111.153087
 21
233.091208
 31
0.0
  0
ARC
  5
C5B6
330
C423
100
AcDbEntity
  8
1
  6
Continuous
100
AcDbCircle
 10
112.472578
 20
233.091208
 30
0.0
 40
0.3
100
AcDbArc
 50
0.0
 51
118.9854739999999
  0
ARC
  5
C5B7
330
C423
100
AcDbEntity
  8
1
  6
Continuous
100
AcDbCircle
 10
110.853087
 20
233.091208
 30
0.0
 40
0.3
100
AcDbArc
 50
0.0
 51
118.9854739999999
  0
LINE
  5
C5B8
330
C423
100
AcDbEntity
  8
1
  6
Continuous
100
AcDbLine
 10
110.080422
 20
230.22599
 30
0.0
 11
110.053087
 21
229.9506849999999
 31
0.0
  0
ARC
  5
C5B9
330
C423
100
AcDbEntity
  8
1
  6
Continuous
100
AcDbCircle
 10
111.872578
 20
227.391208
 30
0.0
 40
0.3
100
AcDbArc
 50
228.1896849999998
 51
0.0
  0
LINE
  5
C5BA
330
C423
100
AcDbEntity
  8
1
  6
Continuous
100
AcDbLine
 10
111.672578
 20
229.9506849999999
 30
0.0
 11
111.672578
 21
227.1676009999999
 31
0.0
  0
ARC
  5
C5BB
330
C423
100
AcDbEntity
  8
1
  6
Continuous
100
AcDbCircle
 10
110.253087
 20
227.391208
 30
0.0
 40
0.3
100
AcDbArc
 50
228.1896849999998
 51
0.0
  0
LINE
  5
C5BC
330
C423
100
AcDbEntity
  8
1
  6
Continuous
100
AcDbLine
 10
110.053087
 20
229.9506849999999
 30
0.0
 11
110.053087
 21
227.1676009999999
 31
0.0
  0
LINE
  5
C5BD
330
C423
100
AcDbEntity
  8
1
  6
Continuous
100
AcDbLine
 10
114.137953
 20
227.391208
 30
0.0
 11
114.737953
 21
233.091208
 31
0.0
  0
LINE
  5
C5BE
330
C423
100
AcDbEntity
  8
1
  6
Continuous
100
AcDbLine
 10
114.292576
 20
233.3536309999999
 30
0.0
 11
113.6652889999999
 21
230.22599
 31
0.0
  0
ARC
  5
C5BF
330
C423
100
AcDbEntity
  8
1
  6
Continuous
100
AcDbCircle
 10
114.4379529999999
 20
233.091208
 30
0.0
 40
0.3
100
AcDbArc
 50
0.0
 51
118.9854739999999
  0
LINE
  5
C5C0
330
C423
100
AcDbEntity
  8
1
  6
Continuous
100
AcDbLine
 10
113.6379529999999
 20
229.9506849999999
 30
0.0
 11
113.6379529999999
 21
227.1676009999999
 31
0.0
  0
ARC
  5
C5C1
330
C423
100
AcDbEntity
  8
1
  6
Continuous
100
AcDbCircle
 10
113.8379529999999
 20
227.391208
 30
0.0
 40
0.3
100
AcDbArc
 50
228.1896849999998
 51
0.0
  0
LINE
  5
C5C2
330
C423
100
AcDbEntity
  8
1
  6
Continuous
100
AcDbLine
 10
113.6652889999999
 20
230.22599
 30
0.0
 11
113.6379529999999
 21
229.9506849999999
 31
0.0
  0
LINE
  5
C5C3
330
C423
100
AcDbEntity
  8
1
  6
Continuous
100
AcDbLine
 10
111.6999139999998
 20
230.22599
 30
0.0
 11
111.672578
 21
229.9506849999999
 31
0.0
  0
LINE
  5
C5C4
330
C423
100
AcDbEntity
  8
1
  6
Continuous
100
AcDbLine
 10
242.055572
 20
168.9573359999999
 30
0.0
 11
247.755572
 21
168.357336
 31
0.0
  0
LINE
  5
C5C5
330
C423
100
AcDbEntity
  8
1
  6
Continuous
100
AcDbLine
 10
248.053369
 20
168.6936269999999
 30
0.0
 11
244.9055689999999
 21
169.324957
 31
0.0
  0
LINE
  5
C5C6
330
C423
100
AcDbEntity
  8
1
  6
Continuous
100
AcDbLine
 10
244.905572
 20
169.324957
 30
0.0
 11
244.615049
 21
169.357336
 31
0.0
  0
ARC
  5
C5C7
330
C423
100
AcDbEntity
  8
1
  6
Continuous
100
AcDbCircle
 10
242.055572
 20
169.257336
 30
0.0
 40
0.3
100
AcDbArc
 50
160.528779
 51
270.0
  0
LINE
  5
C5C8
330
C423
100
AcDbEntity
  8
1
  6
Continuous
100
AcDbLine
 10
244.615049
 20
169.357336
 30
0.0
 11
241.772729
 21
169.357336
 31
0.0
  0
LINE
  5
C5C9
330
C423
100
AcDbEntity
  8
1
  6
Continuous
100
AcDbLine
 10
102.6579429999999
 20
48.90663400000001
 30
0.0
 11
102.6579429999999
 21
51.883294
 31
0.0
  0
LINE
  5
C5CA
330
C423
100
AcDbEntity
  8
1
  6
Continuous
100
AcDbLine
 10
102.6300569999998
 20
48.63882
 30
0.0
 11
101.9907799999999
 21
45.60225399999999
 31
0.0
  0
LINE
  5
C5CB
330
C423
100
AcDbEntity
  8
1
  6
Continuous
100
AcDbLine
 10
102.6579429999999
 20
48.90663400000001
 30
0.0
 11
102.6300569999998
 21
48.63882
 31
0.0
  0
LINE
  5
C5CC
330
C423
100
AcDbEntity
  8
1
  6
Continuous
100
AcDbLine
 10
101.103282
 20
51.600451
 30
0.0
 11
100.503282
 21
45.900451
 31
0.0
  0
ARC
  5
C5CD
330
C423
100
AcDbEntity
  8
1
  6
Continuous
100
AcDbCircle
 10
101.4032819999999
 20
51.600451
 30
0.0
 40
0.3
100
AcDbArc
 50
70.528779
 51
180.0
  0
LINE
  5
C5CE
330
C423
100
AcDbEntity
  8
1
  6
Continuous
100
AcDbLine
 10
101.503282
 20
48.90663400000001
 30
0.0
 11
101.503282
 21
51.883294
 31
0.0
  0
LINE
  5
C5CF
330
C423
100
AcDbEntity
  8
1
  6
Continuous
100
AcDbLine
 10
101.4753959999999
 20
48.63882
 30
0.0
 11
100.836119
 21
45.60225399999999
 31
0.0
  0
ARC
  5
C5D0
330
C423
100
AcDbEntity
  8
1
  6
Continuous
100
AcDbCircle
 10
100.8032819999999
 20
45.900451
 30
0.0
 40
0.3
100
AcDbArc
 50
180.0
 51
276.2840949999999
  0
LINE
  5
C5D1
330
C423
100
AcDbEntity
  8
1
  6
Continuous
100
AcDbLine
 10
101.503282
 20
48.90663400000001
 30
0.0
 11
101.4753959999999
 21
48.63882
 31
0.0
  0
LINE
  5
C5D2
330
C423
100
AcDbEntity
  8
1
  6
Continuous
100
AcDbLine
 10
248.053369
 20
168.6936269999999
 30
0.0
 11
247.755572
 21
168.357336
 31
0.0
  0
LINE
  5
C5D3
330
C423
100
AcDbEntity
  8
1
  6
Continuous
100
AcDbLine
 10
248.053369
 20
169.971685
 30
0.0
 11
244.870689
 21
170.6100109999999
 31
0.0
  0
LINE
  5
C5D4
330
C423
100
AcDbEntity
  8
1
  6
Continuous
100
AcDbLine
 10
242.055572
 20
170.2353939999998
 30
0.0
 11
247.755572
 21
169.6353939999999
 31
0.0
  0
LINE
  5
C5D5
330
C423
100
AcDbEntity
  8
1
  6
Continuous
100
AcDbLine
 10
248.053369
 20
169.971685
 30
0.0
 11
247.755572
 21
169.6353939999999
 31
0.0
  0
LINE
  5
C5D6
330
C423
100
AcDbEntity
  8
1
  6
Continuous
100
AcDbLine
 10
244.615049
 20
170.6353939999999
 30
0.0
 11
241.772729
 21
170.6353939999999
 31
0.0
  0
ARC
  5
C5D7
330
C423
100
AcDbEntity
  8
1
  6
Continuous
100
AcDbCircle
 10
242.055572
 20
170.535394
 30
0.0
 40
0.3
100
AcDbArc
 50
160.528779
 51
270.0
  0
LINE
  5
C5D8
330
C423
100
AcDbEntity
  8
1
  6
Continuous
100
AcDbLine
 10
242.055572
 20
171.481502
 30
0.0
 11
243.512891
 21
171.3281
 31
0.0
  0
LINE
  5
C5D9
330
C423
100
AcDbEntity
  8
1
  6
Continuous
100
AcDbLine
 10
248.053369
 20
171.217793
 30
0.0
 11
246.691181
 21
171.4909969999999
 31
0.0
  0
LINE
  5
C5DA
330
C423
100
AcDbEntity
  8
1
  6
Continuous
100
AcDbLine
 10
248.053369
 20
171.217793
 30
0.0
 11
247.755572
 21
170.881502
 31
0.0
  0
ARC
  5
C5DB
330
C423
100
AcDbEntity
  8
1
  6
Continuous
100
AcDbCircle
 10
242.055572
 20
171.7815019999999
 30
0.0
 40
0.3
100
AcDbArc
 50
160.528779
 51
270.0
  0
LINE
  5
C5DC
330
C423
100
AcDbEntity
  8
1
  6
Continuous
100
AcDbLine
 10
242.1830439999999
 20
171.881502
 30
0.0
 11
241.772729
 21
171.881502
 31
0.0
  0
LINE
  5
C5DD
330
C423
100
AcDbEntity
  8
1
  6
Continuous
100
AcDbLine
 10
244.615049
 20
170.6353939999999
 30
0.0
 11
244.870689
 21
170.6100109999999
 31
0.0
  0
LINE
  5
C5DE
330
C423
100
AcDbEntity
  8
1
  6
Continuous
100
AcDbLine
 10
245.0924699999999
 20
171.161829
 30
0.0
 11
247.755572
 21
170.881502
 31
0.0
  0
LINE
  5
C5DF
330
C423
100
AcDbEntity
  8
1
  6
Continuous
100
AcDbLine
 10
238.345952
 20
167.4578379999998
 30
0.0
 11
239.9828929999999
 21
166.475673
 31
0.0
  0
LINE
  5
C5E0
330
C423
100
AcDbEntity
  8
1
  6
Continuous
100
AcDbLine
 10
240.7550509999999
 20
166.3669309999999
 30
0.0
 11
244.588289
 21
167.389128
 31
0.0
  0
LINE
  5
C5E1
330
C423
100
AcDbEntity
  8
1
  6
Continuous
100
AcDbLine
 10
245.1036139999999
 20
167.389128
 30
0.0
 11
248.9368519999999
 21
166.3669309999999
 31
0.0
  0
LINE
  5
C5E2
330
C423
100
AcDbEntity
  8
1
  6
Continuous
100
AcDbLine
 10
249.70901
 20
166.475673
 30
0.0
 11
251.345952
 21
167.4578379999998
 31
0.0
  0
LINE
  5
C5E3
330
C423
100
AcDbEntity
  8
1
  6
Continuous
100
AcDbLine
 10
251.345952
 20
166.814199
 30
0.0
 11
249.70901
 21
165.8320339999999
 31
0.0
  0
LINE
  5
C5E4
330
C423
100
AcDbEntity
  8
1
  6
Continuous
100
AcDbLine
 10
248.9368519999999
 20
165.723292
 30
0.0
 11
245.1036139999999
 21
166.7454889999999
 31
0.0
  0
LINE
  5
C5E5
330
C423
100
AcDbEntity
  8
1
  6
Continuous
100
AcDbLine
 10
244.588289
 20
166.7454889999999
 30
0.0
 11
240.7550509999999
 21
165.723292
 31
0.0
  0
LINE
  5
C5E6
330
C423
100
AcDbEntity
  8
1
  6
Continuous
100
AcDbLine
 10
239.9828929999999
 20
165.8320339999999
 30
0.0
 11
238.345952
 21
166.814199
 31
0.0
  0
LINE
  5
C5E7
330
C423
100
AcDbEntity
  8
1
  6
Continuous
100
AcDbLine
 10
161.016903
 20
236.9067999999999
 30
0.0
 11
161.896812
 21
234.707027
 31
0.0
  0
LINE
  5
C5E8
330
C423
100
AcDbEntity
  8
1
  6
Continuous
100
AcDbLine
 10
161.938478
 20
234.0930999999999
 30
0.0
 11
161.016903
 21
230.4068
 31
0.0
  0
LINE
  5
C5E9
330
C423
100
AcDbEntity
  8
1
  6
Continuous
100
AcDbLine
 10
161.016903
 20
230.4068
 30
0.0
 11
161.939884
 21
226.253386
 31
0.0
  0
LINE
  5
C5EA
330
C423
100
AcDbEntity
  8
1
  6
Continuous
100
AcDbLine
 10
161.858124
 20
225.5892419999999
 30
0.0
 11
161.016903
 21
223.9068
 31
0.0
  0
ARC
  5
C5EB
330
C423
100
AcDbEntity
  8
1
  6
Continuous
100
AcDbCircle
 10
160.968335
 20
234.335636
 30
0.0
 40
1.0
100
AcDbArc
 50
345.9637569999999
 51
21.801409
  0
ARC
  5
C5EC
330
C423
100
AcDbEntity
  8
1
  6
Continuous
100
AcDbCircle
 10
160.9636969999999
 20
226.0364559999999
 30
0.0
 40
1.0
100
AcDbArc
 50
333.434949
 51
12.52880799999999
  0
LINE
  5
C5ED
330
C423
100
AcDbEntity
  8
1
  6
Continuous
100
AcDbLine
 10
159.5761259999999
 20
233.0174509999999
 30
0.0
 11
158.9761259999999
 21
227.317451
 31
0.0
  0
LINE
  5
C5EE
330
C423
100
AcDbEntity
  8
1
  6
Continuous
100
AcDbLine
 10
158.3761259999999
 20
227.317451
 30
0.0
 11
158.3761259999999
 21
230.1674509999998
 31
0.0
  0
ARC
  5
C5EF
330
C423
100
AcDbEntity
  8
1
  6
Continuous
100
AcDbCircle
 10
158.676126
 20
227.317451
 30
0.0
 40
0.3
100
AcDbArc
 50
180.0
 51
0.0
  0
LINE
  5
C5F0
330
C423
100
AcDbEntity
  8
1
  6
Continuous
100
AcDbLine
 10
158.9761259999999
 20
233.0174509999999
 30
0.0
 11
158.3761259999999
 21
230.1674509999998
 31
0.0
  0
ARC
  5
C5F1
330
C423
100
AcDbEntity
  8
1
  6
Continuous
100
AcDbCircle
 10
159.276126
 20
233.0174509999999
 30
0.0
 40
0.3
100
AcDbArc
 50
0.0
 51
180.0
  0
ARC
  5
C5F2
330
C423
100
AcDbEntity
  8
1
  6
Continuous
100
AcDbCircle
 10
240.497389
 20
166.6895269999999
 30
0.0
 40
1.0
100
AcDbArc
 50
239.036243
 51
284.9314169999999
  0
ARC
  5
C5F3
330
C423
100
AcDbEntity
  8
1
  6
Continuous
100
AcDbCircle
 10
249.1945149999998
 20
166.6895269999999
 30
0.0
 40
1.0
100
AcDbArc
 50
255.0685829999999
 51
300.9637569999998
  0
ARC
  5
C5F4
330
C423
100
AcDbEntity
  8
1
  6
Continuous
100
AcDbCircle
 10
249.1945149999998
 20
167.333166
 30
0.0
 40
1.0
100
AcDbArc
 50
255.0685829999999
 51
300.9637569999998
  0
ARC
  5
C5F5
330
C423
100
AcDbEntity
  8
1
  6
Continuous
100
AcDbCircle
 10
240.497389
 20
167.333166
 30
0.0
 40
1.0
100
AcDbArc
 50
239.036243
 51
284.9314169999999
  0
ARC
  5
C5F6
330
C423
100
AcDbEntity
  8
1
  6
Continuous
100
AcDbCircle
 10
244.845952
 20
166.4228929999999
 30
0.0
 40
1.0
100
AcDbArc
 50
75.06858299999997
 51
104.9314169999999
  0
ARC
  5
C5F7
330
C423
100
AcDbEntity
  8
1
  6
Continuous
100
AcDbCircle
 10
244.845952
 20
165.779254
 30
0.0
 40
1.0
100
AcDbArc
 50
75.06858299999997
 51
104.9314169999999
  0
LINE
  5
C5F8
330
C423
100
AcDbEntity
  8
1
  6
Continuous
100
AcDbLine
 10
129.140443
 20
227.317451
 30
0.0
 11
129.140443
 21
227.4068
 31
0.0
  0
ARC
  5
C5F9
330
C423
100
AcDbEntity
  8
1
  6
Continuous
100
AcDbCircle
 10
129.4404429999999
 20
227.317451
 30
0.0
 40
0.3
100
AcDbArc
 50
180.0
 51
290.591007
  0
LINE
  5
C5FA
330
C423
100
AcDbEntity
  8
1
  6
Continuous
100
AcDbLine
 10
157.176126
 20
233.0174509999999
 30
0.0
 11
156.5761259999999
 21
227.317451
 31
0.0
  0
LINE
  5
C5FB
330
C423
100
AcDbEntity
  8
1
  6
Continuous
100
AcDbLine
 10
156.5761259999999
 20
233.0174509999999
 30
0.0
 11
156.045952
 21
230.499123
 31
0.0
  0
ARC
  5
C5FC
330
C423
100
AcDbEntity
  8
1
  6
Continuous
100
AcDbCircle
 10
156.276126
 20
227.317451
 30
0.0
 40
0.3
100
AcDbArc
 50
219.8926659999999
 51
0.0
  0
ARC
  5
C5FD
330
C423
100
AcDbEntity
  8
1
  6
Continuous
100
AcDbCircle
 10
156.876126
 20
233.0174509999999
 30
0.0
 40
0.3
100
AcDbArc
 50
0.0
 51
180.0
  0
ARC
  5
C5FE
330
C423
100
AcDbEntity
  8
1
  6
Continuous
100
AcDbCircle
 10
132.152884
 20
147.030506
 30
0.0
 40
29.128713
100
AcDbArc
 50
56.99149399999999
 51
65.38827600000001
  0
ARC
  5
C5FF
330
C423
100
AcDbEntity
  8
1
  6
Continuous
100
AcDbCircle
 10
139.313962
 20
126.585258
 30
0.0
 40
45.709267
100
AcDbArc
 50
60.219318
 51
79.01858799999998
  0
ARC
  5
C600
330
C423
100
AcDbEntity
  8
1
  6
Continuous
100
AcDbCircle
 10
139.313962
 20
126.585258
 30
0.0
 40
44.909267
100
AcDbArc
 50
60.27868500000001
 51
78.970044
  0
ARC
  5
C601
330
C423
100
AcDbEntity
  8
1
  6
Continuous
100
AcDbCircle
 10
139.313962
 20
126.585258
 30
0.0
 40
44.109267
100
AcDbArc
 50
60.340304
 51
78.970044
  0
ARC
  5
C602
330
C423
100
AcDbEntity
  8
1
  6
Continuous
100
AcDbCircle
 10
132.152884
 20
147.030506
 30
0.0
 40
28.328713
100
AcDbArc
 50
57.067576
 51
64.803128
  0
ARC
  5
C603
330
C423
100
AcDbEntity
  8
1
  6
Continuous
100
AcDbCircle
 10
132.152884
 20
147.030506
 30
0.0
 40
27.528713
100
AcDbArc
 50
57.067576
 51
64.181534
  0
ARC
  5
C604
330
C423
100
AcDbEntity
  8
1
  6
Continuous
100
AcDbCircle
 10
148.0974239999999
 20
171.646457
 30
0.0
 40
1.0
100
AcDbArc
 50
237.067576
 51
258.9700439999999
  0
ARC
  5
C605
330
C423
100
AcDbEntity
  8
1
  6
Continuous
100
AcDbCircle
 10
148.0974239999999
 20
171.646457
 30
0.0
 40
1.8
100
AcDbArc
 50
237.067576
 51
258.9700439999999
  0
ARC
  5
C606
330
C423
100
AcDbEntity
  8
5
  6
PHANTOM
100
AcDbCircle
 10
132.1639889999999
 20
147.163769
 30
0.0
 40
27.528713
100
AcDbArc
 50
56.51315499999999
 51
64.181534
  0
ARC
  5
C607
330
C423
100
AcDbEntity
  8
5
  6
PHANTOM
100
AcDbCircle
 10
132.159547
 20
147.110462
 30
0.0
 40
28.328713
100
AcDbArc
 50
56.79725699999998
 51
64.803128
  0
ARC
  5
C608
330
C423
100
AcDbEntity
  8
5
  6
PHANTOM
100
AcDbCircle
 10
132.155376
 20
147.060405
 30
0.0
 40
29.128713
100
AcDbArc
 50
56.99149399999999
 51
65.38827600000001
  0
ARC
  5
C609
330
C423
100
AcDbEntity
  8
5
  6
PHANTOM
100
AcDbCircle
 10
139.996799
 20
132.454977
 30
0.0
 40
39.849261
100
AcDbArc
 50
59.26305199999998
 51
78.37940399999998
  0
ARC
  5
C60A
330
C423
100
AcDbEntity
  8
5
  6
PHANTOM
100
AcDbCircle
 10
139.996799
 20
132.454977
 30
0.0
 40
39.049261
100
AcDbArc
 50
59.331915
 51
78.15128
  0
ARC
  5
C60B
330
C423
100
AcDbEntity
  8
5
  6
PHANTOM
100
AcDbCircle
 10
139.996799
 20
132.454977
 30
0.0
 40
38.24926099999998
100
AcDbArc
 50
59.403766
 51
77.967138
  0
ARC
  5
C60C
330
C423
100
AcDbEntity
  8
5
  6
PHANTOM
100
AcDbCircle
 10
148.345975
 20
171.6242829999999
 30
0.0
 40
1.8
100
AcDbArc
 50
236.513155
 51
257.9671379999999
  0
ARC
  5
C60D
330
C423
100
AcDbEntity
  8
5
  6
PHANTOM
100
AcDbCircle
 10
148.220046
 20
171.650914
 30
0.0
 40
1.0
100
AcDbArc
 50
236.797257
 51
258.15128
  0
LINE
  5
C60E
330
C423
100
AcDbEntity
  8
1
  6
Continuous
100
AcDbLine
 10
240.845952
 20
174.0966369999999
 30
0.0
 11
244.845952
 21
171.787236
 31
0.0
  0
LINE
  5
C60F
330
C423
100
AcDbEntity
  8
1
  6
Continuous
100
AcDbLine
 10
244.845952
 20
171.787236
 30
0.0
 11
248.845952
 21
174.0966369999999
 31
0.0
  0
LINE
  5
C610
330
C423
100
AcDbEntity
  8
1
  6
Continuous
100
AcDbLine
 10
248.845952
 20
174.0966369999999
 30
0.0
 11
248.845952
 21
178.7154389999998
 31
0.0
  0
LINE
  5
C611
330
C423
100
AcDbEntity
  8
1
  6
Continuous
100
AcDbLine
 10
248.845952
 20
178.7154389999998
 30
0.0
 11
244.845952
 21
181.0248399999999
 31
0.0
  0
LINE
  5
C612
330
C423
100
AcDbEntity
  8
1
  6
Continuous
100
AcDbLine
 10
244.845952
 20
181.0248399999999
 30
0.0
 11
240.845952
 21
178.7154389999998
 31
0.0
  0
LINE
  5
C613
330
C423
100
AcDbEntity
  8
1
  6
Continuous
100
AcDbLine
 10
240.845952
 20
178.7154389999998
 30
0.0
 11
240.845952
 21
174.0966369999999
 31
0.0
  0
ENDSEC
  0
SECTION
  2
OBJECTS
  0
DICTIONARY
  5
C411
330
0
100
AcDbDictionary
281
     1
  3
ACAD_CIP_PREVIOUS_PRODUCT_INFO
350
C673
  3
ACAD_COLOR
350
C655
  3
ACAD_DETAILVIEWSTYLE
350
C66E
  3
ACAD_GROUP
350
C412
  3
ACAD_LAYOUT
350
C41E
  3
ACAD_MATERIAL
350
C623
  3
ACAD_MLEADERSTYLE
350
C66A
  3
ACAD_MLINESTYLE
350
C41B
  3
ACAD_PLOTSETTINGS
350
C41D
  3
ACAD_PLOTSTYLENAME
350
C621
  3
ACAD_SCALELIST
350
C658
  3
ACAD_SECTIONVIEWSTYLE
350
C66C
  3
ACAD_TABLESTYLE
350
C656
  3
ACAD_VISUALSTYLE
350
C63C
  3
ACDB_RECOMPOSE_DATA
350
C691
  3
AcDbVariableDictionary
350
C684
  3
DWGPROPS
350
C692
  0
DICTIONARY
  5
C674
330
C415
100
AcDbDictionary
280
     1
281
     1
  3
ADSK_XREC_LAYER_RECONCILED
360
C675
  0
DICTIONARY
  5
C676
330
C42B
100
AcDbDictionary
280
     1
281
     1
  3
ADSK_XREC_LAYER_RECONCILED
360
C677
  0
DICTIONARY
  5
C678
330
C42C
100
AcDbDictionary
280
     1
281
     1
  3
ADSK_XREC_LAYER_RECONCILED
360
C679
  0
DICTIONARY
  5
C67A
330
C42D
100
AcDbDictionary
280
     1
281
     1
  3
ADSK_XREC_LAYER_RECONCILED
360
C67B
  0
DICTIONARY
  5
C67C
330
C42E
100
AcDbDictionary
280
     1
281
     1
  3
ADSK_XREC_LAYER_RECONCILED
360
C67D
  0
DICTIONARY
  5
C67E
330
C42F
100
AcDbDictionary
280
     1
281
     1
  3
ADSK_XREC_LAYER_RECONCILED
360
C67F
  0
DICTIONARY
  5
C680
330
C430
100
AcDbDictionary
280
     1
281
     1
  3
ADSK_XREC_LAYER_RECONCILED
360
C681
  0
DICTIONARY
  5
C682
330
C431
100
AcDbDictionary
280
     1
281
     1
  3
ADSK_XREC_LAYER_RECONCILED
360
C683
  0
DICTIONARY
  5
C61C
330
C423
100
AcDbDictionary
281
     1
  3
ACAD_LAYOUTSELFREF
350
C61D
  0
DICTIONARY
  5
C61A
330
C41F
100
AcDbDictionary
281
     1
  3
ACAD_LAYOUTSELFREF
350
C61B
  0
XRECORD
  5
C673
102
{ACAD_REACTORS
330
C411
102
}
330
C411
100
AcDbXrecord
280
     1
300
ACDLT
300
2014
300
ACDLT_F_S
  0
DICTIONARY
  5
C655
102
{ACAD_REACTORS
330
C411
102
}
330
C411
100
AcDbDictionary
281
     1
  0
DICTIONARY
  5
C66E
102
{ACAD_REACTORS
330
C411
102
}
330
C411
100
AcDbDictionary
281
     1
  3
Imperial24
350
C66F
  0
DICTIONARY
  5
C412
102
{ACAD_REACTORS
330
C411
102
}
330
C411
100
AcDbDictionary
281
     1
  0
DICTIONARY
  5
C41E
102
{ACAD_REACTORS
330
C411
102
}
330
C411
100
AcDbDictionary
281
     1
  3
Model
350
C670
  3
レイアウト1
350
C671
  0
DICTIONARY
  5
C623
102
{ACAD_REACTORS
330
C411
102
}
330
C411
100
AcDbDictionary
281
     1
  3
ByBlock
350
C62C
  3
ByLayer
350
C624
  3
Global
350
C634
  0
DICTIONARY
  5
C66A
102
{ACAD_REACTORS
330
C411
102
}
330
C411
100
AcDbDictionary
281
     1
  3
Standard
350
C66B
  0
DICTIONARY
  5
C41B
102
{ACAD_REACTORS
330
C411
102
}
330
C411
100
AcDbDictionary
281
     1
  3
STANDARD
350
C41C
  0
DICTIONARY
  5
C41D
102
{ACAD_REACTORS
330
C411
102
}
330
C411
100
AcDbDictionary
281
     1
  0
ACDBDICTIONARYWDFLT
  5
C621
102
{ACAD_REACTORS
330
C411
102
}
330
C411
100
AcDbDictionary
281
     1
  3
Normal
350
C622
100
AcDbDictionaryWithDefault
340
C622
  0
DICTIONARY
  5
C658
102
{ACAD_REACTORS
330
C411
102
}
330
C411
100
AcDbDictionary
281
     1
  3
A0
350
C659
  3
A1
350
C65A
  3
A2
350
C65B
  3
A3
350
C65C
  3
A4
350
C65D
  3
A5
350
C65E
  3
A6
350
C65F
  3
A7
350
C660
  3
A8
350
C661
  3
A9
350
C662
  3
B0
350
C663
  3
B1
350
C664
  3
B2
350
C665
  3
B3
350
C666
  3
B4
350
C667
  3
B5
350
C668
  3
B6
350
C669
  0
DICTIONARY
  5
C66C
102
{ACAD_REACTORS
330
C411
102
}
330
C411
100
AcDbDictionary
281
     1
  3
Imperial24
350
C66D
  0
DICTIONARY
  5
C656
102
{ACAD_REACTORS
330
C411
102
}
330
C411
100
AcDbDictionary
281
     1
  3
Standard
350
C657
  0
DICTIONARY
  5
C63C
102
{ACAD_REACTORS
330
C411
102
}
330
C411
100
AcDbDictionary
281
     1
  3
2dWireframe
350
C642
  3
Basic
350
C641
  3
Brighten
350
C648
  3
ColorChange
350
C64C
  3
Conceptual
350
C645
  3
Dim
350
C647
  3
EdgeColorOff
350
C654
  3
Facepattern
350
C64B
  3
Flat
350
C63D
  3
FlatWithEdges
350
C63E
  3
Gouraud
350
C63F
  3
GouraudWithEdges
350
C640
  3
Hidden
350
C644
  3
JitterOff
350
C652
  3
Linepattern
350
C64A
  3
OverhangOff
350
C653
  3
Realistic
350
C646
  3
Shaded
350
C651
  3
Shaded with edges
350
C650
  3
Shades of Gray
350
C64D
  3
Sketchy
350
C64E
  3
Thicken
350
C649
  3
Wireframe
350
C643
  3
X-Ray
350
C64F
  0
XRECORD
  5
C691
102
{ACAD_REACTORS
330
C411
102
}
330
C411
100
AcDbXrecord
280
     1
 90
        1
330
C657
  0
DICTIONARY
  5
C684
102
{ACAD_REACTORS
330
C411
102
}
330
C411
100
AcDbDictionary
281
     1
  3
CANNOSCALE
350
C689
  3
CMLEADERSTYLE
350
C686
  3
CTABLESTYLE
350
C685
  3
CVIEWDETAILSTYLE
350
C687
  3
CVIEWSECTIONSTYLE
350
C688
  3
DIMASSOC
350
C68C
  3
INDEXCTL
350
C68B
  3
SORTENTS
350
C68A
  3
XCLIPFRAME
350
C68D
  0
XRECORD
  5
C692
102
{ACAD_REACTORS
330
C411
102
}
330
C411
100
AcDbXrecord
280
     1
  1
DWGPROPS COOKIE
  2

  3

  4

  6

  7

  8
Yoshitsune
  9

300
=
301
=
302
=
303
=
304
=
305
=
306
=
307
=
308
=
309
=
 40
0.0000103703703704
 41
2451296.795134144
 42
2457192.658299201
  1

 90
        0
  0
XRECORD
  5
C675
102
{ACAD_REACTORS
330
C674
102
}
330
C674
100
AcDbXrecord
280
     1
290
     1
  0
XRECORD
  5
C677
102
{ACAD_REACTORS
330
C676
102
}
330
C676
100
AcDbXrecord
280
     1
290
     1
  0
XRECORD
  5
C679
102
{ACAD_REACTORS
330
C678
102
}
330
C678
100
AcDbXrecord
280
     1
290
     1
  0
XRECORD
  5
C67B
102
{ACAD_REACTORS
330
C67A
102
}
330
C67A
100
AcDbXrecord
280
     1
290
     1
  0
XRECORD
  5
C67D
102
{ACAD_REACTORS
330
C67C
102
}
330
C67C
100
AcDbXrecord
280
     1
290
     1
  0
XRECORD
  5
C67F
102
{ACAD_REACTORS
330
C67E
102
}
330
C67E
100
AcDbXrecord
280
     1
290
     1
  0
XRECORD
  5
C681
102
{ACAD_REACTORS
330
C680
102
}
330
C680
100
AcDbXrecord
280
     1
290
     1
  0
XRECORD
  5
C683
102
{ACAD_REACTORS
330
C682
102
}
330
C682
100
AcDbXrecord
280
     1
290
     1
  0
XRECORD
  5
C61D
102
{ACAD_REACTORS
330
C61C
102
}
330
C61C
100
AcDbXrecord
280
     1
340
C423
  0
XRECORD
  5
C61B
102
{ACAD_REACTORS
330
C61A
102
}
330
C61A
100
AcDbXrecord
280
     1
340
C41F
  0
ACDBDETAILVIEWSTYLE
  5
C66F
102
{ACAD_XDICTIONARY
360
C6CA
102
}
102
{ACAD_REACTORS
330
C66E
102
}
330
C66E
100
AcDbModelDocViewStyle
 70
     0
  3
Imperial24
290
     0
100
AcDbDetailViewStyle
 70
     0
 71
     0
 90
        3
 71
     1
340
C416
 40
0.24
340
0
 40
0.24
300

 40
0.36
280
     3
 71
     2
340
C41A
 90
       25
 71
     3
340
C416
 40
0.24
 90
        1
 40
0.75
 90
        1
300
%<\AcVar ViewType \f "%tc1">% %<\AcVar ViewDetailId>%\PSCALE %<\AcVar ViewScale \f "%sn">%
 71
     4
340
C41A
 90
       25
340
C41A
 90
       25
280
     0
  0
LAYOUT
  5
C670
102
{ACAD_XDICTIONARY
360
C6CC
102
}
102
{ACAD_REACTORS
330
C41E
102
}
330
C41E
100
AcDbPlotSettings
  1

  2
Canon LBP9100C
  4

  6

 40
0.0
 41
0.0
 42
0.0
 43
0.0
 44
0.0
 45
0.0
 46
0.0
 47
0.0
 48
0.0
 49
0.0
140
0.0
141
0.0
142
1.0
143
1.0
 70
  1712
 72
     0
 73
     0
 74
     0
  7

 75
     0
147
1.0
148
0.0
149
0.0
100
AcDbLayout
  1
Model
 70
     1
 71
     0
 10
0.0
 20
0.0
 11
12.0
 21
9.0
 12
0.0
 22
0.0
 32
0.0
 14
0.0
 24
0.0
 34
0.0
 15
0.0
 25
0.0
 35
0.0
146
0.0
 13
0.0
 23
0.0
 33
0.0
 16
1.0
 26
0.0
 36
0.0
 17
0.0
 27
1.0
 37
0.0
 76
     0
330
C423
331
C619
  0
LAYOUT
  5
C671
102
{ACAD_XDICTIONARY
360
C6CE
102
}
102
{ACAD_REACTORS
330
C41E
102
}
330
C41E
100
AcDbPlotSettings
  1

  2
Canon LBP9100C
  4

  6

 40
0.0
 41
0.0
 42
0.0
 43
0.0
 44
0.0
 45
0.0
 46
0.0
 47
0.0
 48
0.0
 49
0.0
140
0.0
141
0.0
142
1.0
143
1.0
 70
   688
 72
     0
 73
     0
 74
     5
  7

 75
    16
147
1.0
148
0.0
149
0.0
100
AcDbLayout
  1
レイアウト1
 70
     0
 71
     1
 10
0.0
 20
0.0
 11
420.0
 21
297.0
 12
0.0
 22
0.0
 32
0.0
 14
1.000000000000000E+20
 24
1.000000000000000E+20
 34
1.000000000000000E+20
 15
-1.000000000000000E+20
 25
-1.000000000000000E+20
 35
-1.000000000000000E+20
146
0.0
 13
0.0
 23
0.0
 33
0.0
 16
1.0
 26
0.0
 36
0.0
 17
0.0
 27
1.0
 37
0.0
 76
     0
330
C41F
  0
MATERIAL
  5
C62C
102
{ACAD_XDICTIONARY
360
C62D
102
}
102
{ACAD_REACTORS
330
C623
102
}
330
C623
100
AcDbMaterial
  1
ByBlock
 72
     0
 43
0.0208333333333333
 43
0.0
 43
0.0
 43
0.0
 43
0.0
 43
0.0208333333333333
 43
0.0
 43
0.0
 43
0.0
 43
0.0
 43
1.0
 43
0.0
 43
0.0
 43
0.0
 43
0.0
 43
1.0
 77
     0
 47
0.0208333333333333
 47
0.0
 47
0.0
 47
0.0
 47
0.0
 47
0.0208333333333333
 47
0.0
 47
0.0
 47
0.0
 47
0.0
 47
1.0
 47
0.0
 47
0.0
 47
0.0
 47
0.0
 47
1.0
171
     0
 49
0.0208333333333333
 49
0.0
 49
0.0
 49
0.0
 49
0.0
 49
0.0208333333333333
 49
0.0
 49
0.0
 49
0.0
 49
0.0
 49
1.0
 49
0.0
 49
0.0
 49
0.0
 49
0.0
 49
1.0
175
     0
142
0.0208333333333333
142
0.0
142
0.0
142
0.0
142
0.0
142
0.0208333333333333
142
0.0
142
0.0
142
0.0
142
0.0
142
1.0
142
0.0
142
0.0
142
0.0
142
0.0
142
1.0
179
     0
144
0.0208333333333333
144
0.0
144
0.0
144
0.0
144
0.0
144
0.0208333333333333
144
0.0
144
0.0
144
0.0
144
0.0
144
1.0
144
0.0
144
0.0
144
0.0
144
0.0
144
1.0
147
0.0208333333333333
147
0.0
147
0.0
147
0.0
147
0.0
147
0.0208333333333333
147
0.0
147
0.0
147
0.0
147
0.0
147
1.0
147
0.0
147
0.0
147
0.0
147
0.0
147
1.0
  0
MATERIAL
  5
C624
102
{ACAD_XDICTIONARY
360
C625
102
}
102
{ACAD_REACTORS
330
C623
102
}
330
C623
100
AcDbMaterial
  1
ByLayer
 72
     0
 43
0.0208333333333333
 43
0.0
 43
0.0
 43
0.0
 43
0.0
 43
0.0208333333333333
 43
0.0
 43
0.0
 43
0.0
 43
0.0
 43
1.0
 43
0.0
 43
0.0
 43
0.0
 43
0.0
 43
1.0
 77
     0
 47
0.0208333333333333
 47
0.0
 47
0.0
 47
0.0
 47
0.0
 47
0.0208333333333333
 47
0.0
 47
0.0
 47
0.0
 47
0.0
 47
1.0
 47
0.0
 47
0.0
 47
0.0
 47
0.0
 47
1.0
171
     0
 49
0.0208333333333333
 49
0.0
 49
0.0
 49
0.0
 49
0.0
 49
0.0208333333333333
 49
0.0
 49
0.0
 49
0.0
 49
0.0
 49
1.0
 49
0.0
 49
0.0
 49
0.0
 49
0.0
 49
1.0
175
     0
142
0.0208333333333333
142
0.0
142
0.0
142
0.0
142
0.0
142
0.0208333333333333
142
0.0
142
0.0
142
0.0
142
0.0
142
1.0
142
0.0
142
0.0
142
0.0
142
0.0
142
1.0
179
     0
144
0.0208333333333333
144
0.0
144
0.0
144
0.0
144
0.0
144
0.0208333333333333
144
0.0
144
0.0
144
0.0
144
0.0
144
1.0
144
0.0
144
0.0
144
0.0
144
0.0
144
1.0
147
0.0208333333333333
147
0.0
147
0.0
147
0.0
147
0.0
147
0.0208333333333333
147
0.0
147
0.0
147
0.0
147
0.0
147
1.0
147
0.0
147
0.0
147
0.0
147
0.0
147
1.0
  0
MATERIAL
  5
C634
102
{ACAD_XDICTIONARY
360
C635
102
}
102
{ACAD_REACTORS
330
C623
102
}
330
C623
100
AcDbMaterial
  1
Global
 72
     0
 43
0.0208333333333333
 43
0.0
 43
0.0
 43
0.0
 43
0.0
 43
0.0208333333333333
 43
0.0
 43
0.0
 43
0.0
 43
0.0
 43
1.0
 43
0.0
 43
0.0
 43
0.0
 43
0.0
 43
1.0
 77
     0
 47
0.0208333333333333
 47
0.0
 47
0.0
 47
0.0
 47
0.0
 47
0.0208333333333333
 47
0.0
 47
0.0
 47
0.0
 47
0.0
 47
1.0
 47
0.0
 47
0.0
 47
0.0
 47
0.0
 47
1.0
171
     0
 49
0.0208333333333333
 49
0.0
 49
0.0
 49
0.0
 49
0.0
 49
0.0208333333333333
 49
0.0
 49
0.0
 49
0.0
 49
0.0
 49
1.0
 49
0.0
 49
0.0
 49
0.0
 49
0.0
 49
1.0
175
     0
142
0.0208333333333333
142
0.0
142
0.0
142
0.0
142
0.0
142
0.0208333333333333
142
0.0
142
0.0
142
0.0
142
0.0
142
1.0
142
0.0
142
0.0
142
0.0
142
0.0
142
1.0
179
     0
144
0.0208333333333333
144
0.0
144
0.0
144
0.0
144
0.0
144
0.0208333333333333
144
0.0
144
0.0
144
0.0
144
0.0
144
1.0
144
0.0
144
0.0
144
0.0
144
0.0
144
1.0
147
0.0208333333333333
147
0.0
147
0.0
147
0.0
147
0.0
147
0.0208333333333333
147
0.0
147
0.0
147
0.0
147
0.0
147
1.0
147
0.0
147
0.0
147
0.0
147
0.0
147
1.0
  0
MLEADERSTYLE
  5
C66B
102
{ACAD_REACTORS
330
C66A
102
}
330
C66A
100
AcDbMLeaderStyle
170
     2
171
     1
172
     0
 90
        2
 40
0.0
 41
0.0
173
     1
 91
-1056964608
340
C418
 92
       -2
290
     1
 42
0.09
291
     1
 43
0.36
  3
Standard
 44
0.18
300

342
C416
174
     1
178
     6
175
     1
176
     0
 93
-1056964608
 45
0.18
292
     0
297
     0
 46
0.18
 94
-1056964608
 47
1.0
 49
1.0
140
1.0
293
     1
141
0.0
294
     1
177
     0
142
1.0
295
     0
296
     0
143
0.125
1001
ACAD_MLEADERVER
1070
     2
  0
MLINESTYLE
  5
C41C
102
{ACAD_REACTORS
330
C41B
102
}
330
C41B
100
AcDbMlineStyle
  2
STANDARD
 70
     0
  3

 62
   256
 51
90.0
 52
90.0
 71
     2
 49
0.5
 62
   256
  6
BYLAYER
 49
-0.5
 62
   256
  6
BYLAYER
  0
ACDBPLACEHOLDER
  5
C622
102
{ACAD_REACTORS
330
C621
102
}
330
C621
  0
SCALE
  5
C659
102
{ACAD_REACTORS
330
C658
102
}
330
C658
100
AcDbScale
 70
     0
300
1:1
140
1.0
141
1.0
290
     1
  0
SCALE
  5
C65A
102
{ACAD_REACTORS
330
C658
102
}
330
C658
100
AcDbScale
 70
     0
300
1/128" = 1'-0"
140
0.0078125
141
12.0
290
     0
  0
SCALE
  5
C65B
102
{ACAD_REACTORS
330
C658
102
}
330
C658
100
AcDbScale
 70
     0
300
1/64" = 1'-0"
140
0.015625
141
12.0
290
     0
  0
SCALE
  5
C65C
102
{ACAD_REACTORS
330
C658
102
}
330
C658
100
AcDbScale
 70
     0
300
1/32" = 1'-0"
140
0.03125
141
12.0
290
     0
  0
SCALE
  5
C65D
102
{ACAD_REACTORS
330
C658
102
}
330
C658
100
AcDbScale
 70
     0
300
1/16" = 1'-0"
140
0.0625
141
12.0
290
     0
  0
SCALE
  5
C65E
102
{ACAD_REACTORS
330
C658
102
}
330
C658
100
AcDbScale
 70
     0
300
3/32" = 1'-0"
140
0.09375
141
12.0
290
     0
  0
SCALE
  5
C65F
102
{ACAD_REACTORS
330
C658
102
}
330
C658
100
AcDbScale
 70
     0
300
1/8" = 1'-0"
140
0.125
141
12.0
290
     0
  0
SCALE
  5
C660
102
{ACAD_REACTORS
330
C658
102
}
330
C658
100
AcDbScale
 70
     0
300
3/16" = 1'-0"
140
0.1875
141
12.0
290
     0
  0
SCALE
  5
C661
102
{ACAD_REACTORS
330
C658
102
}
330
C658
100
AcDbScale
 70
     0
300
1/4" = 1'-0"
140
0.25
141
12.0
290
     0
  0
SCALE
  5
C662
102
{ACAD_REACTORS
330
C658
102
}
330
C658
100
AcDbScale
 70
     0
300
3/8" = 1'-0"
140
0.375
141
12.0
290
     0
  0
SCALE
  5
C663
102
{ACAD_REACTORS
330
C658
102
}
330
C658
100
AcDbScale
 70
     0
300
1/2" = 1'-0"
140
0.5
141
12.0
290
     0
  0
SCALE
  5
C664
102
{ACAD_REACTORS
330
C658
102
}
330
C658
100
AcDbScale
 70
     0
300
3/4" = 1'-0"
140
0.75
141
12.0
290
     0
  0
SCALE
  5
C665
102
{ACAD_REACTORS
330
C658
102
}
330
C658
100
AcDbScale
 70
     0
300
1" = 1'-0"
140
1.0
141
12.0
290
     0
  0
SCALE
  5
C666
102
{ACAD_REACTORS
330
C658
102
}
330
C658
100
AcDbScale
 70
     0
300
1-1/2" = 1'-0"
140
1.5
141
12.0
290
     0
  0
SCALE
  5
C667
102
{ACAD_REACTORS
330
C658
102
}
330
C658
100
AcDbScale
 70
     0
300
3" = 1'-0"
140
3.0
141
12.0
290
     0
  0
SCALE
  5
C668
102
{ACAD_REACTORS
330
C658
102
}
330
C658
100
AcDbScale
 70
     0
300
6" = 1'-0"
140
6.0
141
12.0
290
     0
  0
SCALE
  5
C669
102
{ACAD_REACTORS
330
C658
102
}
330
C658
100
AcDbScale
 70
     0
300
1'-0" = 1'-0"
140
12.0
141
12.0
290
     0
  0
ACDBSECTIONVIEWSTYLE
  5
C66D
102
{ACAD_XDICTIONARY
360
C6C8
102
}
102
{ACAD_REACTORS
330
C66C
102
}
330
C66C
100
AcDbModelDocViewStyle
 70
     0
  3
Imperial24
290
     0
100
AcDbSectionViewStyle
 70
     0
 71
     0
 90
       78
 71
     1
340
C416
 40
0.24
340
0
340
0
 40
0.24
300
I, O, Q, S, X, Z
 40
0.48
 90
        3
 40
0.18
 90
        1
 71
     2
340
C41A
 90
       25
340
C41A
 90
       50
 40
0.24
 40
0.0
 40
0.24
 71
     3
340
C416
 40
0.24
 90
        1
 40
0.75
 90
        1
300
%<\AcVar ViewType \f "%tc1">% %<\AcVar ViewSectionStartId>%-%<\AcVar ViewSectionEndId>%\PSCALE %<\AcVar ViewScale \f "%sn">%
 71
     4
300
ANSI31
 40
1.0
 90
        0
290
     0
290
     0
 90
        6
 40
0.0
 40
1.570796326794896
 40
0.2617993877991494
 40
1.308996938995747
 40
-0.2617993877991494
 40
1.832595714594046
  0
TABLESTYLE
  5
C657
102
{ACAD_XDICTIONARY
360
C68F
102
}
102
{ACAD_REACTORS
330
C656
102
}
330
C656
100
AcDbTableStyle
  3
Standard
 70
     0
 71
     0
 40
0.06
 41
0.06
280
     0
281
     0
  7
STANDARD
140
0.18
170
     2
 62
     0
 63
     7
283
     0
274
    -2
284
     1
 64
     0
275
    -2
285
     1
 65
     0
276
    -2
286
     1
 66
     0
277
    -2
287
     1
 67
     0
278
    -2
288
     1
 68
     0
279
    -2
289
     1
 69
     0
  7
STANDARD
140
0.25
170
     5
 62
     0
 63
     7
283
     0
274
    -2
284
     1
 64
     0
275
    -2
285
     1
 65
     0
276
    -2
286
     1
 66
     0
277
    -2
287
     1
 67
     0
278
    -2
288
     1
 68
     0
279
    -2
289
     1
 69
     0
  7
STANDARD
140
0.18
170
     5
 62
     0
 63
     7
283
     0
274
    -2
284
     1
 64
     0
275
    -2
285
     1
 65
     0
276
    -2
286
     1
 66
     0
277
    -2
287
     1
 67
     0
278
    -2
288
     1
 68
     0
279
    -2
289
     1
 69
     0
  0
VISUALSTYLE
  5
C642
102
{ACAD_XDICTIONARY
360
C6A0
102
}
102
{ACAD_REACTORS
330
C63C
102
}
330
C63C
100
AcDbVisualStyle
  2
2dWireframe
 70
     4
 71
     0
 72
     2
 73
     0
 90
        0
 40
-0.6
 41
-30.0
 62
     5
 63
     7
 74
     1
 91
        4
 64
     7
 65
   257
 75
     1
175
     1
 42
1.0
 92
        0
 66
   257
 43
1.0
 76
     1
 77
     6
 78
     2
 67
     7
 79
     5
170
     0
171
     0
290
     0
174
     0
 93
        1
 44
0.0
173
     0
291
     0
 45
0.0
1001
ACAD
1000
AcDbSavedByObjectVersion
1070
     0
  0
VISUALSTYLE
  5
C641
102
{ACAD_XDICTIONARY
360
C69E
102
}
102
{ACAD_REACTORS
330
C63C
102
}
330
C63C
100
AcDbVisualStyle
  2
Basic
 70
     7
 71
     1
 72
     0
 73
     1
 90
        0
 40
-0.6
 41
-30.0
 62
     5
 63
     7
 74
     0
 91
        4
 64
     7
 65
   257
 75
     1
175
     1
 42
1.0
 92
        8
 66
     7
 43
1.0
 76
     1
 77
     6
 78
     2
 67
     7
 79
     5
170
     0
171
     0
290
     0
174
     0
 93
        1
 44
0.0
173
     0
291
     1
 45
0.0
1001
ACAD
1000
AcDbSavedByObjectVersion
1070
     0
  0
VISUALSTYLE
  5
C648
102
{ACAD_XDICTIONARY
360
C6AC
102
}
102
{ACAD_REACTORS
330
C63C
102
}
330
C63C
100
AcDbVisualStyle
  2
Brighten
 70
    12
 71
     2
 72
     2
 73
     0
 90
        0
 40
-0.6
 41
-30.0
 62
     5
 63
     7
 74
     1
 91
        4
 64
     7
 65
   257
 75
     1
175
     1
 42
1.0
 92
        8
 66
     7
 43
1.0
 76
     1
 77
     6
 78
     2
 67
     7
 79
     5
170
     0
171
     0
290
     0
174
     0
 93
        1
 44
50.0
173
     0
291
     1
 45
0.0
1001
ACAD
1000
AcDbSavedByObjectVersion
1070
     0
  0
VISUALSTYLE
  5
C64C
102
{ACAD_XDICTIONARY
360
C6B4
102
}
102
{ACAD_REACTORS
330
C63C
102
}
330
C63C
100
AcDbVisualStyle
  2
ColorChange
 70
    16
 71
     2
 72
     2
 73
     3
 90
        0
 40
-0.6
 41
-30.0
 62
     5
 63
     8
 74
     1
 91
        4
 64
     7
 65
   257
 75
     1
175
     1
 42
1.0
 92
        8
 66
     8
 43
1.0
 76
     1
 77
     6
 78
     2
 67
     7
 79
     5
170
     0
171
     0
290
     0
174
     0
 93
        1
 44
0.0
173
     0
291
     1
 45
0.0
1001
ACAD
1000
AcDbSavedByObjectVersion
1070
     0
  0
VISUALSTYLE
  5
C645
102
{ACAD_XDICTIONARY
360
C6A6
102
}
102
{ACAD_REACTORS
330
C63C
102
}
330
C63C
100
AcDbVisualStyle
  2
Conceptual
 70
     9
 71
     3
 72
     2
 73
     0
 90
        0
 40
-0.6
 41
-30.0
 62
     5
 63
     7
 74
     2
 91
        2
 64
     7
 65
   257
 75
     1
175
     1
 42
179.0
 92
        8
 66
     7
 43
1.0
 76
     1
 77
     6
 78
     2
 67
     7
 79
     3
170
     0
171
     0
290
     0
174
     0
 93
        1
 44
0.0
173
     0
291
     0
 45
0.0
1001
ACAD
1000
AcDbSavedByObjectVersion
1070
     0
  0
VISUALSTYLE
  5
C647
102
{ACAD_XDICTIONARY
360
C6AA
102
}
102
{ACAD_REACTORS
330
C63C
102
}
330
C63C
100
AcDbVisualStyle
  2
Dim
 70
    11
 71
     2
 72
     2
 73
     0
 90
        0
 40
-0.6
 41
-30.0
 62
     5
 63
     7
 74
     1
 91
        4
 64
     7
 65
   257
 75
     1
175
     1
 42
1.0
 92
        8
 66
     7
 43
1.0
 76
     1
 77
     6
 78
     2
 67
     7
 79
     5
170
     0
171
     0
290
     0
174
     0
 93
        1
 44
-50.0
173
     0
291
     1
 45
0.0
1001
ACAD
1000
AcDbSavedByObjectVersion
1070
     0
  0
VISUALSTYLE
  5
C654
102
{ACAD_XDICTIONARY
360
C6C4
102
}
102
{ACAD_REACTORS
330
C63C
102
}
330
C63C
100
AcDbVisualStyle
  2
EdgeColorOff
 70
    22
 71
     2
 72
     2
 73
     0
 90
        0
 40
-0.6
 41
-30.0
 62
     5
 63
     7
 74
     1
 91
        4
 64
     7
 65
   257
 75
     1
175
     1
 42
1.0
 92
        8
 66
     7
 43
1.0
 76
     1
 77
     6
 78
     2
 67
     7
 79
     5
170
     0
171
     0
290
     0
174
     0
 93
        1
 44
0.0
173
     0
291
     1
 45
0.0
1001
ACAD
1000
AcDbSavedByObjectVersion
1070
     0
  0
VISUALSTYLE
  5
C64B
102
{ACAD_XDICTIONARY
360
C6B2
102
}
102
{ACAD_REACTORS
330
C63C
102
}
330
C63C
100
AcDbVisualStyle
  2
Facepattern
 70
    15
 71
     2
 72
     2
 73
     0
 90
        0
 40
-0.6
 41
-30.0
 62
     5
 63
     7
 74
     1
 91
        4
 64
     7
 65
   257
 75
     1
175
     1
 42
1.0
 92
        8
 66
     7
 43
1.0
 76
     1
 77
     6
 78
     2
 67
     7
 79
     5
170
     0
171
     0
290
     0
174
     0
 93
        1
 44
0.0
173
     0
291
     1
 45
0.0
1001
ACAD
1000
AcDbSavedByObjectVersion
1070
     0
  0
VISUALSTYLE
  5
C63D
102
{ACAD_XDICTIONARY
360
C696
102
}
102
{ACAD_REACTORS
330
C63C
102
}
330
C63C
100
AcDbVisualStyle
  2
Flat
 70
     0
 71
     2
 72
     1
 73
     1
 90
        2
 40
-0.6
 41
30.0
 62
     5
 63
     7
 74
     0
 91
        0
 64
     7
 65
   257
 75
     1
175
     1
 42
1.0
 92
        8
 66
     7
 43
1.0
 76
     1
 77
     6
 78
     2
 67
     7
 79
     5
170
     0
171
     0
290
     0
174
     0
 93
       13
 44
0.0
173
     0
291
     1
 45
0.0
1001
ACAD
1000
AcDbSavedByObjectVersion
1070
     0
  0
VISUALSTYLE
  5
C63E
102
{ACAD_XDICTIONARY
360
C698
102
}
102
{ACAD_REACTORS
330
C63C
102
}
330
C63C
100
AcDbVisualStyle
  2
FlatWithEdges
 70
     1
 71
     2
 72
     1
 73
     1
 90
        2
 40
-0.6
 41
30.0
 62
     5
 63
     7
 74
     1
 91
        0
 64
     7
 65
   257
 75
     1
175
     1
 42
1.0
 92
        0
 66
   257
 43
1.0
 76
     1
 77
     6
 78
     2
 67
     7
 79
     5
170
     0
171
     0
290
     0
174
     0
 93
       13
 44
0.0
173
     0
291
     1
 45
0.0
1001
ACAD
1000
AcDbSavedByObjectVersion
1070
     0
  0
VISUALSTYLE
  5
C63F
102
{ACAD_XDICTIONARY
360
C69A
102
}
102
{ACAD_REACTORS
330
C63C
102
}
330
C63C
100
AcDbVisualStyle
  2
Gouraud
 70
     2
 71
     2
 72
     2
 73
     1
 90
        2
 40
-0.6
 41
30.0
 62
     5
 63
     7
 74
     0
 91
        0
 64
     7
 65
   257
 75
     1
175
     1
 42
1.0
 92
        0
 66
     7
 43
1.0
 76
     1
 77
     6
 78
     2
 67
     7
 79
     5
170
     0
171
     0
290
     0
174
     0
 93
       13
 44
0.0
173
     0
291
     1
 45
0.0
1001
ACAD
1000
AcDbSavedByObjectVersion
1070
     0
  0
VISUALSTYLE
  5
C640
102
{ACAD_XDICTIONARY
360
C69C
102
}
102
{ACAD_REACTORS
330
C63C
102
}
330
C63C
100
AcDbVisualStyle
  2
GouraudWithEdges
 70
     3
 71
     2
 72
     2
 73
     1
 90
        2
 40
-0.6
 41
30.0
 62
     5
 63
     7
 74
     1
 91
        0
 64
     7
 65
   257
 75
     1
175
     1
 42
1.0
 92
        0
 66
   257
 43
1.0
 76
     1
 77
     6
 78
     2
 67
     7
 79
     5
170
     0
171
     0
290
     0
174
     0
 93
       13
 44
0.0
173
     0
291
     1
 45
0.0
1001
ACAD
1000
AcDbSavedByObjectVersion
1070
     0
  0
VISUALSTYLE
  5
C644
102
{ACAD_XDICTIONARY
360
C6A4
102
}
102
{ACAD_REACTORS
330
C63C
102
}
330
C63C
100
AcDbVisualStyle
  2
Hidden
 70
     6
 71
     1
 72
     2
 73
     2
 90
        0
 40
-0.6
 41
-30.0
 62
     5
 63
     7
 74
     2
 91
        2
 64
     7
 65
   257
 75
     2
175
     1
 42
40.0
 92
        0
 66
   257
 43
1.0
 76
     1
 77
     6
 78
     2
 67
     7
 79
     3
170
     0
171
     0
290
     0
174
     0
 93
        1
 44
0.0
173
     0
291
     0
 45
0.0
1001
ACAD
1000
AcDbSavedByObjectVersion
1070
     0
  0
VISUALSTYLE
  5
C652
102
{ACAD_XDICTIONARY
360
C6C0
102
}
102
{ACAD_REACTORS
330
C63C
102
}
330
C63C
100
AcDbVisualStyle
  2
JitterOff
 70
    20
 71
     2
 72
     2
 73
     0
 90
        0
 40
-0.6
 41
-30.0
 62
     5
 63
     7
 74
     1
 91
        4
 64
     7
 65
   257
 75
     1
175
     1
 42
1.0
 92
       10
 66
     7
 43
1.0
 76
     1
 77
     6
 78
     2
 67
     7
 79
     5
170
     0
171
     0
290
     0
174
     0
 93
        1
 44
0.0
173
     0
291
     1
 45
0.0
1001
ACAD
1000
AcDbSavedByObjectVersion
1070
     0
  0
VISUALSTYLE
  5
C64A
102
{ACAD_XDICTIONARY
360
C6B0
102
}
102
{ACAD_REACTORS
330
C63C
102
}
330
C63C
100
AcDbVisualStyle
  2
Linepattern
 70
    14
 71
     2
 72
     2
 73
     0
 90
        0
 40
-0.6
 41
-30.0
 62
     5
 63
     7
 74
     1
 91
        4
 64
     7
 65
   257
 75
     7
175
     7
 42
1.0
 92
        8
 66
     7
 43
1.0
 76
     1
 77
     6
 78
     2
 67
     7
 79
     5
170
     0
171
     0
290
     0
174
     0
 93
        1
 44
0.0
173
     0
291
     1
 45
0.0
1001
ACAD
1000
AcDbSavedByObjectVersion
1070
     0
  0
VISUALSTYLE
  5
C653
102
{ACAD_XDICTIONARY
360
C6C2
102
}
102
{ACAD_REACTORS
330
C63C
102
}
330
C63C
100
AcDbVisualStyle
  2
OverhangOff
 70
    21
 71
     2
 72
     2
 73
     0
 90
        0
 40
-0.6
 41
-30.0
 62
     5
 63
     7
 74
     1
 91
        4
 64
     7
 65
   257
 75
     1
175
     1
 42
1.0
 92
        9
 66
     7
 43
1.0
 76
     1
 77
     6
 78
     2
 67
     7
 79
     5
170
     0
171
     0
290
     0
174
     0
 93
        1
 44
0.0
173
     0
291
     1
 45
0.0
1001
ACAD
1000
AcDbSavedByObjectVersion
1070
     0
  0
VISUALSTYLE
  5
C646
102
{ACAD_XDICTIONARY
360
C6A8
102
}
102
{ACAD_REACTORS
330
C63C
102
}
330
C63C
100
AcDbVisualStyle
  2
Realistic
 70
     8
 71
     2
 72
     3
 73
     0
 90
        2
 40
-0.6
 41
30.0
 62
     5
 63
     7
 74
     0
 91
        0
 64
     7
 65
   257
 75
     1
175
     1
 42
1.0
 92
        8
 66
   257
 43
1.0
 76
     1
 77
     6
 78
     2
 67
     7
 79
     3
170
     0
171
     0
290
     0
174
     0
 93
       13
 44
0.0
173
     0
291
     0
 45
0.0
1001
ACAD
1000
AcDbSavedByObjectVersion
1070
     0
  0
VISUALSTYLE
  5
C651
102
{ACAD_XDICTIONARY
360
C6BE
102
}
102
{ACAD_REACTORS
330
C63C
102
}
330
C63C
100
AcDbVisualStyle
  2
Shaded
 70
    27
 71
     2
 72
     2
 73
     1
 90
        2
 40
-0.6
 41
30.0
 62
     5
 63
     7
 74
     0
 91
        4
 64
     7
 65
   257
 75
     1
175
     1
 42
1.0
 92
        8
 66
   257
 43
1.0
 76
     1
 77
     6
 78
     2
 67
     8
 79
     3
170
     0
171
     0
290
     0
174
     0
 93
        5
 44
0.0
173
     0
291
     0
 45
0.0
1001
ACAD
1000
AcDbSavedByObjectVersion
1070
     0
  0
VISUALSTYLE
  5
C650
102
{ACAD_XDICTIONARY
360
C6BC
102
}
102
{ACAD_REACTORS
330
C63C
102
}
330
C63C
100
AcDbVisualStyle
  2
Shaded with edges
 70
    26
 71
     2
 72
     2
 73
     1
 90
        2
 40
-0.6
 41
30.0
 62
     5
 63
     7
 74
     1
 91
       10
 64
     7
 65
   257
 75
     2
175
     1
 42
1.0
 92
        8
 66
   257
 43
1.0
 76
     1
 77
     6
 78
     2
 67
     7
 79
     3
170
     0
171
     0
290
     0
174
     0
 93
        5
 44
0.0
173
     0
291
     0
 45
0.0
1001
ACAD
1000
AcDbSavedByObjectVersion
1070
     0
  0
VISUALSTYLE
  5
C64D
102
{ACAD_XDICTIONARY
360
C6B6
102
}
102
{ACAD_REACTORS
330
C63C
102
}
330
C63C
100
AcDbVisualStyle
  2
Shades of Gray
 70
    23
 71
     2
 72
     2
 73
     3
 90
        0
 40
-0.6
 41
-30.0
 62
     5
 63
     7
 74
     2
 91
        2
 64
     7
 65
     7
 75
     1
175
     1
 42
40.0
 92
        8
 66
     7
 43
1.0
 76
     1
 77
     6
 78
     2
 67
     7
 79
     3
170
     0
171
     0
290
     0
174
     0
 93
        1
 44
0.0
173
     0
291
     0
 45
0.0
1001
ACAD
1000
AcDbSavedByObjectVersion
1070
     0
  0
VISUALSTYLE
  5
C64E
102
{ACAD_XDICTIONARY
360
C6B8
102
}
102
{ACAD_REACTORS
330
C63C
102
}
330
C63C
100
AcDbVisualStyle
  2
Sketchy
 70
    24
 71
     1
 72
     2
 73
     2
 90
        0
 40
-0.6
 41
-30.0
 62
     5
 63
     7
 74
     2
 91
        2
 64
     7
 65
     7
 75
     1
175
     1
 42
40.0
 92
       11
 66
     7
 43
1.0
 76
     1
 77
     6
 78
     2
 67
     7
 79
     6
170
     0
171
     0
290
     0
174
     0
 93
        1
 44
0.0
173
     0
291
     0
 45
0.0
1001
ACAD
1000
AcDbSavedByObjectVersion
1070
     0
  0
VISUALSTYLE
  5
C649
102
{ACAD_XDICTIONARY
360
C6AE
102
}
102
{ACAD_REACTORS
330
C63C
102
}
330
C63C
100
AcDbVisualStyle
  2
Thicken
 70
    13
 71
     2
 72
     2
 73
     0
 90
        0
 40
-0.6
 41
-30.0
 62
     5
 63
     7
 74
     1
 91
        4
 64
     7
 65
   257
 75
     1
175
     1
 42
1.0
 92
       12
 66
     7
 43
1.0
 76
     1
 77
     6
 78
     2
 67
     7
 79
     5
170
     0
171
     0
290
     0
174
     0
 93
        1
 44
0.0
173
     0
291
     1
 45
0.0
1001
ACAD
1000
AcDbSavedByObjectVersion
1070
     0
  0
VISUALSTYLE
  5
C643
102
{ACAD_XDICTIONARY
360
C6A2
102
}
102
{ACAD_REACTORS
330
C63C
102
}
330
C63C
100
AcDbVisualStyle
  2
Wireframe
 70
     5
 71
     0
 72
     2
 73
     0
 90
        0
 40
-0.6
 41
-30.0
 62
     5
 63
     7
 74
     1
 91
        4
 64
     7
 65
   257
 75
     1
175
     1
 42
1.0
 92
        0
 66
   257
 43
1.0
 76
     1
 77
     6
 78
     2
 67
     7
 79
     3
170
     0
171
     0
290
     0
174
     0
 93
        1
 44
0.0
173
     0
291
     0
 45
0.0
1001
ACAD
1000
AcDbSavedByObjectVersion
1070
     0
  0
VISUALSTYLE
  5
C64F
102
{ACAD_XDICTIONARY
360
C6BA
102
}
102
{ACAD_REACTORS
330
C63C
102
}
330
C63C
100
AcDbVisualStyle
  2
X-Ray
 70
    25
 71
     2
 72
     2
 73
     1
 90
        1
 40
0.5
 41
-30.0
 62
     5
 63
     7
 74
     1
 91
        0
 64
     7
 65
   257
 75
     1
175
     1
 42
1.0
 92
        8
 66
     7
 43
1.0
 76
     1
 77
     6
 78
     2
 67
     7
 79
     3
170
     0
171
     0
290
     0
174
     0
 93
       13
 44
0.0
173
     0
291
     0
 45
0.0
1001
ACAD
1000
AcDbSavedByObjectVersion
1070
     0
  0
DICTIONARYVAR
  5
C689
102
{ACAD_REACTORS
330
C684
102
}
330
C684
100
DictionaryVariables
280
     0
  1
1:1
  0
DICTIONARYVAR
  5
C686
102
{ACAD_REACTORS
330
C684
102
}
330
C684
100
DictionaryVariables
280
     0
  1
STANDARD
  0
DICTIONARYVAR
  5
C685
102
{ACAD_REACTORS
330
C684
102
}
330
C684
100
DictionaryVariables
280
     0
  1
STANDARD
  0
DICTIONARYVAR
  5
C687
102
{ACAD_REACTORS
330
C684
102
}
330
C684
100
DictionaryVariables
280
     0
  1
Imperial24
  0
DICTIONARYVAR
  5
C688
102
{ACAD_REACTORS
330
C684
102
}
330
C684
100
DictionaryVariables
280
     0
  1
Imperial24
  0
DICTIONARYVAR
  5
C68C
102
{ACAD_REACTORS
330
C684
102
}
330
C684
100
DictionaryVariables
280
     0
  1
1
  0
DICTIONARYVAR
  5
C68B
102
{ACAD_REACTORS
330
C684
102
}
330
C684
100
DictionaryVariables
280
     0
  1
0
  0
DICTIONARYVAR
  5
C68A
102
{ACAD_REACTORS
330
C684
102
}
330
C684
100
DictionaryVariables
280
     0
  1
127
  0
DICTIONARYVAR
  5
C68D
102
{ACAD_REACTORS
330
C684
102
}
330
C684
100
DictionaryVariables
280
     0
  1
2
  0
DICTIONARY
  5
C6CA
330
C66F
100
AcDbDictionary
280
     1
281
     1
  3
ACAD_XREC_ROUNDTRIP
360
C6CB
  0
DICTIONARY
  5
C6CC
330
C670
100
AcDbDictionary
280
     1
281
     1
  3
ACAD_XREC_ROUNDTRIP
360
C6CD
  0
DICTIONARY
  5
C6CE
330
C671
100
AcDbDictionary
280
     1
281
     1
  3
ACAD_XREC_ROUNDTRIP
360
C6CF
  0
DICTIONARY
  5
C62D
330
C62C
100
AcDbDictionary
280
     1
281
     1
  3
ACAD_XREC_ROUNDTRIP
360
C694
  3
BUMPTILE
360
C62F
  3
DIFFUSETILE
360
C62E
  3
OPACITYTILE
360
C632
  3
REFLECTIONTILE
360
C631
  3
REFRACTIONTILE
360
C633
  3
SPECULARTILE
360
C630
  0
DICTIONARY
  5
C625
330
C624
100
AcDbDictionary
280
     1
281
     1
  3
ACAD_XREC_ROUNDTRIP
360
C693
  3
BUMPTILE
360
C627
  3
DIFFUSETILE
360
C626
  3
OPACITYTILE
360
C62A
  3
REFLECTIONTILE
360
C629
  3
REFRACTIONTILE
360
C62B
  3
SPECULARTILE
360
C628
  0
DICTIONARY
  5
C635
330
C634
100
AcDbDictionary
280
     1
281
     1
  3
ACAD_XREC_ROUNDTRIP
360
C695
  3
BUMPTILE
360
C637
  3
DIFFUSETILE
360
C636
  3
OPACITYTILE
360
C63A
  3
REFLECTIONTILE
360
C639
  3
REFRACTIONTILE
360
C63B
  3
SPECULARTILE
360
C638
  0
DICTIONARY
  5
C6C8
330
C66D
100
AcDbDictionary
280
     1
281
     1
  3
ACAD_XREC_ROUNDTRIP
360
C6C9
  0
DICTIONARY
  5
C68F
330
C657
100
AcDbDictionary
280
     1
281
     1
  3
ACAD_ROUNDTRIP_2008_TABLESTYLE_CELLSTYLEMAP
360
C690
  3
ACAD_XREC_ROUNDTRIP
360
C6C6
  0
DICTIONARY
  5
C6A0
330
C642
100
AcDbDictionary
280
     1
281
     1
  3
ACAD_XREC_ROUNDTRIP
360
C6A1
  0
DICTIONARY
  5
C69E
330
C641
100
AcDbDictionary
280
     1
281
     1
  3
ACAD_XREC_ROUNDTRIP
360
C69F
  0
DICTIONARY
  5
C6AC
330
C648
100
AcDbDictionary
280
     1
281
     1
  3
ACAD_XREC_ROUNDTRIP
360
C6AD
  0
DICTIONARY
  5
C6B4
330
C64C
100
AcDbDictionary
280
     1
281
     1
  3
ACAD_XREC_ROUNDTRIP
360
C6B5
  0
DICTIONARY
  5
C6A6
330
C645
100
AcDbDictionary
280
     1
281
     1
  3
ACAD_XREC_ROUNDTRIP
360
C6A7
  0
DICTIONARY
  5
C6AA
330
C647
100
AcDbDictionary
280
     1
281
     1
  3
ACAD_XREC_ROUNDTRIP
360
C6AB
  0
DICTIONARY
  5
C6C4
330
C654
100
AcDbDictionary
280
     1
281
     1
  3
ACAD_XREC_ROUNDTRIP
360
C6C5
  0
DICTIONARY
  5
C6B2
330
C64B
100
AcDbDictionary
280
     1
281
     1
  3
ACAD_XREC_ROUNDTRIP
360
C6B3
  0
DICTIONARY
  5
C696
330
C63D
100
AcDbDictionary
280
     1
281
     1
  3
ACAD_XREC_ROUNDTRIP
360
C697
  0
DICTIONARY
  5
C698
330
C63E
100
AcDbDictionary
280
     1
281
     1
  3
ACAD_XREC_ROUNDTRIP
360
C699
  0
DICTIONARY
  5
C69A
330
C63F
100
AcDbDictionary
280
     1
281
     1
  3
ACAD_XREC_ROUNDTRIP
360
C69B
  0
DICTIONARY
  5
C69C
330
C640
100
AcDbDictionary
280
     1
281
     1
  3
ACAD_XREC_ROUNDTRIP
360
C69D
  0
DICTIONARY
  5
C6A4
330
C644
100
AcDbDictionary
280
     1
281
     1
  3
ACAD_XREC_ROUNDTRIP
360
C6A5
  0
DICTIONARY
  5
C6C0
330
C652
100
AcDbDictionary
280
     1
281
     1
  3
ACAD_XREC_ROUNDTRIP
360
C6C1
  0
DICTIONARY
  5
C6B0
330
C64A
100
AcDbDictionary
280
     1
281
     1
  3
ACAD_XREC_ROUNDTRIP
360
C6B1
  0
DICTIONARY
  5
C6C2
330
C653
100
AcDbDictionary
280
     1
281
     1
  3
ACAD_XREC_ROUNDTRIP
360
C6C3
  0
DICTIONARY
  5
C6A8
330
C646
100
AcDbDictionary
280
     1
281
     1
  3
ACAD_XREC_ROUNDTRIP
360
C6A9
  0
DICTIONARY
  5
C6BE
330
C651
100
AcDbDictionary
280
     1
281
     1
  3
ACAD_XREC_ROUNDTRIP
360
C6BF
  0
DICTIONARY
  5
C6BC
330
C650
100
AcDbDictionary
280
     1
281
     1
  3
ACAD_XREC_ROUNDTRIP
360
C6BD
  0
DICTIONARY
  5
C6B6
330
C64D
100
AcDbDictionary
280
     1
281
     1
  3
ACAD_XREC_ROUNDTRIP
360
C6B7
  0
DICTIONARY
  5
C6B8
330
C64E
100
AcDbDictionary
280
     1
281
     1
  3
ACAD_XREC_ROUNDTRIP
360
C6B9
  0
DICTIONARY
  5
C6AE
330
C649
100
AcDbDictionary
280
     1
281
     1
  3
ACAD_XREC_ROUNDTRIP
360
C6AF
  0
DICTIONARY
  5
C6A2
330
C643
100
AcDbDictionary
280
     1
281
     1
  3
ACAD_XREC_ROUNDTRIP
360
C6A3
  0
DICTIONARY
  5
C6BA
330
C64F
100
AcDbDictionary
280
     1
281
     1
  3
ACAD_XREC_ROUNDTRIP
360
C6BB
  0
XRECORD
  5
C6CB
102
{ACAD_REACTORS
330
C6CA
102
}
330
C6CA
100
AcDbXrecord
280
     1
102
DISPLAYNAME
  1
Imperial24
102
FLAGS
 90
        0
  0
XRECORD
  5
C6CD
102
{ACAD_REACTORS
330
C6CC
102
}
330
C6CC
100
AcDbXrecord
280
     1
102
SHADEPLOT
 70
     0
102
SHADEPLOTRESLEVEL
 70
     2
102
SHADEPLOTCUSTOMDPI
 70
   300
  0
XRECORD
  5
C6CF
102
{ACAD_REACTORS
330
C6CE
102
}
330
C6CE
100
AcDbXrecord
280
     1
102
SHADEPLOT
 70
     0
102
SHADEPLOTRESLEVEL
 70
     2
102
SHADEPLOTCUSTOMDPI
 70
   300
  0
XRECORD
  5
C694
102
{ACAD_REACTORS
330
C62D
102
}
330
C62D
100
AcDbXrecord
280
     1
102
MATERIAL
148
0.0
149
0.0
149
0.0
 93
        0
 94
      127
282
     0
 72
     0
 77
     0
171
     0
175
     0
179
     0
273
     0
  0
XRECORD
  5
C62F
102
{ACAD_REACTORS
330
C62D
102
}
330
C62D
100
AcDbXrecord
280
     1
270
     1
271
     1
  0
XRECORD
  5
C62E
102
{ACAD_REACTORS
330
C62D
102
}
330
C62D
100
AcDbXrecord
280
     1
270
     1
271
     1
  0
XRECORD
  5
C632
102
{ACAD_REACTORS
330
C62D
102
}
330
C62D
100
AcDbXrecord
280
     1
270
     1
271
     1
  0
XRECORD
  5
C631
102
{ACAD_REACTORS
330
C62D
102
}
330
C62D
100
AcDbXrecord
280
     1
270
     1
271
     1
  0
XRECORD
  5
C633
102
{ACAD_REACTORS
330
C62D
102
}
330
C62D
100
AcDbXrecord
280
     1
270
     1
271
     1
  0
XRECORD
  5
C630
102
{ACAD_REACTORS
330
C62D
102
}
330
C62D
100
AcDbXrecord
280
     1
270
     1
271
     1
  0
XRECORD
  5
C693
102
{ACAD_REACTORS
330
C625
102
}
330
C625
100
AcDbXrecord
280
     1
102
MATERIAL
148
0.0
149
0.0
149
0.0
 93
        0
 94
      127
282
     0
 72
     0
 77
     0
171
     0
175
     0
179
     0
273
     0
  0
XRECORD
  5
C627
102
{ACAD_REACTORS
330
C625
102
}
330
C625
100
AcDbXrecord
280
     1
270
     1
271
     1
  0
XRECORD
  5
C626
102
{ACAD_REACTORS
330
C625
102
}
330
C625
100
AcDbXrecord
280
     1
270
     1
271
     1
  0
XRECORD
  5
C62A
102
{ACAD_REACTORS
330
C625
102
}
330
C625
100
AcDbXrecord
280
     1
270
     1
271
     1
  0
XRECORD
  5
C629
102
{ACAD_REACTORS
330
C625
102
}
330
C625
100
AcDbXrecord
280
     1
270
     1
271
     1
  0
XRECORD
  5
C62B
102
{ACAD_REACTORS
330
C625
102
}
330
C625
100
AcDbXrecord
280
     1
270
     1
271
     1
  0
XRECORD
  5
C628
102
{ACAD_REACTORS
330
C625
102
}
330
C625
100
AcDbXrecord
280
     1
270
     1
271
     1
  0
XRECORD
  5
C695
102
{ACAD_REACTORS
330
C635
102
}
330
C635
100
AcDbXrecord
280
     1
102
MATERIAL
148
0.0
149
0.0
149
0.0
 93
        0
 94
      127
282
     0
 72
     0
 77
     0
171
     0
175
     0
179
     0
273
     0
  0
XRECORD
  5
C637
102
{ACAD_REACTORS
330
C635
102
}
330
C635
100
AcDbXrecord
280
     1
270
     1
271
     1
  0
XRECORD
  5
C636
102
{ACAD_REACTORS
330
C635
102
}
330
C635
100
AcDbXrecord
280
     1
270
     1
271
     1
  0
XRECORD
  5
C63A
102
{ACAD_REACTORS
330
C635
102
}
330
C635
100
AcDbXrecord
280
     1
270
     1
271
     1
  0
XRECORD
  5
C639
102
{ACAD_REACTORS
330
C635
102
}
330
C635
100
AcDbXrecord
280
     1
270
     1
271
     1
  0
XRECORD
  5
C63B
102
{ACAD_REACTORS
330
C635
102
}
330
C635
100
AcDbXrecord
280
     1
270
     1
271
     1
  0
XRECORD
  5
C638
102
{ACAD_REACTORS
330
C635
102
}
330
C635
100
AcDbXrecord
280
     1
270
     1
271
     1
  0
XRECORD
  5
C6C9
102
{ACAD_REACTORS
330
C6C8
102
}
330
C6C8
100
AcDbXrecord
280
     1
102
DISPLAYNAME
  1
Imperial24
102
FLAGS
 90
        0
  0
CELLSTYLEMAP
  5
C690
102
{ACAD_REACTORS
330
C68F
102
}
330
C68F
100
AcDbCellStyleMap
 90
        3
300
CELLSTYLE
  1
TABLEFORMAT_BEGIN
 90
        5
170
     1
 91
        0
 92
    32768
 62
   257
 93
        1
300
CONTENTFORMAT
  1
CONTENTFORMAT_BEGIN
 90
        0
 91
        0
 92
      512
 93
        0
300

 40
0.0
140
1.0
 94
        5
 62
     0
340
C416
144
0.25
309
CONTENTFORMAT_END
171
     0
 94
        0
309
TABLEFORMAT_END
  1
CELLSTYLE_BEGIN
 90
        1
 91
        1
300
_TITLE
309
CELLSTYLE_END
300
CELLSTYLE
  1
TABLEFORMAT_BEGIN
 90
        5
170
     1
 91
        0
 92
        0
 62
   257
 93
        1
300
CONTENTFORMAT
  1
CONTENTFORMAT_BEGIN
 90
        0
 91
        0
 92
      512
 93
        0
300

 40
0.0
140
1.0
 94
        5
 62
     0
340
C416
144
0.18
309
CONTENTFORMAT_END
171
     0
 94
        0
309
TABLEFORMAT_END
  1
CELLSTYLE_BEGIN
 90
        2
 91
        1
300
_HEADER
309
CELLSTYLE_END
300
CELLSTYLE
  1
TABLEFORMAT_BEGIN
 90
        5
170
     1
 91
        0
 92
        0
 62
   257
 93
        1
300
CONTENTFORMAT
  1
CONTENTFORMAT_BEGIN
 90
        0
 91
        0
 92
      512
 93
        0
300

 40
0.0
140
1.0
 94
        2
 62
     0
340
C416
144
0.18
309
CONTENTFORMAT_END
171
     0
 94
        0
309
TABLEFORMAT_END
  1
CELLSTYLE_BEGIN
 90
        3
 91
        2
300
_DATA
309
CELLSTYLE_END
  0
XRECORD
  5
C6C6
102
{ACAD_REACTORS
330
C68F
102
}
330
C68F
100
AcDbXrecord
280
     1
102
ACAD_ROUNDTRIP_PRE2007_TABLESTYLE
 90
      512
 91
        0
  1

 92
      512
 93
        0
  2

 94
      512
 95
        0
  3

  0
XRECORD
  5
C6A1
102
{ACAD_REACTORS
330
C6A0
102
}
330
C6A0
100
AcDbXrecord
280
     1
102
RTVSPost2010Prop28
280
     1
102
RTVSPost2010PropOp28
 70
     1
102
RTVSPost2010Prop29
280
     1
102
RTVSPost2010PropOp29
 70
     1
102
RTVSPost2010Prop30
280
     0
102
RTVSPost2010PropOp30
 70
     1
102
RTVSPost2010Prop31
280
     0
102
RTVSPost2010PropOp31
 70
     1
102
RTVSPost2010Prop32
280
     0
102
RTVSPost2010PropOp32
 70
     1
102
RTVSPost2010Prop33
280
     0
102
RTVSPost2010PropOp33
 70
     1
102
RTVSPost2010Prop34
280
     0
102
RTVSPost2010PropOp34
 70
     1
102
RTVSPost2010Prop35
280
     0
102
RTVSPost2010PropOp35
 70
     1
102
RTVSPost2010Prop36
280
     0
102
RTVSPost2010PropOp36
 70
     1
102
RTVSPost2010Prop37
 90
       50
102
RTVSPost2010PropOp37
 70
     1
102
RTVSPost2010Prop38
140
0.0
102
RTVSPost2010PropOp38
 70
     1
102
RTVSPost2010Prop39
140
1.0
102
RTVSPost2010PropOp39
 70
     1
102
RTVSPost2010Prop40
 90
        0
102
RTVSPost2010PropOp40
 70
     1
102
RTVSPost2010Prop41ColorIndex
 90
       18
102
RTVSPost2010Prop41ColorRGB
 90
        0
102
RTVSPost2010PropOp41
 70
     1
102
RTVSPost2010Prop42
 90
       50
102
RTVSPost2010PropOp42
 70
     1
102
RTVSPost2010Prop43
 90
        3
102
RTVSPost2010PropOp43
 70
     1
102
RTVSPost2010Prop44ColorIndex
 90
        5
102
RTVSPost2010Prop44ColorRGB
 90
      255
102
RTVSPost2010PropOp44
 70
     1
102
RTVSPost2010Prop45
280
     0
102
RTVSPost2010PropOp45
 70
     1
102
RTVSPost2010Prop46
 90
       50
102
RTVSPost2010PropOp46
 70
     1
102
RTVSPost2010Prop47
 90
       50
102
RTVSPost2010PropOp47
 70
     1
102
RTVSPost2010Prop48
 90
       50
102
RTVSPost2010PropOp48
 70
     1
102
RTVSPost2010Prop49
280
     0
102
RTVSPost2010PropOp49
 70
     1
102
RTVSPost2010Prop50
 90
       50
102
RTVSPost2010PropOp50
 70
     1
102
RTVSPost2010Prop51ColorIndex
 90
      256
102
RTVSPost2010Prop51ColorRGB
 90
-16777216
102
RTVSPost2010PropOp51
 70
     0
102
RTVSPost2010Prop52
140
1.0
102
RTVSPost2010PropOp52
 70
     0
102
RTVSPost2010Prop53
 90
        2
102
RTVSPost2010PropOp53
 70
     1
102
RTVSPost2010Prop54
  1
strokes_ogs.tif
102
RTVSPost2010PropOp54
 70
     1
102
RTVSPost2010Prop55
280
     0
102
RTVSPost2010PropOp55
 70
     1
102
RTVSPost2010Prop56
140
1.0
102
RTVSPost2010PropOp56
 70
     1
102
RTVSPost2010Prop57
140
1.0
102
RTVSPost2010PropOp57
 70
     1
102
RTVSPropertyOp0
 70
     1
102
RTVSPropertyOp1
 70
     1
102
RTVSPropertyOp2
 70
     1
102
RTVSPropertyOp3
 70
     1
102
RTVSPropertyOp4
 70
     1
102
RTVSPropertyOp5
 70
     1
102
RTVSPropertyOp6
 70
     1
102
RTVSPropertyOp7
 70
     1
102
RTVSPropertyOp8
 70
     1
102
RTVSPropertyOp9
 70
     1
102
RTVSPropertyOp10
 70
     1
102
RTVSPropertyOp11
 70
     1
102
RTVSPropertyOp12
 70
     1
102
RTVSPropertyOp13
 70
     1
102
RTVSPropertyOp14
 70
     1
102
RTVSPropertyOp15
 70
     1
102
RTVSPropertyOp16
 70
     1
102
RTVSPropertyOp17
 70
     1
102
RTVSPropertyOp18
 70
     1
102
RTVSPropertyOp19
 70
     1
102
RTVSPropertyOp20
 70
     1
102
RTVSPropertyOp21
 70
     1
102
RTVSPropertyOp22
 70
     1
102
RTVSPropertyOp23
 70
     1
102
RTVSPropertyOp24
 70
     1
102
RTVSPropertyOp25
 70
     1
102
RTVSPropertyOp26
 70
     1
102
RTVSPropertyOp27
 70
     1
102
RTVSPropertyOp28
 70
     1
102
RTVSPropertyOp29
 70
     1
102
RTVSPropertyOp30
 70
     1
102
RTVSPropertyOp31
 70
     1
102
RTVSPropertyOp32
 70
     1
102
RTVSPropertyOp33
 70
     1
102
RTVSPropertyOp34
 70
     1
102
RTVSPropertyOp35
 70
     1
102
RTVSPropertyOp36
 70
     1
102
RTVSPropertyOp37
 70
     1
102
RTVSPropertyOp38
 70
     1
102
RTVSPropertyOp39
 70
     1
102
RTVSPropertyOp40
 70
     1
102
RTVSPropertyOp41
 70
     1
102
RTVSPropertyOp42
 70
     1
102
RTVSPropertyOp43
 70
     1
102
RTVSPropertyOp44
 70
     1
102
RTVSPropertyOp45
 70
     1
102
RTVSPropertyOp46
 70
     1
102
RTVSPropertyOp47
 70
     1
102
RTVSPropertyOp48
 70
     1
102
RTVSPropertyOp49
 70
     1
102
RTVSPropertyOp50
 70
     1
102
RTVSPropertyOp51
 70
     0
102
RTVSPropertyOp52
 70
     0
102
RTVSPropertyOp53
 70
     1
102
RTVSPropertyOp54
 70
     1
102
RTVSPropertyOp55
 70
     1
102
RTVSPropertyOp56
 70
     1
102
RTVSPropertyOp57
 70
     1
102
RTVSPropertyOp58
 70
     1
102
RTVSPropertyOp59
 70
     1
102
RTVSPropertyOp60
 70
     1
102
RTVSPropertyOp61
 70
     1
102
RTVSPropertyOp62
 70
     1
  0
XRECORD
  5
C69F
102
{ACAD_REACTORS
330
C69E
102
}
330
C69E
100
AcDbXrecord
280
     1
102
RTVSPost2010Prop28
280
     0
102
RTVSPost2010PropOp28
 70
     1
102
RTVSPost2010Prop29
280
     1
102
RTVSPost2010PropOp29
 70
     1
102
RTVSPost2010Prop30
280
     1
102
RTVSPost2010PropOp30
 70
     1
102
RTVSPost2010Prop31
280
     0
102
RTVSPost2010PropOp31
 70
     1
102
RTVSPost2010Prop32
280
     0
102
RTVSPost2010PropOp32
 70
     1
102
RTVSPost2010Prop33
280
     0
102
RTVSPost2010PropOp33
 70
     1
102
RTVSPost2010Prop34
280
     0
102
RTVSPost2010PropOp34
 70
     1
102
RTVSPost2010Prop35
280
     0
102
RTVSPost2010PropOp35
 70
     1
102
RTVSPost2010Prop36
280
     0
102
RTVSPost2010PropOp36
 70
     1
102
RTVSPost2010Prop37
 90
       50
102
RTVSPost2010PropOp37
 70
     1
102
RTVSPost2010Prop38
140
0.0
102
RTVSPost2010PropOp38
 70
     1
102
RTVSPost2010Prop39
140
1.0
102
RTVSPost2010PropOp39
 70
     1
102
RTVSPost2010Prop40
 90
        0
102
RTVSPost2010PropOp40
 70
     1
102
RTVSPost2010Prop41ColorIndex
 90
       18
102
RTVSPost2010Prop41ColorRGB
 90
        0
102
RTVSPost2010PropOp41
 70
     1
102
RTVSPost2010Prop42
 90
       50
102
RTVSPost2010PropOp42
 70
     1
102
RTVSPost2010Prop43
 90
        3
102
RTVSPost2010PropOp43
 70
     1
102
RTVSPost2010Prop44ColorIndex
 90
        5
102
RTVSPost2010Prop44ColorRGB
 90
      255
102
RTVSPost2010PropOp44
 70
     1
102
RTVSPost2010Prop45
280
     0
102
RTVSPost2010PropOp45
 70
     1
102
RTVSPost2010Prop46
 90
       50
102
RTVSPost2010PropOp46
 70
     1
102
RTVSPost2010Prop47
 90
       50
102
RTVSPost2010PropOp47
 70
     1
102
RTVSPost2010Prop48
 90
       50
102
RTVSPost2010PropOp48
 70
     1
102
RTVSPost2010Prop49
280
     0
102
RTVSPost2010PropOp49
 70
     1
102
RTVSPost2010Prop50
 90
       50
102
RTVSPost2010PropOp50
 70
     1
102
RTVSPost2010Prop51ColorIndex
 90
      256
102
RTVSPost2010Prop51ColorRGB
 90
-16777216
102
RTVSPost2010PropOp51
 70
     0
102
RTVSPost2010Prop52
140
1.0
102
RTVSPost2010PropOp52
 70
     0
102
RTVSPost2010Prop53
 90
        2
102
RTVSPost2010PropOp53
 70
     1
102
RTVSPost2010Prop54
  1
strokes_ogs.tif
102
RTVSPost2010PropOp54
 70
     1
102
RTVSPost2010Prop55
280
     0
102
RTVSPost2010PropOp55
 70
     1
102
RTVSPost2010Prop56
140
1.0
102
RTVSPost2010PropOp56
 70
     1
102
RTVSPost2010Prop57
140
1.0
102
RTVSPost2010PropOp57
 70
     1
102
RTVSPropertyOp0
 70
     1
102
RTVSPropertyOp1
 70
     1
102
RTVSPropertyOp2
 70
     1
102
RTVSPropertyOp3
 70
     1
102
RTVSPropertyOp4
 70
     1
102
RTVSPropertyOp5
 70
     1
102
RTVSPropertyOp6
 70
     1
102
RTVSPropertyOp7
 70
     1
102
RTVSPropertyOp8
 70
     1
102
RTVSPropertyOp9
 70
     1
102
RTVSPropertyOp10
 70
     1
102
RTVSPropertyOp11
 70
     1
102
RTVSPropertyOp12
 70
     1
102
RTVSPropertyOp13
 70
     1
102
RTVSPropertyOp14
 70
     1
102
RTVSPropertyOp15
 70
     1
102
RTVSPropertyOp16
 70
     1
102
RTVSPropertyOp17
 70
     1
102
RTVSPropertyOp18
 70
     1
102
RTVSPropertyOp19
 70
     1
102
RTVSPropertyOp20
 70
     1
102
RTVSPropertyOp21
 70
     1
102
RTVSPropertyOp22
 70
     1
102
RTVSPropertyOp23
 70
     1
102
RTVSPropertyOp24
 70
     1
102
RTVSPropertyOp25
 70
     1
102
RTVSPropertyOp26
 70
     1
102
RTVSPropertyOp27
 70
     1
102
RTVSPropertyOp28
 70
     1
102
RTVSPropertyOp29
 70
     1
102
RTVSPropertyOp30
 70
     1
102
RTVSPropertyOp31
 70
     1
102
RTVSPropertyOp32
 70
     1
102
RTVSPropertyOp33
 70
     1
102
RTVSPropertyOp34
 70
     1
102
RTVSPropertyOp35
 70
     1
102
RTVSPropertyOp36
 70
     1
102
RTVSPropertyOp37
 70
     1
102
RTVSPropertyOp38
 70
     1
102
RTVSPropertyOp39
 70
     1
102
RTVSPropertyOp40
 70
     1
102
RTVSPropertyOp41
 70
     1
102
RTVSPropertyOp42
 70
     1
102
RTVSPropertyOp43
 70
     1
102
RTVSPropertyOp44
 70
     1
102
RTVSPropertyOp45
 70
     1
102
RTVSPropertyOp46
 70
     1
102
RTVSPropertyOp47
 70
     1
102
RTVSPropertyOp48
 70
     1
102
RTVSPropertyOp49
 70
     1
102
RTVSPropertyOp50
 70
     1
102
RTVSPropertyOp51
 70
     0
102
RTVSPropertyOp52
 70
     0
102
RTVSPropertyOp53
 70
     1
102
RTVSPropertyOp54
 70
     1
102
RTVSPropertyOp55
 70
     1
102
RTVSPropertyOp56
 70
     1
102
RTVSPropertyOp57
 70
     1
102
RTVSPropertyOp58
 70
     1
102
RTVSPropertyOp59
 70
     1
102
RTVSPropertyOp60
 70
     1
102
RTVSPropertyOp61
 70
     1
102
RTVSPropertyOp62
 70
     1
  0
XRECORD
  5
C6AD
102
{ACAD_REACTORS
330
C6AC
102
}
330
C6AC
100
AcDbXrecord
280
     1
102
RTVSPost2010Prop28
280
     0
102
RTVSPost2010PropOp28
 70
     1
102
RTVSPost2010Prop29
280
     1
102
RTVSPost2010PropOp29
 70
     1
102
RTVSPost2010Prop30
280
     1
102
RTVSPost2010PropOp30
 70
     1
102
RTVSPost2010Prop31
280
     0
102
RTVSPost2010PropOp31
 70
     1
102
RTVSPost2010Prop32
280
     0
102
RTVSPost2010PropOp32
 70
     1
102
RTVSPost2010Prop33
280
     0
102
RTVSPost2010PropOp33
 70
     1
102
RTVSPost2010Prop34
280
     0
102
RTVSPost2010PropOp34
 70
     1
102
RTVSPost2010Prop35
280
     0
102
RTVSPost2010PropOp35
 70
     1
102
RTVSPost2010Prop36
280
     0
102
RTVSPost2010PropOp36
 70
     1
102
RTVSPost2010Prop37
 90
       50
102
RTVSPost2010PropOp37
 70
     1
102
RTVSPost2010Prop38
140
0.0
102
RTVSPost2010PropOp38
 70
     1
102
RTVSPost2010Prop39
140
1.0
102
RTVSPost2010PropOp39
 70
     1
102
RTVSPost2010Prop40
 90
        0
102
RTVSPost2010PropOp40
 70
     1
102
RTVSPost2010Prop41ColorIndex
 90
       18
102
RTVSPost2010Prop41ColorRGB
 90
        0
102
RTVSPost2010PropOp41
 70
     1
102
RTVSPost2010Prop42
 90
       50
102
RTVSPost2010PropOp42
 70
     1
102
RTVSPost2010Prop43
 90
        3
102
RTVSPost2010PropOp43
 70
     1
102
RTVSPost2010Prop44ColorIndex
 90
        5
102
RTVSPost2010Prop44ColorRGB
 90
      255
102
RTVSPost2010PropOp44
 70
     1
102
RTVSPost2010Prop45
280
     0
102
RTVSPost2010PropOp45
 70
     1
102
RTVSPost2010Prop46
 90
       50
102
RTVSPost2010PropOp46
 70
     1
102
RTVSPost2010Prop47
 90
       50
102
RTVSPost2010PropOp47
 70
     1
102
RTVSPost2010Prop48
 90
       50
102
RTVSPost2010PropOp48
 70
     1
102
RTVSPost2010Prop49
280
     0
102
RTVSPost2010PropOp49
 70
     1
102
RTVSPost2010Prop50
 90
       50
102
RTVSPost2010PropOp50
 70
     1
102
RTVSPost2010Prop51ColorIndex
 90
      256
102
RTVSPost2010Prop51ColorRGB
 90
-16777216
102
RTVSPost2010PropOp51
 70
     0
102
RTVSPost2010Prop52
140
1.0
102
RTVSPost2010PropOp52
 70
     0
102
RTVSPost2010Prop53
 90
        2
102
RTVSPost2010PropOp53
 70
     1
102
RTVSPost2010Prop54
  1
strokes_ogs.tif
102
RTVSPost2010PropOp54
 70
     1
102
RTVSPost2010Prop55
280
     0
102
RTVSPost2010PropOp55
 70
     1
102
RTVSPost2010Prop56
140
1.0
102
RTVSPost2010PropOp56
 70
     1
102
RTVSPost2010Prop57
140
1.0
102
RTVSPost2010PropOp57
 70
     1
102
RTVSPropertyOp0
 70
     1
102
RTVSPropertyOp1
 70
     1
102
RTVSPropertyOp2
 70
     1
102
RTVSPropertyOp3
 70
     1
102
RTVSPropertyOp4
 70
     1
102
RTVSPropertyOp5
 70
     1
102
RTVSPropertyOp6
 70
     1
102
RTVSPropertyOp7
 70
     1
102
RTVSPropertyOp8
 70
     1
102
RTVSPropertyOp9
 70
     1
102
RTVSPropertyOp10
 70
     1
102
RTVSPropertyOp11
 70
     1
102
RTVSPropertyOp12
 70
     1
102
RTVSPropertyOp13
 70
     1
102
RTVSPropertyOp14
 70
     1
102
RTVSPropertyOp15
 70
     1
102
RTVSPropertyOp16
 70
     1
102
RTVSPropertyOp17
 70
     1
102
RTVSPropertyOp18
 70
     1
102
RTVSPropertyOp19
 70
     1
102
RTVSPropertyOp20
 70
     1
102
RTVSPropertyOp21
 70
     1
102
RTVSPropertyOp22
 70
     1
102
RTVSPropertyOp23
 70
     1
102
RTVSPropertyOp24
 70
     1
102
RTVSPropertyOp25
 70
     1
102
RTVSPropertyOp26
 70
     1
102
RTVSPropertyOp27
 70
     1
102
RTVSPropertyOp28
 70
     1
102
RTVSPropertyOp29
 70
     1
102
RTVSPropertyOp30
 70
     1
102
RTVSPropertyOp31
 70
     1
102
RTVSPropertyOp32
 70
     1
102
RTVSPropertyOp33
 70
     1
102
RTVSPropertyOp34
 70
     1
102
RTVSPropertyOp35
 70
     1
102
RTVSPropertyOp36
 70
     1
102
RTVSPropertyOp37
 70
     1
102
RTVSPropertyOp38
 70
     1
102
RTVSPropertyOp39
 70
     1
102
RTVSPropertyOp40
 70
     1
102
RTVSPropertyOp41
 70
     1
102
RTVSPropertyOp42
 70
     1
102
RTVSPropertyOp43
 70
     1
102
RTVSPropertyOp44
 70
     1
102
RTVSPropertyOp45
 70
     1
102
RTVSPropertyOp46
 70
     1
102
RTVSPropertyOp47
 70
     1
102
RTVSPropertyOp48
 70
     1
102
RTVSPropertyOp49
 70
     1
102
RTVSPropertyOp50
 70
     1
102
RTVSPropertyOp51
 70
     0
102
RTVSPropertyOp52
 70
     0
102
RTVSPropertyOp53
 70
     1
102
RTVSPropertyOp54
 70
     1
102
RTVSPropertyOp55
 70
     1
102
RTVSPropertyOp56
 70
     1
102
RTVSPropertyOp57
 70
     1
102
RTVSPropertyOp58
 70
     1
102
RTVSPropertyOp59
 70
     1
102
RTVSPropertyOp60
 70
     1
102
RTVSPropertyOp61
 70
     1
102
RTVSPropertyOp62
 70
     1
  0
XRECORD
  5
C6B5
102
{ACAD_REACTORS
330
C6B4
102
}
330
C6B4
100
AcDbXrecord
280
     1
102
RTVSPost2010Prop28
280
     0
102
RTVSPost2010PropOp28
 70
     1
102
RTVSPost2010Prop29
280
     1
102
RTVSPost2010PropOp29
 70
     1
102
RTVSPost2010Prop30
280
     1
102
RTVSPost2010PropOp30
 70
     1
102
RTVSPost2010Prop31
280
     0
102
RTVSPost2010PropOp31
 70
     1
102
RTVSPost2010Prop32
280
     0
102
RTVSPost2010PropOp32
 70
     1
102
RTVSPost2010Prop33
280
     0
102
RTVSPost2010PropOp33
 70
     1
102
RTVSPost2010Prop34
280
     0
102
RTVSPost2010PropOp34
 70
     1
102
RTVSPost2010Prop35
280
     0
102
RTVSPost2010PropOp35
 70
     1
102
RTVSPost2010Prop36
280
     0
102
RTVSPost2010PropOp36
 70
     1
102
RTVSPost2010Prop37
 90
       50
102
RTVSPost2010PropOp37
 70
     1
102
RTVSPost2010Prop38
140
0.0
102
RTVSPost2010PropOp38
 70
     1
102
RTVSPost2010Prop39
140
1.0
102
RTVSPost2010PropOp39
 70
     1
102
RTVSPost2010Prop40
 90
        0
102
RTVSPost2010PropOp40
 70
     1
102
RTVSPost2010Prop41ColorIndex
 90
       18
102
RTVSPost2010Prop41ColorRGB
 90
        0
102
RTVSPost2010PropOp41
 70
     1
102
RTVSPost2010Prop42
 90
       50
102
RTVSPost2010PropOp42
 70
     1
102
RTVSPost2010Prop43
 90
        3
102
RTVSPost2010PropOp43
 70
     1
102
RTVSPost2010Prop44ColorIndex
 90
        5
102
RTVSPost2010Prop44ColorRGB
 90
      255
102
RTVSPost2010PropOp44
 70
     1
102
RTVSPost2010Prop45
280
     0
102
RTVSPost2010PropOp45
 70
     1
102
RTVSPost2010Prop46
 90
       50
102
RTVSPost2010PropOp46
 70
     1
102
RTVSPost2010Prop47
 90
       50
102
RTVSPost2010PropOp47
 70
     1
102
RTVSPost2010Prop48
 90
       50
102
RTVSPost2010PropOp48
 70
     1
102
RTVSPost2010Prop49
280
     0
102
RTVSPost2010PropOp49
 70
     1
102
RTVSPost2010Prop50
 90
       50
102
RTVSPost2010PropOp50
 70
     1
102
RTVSPost2010Prop51ColorIndex
 90
      256
102
RTVSPost2010Prop51ColorRGB
 90
-16777216
102
RTVSPost2010PropOp51
 70
     0
102
RTVSPost2010Prop52
140
1.0
102
RTVSPost2010PropOp52
 70
     0
102
RTVSPost2010Prop53
 90
        2
102
RTVSPost2010PropOp53
 70
     1
102
RTVSPost2010Prop54
  1
strokes_ogs.tif
102
RTVSPost2010PropOp54
 70
     1
102
RTVSPost2010Prop55
280
     0
102
RTVSPost2010PropOp55
 70
     1
102
RTVSPost2010Prop56
140
1.0
102
RTVSPost2010PropOp56
 70
     1
102
RTVSPost2010Prop57
140
1.0
102
RTVSPost2010PropOp57
 70
     1
102
RTVSPropertyOp0
 70
     1
102
RTVSPropertyOp1
 70
     1
102
RTVSPropertyOp2
 70
     1
102
RTVSPropertyOp3
 70
     1
102
RTVSPropertyOp4
 70
     1
102
RTVSPropertyOp5
 70
     1
102
RTVSPropertyOp6
 70
     1
102
RTVSPropertyOp7
 70
     1
102
RTVSPropertyOp8
 70
     1
102
RTVSPropertyOp9
 70
     1
102
RTVSPropertyOp10
 70
     1
102
RTVSPropertyOp11
 70
     1
102
RTVSPropertyOp12
 70
     1
102
RTVSPropertyOp13
 70
     1
102
RTVSPropertyOp14
 70
     1
102
RTVSPropertyOp15
 70
     1
102
RTVSPropertyOp16
 70
     1
102
RTVSPropertyOp17
 70
     1
102
RTVSPropertyOp18
 70
     1
102
RTVSPropertyOp19
 70
     1
102
RTVSPropertyOp20
 70
     1
102
RTVSPropertyOp21
 70
     1
102
RTVSPropertyOp22
 70
     1
102
RTVSPropertyOp23
 70
     1
102
RTVSPropertyOp24
 70
     1
102
RTVSPropertyOp25
 70
     1
102
RTVSPropertyOp26
 70
     1
102
RTVSPropertyOp27
 70
     1
102
RTVSPropertyOp28
 70
     1
102
RTVSPropertyOp29
 70
     1
102
RTVSPropertyOp30
 70
     1
102
RTVSPropertyOp31
 70
     1
102
RTVSPropertyOp32
 70
     1
102
RTVSPropertyOp33
 70
     1
102
RTVSPropertyOp34
 70
     1
102
RTVSPropertyOp35
 70
     1
102
RTVSPropertyOp36
 70
     1
102
RTVSPropertyOp37
 70
     1
102
RTVSPropertyOp38
 70
     1
102
RTVSPropertyOp39
 70
     1
102
RTVSPropertyOp40
 70
     1
102
RTVSPropertyOp41
 70
     1
102
RTVSPropertyOp42
 70
     1
102
RTVSPropertyOp43
 70
     1
102
RTVSPropertyOp44
 70
     1
102
RTVSPropertyOp45
 70
     1
102
RTVSPropertyOp46
 70
     1
102
RTVSPropertyOp47
 70
     1
102
RTVSPropertyOp48
 70
     1
102
RTVSPropertyOp49
 70
     1
102
RTVSPropertyOp50
 70
     1
102
RTVSPropertyOp51
 70
     0
102
RTVSPropertyOp52
 70
     0
102
RTVSPropertyOp53
 70
     1
102
RTVSPropertyOp54
 70
     1
102
RTVSPropertyOp55
 70
     1
102
RTVSPropertyOp56
 70
     1
102
RTVSPropertyOp57
 70
     1
102
RTVSPropertyOp58
 70
     1
102
RTVSPropertyOp59
 70
     1
102
RTVSPropertyOp60
 70
     1
102
RTVSPropertyOp61
 70
     1
102
RTVSPropertyOp62
 70
     1
  0
XRECORD
  5
C6A7
102
{ACAD_REACTORS
330
C6A6
102
}
330
C6A6
100
AcDbXrecord
280
     1
102
RTVSPost2010Prop28
280
     0
102
RTVSPost2010PropOp28
 70
     1
102
RTVSPost2010Prop29
280
     1
102
RTVSPost2010PropOp29
 70
     1
102
RTVSPost2010Prop30
280
     1
102
RTVSPost2010PropOp30
 70
     1
102
RTVSPost2010Prop31
280
     0
102
RTVSPost2010PropOp31
 70
     1
102
RTVSPost2010Prop32
280
     0
102
RTVSPost2010PropOp32
 70
     1
102
RTVSPost2010Prop33
280
     0
102
RTVSPost2010PropOp33
 70
     1
102
RTVSPost2010Prop34
280
     0
102
RTVSPost2010PropOp34
 70
     1
102
RTVSPost2010Prop35
280
     0
102
RTVSPost2010PropOp35
 70
     1
102
RTVSPost2010Prop36
280
     0
102
RTVSPost2010PropOp36
 70
     1
102
RTVSPost2010Prop37
 90
       50
102
RTVSPost2010PropOp37
 70
     1
102
RTVSPost2010Prop38
140
0.0
102
RTVSPost2010PropOp38
 70
     1
102
RTVSPost2010Prop39
140
1.0
102
RTVSPost2010PropOp39
 70
     1
102
RTVSPost2010Prop40
 90
        0
102
RTVSPost2010PropOp40
 70
     1
102
RTVSPost2010Prop41ColorIndex
 90
       18
102
RTVSPost2010Prop41ColorRGB
 90
        0
102
RTVSPost2010PropOp41
 70
     1
102
RTVSPost2010Prop42
 90
       50
102
RTVSPost2010PropOp42
 70
     1
102
RTVSPost2010Prop43
 90
        3
102
RTVSPost2010PropOp43
 70
     1
102
RTVSPost2010Prop44ColorIndex
 90
        5
102
RTVSPost2010Prop44ColorRGB
 90
      255
102
RTVSPost2010PropOp44
 70
     1
102
RTVSPost2010Prop45
280
     0
102
RTVSPost2010PropOp45
 70
     1
102
RTVSPost2010Prop46
 90
       50
102
RTVSPost2010PropOp46
 70
     1
102
RTVSPost2010Prop47
 90
       50
102
RTVSPost2010PropOp47
 70
     1
102
RTVSPost2010Prop48
 90
       50
102
RTVSPost2010PropOp48
 70
     1
102
RTVSPost2010Prop49
280
     0
102
RTVSPost2010PropOp49
 70
     1
102
RTVSPost2010Prop50
 90
       50
102
RTVSPost2010PropOp50
 70
     1
102
RTVSPost2010Prop51ColorIndex
 90
      256
102
RTVSPost2010Prop51ColorRGB
 90
-16777216
102
RTVSPost2010PropOp51
 70
     0
102
RTVSPost2010Prop52
140
1.0
102
RTVSPost2010PropOp52
 70
     0
102
RTVSPost2010Prop53
 90
        2
102
RTVSPost2010PropOp53
 70
     1
102
RTVSPost2010Prop54
  1
strokes_ogs.tif
102
RTVSPost2010PropOp54
 70
     1
102
RTVSPost2010Prop55
280
     0
102
RTVSPost2010PropOp55
 70
     1
102
RTVSPost2010Prop56
140
1.0
102
RTVSPost2010PropOp56
 70
     1
102
RTVSPost2010Prop57
140
1.0
102
RTVSPost2010PropOp57
 70
     1
102
RTVSPropertyOp0
 70
     1
102
RTVSPropertyOp1
 70
     1
102
RTVSPropertyOp2
 70
     1
102
RTVSPropertyOp3
 70
     1
102
RTVSPropertyOp4
 70
     1
102
RTVSPropertyOp5
 70
     1
102
RTVSPropertyOp6
 70
     1
102
RTVSPropertyOp7
 70
     1
102
RTVSPropertyOp8
 70
     1
102
RTVSPropertyOp9
 70
     1
102
RTVSPropertyOp10
 70
     1
102
RTVSPropertyOp11
 70
     1
102
RTVSPropertyOp12
 70
     1
102
RTVSPropertyOp13
 70
     1
102
RTVSPropertyOp14
 70
     1
102
RTVSPropertyOp15
 70
     1
102
RTVSPropertyOp16
 70
     1
102
RTVSPropertyOp17
 70
     1
102
RTVSPropertyOp18
 70
     1
102
RTVSPropertyOp19
 70
     1
102
RTVSPropertyOp20
 70
     1
102
RTVSPropertyOp21
 70
     1
102
RTVSPropertyOp22
 70
     1
102
RTVSPropertyOp23
 70
     1
102
RTVSPropertyOp24
 70
     1
102
RTVSPropertyOp25
 70
     1
102
RTVSPropertyOp26
 70
     1
102
RTVSPropertyOp27
 70
     1
102
RTVSPropertyOp28
 70
     1
102
RTVSPropertyOp29
 70
     1
102
RTVSPropertyOp30
 70
     1
102
RTVSPropertyOp31
 70
     1
102
RTVSPropertyOp32
 70
     1
102
RTVSPropertyOp33
 70
     1
102
RTVSPropertyOp34
 70
     1
102
RTVSPropertyOp35
 70
     1
102
RTVSPropertyOp36
 70
     1
102
RTVSPropertyOp37
 70
     1
102
RTVSPropertyOp38
 70
     1
102
RTVSPropertyOp39
 70
     1
102
RTVSPropertyOp40
 70
     1
102
RTVSPropertyOp41
 70
     1
102
RTVSPropertyOp42
 70
     1
102
RTVSPropertyOp43
 70
     1
102
RTVSPropertyOp44
 70
     1
102
RTVSPropertyOp45
 70
     1
102
RTVSPropertyOp46
 70
     1
102
RTVSPropertyOp47
 70
     1
102
RTVSPropertyOp48
 70
     1
102
RTVSPropertyOp49
 70
     1
102
RTVSPropertyOp50
 70
     1
102
RTVSPropertyOp51
 70
     0
102
RTVSPropertyOp52
 70
     0
102
RTVSPropertyOp53
 70
     1
102
RTVSPropertyOp54
 70
     1
102
RTVSPropertyOp55
 70
     1
102
RTVSPropertyOp56
 70
     1
102
RTVSPropertyOp57
 70
     1
102
RTVSPropertyOp58
 70
     1
102
RTVSPropertyOp59
 70
     1
102
RTVSPropertyOp60
 70
     1
102
RTVSPropertyOp61
 70
     1
102
RTVSPropertyOp62
 70
     1
  0
XRECORD
  5
C6AB
102
{ACAD_REACTORS
330
C6AA
102
}
330
C6AA
100
AcDbXrecord
280
     1
102
RTVSPost2010Prop28
280
     0
102
RTVSPost2010PropOp28
 70
     1
102
RTVSPost2010Prop29
280
     1
102
RTVSPost2010PropOp29
 70
     1
102
RTVSPost2010Prop30
280
     1
102
RTVSPost2010PropOp30
 70
     1
102
RTVSPost2010Prop31
280
     0
102
RTVSPost2010PropOp31
 70
     1
102
RTVSPost2010Prop32
280
     0
102
RTVSPost2010PropOp32
 70
     1
102
RTVSPost2010Prop33
280
     0
102
RTVSPost2010PropOp33
 70
     1
102
RTVSPost2010Prop34
280
     0
102
RTVSPost2010PropOp34
 70
     1
102
RTVSPost2010Prop35
280
     0
102
RTVSPost2010PropOp35
 70
     1
102
RTVSPost2010Prop36
280
     0
102
RTVSPost2010PropOp36
 70
     1
102
RTVSPost2010Prop37
 90
       50
102
RTVSPost2010PropOp37
 70
     1
102
RTVSPost2010Prop38
140
0.0
102
RTVSPost2010PropOp38
 70
     1
102
RTVSPost2010Prop39
140
1.0
102
RTVSPost2010PropOp39
 70
     1
102
RTVSPost2010Prop40
 90
        0
102
RTVSPost2010PropOp40
 70
     1
102
RTVSPost2010Prop41ColorIndex
 90
       18
102
RTVSPost2010Prop41ColorRGB
 90
        0
102
RTVSPost2010PropOp41
 70
     1
102
RTVSPost2010Prop42
 90
       50
102
RTVSPost2010PropOp42
 70
     1
102
RTVSPost2010Prop43
 90
        3
102
RTVSPost2010PropOp43
 70
     1
102
RTVSPost2010Prop44ColorIndex
 90
        5
102
RTVSPost2010Prop44ColorRGB
 90
      255
102
RTVSPost2010PropOp44
 70
     1
102
RTVSPost2010Prop45
280
     0
102
RTVSPost2010PropOp45
 70
     1
102
RTVSPost2010Prop46
 90
       50
102
RTVSPost2010PropOp46
 70
     1
102
RTVSPost2010Prop47
 90
       50
102
RTVSPost2010PropOp47
 70
     1
102
RTVSPost2010Prop48
 90
       50
102
RTVSPost2010PropOp48
 70
     1
102
RTVSPost2010Prop49
280
     0
102
RTVSPost2010PropOp49
 70
     1
102
RTVSPost2010Prop50
 90
       50
102
RTVSPost2010PropOp50
 70
     1
102
RTVSPost2010Prop51ColorIndex
 90
      256
102
RTVSPost2010Prop51ColorRGB
 90
-16777216
102
RTVSPost2010PropOp51
 70
     0
102
RTVSPost2010Prop52
140
1.0
102
RTVSPost2010PropOp52
 70
     0
102
RTVSPost2010Prop53
 90
        2
102
RTVSPost2010PropOp53
 70
     1
102
RTVSPost2010Prop54
  1
strokes_ogs.tif
102
RTVSPost2010PropOp54
 70
     1
102
RTVSPost2010Prop55
280
     0
102
RTVSPost2010PropOp55
 70
     1
102
RTVSPost2010Prop56
140
1.0
102
RTVSPost2010PropOp56
 70
     1
102
RTVSPost2010Prop57
140
1.0
102
RTVSPost2010PropOp57
 70
     1
102
RTVSPropertyOp0
 70
     1
102
RTVSPropertyOp1
 70
     1
102
RTVSPropertyOp2
 70
     1
102
RTVSPropertyOp3
 70
     1
102
RTVSPropertyOp4
 70
     1
102
RTVSPropertyOp5
 70
     1
102
RTVSPropertyOp6
 70
     1
102
RTVSPropertyOp7
 70
     1
102
RTVSPropertyOp8
 70
     1
102
RTVSPropertyOp9
 70
     1
102
RTVSPropertyOp10
 70
     1
102
RTVSPropertyOp11
 70
     1
102
RTVSPropertyOp12
 70
     1
102
RTVSPropertyOp13
 70
     1
102
RTVSPropertyOp14
 70
     1
102
RTVSPropertyOp15
 70
     1
102
RTVSPropertyOp16
 70
     1
102
RTVSPropertyOp17
 70
     1
102
RTVSPropertyOp18
 70
     1
102
RTVSPropertyOp19
 70
     1
102
RTVSPropertyOp20
 70
     1
102
RTVSPropertyOp21
 70
     1
102
RTVSPropertyOp22
 70
     1
102
RTVSPropertyOp23
 70
     1
102
RTVSPropertyOp24
 70
     1
102
RTVSPropertyOp25
 70
     1
102
RTVSPropertyOp26
 70
     1
102
RTVSPropertyOp27
 70
     1
102
RTVSPropertyOp28
 70
     1
102
RTVSPropertyOp29
 70
     1
102
RTVSPropertyOp30
 70
     1
102
RTVSPropertyOp31
 70
     1
102
RTVSPropertyOp32
 70
     1
102
RTVSPropertyOp33
 70
     1
102
RTVSPropertyOp34
 70
     1
102
RTVSPropertyOp35
 70
     1
102
RTVSPropertyOp36
 70
     1
102
RTVSPropertyOp37
 70
     1
102
RTVSPropertyOp38
 70
     1
102
RTVSPropertyOp39
 70
     1
102
RTVSPropertyOp40
 70
     1
102
RTVSPropertyOp41
 70
     1
102
RTVSPropertyOp42
 70
     1
102
RTVSPropertyOp43
 70
     1
102
RTVSPropertyOp44
 70
     1
102
RTVSPropertyOp45
 70
     1
102
RTVSPropertyOp46
 70
     1
102
RTVSPropertyOp47
 70
     1
102
RTVSPropertyOp48
 70
     1
102
RTVSPropertyOp49
 70
     1
102
RTVSPropertyOp50
 70
     1
102
RTVSPropertyOp51
 70
     0
102
RTVSPropertyOp52
 70
     0
102
RTVSPropertyOp53
 70
     1
102
RTVSPropertyOp54
 70
     1
102
RTVSPropertyOp55
 70
     1
102
RTVSPropertyOp56
 70
     1
102
RTVSPropertyOp57
 70
     1
102
RTVSPropertyOp58
 70
     1
102
RTVSPropertyOp59
 70
     1
102
RTVSPropertyOp60
 70
     1
102
RTVSPropertyOp61
 70
     1
102
RTVSPropertyOp62
 70
     1
  0
XRECORD
  5
C6C5
102
{ACAD_REACTORS
330
C6C4
102
}
330
C6C4
100
AcDbXrecord
280
     1
102
RTVSPost2010Prop28
280
     0
102
RTVSPost2010PropOp28
 70
     1
102
RTVSPost2010Prop29
280
     1
102
RTVSPost2010PropOp29
 70
     1
102
RTVSPost2010Prop30
280
     1
102
RTVSPost2010PropOp30
 70
     1
102
RTVSPost2010Prop31
280
     0
102
RTVSPost2010PropOp31
 70
     1
102
RTVSPost2010Prop32
280
     0
102
RTVSPost2010PropOp32
 70
     1
102
RTVSPost2010Prop33
280
     0
102
RTVSPost2010PropOp33
 70
     1
102
RTVSPost2010Prop34
280
     0
102
RTVSPost2010PropOp34
 70
     1
102
RTVSPost2010Prop35
280
     0
102
RTVSPost2010PropOp35
 70
     1
102
RTVSPost2010Prop36
280
     0
102
RTVSPost2010PropOp36
 70
     1
102
RTVSPost2010Prop37
 90
       50
102
RTVSPost2010PropOp37
 70
     0
102
RTVSPost2010Prop38
140
0.0
102
RTVSPost2010PropOp38
 70
     0
102
RTVSPost2010Prop39
140
1.0
102
RTVSPost2010PropOp39
 70
     0
102
RTVSPost2010Prop40
 90
        0
102
RTVSPost2010PropOp40
 70
     0
102
RTVSPost2010Prop41ColorIndex
 90
       18
102
RTVSPost2010Prop41ColorRGB
 90
        0
102
RTVSPost2010PropOp41
 70
     0
102
RTVSPost2010Prop42
 90
       50
102
RTVSPost2010PropOp42
 70
     0
102
RTVSPost2010Prop43
 90
        3
102
RTVSPost2010PropOp43
 70
     0
102
RTVSPost2010Prop44ColorIndex
 90
        5
102
RTVSPost2010Prop44ColorRGB
 90
      255
102
RTVSPost2010PropOp44
 70
     0
102
RTVSPost2010Prop45
280
     0
102
RTVSPost2010PropOp45
 70
     1
102
RTVSPost2010Prop46
 90
       50
102
RTVSPost2010PropOp46
 70
     0
102
RTVSPost2010Prop47
 90
       50
102
RTVSPost2010PropOp47
 70
     0
102
RTVSPost2010Prop48
 90
       50
102
RTVSPost2010PropOp48
 70
     0
102
RTVSPost2010Prop49
280
     0
102
RTVSPost2010PropOp49
 70
     1
102
RTVSPost2010Prop50
 90
       50
102
RTVSPost2010PropOp50
 70
     0
102
RTVSPost2010Prop51ColorIndex
 90
      256
102
RTVSPost2010Prop51ColorRGB
 90
-16777216
102
RTVSPost2010PropOp51
 70
     0
102
RTVSPost2010Prop52
140
1.0
102
RTVSPost2010PropOp52
 70
     0
102
RTVSPost2010Prop53
 90
        2
102
RTVSPost2010PropOp53
 70
     0
102
RTVSPost2010Prop54
  1
strokes_ogs.tif
102
RTVSPost2010PropOp54
 70
     0
102
RTVSPost2010Prop55
280
     0
102
RTVSPost2010PropOp55
 70
     1
102
RTVSPost2010Prop56
140
1.0
102
RTVSPost2010PropOp56
 70
     0
102
RTVSPost2010Prop57
140
1.0
102
RTVSPost2010PropOp57
 70
     0
102
RTVSPropertyOp0
 70
     0
102
RTVSPropertyOp1
 70
     0
102
RTVSPropertyOp2
 70
     0
102
RTVSPropertyOp3
 70
     0
102
RTVSPropertyOp4
 70
     0
102
RTVSPropertyOp5
 70
     0
102
RTVSPropertyOp6
 70
     0
102
RTVSPropertyOp7
 70
     0
102
RTVSPropertyOp8
 70
     0
102
RTVSPropertyOp9
 70
     0
102
RTVSPropertyOp10
 70
     0
102
RTVSPropertyOp11
 70
     0
102
RTVSPropertyOp12
 70
     0
102
RTVSPropertyOp13
 70
     0
102
RTVSPropertyOp14
 70
     2
102
RTVSPropertyOp15
 70
     0
102
RTVSPropertyOp16
 70
     0
102
RTVSPropertyOp17
 70
     0
102
RTVSPropertyOp18
 70
     0
102
RTVSPropertyOp19
 70
     0
102
RTVSPropertyOp20
 70
     0
102
RTVSPropertyOp21
 70
     0
102
RTVSPropertyOp22
 70
     0
102
RTVSPropertyOp23
 70
     0
102
RTVSPropertyOp24
 70
     0
102
RTVSPropertyOp25
 70
     0
102
RTVSPropertyOp26
 70
     0
102
RTVSPropertyOp27
 70
     0
102
RTVSPropertyOp28
 70
     1
102
RTVSPropertyOp29
 70
     1
102
RTVSPropertyOp30
 70
     1
102
RTVSPropertyOp31
 70
     1
102
RTVSPropertyOp32
 70
     1
102
RTVSPropertyOp33
 70
     1
102
RTVSPropertyOp34
 70
     1
102
RTVSPropertyOp35
 70
     1
102
RTVSPropertyOp36
 70
     1
102
RTVSPropertyOp37
 70
     0
102
RTVSPropertyOp38
 70
     0
102
RTVSPropertyOp39
 70
     0
102
RTVSPropertyOp40
 70
     0
102
RTVSPropertyOp41
 70
     0
102
RTVSPropertyOp42
 70
     0
102
RTVSPropertyOp43
 70
     0
102
RTVSPropertyOp44
 70
     0
102
RTVSPropertyOp45
 70
     1
102
RTVSPropertyOp46
 70
     0
102
RTVSPropertyOp47
 70
     0
102
RTVSPropertyOp48
 70
     0
102
RTVSPropertyOp49
 70
     1
102
RTVSPropertyOp50
 70
     0
102
RTVSPropertyOp51
 70
     0
102
RTVSPropertyOp52
 70
     0
102
RTVSPropertyOp53
 70
     0
102
RTVSPropertyOp54
 70
     0
102
RTVSPropertyOp55
 70
     1
102
RTVSPropertyOp56
 70
     0
102
RTVSPropertyOp57
 70
     0
102
RTVSPropertyOp58
 70
     0
102
RTVSPropertyOp59
 70
     0
102
RTVSPropertyOp60
 70
     0
102
RTVSPropertyOp61
 70
     0
102
RTVSPropertyOp62
 70
     0
  0
XRECORD
  5
C6B3
102
{ACAD_REACTORS
330
C6B2
102
}
330
C6B2
100
AcDbXrecord
280
     1
102
RTVSPost2010Prop28
280
     0
102
RTVSPost2010PropOp28
 70
     1
102
RTVSPost2010Prop29
280
     1
102
RTVSPost2010PropOp29
 70
     1
102
RTVSPost2010Prop30
280
     1
102
RTVSPost2010PropOp30
 70
     1
102
RTVSPost2010Prop31
280
     0
102
RTVSPost2010PropOp31
 70
     1
102
RTVSPost2010Prop32
280
     0
102
RTVSPost2010PropOp32
 70
     1
102
RTVSPost2010Prop33
280
     0
102
RTVSPost2010PropOp33
 70
     1
102
RTVSPost2010Prop34
280
     0
102
RTVSPost2010PropOp34
 70
     1
102
RTVSPost2010Prop35
280
     0
102
RTVSPost2010PropOp35
 70
     1
102
RTVSPost2010Prop36
280
     0
102
RTVSPost2010PropOp36
 70
     1
102
RTVSPost2010Prop37
 90
       50
102
RTVSPost2010PropOp37
 70
     1
102
RTVSPost2010Prop38
140
0.0
102
RTVSPost2010PropOp38
 70
     1
102
RTVSPost2010Prop39
140
1.0
102
RTVSPost2010PropOp39
 70
     1
102
RTVSPost2010Prop40
 90
        0
102
RTVSPost2010PropOp40
 70
     1
102
RTVSPost2010Prop41ColorIndex
 90
       18
102
RTVSPost2010Prop41ColorRGB
 90
        0
102
RTVSPost2010PropOp41
 70
     1
102
RTVSPost2010Prop42
 90
       50
102
RTVSPost2010PropOp42
 70
     1
102
RTVSPost2010Prop43
 90
        3
102
RTVSPost2010PropOp43
 70
     1
102
RTVSPost2010Prop44ColorIndex
 90
        5
102
RTVSPost2010Prop44ColorRGB
 90
      255
102
RTVSPost2010PropOp44
 70
     1
102
RTVSPost2010Prop45
280
     0
102
RTVSPost2010PropOp45
 70
     1
102
RTVSPost2010Prop46
 90
       50
102
RTVSPost2010PropOp46
 70
     1
102
RTVSPost2010Prop47
 90
       50
102
RTVSPost2010PropOp47
 70
     1
102
RTVSPost2010Prop48
 90
       50
102
RTVSPost2010PropOp48
 70
     1
102
RTVSPost2010Prop49
280
     0
102
RTVSPost2010PropOp49
 70
     1
102
RTVSPost2010Prop50
 90
       50
102
RTVSPost2010PropOp50
 70
     1
102
RTVSPost2010Prop51ColorIndex
 90
      256
102
RTVSPost2010Prop51ColorRGB
 90
-16777216
102
RTVSPost2010PropOp51
 70
     0
102
RTVSPost2010Prop52
140
1.0
102
RTVSPost2010PropOp52
 70
     0
102
RTVSPost2010Prop53
 90
        2
102
RTVSPost2010PropOp53
 70
     1
102
RTVSPost2010Prop54
  1
strokes_ogs.tif
102
RTVSPost2010PropOp54
 70
     1
102
RTVSPost2010Prop55
280
     0
102
RTVSPost2010PropOp55
 70
     1
102
RTVSPost2010Prop56
140
1.0
102
RTVSPost2010PropOp56
 70
     1
102
RTVSPost2010Prop57
140
1.0
102
RTVSPost2010PropOp57
 70
     1
102
RTVSPropertyOp0
 70
     1
102
RTVSPropertyOp1
 70
     1
102
RTVSPropertyOp2
 70
     1
102
RTVSPropertyOp3
 70
     1
102
RTVSPropertyOp4
 70
     1
102
RTVSPropertyOp5
 70
     1
102
RTVSPropertyOp6
 70
     1
102
RTVSPropertyOp7
 70
     1
102
RTVSPropertyOp8
 70
     1
102
RTVSPropertyOp9
 70
     1
102
RTVSPropertyOp10
 70
     1
102
RTVSPropertyOp11
 70
     1
102
RTVSPropertyOp12
 70
     1
102
RTVSPropertyOp13
 70
     1
102
RTVSPropertyOp14
 70
     1
102
RTVSPropertyOp15
 70
     1
102
RTVSPropertyOp16
 70
     1
102
RTVSPropertyOp17
 70
     1
102
RTVSPropertyOp18
 70
     1
102
RTVSPropertyOp19
 70
     1
102
RTVSPropertyOp20
 70
     1
102
RTVSPropertyOp21
 70
     1
102
RTVSPropertyOp22
 70
     1
102
RTVSPropertyOp23
 70
     1
102
RTVSPropertyOp24
 70
     1
102
RTVSPropertyOp25
 70
     1
102
RTVSPropertyOp26
 70
     1
102
RTVSPropertyOp27
 70
     1
102
RTVSPropertyOp28
 70
     1
102
RTVSPropertyOp29
 70
     1
102
RTVSPropertyOp30
 70
     1
102
RTVSPropertyOp31
 70
     1
102
RTVSPropertyOp32
 70
     1
102
RTVSPropertyOp33
 70
     1
102
RTVSPropertyOp34
 70
     1
102
RTVSPropertyOp35
 70
     1
102
RTVSPropertyOp36
 70
     1
102
RTVSPropertyOp37
 70
     1
102
RTVSPropertyOp38
 70
     1
102
RTVSPropertyOp39
 70
     1
102
RTVSPropertyOp40
 70
     1
102
RTVSPropertyOp41
 70
     1
102
RTVSPropertyOp42
 70
     1
102
RTVSPropertyOp43
 70
     1
102
RTVSPropertyOp44
 70
     1
102
RTVSPropertyOp45
 70
     1
102
RTVSPropertyOp46
 70
     1
102
RTVSPropertyOp47
 70
     1
102
RTVSPropertyOp48
 70
     1
102
RTVSPropertyOp49
 70
     1
102
RTVSPropertyOp50
 70
     1
102
RTVSPropertyOp51
 70
     0
102
RTVSPropertyOp52
 70
     0
102
RTVSPropertyOp53
 70
     1
102
RTVSPropertyOp54
 70
     1
102
RTVSPropertyOp55
 70
     1
102
RTVSPropertyOp56
 70
     1
102
RTVSPropertyOp57
 70
     1
102
RTVSPropertyOp58
 70
     1
102
RTVSPropertyOp59
 70
     1
102
RTVSPropertyOp60
 70
     1
102
RTVSPropertyOp61
 70
     1
102
RTVSPropertyOp62
 70
     1
  0
XRECORD
  5
C697
102
{ACAD_REACTORS
330
C696
102
}
330
C696
100
AcDbXrecord
280
     1
102
RTVSPost2010Prop28
280
     0
102
RTVSPost2010PropOp28
 70
     1
102
RTVSPost2010Prop29
280
     1
102
RTVSPost2010PropOp29
 70
     1
102
RTVSPost2010Prop30
280
     1
102
RTVSPost2010PropOp30
 70
     1
102
RTVSPost2010Prop31
280
     0
102
RTVSPost2010PropOp31
 70
     1
102
RTVSPost2010Prop32
280
     0
102
RTVSPost2010PropOp32
 70
     1
102
RTVSPost2010Prop33
280
     0
102
RTVSPost2010PropOp33
 70
     1
102
RTVSPost2010Prop34
280
     0
102
RTVSPost2010PropOp34
 70
     1
102
RTVSPost2010Prop35
280
     0
102
RTVSPost2010PropOp35
 70
     1
102
RTVSPost2010Prop36
280
     0
102
RTVSPost2010PropOp36
 70
     1
102
RTVSPost2010Prop37
 90
       50
102
RTVSPost2010PropOp37
 70
     1
102
RTVSPost2010Prop38
140
0.0
102
RTVSPost2010PropOp38
 70
     1
102
RTVSPost2010Prop39
140
1.0
102
RTVSPost2010PropOp39
 70
     1
102
RTVSPost2010Prop40
 90
        0
102
RTVSPost2010PropOp40
 70
     1
102
RTVSPost2010Prop41ColorIndex
 90
       18
102
RTVSPost2010Prop41ColorRGB
 90
        0
102
RTVSPost2010PropOp41
 70
     1
102
RTVSPost2010Prop42
 90
       50
102
RTVSPost2010PropOp42
 70
     1
102
RTVSPost2010Prop43
 90
        3
102
RTVSPost2010PropOp43
 70
     1
102
RTVSPost2010Prop44ColorIndex
 90
        5
102
RTVSPost2010Prop44ColorRGB
 90
      255
102
RTVSPost2010PropOp44
 70
     1
102
RTVSPost2010Prop45
280
     0
102
RTVSPost2010PropOp45
 70
     1
102
RTVSPost2010Prop46
 90
       50
102
RTVSPost2010PropOp46
 70
     1
102
RTVSPost2010Prop47
 90
       50
102
RTVSPost2010PropOp47
 70
     1
102
RTVSPost2010Prop48
 90
       50
102
RTVSPost2010PropOp48
 70
     1
102
RTVSPost2010Prop49
280
     0
102
RTVSPost2010PropOp49
 70
     1
102
RTVSPost2010Prop50
 90
       50
102
RTVSPost2010PropOp50
 70
     1
102
RTVSPost2010Prop51ColorIndex
 90
      256
102
RTVSPost2010Prop51ColorRGB
 90
-16777216
102
RTVSPost2010PropOp51
 70
     0
102
RTVSPost2010Prop52
140
1.0
102
RTVSPost2010PropOp52
 70
     0
102
RTVSPost2010Prop53
 90
        2
102
RTVSPost2010PropOp53
 70
     1
102
RTVSPost2010Prop54
  1
strokes_ogs.tif
102
RTVSPost2010PropOp54
 70
     1
102
RTVSPost2010Prop55
280
     0
102
RTVSPost2010PropOp55
 70
     1
102
RTVSPost2010Prop56
140
1.0
102
RTVSPost2010PropOp56
 70
     1
102
RTVSPost2010Prop57
140
1.0
102
RTVSPost2010PropOp57
 70
     1
102
RTVSPropertyOp0
 70
     1
102
RTVSPropertyOp1
 70
     1
102
RTVSPropertyOp2
 70
     1
102
RTVSPropertyOp3
 70
     1
102
RTVSPropertyOp4
 70
     1
102
RTVSPropertyOp5
 70
     1
102
RTVSPropertyOp6
 70
     1
102
RTVSPropertyOp7
 70
     1
102
RTVSPropertyOp8
 70
     1
102
RTVSPropertyOp9
 70
     1
102
RTVSPropertyOp10
 70
     1
102
RTVSPropertyOp11
 70
     1
102
RTVSPropertyOp12
 70
     1
102
RTVSPropertyOp13
 70
     1
102
RTVSPropertyOp14
 70
     1
102
RTVSPropertyOp15
 70
     1
102
RTVSPropertyOp16
 70
     1
102
RTVSPropertyOp17
 70
     1
102
RTVSPropertyOp18
 70
     1
102
RTVSPropertyOp19
 70
     1
102
RTVSPropertyOp20
 70
     1
102
RTVSPropertyOp21
 70
     1
102
RTVSPropertyOp22
 70
     1
102
RTVSPropertyOp23
 70
     1
102
RTVSPropertyOp24
 70
     1
102
RTVSPropertyOp25
 70
     1
102
RTVSPropertyOp26
 70
     1
102
RTVSPropertyOp27
 70
     1
102
RTVSPropertyOp28
 70
     1
102
RTVSPropertyOp29
 70
     1
102
RTVSPropertyOp30
 70
     1
102
RTVSPropertyOp31
 70
     1
102
RTVSPropertyOp32
 70
     1
102
RTVSPropertyOp33
 70
     1
102
RTVSPropertyOp34
 70
     1
102
RTVSPropertyOp35
 70
     1
102
RTVSPropertyOp36
 70
     1
102
RTVSPropertyOp37
 70
     1
102
RTVSPropertyOp38
 70
     1
102
RTVSPropertyOp39
 70
     1
102
RTVSPropertyOp40
 70
     1
102
RTVSPropertyOp41
 70
     1
102
RTVSPropertyOp42
 70
     1
102
RTVSPropertyOp43
 70
     1
102
RTVSPropertyOp44
 70
     1
102
RTVSPropertyOp45
 70
     1
102
RTVSPropertyOp46
 70
     1
102
RTVSPropertyOp47
 70
     1
102
RTVSPropertyOp48
 70
     1
102
RTVSPropertyOp49
 70
     1
102
RTVSPropertyOp50
 70
     1
102
RTVSPropertyOp51
 70
     0
102
RTVSPropertyOp52
 70
     0
102
RTVSPropertyOp53
 70
     1
102
RTVSPropertyOp54
 70
     1
102
RTVSPropertyOp55
 70
     1
102
RTVSPropertyOp56
 70
     1
102
RTVSPropertyOp57
 70
     1
102
RTVSPropertyOp58
 70
     1
102
RTVSPropertyOp59
 70
     1
102
RTVSPropertyOp60
 70
     1
102
RTVSPropertyOp61
 70
     1
102
RTVSPropertyOp62
 70
     1
  0
XRECORD
  5
C699
102
{ACAD_REACTORS
330
C698
102
}
330
C698
100
AcDbXrecord
280
     1
102
RTVSPost2010Prop28
280
     0
102
RTVSPost2010PropOp28
 70
     1
102
RTVSPost2010Prop29
280
     1
102
RTVSPost2010PropOp29
 70
     1
102
RTVSPost2010Prop30
280
     1
102
RTVSPost2010PropOp30
 70
     1
102
RTVSPost2010Prop31
280
     0
102
RTVSPost2010PropOp31
 70
     1
102
RTVSPost2010Prop32
280
     0
102
RTVSPost2010PropOp32
 70
     1
102
RTVSPost2010Prop33
280
     0
102
RTVSPost2010PropOp33
 70
     1
102
RTVSPost2010Prop34
280
     0
102
RTVSPost2010PropOp34
 70
     1
102
RTVSPost2010Prop35
280
     0
102
RTVSPost2010PropOp35
 70
     1
102
RTVSPost2010Prop36
280
     0
102
RTVSPost2010PropOp36
 70
     1
102
RTVSPost2010Prop37
 90
       50
102
RTVSPost2010PropOp37
 70
     1
102
RTVSPost2010Prop38
140
0.0
102
RTVSPost2010PropOp38
 70
     1
102
RTVSPost2010Prop39
140
1.0
102
RTVSPost2010PropOp39
 70
     1
102
RTVSPost2010Prop40
 90
        0
102
RTVSPost2010PropOp40
 70
     1
102
RTVSPost2010Prop41ColorIndex
 90
       18
102
RTVSPost2010Prop41ColorRGB
 90
        0
102
RTVSPost2010PropOp41
 70
     1
102
RTVSPost2010Prop42
 90
       50
102
RTVSPost2010PropOp42
 70
     1
102
RTVSPost2010Prop43
 90
        3
102
RTVSPost2010PropOp43
 70
     1
102
RTVSPost2010Prop44ColorIndex
 90
        5
102
RTVSPost2010Prop44ColorRGB
 90
      255
102
RTVSPost2010PropOp44
 70
     1
102
RTVSPost2010Prop45
280
     0
102
RTVSPost2010PropOp45
 70
     1
102
RTVSPost2010Prop46
 90
       50
102
RTVSPost2010PropOp46
 70
     1
102
RTVSPost2010Prop47
 90
       50
102
RTVSPost2010PropOp47
 70
     1
102
RTVSPost2010Prop48
 90
       50
102
RTVSPost2010PropOp48
 70
     1
102
RTVSPost2010Prop49
280
     0
102
RTVSPost2010PropOp49
 70
     1
102
RTVSPost2010Prop50
 90
       50
102
RTVSPost2010PropOp50
 70
     1
102
RTVSPost2010Prop51ColorIndex
 90
      256
102
RTVSPost2010Prop51ColorRGB
 90
-16777216
102
RTVSPost2010PropOp51
 70
     0
102
RTVSPost2010Prop52
140
1.0
102
RTVSPost2010PropOp52
 70
     0
102
RTVSPost2010Prop53
 90
        2
102
RTVSPost2010PropOp53
 70
     1
102
RTVSPost2010Prop54
  1
strokes_ogs.tif
102
RTVSPost2010PropOp54
 70
     1
102
RTVSPost2010Prop55
280
     0
102
RTVSPost2010PropOp55
 70
     1
102
RTVSPost2010Prop56
140
1.0
102
RTVSPost2010PropOp56
 70
     1
102
RTVSPost2010Prop57
140
1.0
102
RTVSPost2010PropOp57
 70
     1
102
RTVSPropertyOp0
 70
     1
102
RTVSPropertyOp1
 70
     1
102
RTVSPropertyOp2
 70
     1
102
RTVSPropertyOp3
 70
     1
102
RTVSPropertyOp4
 70
     1
102
RTVSPropertyOp5
 70
     1
102
RTVSPropertyOp6
 70
     1
102
RTVSPropertyOp7
 70
     1
102
RTVSPropertyOp8
 70
     1
102
RTVSPropertyOp9
 70
     1
102
RTVSPropertyOp10
 70
     1
102
RTVSPropertyOp11
 70
     1
102
RTVSPropertyOp12
 70
     1
102
RTVSPropertyOp13
 70
     1
102
RTVSPropertyOp14
 70
     1
102
RTVSPropertyOp15
 70
     1
102
RTVSPropertyOp16
 70
     1
102
RTVSPropertyOp17
 70
     1
102
RTVSPropertyOp18
 70
     1
102
RTVSPropertyOp19
 70
     1
102
RTVSPropertyOp20
 70
     1
102
RTVSPropertyOp21
 70
     1
102
RTVSPropertyOp22
 70
     1
102
RTVSPropertyOp23
 70
     1
102
RTVSPropertyOp24
 70
     1
102
RTVSPropertyOp25
 70
     1
102
RTVSPropertyOp26
 70
     1
102
RTVSPropertyOp27
 70
     1
102
RTVSPropertyOp28
 70
     1
102
RTVSPropertyOp29
 70
     1
102
RTVSPropertyOp30
 70
     1
102
RTVSPropertyOp31
 70
     1
102
RTVSPropertyOp32
 70
     1
102
RTVSPropertyOp33
 70
     1
102
RTVSPropertyOp34
 70
     1
102
RTVSPropertyOp35
 70
     1
102
RTVSPropertyOp36
 70
     1
102
RTVSPropertyOp37
 70
     1
102
RTVSPropertyOp38
 70
     1
102
RTVSPropertyOp39
 70
     1
102
RTVSPropertyOp40
 70
     1
102
RTVSPropertyOp41
 70
     1
102
RTVSPropertyOp42
 70
     1
102
RTVSPropertyOp43
 70
     1
102
RTVSPropertyOp44
 70
     1
102
RTVSPropertyOp45
 70
     1
102
RTVSPropertyOp46
 70
     1
102
RTVSPropertyOp47
 70
     1
102
RTVSPropertyOp48
 70
     1
102
RTVSPropertyOp49
 70
     1
102
RTVSPropertyOp50
 70
     1
102
RTVSPropertyOp51
 70
     0
102
RTVSPropertyOp52
 70
     0
102
RTVSPropertyOp53
 70
     1
102
RTVSPropertyOp54
 70
     1
102
RTVSPropertyOp55
 70
     1
102
RTVSPropertyOp56
 70
     1
102
RTVSPropertyOp57
 70
     1
102
RTVSPropertyOp58
 70
     1
102
RTVSPropertyOp59
 70
     1
102
RTVSPropertyOp60
 70
     1
102
RTVSPropertyOp61
 70
     1
102
RTVSPropertyOp62
 70
     1
  0
XRECORD
  5
C69B
102
{ACAD_REACTORS
330
C69A
102
}
330
C69A
100
AcDbXrecord
280
     1
102
RTVSPost2010Prop28
280
     0
102
RTVSPost2010PropOp28
 70
     1
102
RTVSPost2010Prop29
280
     1
102
RTVSPost2010PropOp29
 70
     1
102
RTVSPost2010Prop30
280
     1
102
RTVSPost2010PropOp30
 70
     1
102
RTVSPost2010Prop31
280
     0
102
RTVSPost2010PropOp31
 70
     1
102
RTVSPost2010Prop32
280
     0
102
RTVSPost2010PropOp32
 70
     1
102
RTVSPost2010Prop33
280
     0
102
RTVSPost2010PropOp33
 70
     1
102
RTVSPost2010Prop34
280
     0
102
RTVSPost2010PropOp34
 70
     1
102
RTVSPost2010Prop35
280
     0
102
RTVSPost2010PropOp35
 70
     1
102
RTVSPost2010Prop36
280
     0
102
RTVSPost2010PropOp36
 70
     1
102
RTVSPost2010Prop37
 90
       50
102
RTVSPost2010PropOp37
 70
     1
102
RTVSPost2010Prop38
140
0.0
102
RTVSPost2010PropOp38
 70
     1
102
RTVSPost2010Prop39
140
1.0
102
RTVSPost2010PropOp39
 70
     1
102
RTVSPost2010Prop40
 90
        0
102
RTVSPost2010PropOp40
 70
     1
102
RTVSPost2010Prop41ColorIndex
 90
       18
102
RTVSPost2010Prop41ColorRGB
 90
        0
102
RTVSPost2010PropOp41
 70
     1
102
RTVSPost2010Prop42
 90
       50
102
RTVSPost2010PropOp42
 70
     1
102
RTVSPost2010Prop43
 90
        3
102
RTVSPost2010PropOp43
 70
     1
102
RTVSPost2010Prop44ColorIndex
 90
        5
102
RTVSPost2010Prop44ColorRGB
 90
      255
102
RTVSPost2010PropOp44
 70
     1
102
RTVSPost2010Prop45
280
     0
102
RTVSPost2010PropOp45
 70
     1
102
RTVSPost2010Prop46
 90
       50
102
RTVSPost2010PropOp46
 70
     1
102
RTVSPost2010Prop47
 90
       50
102
RTVSPost2010PropOp47
 70
     1
102
RTVSPost2010Prop48
 90
       50
102
RTVSPost2010PropOp48
 70
     1
102
RTVSPost2010Prop49
280
     0
102
RTVSPost2010PropOp49
 70
     1
102
RTVSPost2010Prop50
 90
       50
102
RTVSPost2010PropOp50
 70
     1
102
RTVSPost2010Prop51ColorIndex
 90
      256
102
RTVSPost2010Prop51ColorRGB
 90
-16777216
102
RTVSPost2010PropOp51
 70
     0
102
RTVSPost2010Prop52
140
1.0
102
RTVSPost2010PropOp52
 70
     0
102
RTVSPost2010Prop53
 90
        2
102
RTVSPost2010PropOp53
 70
     1
102
RTVSPost2010Prop54
  1
strokes_ogs.tif
102
RTVSPost2010PropOp54
 70
     1
102
RTVSPost2010Prop55
280
     0
102
RTVSPost2010PropOp55
 70
     1
102
RTVSPost2010Prop56
140
1.0
102
RTVSPost2010PropOp56
 70
     1
102
RTVSPost2010Prop57
140
1.0
102
RTVSPost2010PropOp57
 70
     1
102
RTVSPropertyOp0
 70
     1
102
RTVSPropertyOp1
 70
     1
102
RTVSPropertyOp2
 70
     1
102
RTVSPropertyOp3
 70
     1
102
RTVSPropertyOp4
 70
     1
102
RTVSPropertyOp5
 70
     1
102
RTVSPropertyOp6
 70
     1
102
RTVSPropertyOp7
 70
     1
102
RTVSPropertyOp8
 70
     1
102
RTVSPropertyOp9
 70
     1
102
RTVSPropertyOp10
 70
     1
102
RTVSPropertyOp11
 70
     1
102
RTVSPropertyOp12
 70
     1
102
RTVSPropertyOp13
 70
     1
102
RTVSPropertyOp14
 70
     1
102
RTVSPropertyOp15
 70
     1
102
RTVSPropertyOp16
 70
     1
102
RTVSPropertyOp17
 70
     1
102
RTVSPropertyOp18
 70
     1
102
RTVSPropertyOp19
 70
     1
102
RTVSPropertyOp20
 70
     1
102
RTVSPropertyOp21
 70
     1
102
RTVSPropertyOp22
 70
     1
102
RTVSPropertyOp23
 70
     1
102
RTVSPropertyOp24
 70
     1
102
RTVSPropertyOp25
 70
     1
102
RTVSPropertyOp26
 70
     1
102
RTVSPropertyOp27
 70
     1
102
RTVSPropertyOp28
 70
     1
102
RTVSPropertyOp29
 70
     1
102
RTVSPropertyOp30
 70
     1
102
RTVSPropertyOp31
 70
     1
102
RTVSPropertyOp32
 70
     1
102
RTVSPropertyOp33
 70
     1
102
RTVSPropertyOp34
 70
     1
102
RTVSPropertyOp35
 70
     1
102
RTVSPropertyOp36
 70
     1
102
RTVSPropertyOp37
 70
     1
102
RTVSPropertyOp38
 70
     1
102
RTVSPropertyOp39
 70
     1
102
RTVSPropertyOp40
 70
     1
102
RTVSPropertyOp41
 70
     1
102
RTVSPropertyOp42
 70
     1
102
RTVSPropertyOp43
 70
     1
102
RTVSPropertyOp44
 70
     1
102
RTVSPropertyOp45
 70
     1
102
RTVSPropertyOp46
 70
     1
102
RTVSPropertyOp47
 70
     1
102
RTVSPropertyOp48
 70
     1
102
RTVSPropertyOp49
 70
     1
102
RTVSPropertyOp50
 70
     1
102
RTVSPropertyOp51
 70
     0
102
RTVSPropertyOp52
 70
     0
102
RTVSPropertyOp53
 70
     1
102
RTVSPropertyOp54
 70
     1
102
RTVSPropertyOp55
 70
     1
102
RTVSPropertyOp56
 70
     1
102
RTVSPropertyOp57
 70
     1
102
RTVSPropertyOp58
 70
     1
102
RTVSPropertyOp59
 70
     1
102
RTVSPropertyOp60
 70
     1
102
RTVSPropertyOp61
 70
     1
102
RTVSPropertyOp62
 70
     1
  0
XRECORD
  5
C69D
102
{ACAD_REACTORS
330
C69C
102
}
330
C69C
100
AcDbXrecord
280
     1
102
RTVSPost2010Prop28
280
     0
102
RTVSPost2010PropOp28
 70
     1
102
RTVSPost2010Prop29
280
     1
102
RTVSPost2010PropOp29
 70
     1
102
RTVSPost2010Prop30
280
     1
102
RTVSPost2010PropOp30
 70
     1
102
RTVSPost2010Prop31
280
     0
102
RTVSPost2010PropOp31
 70
     1
102
RTVSPost2010Prop32
280
     0
102
RTVSPost2010PropOp32
 70
     1
102
RTVSPost2010Prop33
280
     0
102
RTVSPost2010PropOp33
 70
     1
102
RTVSPost2010Prop34
280
     0
102
RTVSPost2010PropOp34
 70
     1
102
RTVSPost2010Prop35
280
     0
102
RTVSPost2010PropOp35
 70
     1
102
RTVSPost2010Prop36
280
     0
102
RTVSPost2010PropOp36
 70
     1
102
RTVSPost2010Prop37
 90
       50
102
RTVSPost2010PropOp37
 70
     1
102
RTVSPost2010Prop38
140
0.0
102
RTVSPost2010PropOp38
 70
     1
102
RTVSPost2010Prop39
140
1.0
102
RTVSPost2010PropOp39
 70
     1
102
RTVSPost2010Prop40
 90
        0
102
RTVSPost2010PropOp40
 70
     1
102
RTVSPost2010Prop41ColorIndex
 90
       18
102
RTVSPost2010Prop41ColorRGB
 90
        0
102
RTVSPost2010PropOp41
 70
     1
102
RTVSPost2010Prop42
 90
       50
102
RTVSPost2010PropOp42
 70
     1
102
RTVSPost2010Prop43
 90
        3
102
RTVSPost2010PropOp43
 70
     1
102
RTVSPost2010Prop44ColorIndex
 90
        5
102
RTVSPost2010Prop44ColorRGB
 90
      255
102
RTVSPost2010PropOp44
 70
     1
102
RTVSPost2010Prop45
280
     0
102
RTVSPost2010PropOp45
 70
     1
102
RTVSPost2010Prop46
 90
       50
102
RTVSPost2010PropOp46
 70
     1
102
RTVSPost2010Prop47
 90
       50
102
RTVSPost2010PropOp47
 70
     1
102
RTVSPost2010Prop48
 90
       50
102
RTVSPost2010PropOp48
 70
     1
102
RTVSPost2010Prop49
280
     0
102
RTVSPost2010PropOp49
 70
     1
102
RTVSPost2010Prop50
 90
       50
102
RTVSPost2010PropOp50
 70
     1
102
RTVSPost2010Prop51ColorIndex
 90
      256
102
RTVSPost2010Prop51ColorRGB
 90
-16777216
102
RTVSPost2010PropOp51
 70
     0
102
RTVSPost2010Prop52
140
1.0
102
RTVSPost2010PropOp52
 70
     0
102
RTVSPost2010Prop53
 90
        2
102
RTVSPost2010PropOp53
 70
     1
102
RTVSPost2010Prop54
  1
strokes_ogs.tif
102
RTVSPost2010PropOp54
 70
     1
102
RTVSPost2010Prop55
280
     0
102
RTVSPost2010PropOp55
 70
     1
102
RTVSPost2010Prop56
140
1.0
102
RTVSPost2010PropOp56
 70
     1
102
RTVSPost2010Prop57
140
1.0
102
RTVSPost2010PropOp57
 70
     1
102
RTVSPropertyOp0
 70
     1
102
RTVSPropertyOp1
 70
     1
102
RTVSPropertyOp2
 70
     1
102
RTVSPropertyOp3
 70
     1
102
RTVSPropertyOp4
 70
     1
102
RTVSPropertyOp5
 70
     1
102
RTVSPropertyOp6
 70
     1
102
RTVSPropertyOp7
 70
     1
102
RTVSPropertyOp8
 70
     1
102
RTVSPropertyOp9
 70
     1
102
RTVSPropertyOp10
 70
     1
102
RTVSPropertyOp11
 70
     1
102
RTVSPropertyOp12
 70
     1
102
RTVSPropertyOp13
 70
     1
102
RTVSPropertyOp14
 70
     1
102
RTVSPropertyOp15
 70
     1
102
RTVSPropertyOp16
 70
     1
102
RTVSPropertyOp17
 70
     1
102
RTVSPropertyOp18
 70
     1
102
RTVSPropertyOp19
 70
     1
102
RTVSPropertyOp20
 70
     1
102
RTVSPropertyOp21
 70
     1
102
RTVSPropertyOp22
 70
     1
102
RTVSPropertyOp23
 70
     1
102
RTVSPropertyOp24
 70
     1
102
RTVSPropertyOp25
 70
     1
102
RTVSPropertyOp26
 70
     1
102
RTVSPropertyOp27
 70
     1
102
RTVSPropertyOp28
 70
     1
102
RTVSPropertyOp29
 70
     1
102
RTVSPropertyOp30
 70
     1
102
RTVSPropertyOp31
 70
     1
102
RTVSPropertyOp32
 70
     1
102
RTVSPropertyOp33
 70
     1
102
RTVSPropertyOp34
 70
     1
102
RTVSPropertyOp35
 70
     1
102
RTVSPropertyOp36
 70
     1
102
RTVSPropertyOp37
 70
     1
102
RTVSPropertyOp38
 70
     1
102
RTVSPropertyOp39
 70
     1
102
RTVSPropertyOp40
 70
     1
102
RTVSPropertyOp41
 70
     1
102
RTVSPropertyOp42
 70
     1
102
RTVSPropertyOp43
 70
     1
102
RTVSPropertyOp44
 70
     1
102
RTVSPropertyOp45
 70
     1
102
RTVSPropertyOp46
 70
     1
102
RTVSPropertyOp47
 70
     1
102
RTVSPropertyOp48
 70
     1
102
RTVSPropertyOp49
 70
     1
102
RTVSPropertyOp50
 70
     1
102
RTVSPropertyOp51
 70
     0
102
RTVSPropertyOp52
 70
     0
102
RTVSPropertyOp53
 70
     1
102
RTVSPropertyOp54
 70
     1
102
RTVSPropertyOp55
 70
     1
102
RTVSPropertyOp56
 70
     1
102
RTVSPropertyOp57
 70
     1
102
RTVSPropertyOp58
 70
     1
102
RTVSPropertyOp59
 70
     1
102
RTVSPropertyOp60
 70
     1
102
RTVSPropertyOp61
 70
     1
102
RTVSPropertyOp62
 70
     1
  0
XRECORD
  5
C6A5
102
{ACAD_REACTORS
330
C6A4
102
}
330
C6A4
100
AcDbXrecord
280
     1
102
RTVSPost2010Prop28
280
     0
102
RTVSPost2010PropOp28
 70
     1
102
RTVSPost2010Prop29
280
     1
102
RTVSPost2010PropOp29
 70
     1
102
RTVSPost2010Prop30
280
     1
102
RTVSPost2010PropOp30
 70
     1
102
RTVSPost2010Prop31
280
     0
102
RTVSPost2010PropOp31
 70
     1
102
RTVSPost2010Prop32
280
     0
102
RTVSPost2010PropOp32
 70
     1
102
RTVSPost2010Prop33
280
     0
102
RTVSPost2010PropOp33
 70
     1
102
RTVSPost2010Prop34
280
     0
102
RTVSPost2010PropOp34
 70
     1
102
RTVSPost2010Prop35
280
     0
102
RTVSPost2010PropOp35
 70
     1
102
RTVSPost2010Prop36
280
     0
102
RTVSPost2010PropOp36
 70
     1
102
RTVSPost2010Prop37
 90
       50
102
RTVSPost2010PropOp37
 70
     1
102
RTVSPost2010Prop38
140
0.0
102
RTVSPost2010PropOp38
 70
     1
102
RTVSPost2010Prop39
140
1.0
102
RTVSPost2010PropOp39
 70
     1
102
RTVSPost2010Prop40
 90
        0
102
RTVSPost2010PropOp40
 70
     1
102
RTVSPost2010Prop41ColorIndex
 90
       18
102
RTVSPost2010Prop41ColorRGB
 90
        0
102
RTVSPost2010PropOp41
 70
     1
102
RTVSPost2010Prop42
 90
       50
102
RTVSPost2010PropOp42
 70
     1
102
RTVSPost2010Prop43
 90
        3
102
RTVSPost2010PropOp43
 70
     1
102
RTVSPost2010Prop44ColorIndex
 90
        5
102
RTVSPost2010Prop44ColorRGB
 90
      255
102
RTVSPost2010PropOp44
 70
     1
102
RTVSPost2010Prop45
280
     0
102
RTVSPost2010PropOp45
 70
     1
102
RTVSPost2010Prop46
 90
       50
102
RTVSPost2010PropOp46
 70
     1
102
RTVSPost2010Prop47
 90
       50
102
RTVSPost2010PropOp47
 70
     1
102
RTVSPost2010Prop48
 90
       50
102
RTVSPost2010PropOp48
 70
     1
102
RTVSPost2010Prop49
280
     0
102
RTVSPost2010PropOp49
 70
     1
102
RTVSPost2010Prop50
 90
       50
102
RTVSPost2010PropOp50
 70
     1
102
RTVSPost2010Prop51ColorIndex
 90
      256
102
RTVSPost2010Prop51ColorRGB
 90
-16777216
102
RTVSPost2010PropOp51
 70
     0
102
RTVSPost2010Prop52
140
1.0
102
RTVSPost2010PropOp52
 70
     0
102
RTVSPost2010Prop53
 90
        2
102
RTVSPost2010PropOp53
 70
     1
102
RTVSPost2010Prop54
  1
strokes_ogs.tif
102
RTVSPost2010PropOp54
 70
     1
102
RTVSPost2010Prop55
280
     0
102
RTVSPost2010PropOp55
 70
     1
102
RTVSPost2010Prop56
140
1.0
102
RTVSPost2010PropOp56
 70
     1
102
RTVSPost2010Prop57
140
1.0
102
RTVSPost2010PropOp57
 70
     1
102
RTVSPropertyOp0
 70
     1
102
RTVSPropertyOp1
 70
     1
102
RTVSPropertyOp2
 70
     1
102
RTVSPropertyOp3
 70
     1
102
RTVSPropertyOp4
 70
     1
102
RTVSPropertyOp5
 70
     1
102
RTVSPropertyOp6
 70
     1
102
RTVSPropertyOp7
 70
     1
102
RTVSPropertyOp8
 70
     1
102
RTVSPropertyOp9
 70
     1
102
RTVSPropertyOp10
 70
     1
102
RTVSPropertyOp11
 70
     1
102
RTVSPropertyOp12
 70
     1
102
RTVSPropertyOp13
 70
     1
102
RTVSPropertyOp14
 70
     1
102
RTVSPropertyOp15
 70
     1
102
RTVSPropertyOp16
 70
     1
102
RTVSPropertyOp17
 70
     1
102
RTVSPropertyOp18
 70
     1
102
RTVSPropertyOp19
 70
     1
102
RTVSPropertyOp20
 70
     1
102
RTVSPropertyOp21
 70
     1
102
RTVSPropertyOp22
 70
     1
102
RTVSPropertyOp23
 70
     1
102
RTVSPropertyOp24
 70
     1
102
RTVSPropertyOp25
 70
     1
102
RTVSPropertyOp26
 70
     1
102
RTVSPropertyOp27
 70
     1
102
RTVSPropertyOp28
 70
     1
102
RTVSPropertyOp29
 70
     1
102
RTVSPropertyOp30
 70
     1
102
RTVSPropertyOp31
 70
     1
102
RTVSPropertyOp32
 70
     1
102
RTVSPropertyOp33
 70
     1
102
RTVSPropertyOp34
 70
     1
102
RTVSPropertyOp35
 70
     1
102
RTVSPropertyOp36
 70
     1
102
RTVSPropertyOp37
 70
     1
102
RTVSPropertyOp38
 70
     1
102
RTVSPropertyOp39
 70
     1
102
RTVSPropertyOp40
 70
     1
102
RTVSPropertyOp41
 70
     1
102
RTVSPropertyOp42
 70
     1
102
RTVSPropertyOp43
 70
     1
102
RTVSPropertyOp44
 70
     1
102
RTVSPropertyOp45
 70
     1
102
RTVSPropertyOp46
 70
     1
102
RTVSPropertyOp47
 70
     1
102
RTVSPropertyOp48
 70
     1
102
RTVSPropertyOp49
 70
     1
102
RTVSPropertyOp50
 70
     1
102
RTVSPropertyOp51
 70
     0
102
RTVSPropertyOp52
 70
     0
102
RTVSPropertyOp53
 70
     1
102
RTVSPropertyOp54
 70
     1
102
RTVSPropertyOp55
 70
     1
102
RTVSPropertyOp56
 70
     1
102
RTVSPropertyOp57
 70
     1
102
RTVSPropertyOp58
 70
     1
102
RTVSPropertyOp59
 70
     1
102
RTVSPropertyOp60
 70
     1
102
RTVSPropertyOp61
 70
     1
102
RTVSPropertyOp62
 70
     1
  0
XRECORD
  5
C6C1
102
{ACAD_REACTORS
330
C6C0
102
}
330
C6C0
100
AcDbXrecord
280
     1
102
RTVSPost2010Prop28
280
     0
102
RTVSPost2010PropOp28
 70
     1
102
RTVSPost2010Prop29
280
     1
102
RTVSPost2010PropOp29
 70
     1
102
RTVSPost2010Prop30
280
     1
102
RTVSPost2010PropOp30
 70
     1
102
RTVSPost2010Prop31
280
     0
102
RTVSPost2010PropOp31
 70
     1
102
RTVSPost2010Prop32
280
     0
102
RTVSPost2010PropOp32
 70
     1
102
RTVSPost2010Prop33
280
     0
102
RTVSPost2010PropOp33
 70
     1
102
RTVSPost2010Prop34
280
     0
102
RTVSPost2010PropOp34
 70
     1
102
RTVSPost2010Prop35
280
     0
102
RTVSPost2010PropOp35
 70
     1
102
RTVSPost2010Prop36
280
     0
102
RTVSPost2010PropOp36
 70
     1
102
RTVSPost2010Prop37
 90
       50
102
RTVSPost2010PropOp37
 70
     0
102
RTVSPost2010Prop38
140
0.0
102
RTVSPost2010PropOp38
 70
     0
102
RTVSPost2010Prop39
140
1.0
102
RTVSPost2010PropOp39
 70
     0
102
RTVSPost2010Prop40
 90
        0
102
RTVSPost2010PropOp40
 70
     0
102
RTVSPost2010Prop41ColorIndex
 90
       18
102
RTVSPost2010Prop41ColorRGB
 90
        0
102
RTVSPost2010PropOp41
 70
     0
102
RTVSPost2010Prop42
 90
       50
102
RTVSPost2010PropOp42
 70
     0
102
RTVSPost2010Prop43
 90
        3
102
RTVSPost2010PropOp43
 70
     0
102
RTVSPost2010Prop44ColorIndex
 90
        5
102
RTVSPost2010Prop44ColorRGB
 90
      255
102
RTVSPost2010PropOp44
 70
     0
102
RTVSPost2010Prop45
280
     0
102
RTVSPost2010PropOp45
 70
     1
102
RTVSPost2010Prop46
 90
       50
102
RTVSPost2010PropOp46
 70
     0
102
RTVSPost2010Prop47
 90
       50
102
RTVSPost2010PropOp47
 70
     0
102
RTVSPost2010Prop48
 90
       50
102
RTVSPost2010PropOp48
 70
     0
102
RTVSPost2010Prop49
280
     0
102
RTVSPost2010PropOp49
 70
     1
102
RTVSPost2010Prop50
 90
       50
102
RTVSPost2010PropOp50
 70
     0
102
RTVSPost2010Prop51ColorIndex
 90
      256
102
RTVSPost2010Prop51ColorRGB
 90
-16777216
102
RTVSPost2010PropOp51
 70
     0
102
RTVSPost2010Prop52
140
1.0
102
RTVSPost2010PropOp52
 70
     0
102
RTVSPost2010Prop53
 90
        2
102
RTVSPost2010PropOp53
 70
     0
102
RTVSPost2010Prop54
  1
strokes_ogs.tif
102
RTVSPost2010PropOp54
 70
     0
102
RTVSPost2010Prop55
280
     0
102
RTVSPost2010PropOp55
 70
     1
102
RTVSPost2010Prop56
140
1.0
102
RTVSPost2010PropOp56
 70
     0
102
RTVSPost2010Prop57
140
1.0
102
RTVSPost2010PropOp57
 70
     0
102
RTVSPropertyOp0
 70
     0
102
RTVSPropertyOp1
 70
     0
102
RTVSPropertyOp2
 70
     0
102
RTVSPropertyOp3
 70
     0
102
RTVSPropertyOp4
 70
     0
102
RTVSPropertyOp5
 70
     0
102
RTVSPropertyOp6
 70
     0
102
RTVSPropertyOp7
 70
     0
102
RTVSPropertyOp8
 70
     0
102
RTVSPropertyOp9
 70
     0
102
RTVSPropertyOp10
 70
     0
102
RTVSPropertyOp11
 70
     0
102
RTVSPropertyOp12
 70
     0
102
RTVSPropertyOp13
 70
     0
102
RTVSPropertyOp14
 70
     2
102
RTVSPropertyOp15
 70
     0
102
RTVSPropertyOp16
 70
     0
102
RTVSPropertyOp17
 70
     0
102
RTVSPropertyOp18
 70
     0
102
RTVSPropertyOp19
 70
     0
102
RTVSPropertyOp20
 70
     0
102
RTVSPropertyOp21
 70
     0
102
RTVSPropertyOp22
 70
     0
102
RTVSPropertyOp23
 70
     0
102
RTVSPropertyOp24
 70
     0
102
RTVSPropertyOp25
 70
     0
102
RTVSPropertyOp26
 70
     0
102
RTVSPropertyOp27
 70
     0
102
RTVSPropertyOp28
 70
     1
102
RTVSPropertyOp29
 70
     1
102
RTVSPropertyOp30
 70
     1
102
RTVSPropertyOp31
 70
     1
102
RTVSPropertyOp32
 70
     1
102
RTVSPropertyOp33
 70
     1
102
RTVSPropertyOp34
 70
     1
102
RTVSPropertyOp35
 70
     1
102
RTVSPropertyOp36
 70
     1
102
RTVSPropertyOp37
 70
     0
102
RTVSPropertyOp38
 70
     0
102
RTVSPropertyOp39
 70
     0
102
RTVSPropertyOp40
 70
     0
102
RTVSPropertyOp41
 70
     0
102
RTVSPropertyOp42
 70
     0
102
RTVSPropertyOp43
 70
     0
102
RTVSPropertyOp44
 70
     0
102
RTVSPropertyOp45
 70
     1
102
RTVSPropertyOp46
 70
     0
102
RTVSPropertyOp47
 70
     0
102
RTVSPropertyOp48
 70
     0
102
RTVSPropertyOp49
 70
     1
102
RTVSPropertyOp50
 70
     0
102
RTVSPropertyOp51
 70
     0
102
RTVSPropertyOp52
 70
     0
102
RTVSPropertyOp53
 70
     0
102
RTVSPropertyOp54
 70
     0
102
RTVSPropertyOp55
 70
     1
102
RTVSPropertyOp56
 70
     0
102
RTVSPropertyOp57
 70
     0
102
RTVSPropertyOp58
 70
     0
102
RTVSPropertyOp59
 70
     0
102
RTVSPropertyOp60
 70
     0
102
RTVSPropertyOp61
 70
     0
102
RTVSPropertyOp62
 70
     0
  0
XRECORD
  5
C6B1
102
{ACAD_REACTORS
330
C6B0
102
}
330
C6B0
100
AcDbXrecord
280
     1
102
RTVSPost2010Prop28
280
     0
102
RTVSPost2010PropOp28
 70
     1
102
RTVSPost2010Prop29
280
     1
102
RTVSPost2010PropOp29
 70
     1
102
RTVSPost2010Prop30
280
     1
102
RTVSPost2010PropOp30
 70
     1
102
RTVSPost2010Prop31
280
     0
102
RTVSPost2010PropOp31
 70
     1
102
RTVSPost2010Prop32
280
     0
102
RTVSPost2010PropOp32
 70
     1
102
RTVSPost2010Prop33
280
     0
102
RTVSPost2010PropOp33
 70
     1
102
RTVSPost2010Prop34
280
     0
102
RTVSPost2010PropOp34
 70
     1
102
RTVSPost2010Prop35
280
     0
102
RTVSPost2010PropOp35
 70
     1
102
RTVSPost2010Prop36
280
     0
102
RTVSPost2010PropOp36
 70
     1
102
RTVSPost2010Prop37
 90
       50
102
RTVSPost2010PropOp37
 70
     1
102
RTVSPost2010Prop38
140
0.0
102
RTVSPost2010PropOp38
 70
     1
102
RTVSPost2010Prop39
140
1.0
102
RTVSPost2010PropOp39
 70
     1
102
RTVSPost2010Prop40
 90
        0
102
RTVSPost2010PropOp40
 70
     1
102
RTVSPost2010Prop41ColorIndex
 90
       18
102
RTVSPost2010Prop41ColorRGB
 90
        0
102
RTVSPost2010PropOp41
 70
     1
102
RTVSPost2010Prop42
 90
       50
102
RTVSPost2010PropOp42
 70
     1
102
RTVSPost2010Prop43
 90
        3
102
RTVSPost2010PropOp43
 70
     1
102
RTVSPost2010Prop44ColorIndex
 90
        5
102
RTVSPost2010Prop44ColorRGB
 90
      255
102
RTVSPost2010PropOp44
 70
     1
102
RTVSPost2010Prop45
280
     0
102
RTVSPost2010PropOp45
 70
     1
102
RTVSPost2010Prop46
 90
       50
102
RTVSPost2010PropOp46
 70
     1
102
RTVSPost2010Prop47
 90
       50
102
RTVSPost2010PropOp47
 70
     1
102
RTVSPost2010Prop48
 90
       50
102
RTVSPost2010PropOp48
 70
     1
102
RTVSPost2010Prop49
280
     0
102
RTVSPost2010PropOp49
 70
     1
102
RTVSPost2010Prop50
 90
       50
102
RTVSPost2010PropOp50
 70
     1
102
RTVSPost2010Prop51ColorIndex
 90
      256
102
RTVSPost2010Prop51ColorRGB
 90
-16777216
102
RTVSPost2010PropOp51
 70
     0
102
RTVSPost2010Prop52
140
1.0
102
RTVSPost2010PropOp52
 70
     0
102
RTVSPost2010Prop53
 90
        2
102
RTVSPost2010PropOp53
 70
     1
102
RTVSPost2010Prop54
  1
strokes_ogs.tif
102
RTVSPost2010PropOp54
 70
     1
102
RTVSPost2010Prop55
280
     0
102
RTVSPost2010PropOp55
 70
     1
102
RTVSPost2010Prop56
140
1.0
102
RTVSPost2010PropOp56
 70
     1
102
RTVSPost2010Prop57
140
1.0
102
RTVSPost2010PropOp57
 70
     1
102
RTVSPropertyOp0
 70
     1
102
RTVSPropertyOp1
 70
     1
102
RTVSPropertyOp2
 70
     1
102
RTVSPropertyOp3
 70
     1
102
RTVSPropertyOp4
 70
     1
102
RTVSPropertyOp5
 70
     1
102
RTVSPropertyOp6
 70
     1
102
RTVSPropertyOp7
 70
     1
102
RTVSPropertyOp8
 70
     1
102
RTVSPropertyOp9
 70
     1
102
RTVSPropertyOp10
 70
     1
102
RTVSPropertyOp11
 70
     1
102
RTVSPropertyOp12
 70
     1
102
RTVSPropertyOp13
 70
     1
102
RTVSPropertyOp14
 70
     1
102
RTVSPropertyOp15
 70
     1
102
RTVSPropertyOp16
 70
     1
102
RTVSPropertyOp17
 70
     1
102
RTVSPropertyOp18
 70
     1
102
RTVSPropertyOp19
 70
     1
102
RTVSPropertyOp20
 70
     1
102
RTVSPropertyOp21
 70
     1
102
RTVSPropertyOp22
 70
     1
102
RTVSPropertyOp23
 70
     1
102
RTVSPropertyOp24
 70
     1
102
RTVSPropertyOp25
 70
     1
102
RTVSPropertyOp26
 70
     1
102
RTVSPropertyOp27
 70
     1
102
RTVSPropertyOp28
 70
     1
102
RTVSPropertyOp29
 70
     1
102
RTVSPropertyOp30
 70
     1
102
RTVSPropertyOp31
 70
     1
102
RTVSPropertyOp32
 70
     1
102
RTVSPropertyOp33
 70
     1
102
RTVSPropertyOp34
 70
     1
102
RTVSPropertyOp35
 70
     1
102
RTVSPropertyOp36
 70
     1
102
RTVSPropertyOp37
 70
     1
102
RTVSPropertyOp38
 70
     1
102
RTVSPropertyOp39
 70
     1
102
RTVSPropertyOp40
 70
     1
102
RTVSPropertyOp41
 70
     1
102
RTVSPropertyOp42
 70
     1
102
RTVSPropertyOp43
 70
     1
102
RTVSPropertyOp44
 70
     1
102
RTVSPropertyOp45
 70
     1
102
RTVSPropertyOp46
 70
     1
102
RTVSPropertyOp47
 70
     1
102
RTVSPropertyOp48
 70
     1
102
RTVSPropertyOp49
 70
     1
102
RTVSPropertyOp50
 70
     1
102
RTVSPropertyOp51
 70
     0
102
RTVSPropertyOp52
 70
     0
102
RTVSPropertyOp53
 70
     1
102
RTVSPropertyOp54
 70
     1
102
RTVSPropertyOp55
 70
     1
102
RTVSPropertyOp56
 70
     1
102
RTVSPropertyOp57
 70
     1
102
RTVSPropertyOp58
 70
     1
102
RTVSPropertyOp59
 70
     1
102
RTVSPropertyOp60
 70
     1
102
RTVSPropertyOp61
 70
     1
102
RTVSPropertyOp62
 70
     1
  0
XRECORD
  5
C6C3
102
{ACAD_REACTORS
330
C6C2
102
}
330
C6C2
100
AcDbXrecord
280
     1
102
RTVSPost2010Prop28
280
     0
102
RTVSPost2010PropOp28
 70
     1
102
RTVSPost2010Prop29
280
     1
102
RTVSPost2010PropOp29
 70
     1
102
RTVSPost2010Prop30
280
     1
102
RTVSPost2010PropOp30
 70
     1
102
RTVSPost2010Prop31
280
     0
102
RTVSPost2010PropOp31
 70
     1
102
RTVSPost2010Prop32
280
     0
102
RTVSPost2010PropOp32
 70
     1
102
RTVSPost2010Prop33
280
     0
102
RTVSPost2010PropOp33
 70
     1
102
RTVSPost2010Prop34
280
     0
102
RTVSPost2010PropOp34
 70
     1
102
RTVSPost2010Prop35
280
     0
102
RTVSPost2010PropOp35
 70
     1
102
RTVSPost2010Prop36
280
     0
102
RTVSPost2010PropOp36
 70
     1
102
RTVSPost2010Prop37
 90
       50
102
RTVSPost2010PropOp37
 70
     0
102
RTVSPost2010Prop38
140
0.0
102
RTVSPost2010PropOp38
 70
     0
102
RTVSPost2010Prop39
140
1.0
102
RTVSPost2010PropOp39
 70
     0
102
RTVSPost2010Prop40
 90
        0
102
RTVSPost2010PropOp40
 70
     0
102
RTVSPost2010Prop41ColorIndex
 90
       18
102
RTVSPost2010Prop41ColorRGB
 90
        0
102
RTVSPost2010PropOp41
 70
     0
102
RTVSPost2010Prop42
 90
       50
102
RTVSPost2010PropOp42
 70
     0
102
RTVSPost2010Prop43
 90
        3
102
RTVSPost2010PropOp43
 70
     0
102
RTVSPost2010Prop44ColorIndex
 90
        5
102
RTVSPost2010Prop44ColorRGB
 90
      255
102
RTVSPost2010PropOp44
 70
     0
102
RTVSPost2010Prop45
280
     0
102
RTVSPost2010PropOp45
 70
     1
102
RTVSPost2010Prop46
 90
       50
102
RTVSPost2010PropOp46
 70
     0
102
RTVSPost2010Prop47
 90
       50
102
RTVSPost2010PropOp47
 70
     0
102
RTVSPost2010Prop48
 90
       50
102
RTVSPost2010PropOp48
 70
     0
102
RTVSPost2010Prop49
280
     0
102
RTVSPost2010PropOp49
 70
     1
102
RTVSPost2010Prop50
 90
       50
102
RTVSPost2010PropOp50
 70
     0
102
RTVSPost2010Prop51ColorIndex
 90
      256
102
RTVSPost2010Prop51ColorRGB
 90
-16777216
102
RTVSPost2010PropOp51
 70
     0
102
RTVSPost2010Prop52
140
1.0
102
RTVSPost2010PropOp52
 70
     0
102
RTVSPost2010Prop53
 90
        2
102
RTVSPost2010PropOp53
 70
     0
102
RTVSPost2010Prop54
  1
strokes_ogs.tif
102
RTVSPost2010PropOp54
 70
     0
102
RTVSPost2010Prop55
280
     0
102
RTVSPost2010PropOp55
 70
     1
102
RTVSPost2010Prop56
140
1.0
102
RTVSPost2010PropOp56
 70
     0
102
RTVSPost2010Prop57
140
1.0
102
RTVSPost2010PropOp57
 70
     0
102
RTVSPropertyOp0
 70
     0
102
RTVSPropertyOp1
 70
     0
102
RTVSPropertyOp2
 70
     0
102
RTVSPropertyOp3
 70
     0
102
RTVSPropertyOp4
 70
     0
102
RTVSPropertyOp5
 70
     0
102
RTVSPropertyOp6
 70
     0
102
RTVSPropertyOp7
 70
     0
102
RTVSPropertyOp8
 70
     0
102
RTVSPropertyOp9
 70
     0
102
RTVSPropertyOp10
 70
     0
102
RTVSPropertyOp11
 70
     0
102
RTVSPropertyOp12
 70
     0
102
RTVSPropertyOp13
 70
     0
102
RTVSPropertyOp14
 70
     2
102
RTVSPropertyOp15
 70
     0
102
RTVSPropertyOp16
 70
     0
102
RTVSPropertyOp17
 70
     0
102
RTVSPropertyOp18
 70
     0
102
RTVSPropertyOp19
 70
     0
102
RTVSPropertyOp20
 70
     0
102
RTVSPropertyOp21
 70
     0
102
RTVSPropertyOp22
 70
     0
102
RTVSPropertyOp23
 70
     0
102
RTVSPropertyOp24
 70
     0
102
RTVSPropertyOp25
 70
     0
102
RTVSPropertyOp26
 70
     0
102
RTVSPropertyOp27
 70
     0
102
RTVSPropertyOp28
 70
     1
102
RTVSPropertyOp29
 70
     1
102
RTVSPropertyOp30
 70
     1
102
RTVSPropertyOp31
 70
     1
102
RTVSPropertyOp32
 70
     1
102
RTVSPropertyOp33
 70
     1
102
RTVSPropertyOp34
 70
     1
102
RTVSPropertyOp35
 70
     1
102
RTVSPropertyOp36
 70
     1
102
RTVSPropertyOp37
 70
     0
102
RTVSPropertyOp38
 70
     0
102
RTVSPropertyOp39
 70
     0
102
RTVSPropertyOp40
 70
     0
102
RTVSPropertyOp41
 70
     0
102
RTVSPropertyOp42
 70
     0
102
RTVSPropertyOp43
 70
     0
102
RTVSPropertyOp44
 70
     0
102
RTVSPropertyOp45
 70
     1
102
RTVSPropertyOp46
 70
     0
102
RTVSPropertyOp47
 70
     0
102
RTVSPropertyOp48
 70
     0
102
RTVSPropertyOp49
 70
     1
102
RTVSPropertyOp50
 70
     0
102
RTVSPropertyOp51
 70
     0
102
RTVSPropertyOp52
 70
     0
102
RTVSPropertyOp53
 70
     0
102
RTVSPropertyOp54
 70
     0
102
RTVSPropertyOp55
 70
     1
102
RTVSPropertyOp56
 70
     0
102
RTVSPropertyOp57
 70
     0
102
RTVSPropertyOp58
 70
     0
102
RTVSPropertyOp59
 70
     0
102
RTVSPropertyOp60
 70
     0
102
RTVSPropertyOp61
 70
     0
102
RTVSPropertyOp62
 70
     0
  0
XRECORD
  5
C6A9
102
{ACAD_REACTORS
330
C6A8
102
}
330
C6A8
100
AcDbXrecord
280
     1
102
RTVSPost2010Prop28
280
     0
102
RTVSPost2010PropOp28
 70
     1
102
RTVSPost2010Prop29
280
     1
102
RTVSPost2010PropOp29
 70
     1
102
RTVSPost2010Prop30
280
     1
102
RTVSPost2010PropOp30
 70
     1
102
RTVSPost2010Prop31
280
     0
102
RTVSPost2010PropOp31
 70
     1
102
RTVSPost2010Prop32
280
     0
102
RTVSPost2010PropOp32
 70
     1
102
RTVSPost2010Prop33
280
     0
102
RTVSPost2010PropOp33
 70
     1
102
RTVSPost2010Prop34
280
     0
102
RTVSPost2010PropOp34
 70
     1
102
RTVSPost2010Prop35
280
     0
102
RTVSPost2010PropOp35
 70
     1
102
RTVSPost2010Prop36
280
     0
102
RTVSPost2010PropOp36
 70
     1
102
RTVSPost2010Prop37
 90
       50
102
RTVSPost2010PropOp37
 70
     1
102
RTVSPost2010Prop38
140
0.0
102
RTVSPost2010PropOp38
 70
     1
102
RTVSPost2010Prop39
140
1.0
102
RTVSPost2010PropOp39
 70
     1
102
RTVSPost2010Prop40
 90
        0
102
RTVSPost2010PropOp40
 70
     1
102
RTVSPost2010Prop41ColorIndex
 90
       18
102
RTVSPost2010Prop41ColorRGB
 90
        0
102
RTVSPost2010PropOp41
 70
     1
102
RTVSPost2010Prop42
 90
       50
102
RTVSPost2010PropOp42
 70
     1
102
RTVSPost2010Prop43
 90
        3
102
RTVSPost2010PropOp43
 70
     1
102
RTVSPost2010Prop44ColorIndex
 90
        5
102
RTVSPost2010Prop44ColorRGB
 90
      255
102
RTVSPost2010PropOp44
 70
     1
102
RTVSPost2010Prop45
280
     0
102
RTVSPost2010PropOp45
 70
     1
102
RTVSPost2010Prop46
 90
       50
102
RTVSPost2010PropOp46
 70
     1
102
RTVSPost2010Prop47
 90
       50
102
RTVSPost2010PropOp47
 70
     1
102
RTVSPost2010Prop48
 90
       50
102
RTVSPost2010PropOp48
 70
     1
102
RTVSPost2010Prop49
280
     0
102
RTVSPost2010PropOp49
 70
     1
102
RTVSPost2010Prop50
 90
       50
102
RTVSPost2010PropOp50
 70
     1
102
RTVSPost2010Prop51ColorIndex
 90
      256
102
RTVSPost2010Prop51ColorRGB
 90
-16777216
102
RTVSPost2010PropOp51
 70
     0
102
RTVSPost2010Prop52
140
1.0
102
RTVSPost2010PropOp52
 70
     0
102
RTVSPost2010Prop53
 90
        2
102
RTVSPost2010PropOp53
 70
     1
102
RTVSPost2010Prop54
  1
strokes_ogs.tif
102
RTVSPost2010PropOp54
 70
     1
102
RTVSPost2010Prop55
280
     0
102
RTVSPost2010PropOp55
 70
     1
102
RTVSPost2010Prop56
140
1.0
102
RTVSPost2010PropOp56
 70
     1
102
RTVSPost2010Prop57
140
1.0
102
RTVSPost2010PropOp57
 70
     1
102
RTVSPropertyOp0
 70
     1
102
RTVSPropertyOp1
 70
     1
102
RTVSPropertyOp2
 70
     1
102
RTVSPropertyOp3
 70
     1
102
RTVSPropertyOp4
 70
     1
102
RTVSPropertyOp5
 70
     1
102
RTVSPropertyOp6
 70
     1
102
RTVSPropertyOp7
 70
     1
102
RTVSPropertyOp8
 70
     1
102
RTVSPropertyOp9
 70
     1
102
RTVSPropertyOp10
 70
     1
102
RTVSPropertyOp11
 70
     1
102
RTVSPropertyOp12
 70
     1
102
RTVSPropertyOp13
 70
     1
102
RTVSPropertyOp14
 70
     1
102
RTVSPropertyOp15
 70
     1
102
RTVSPropertyOp16
 70
     1
102
RTVSPropertyOp17
 70
     1
102
RTVSPropertyOp18
 70
     1
102
RTVSPropertyOp19
 70
     1
102
RTVSPropertyOp20
 70
     1
102
RTVSPropertyOp21
 70
     1
102
RTVSPropertyOp22
 70
     1
102
RTVSPropertyOp23
 70
     1
102
RTVSPropertyOp24
 70
     1
102
RTVSPropertyOp25
 70
     1
102
RTVSPropertyOp26
 70
     1
102
RTVSPropertyOp27
 70
     1
102
RTVSPropertyOp28
 70
     1
102
RTVSPropertyOp29
 70
     1
102
RTVSPropertyOp30
 70
     1
102
RTVSPropertyOp31
 70
     1
102
RTVSPropertyOp32
 70
     1
102
RTVSPropertyOp33
 70
     1
102
RTVSPropertyOp34
 70
     1
102
RTVSPropertyOp35
 70
     1
102
RTVSPropertyOp36
 70
     1
102
RTVSPropertyOp37
 70
     1
102
RTVSPropertyOp38
 70
     1
102
RTVSPropertyOp39
 70
     1
102
RTVSPropertyOp40
 70
     1
102
RTVSPropertyOp41
 70
     1
102
RTVSPropertyOp42
 70
     1
102
RTVSPropertyOp43
 70
     1
102
RTVSPropertyOp44
 70
     1
102
RTVSPropertyOp45
 70
     1
102
RTVSPropertyOp46
 70
     1
102
RTVSPropertyOp47
 70
     1
102
RTVSPropertyOp48
 70
     1
102
RTVSPropertyOp49
 70
     1
102
RTVSPropertyOp50
 70
     1
102
RTVSPropertyOp51
 70
     0
102
RTVSPropertyOp52
 70
     0
102
RTVSPropertyOp53
 70
     1
102
RTVSPropertyOp54
 70
     1
102
RTVSPropertyOp55
 70
     1
102
RTVSPropertyOp56
 70
     1
102
RTVSPropertyOp57
 70
     1
102
RTVSPropertyOp58
 70
     1
102
RTVSPropertyOp59
 70
     1
102
RTVSPropertyOp60
 70
     1
102
RTVSPropertyOp61
 70
     1
102
RTVSPropertyOp62
 70
     1
  0
XRECORD
  5
C6BF
102
{ACAD_REACTORS
330
C6BE
102
}
330
C6BE
100
AcDbXrecord
280
     1
102
RTVSPost2010Prop28
280
     0
102
RTVSPost2010PropOp28
 70
     1
102
RTVSPost2010Prop29
280
     1
102
RTVSPost2010PropOp29
 70
     1
102
RTVSPost2010Prop30
280
     1
102
RTVSPost2010PropOp30
 70
     1
102
RTVSPost2010Prop31
280
     0
102
RTVSPost2010PropOp31
 70
     1
102
RTVSPost2010Prop32
280
     0
102
RTVSPost2010PropOp32
 70
     1
102
RTVSPost2010Prop33
280
     0
102
RTVSPost2010PropOp33
 70
     1
102
RTVSPost2010Prop34
280
     0
102
RTVSPost2010PropOp34
 70
     1
102
RTVSPost2010Prop35
280
     0
102
RTVSPost2010PropOp35
 70
     1
102
RTVSPost2010Prop36
280
     0
102
RTVSPost2010PropOp36
 70
     1
102
RTVSPost2010Prop37
 90
       50
102
RTVSPost2010PropOp37
 70
     1
102
RTVSPost2010Prop38
140
0.0
102
RTVSPost2010PropOp38
 70
     1
102
RTVSPost2010Prop39
140
1.0
102
RTVSPost2010PropOp39
 70
     1
102
RTVSPost2010Prop40
 90
        0
102
RTVSPost2010PropOp40
 70
     1
102
RTVSPost2010Prop41ColorIndex
 90
       18
102
RTVSPost2010Prop41ColorRGB
 90
        0
102
RTVSPost2010PropOp41
 70
     1
102
RTVSPost2010Prop42
 90
       50
102
RTVSPost2010PropOp42
 70
     1
102
RTVSPost2010Prop43
 90
        3
102
RTVSPost2010PropOp43
 70
     1
102
RTVSPost2010Prop44ColorIndex
 90
        5
102
RTVSPost2010Prop44ColorRGB
 90
      255
102
RTVSPost2010PropOp44
 70
     1
102
RTVSPost2010Prop45
280
     0
102
RTVSPost2010PropOp45
 70
     1
102
RTVSPost2010Prop46
 90
       50
102
RTVSPost2010PropOp46
 70
     1
102
RTVSPost2010Prop47
 90
       50
102
RTVSPost2010PropOp47
 70
     1
102
RTVSPost2010Prop48
 90
       50
102
RTVSPost2010PropOp48
 70
     1
102
RTVSPost2010Prop49
280
     0
102
RTVSPost2010PropOp49
 70
     1
102
RTVSPost2010Prop50
 90
       50
102
RTVSPost2010PropOp50
 70
     1
102
RTVSPost2010Prop51ColorIndex
 90
      256
102
RTVSPost2010Prop51ColorRGB
 90
-16777216
102
RTVSPost2010PropOp51
 70
     0
102
RTVSPost2010Prop52
140
1.0
102
RTVSPost2010PropOp52
 70
     0
102
RTVSPost2010Prop53
 90
        2
102
RTVSPost2010PropOp53
 70
     1
102
RTVSPost2010Prop54
  1
strokes_ogs.tif
102
RTVSPost2010PropOp54
 70
     1
102
RTVSPost2010Prop55
280
     0
102
RTVSPost2010PropOp55
 70
     1
102
RTVSPost2010Prop56
140
1.0
102
RTVSPost2010PropOp56
 70
     1
102
RTVSPost2010Prop57
140
1.0
102
RTVSPost2010PropOp57
 70
     1
102
RTVSPropertyOp0
 70
     1
102
RTVSPropertyOp1
 70
     1
102
RTVSPropertyOp2
 70
     1
102
RTVSPropertyOp3
 70
     1
102
RTVSPropertyOp4
 70
     1
102
RTVSPropertyOp5
 70
     1
102
RTVSPropertyOp6
 70
     1
102
RTVSPropertyOp7
 70
     1
102
RTVSPropertyOp8
 70
     1
102
RTVSPropertyOp9
 70
     1
102
RTVSPropertyOp10
 70
     1
102
RTVSPropertyOp11
 70
     1
102
RTVSPropertyOp12
 70
     1
102
RTVSPropertyOp13
 70
     1
102
RTVSPropertyOp14
 70
     1
102
RTVSPropertyOp15
 70
     1
102
RTVSPropertyOp16
 70
     1
102
RTVSPropertyOp17
 70
     1
102
RTVSPropertyOp18
 70
     1
102
RTVSPropertyOp19
 70
     1
102
RTVSPropertyOp20
 70
     1
102
RTVSPropertyOp21
 70
     1
102
RTVSPropertyOp22
 70
     1
102
RTVSPropertyOp23
 70
     1
102
RTVSPropertyOp24
 70
     1
102
RTVSPropertyOp25
 70
     1
102
RTVSPropertyOp26
 70
     1
102
RTVSPropertyOp27
 70
     1
102
RTVSPropertyOp28
 70
     1
102
RTVSPropertyOp29
 70
     1
102
RTVSPropertyOp30
 70
     1
102
RTVSPropertyOp31
 70
     1
102
RTVSPropertyOp32
 70
     1
102
RTVSPropertyOp33
 70
     1
102
RTVSPropertyOp34
 70
     1
102
RTVSPropertyOp35
 70
     1
102
RTVSPropertyOp36
 70
     1
102
RTVSPropertyOp37
 70
     1
102
RTVSPropertyOp38
 70
     1
102
RTVSPropertyOp39
 70
     1
102
RTVSPropertyOp40
 70
     1
102
RTVSPropertyOp41
 70
     1
102
RTVSPropertyOp42
 70
     1
102
RTVSPropertyOp43
 70
     1
102
RTVSPropertyOp44
 70
     1
102
RTVSPropertyOp45
 70
     1
102
RTVSPropertyOp46
 70
     1
102
RTVSPropertyOp47
 70
     1
102
RTVSPropertyOp48
 70
     1
102
RTVSPropertyOp49
 70
     1
102
RTVSPropertyOp50
 70
     1
102
RTVSPropertyOp51
 70
     0
102
RTVSPropertyOp52
 70
     0
102
RTVSPropertyOp53
 70
     1
102
RTVSPropertyOp54
 70
     1
102
RTVSPropertyOp55
 70
     1
102
RTVSPropertyOp56
 70
     1
102
RTVSPropertyOp57
 70
     1
102
RTVSPropertyOp58
 70
     1
102
RTVSPropertyOp59
 70
     1
102
RTVSPropertyOp60
 70
     1
102
RTVSPropertyOp61
 70
     1
102
RTVSPropertyOp62
 70
     1
  0
XRECORD
  5
C6BD
102
{ACAD_REACTORS
330
C6BC
102
}
330
C6BC
100
AcDbXrecord
280
     1
102
RTVSPost2010Prop28
280
     0
102
RTVSPost2010PropOp28
 70
     1
102
RTVSPost2010Prop29
280
     1
102
RTVSPost2010PropOp29
 70
     1
102
RTVSPost2010Prop30
280
     1
102
RTVSPost2010PropOp30
 70
     1
102
RTVSPost2010Prop31
280
     0
102
RTVSPost2010PropOp31
 70
     1
102
RTVSPost2010Prop32
280
     0
102
RTVSPost2010PropOp32
 70
     1
102
RTVSPost2010Prop33
280
     0
102
RTVSPost2010PropOp33
 70
     1
102
RTVSPost2010Prop34
280
     0
102
RTVSPost2010PropOp34
 70
     1
102
RTVSPost2010Prop35
280
     0
102
RTVSPost2010PropOp35
 70
     1
102
RTVSPost2010Prop36
280
     0
102
RTVSPost2010PropOp36
 70
     1
102
RTVSPost2010Prop37
 90
       50
102
RTVSPost2010PropOp37
 70
     1
102
RTVSPost2010Prop38
140
0.0
102
RTVSPost2010PropOp38
 70
     1
102
RTVSPost2010Prop39
140
1.0
102
RTVSPost2010PropOp39
 70
     1
102
RTVSPost2010Prop40
 90
        0
102
RTVSPost2010PropOp40
 70
     1
102
RTVSPost2010Prop41ColorIndex
 90
       18
102
RTVSPost2010Prop41ColorRGB
 90
        0
102
RTVSPost2010PropOp41
 70
     1
102
RTVSPost2010Prop42
 90
       50
102
RTVSPost2010PropOp42
 70
     1
102
RTVSPost2010Prop43
 90
        3
102
RTVSPost2010PropOp43
 70
     1
102
RTVSPost2010Prop44ColorIndex
 90
        5
102
RTVSPost2010Prop44ColorRGB
 90
      255
102
RTVSPost2010PropOp44
 70
     1
102
RTVSPost2010Prop45
280
     0
102
RTVSPost2010PropOp45
 70
     1
102
RTVSPost2010Prop46
 90
       50
102
RTVSPost2010PropOp46
 70
     1
102
RTVSPost2010Prop47
 90
       50
102
RTVSPost2010PropOp47
 70
     1
102
RTVSPost2010Prop48
 90
       50
102
RTVSPost2010PropOp48
 70
     1
102
RTVSPost2010Prop49
280
     0
102
RTVSPost2010PropOp49
 70
     1
102
RTVSPost2010Prop50
 90
       50
102
RTVSPost2010PropOp50
 70
     1
102
RTVSPost2010Prop51ColorIndex
 90
      256
102
RTVSPost2010Prop51ColorRGB
 90
-16777216
102
RTVSPost2010PropOp51
 70
     0
102
RTVSPost2010Prop52
140
1.0
102
RTVSPost2010PropOp52
 70
     0
102
RTVSPost2010Prop53
 90
        2
102
RTVSPost2010PropOp53
 70
     1
102
RTVSPost2010Prop54
  1
strokes_ogs.tif
102
RTVSPost2010PropOp54
 70
     1
102
RTVSPost2010Prop55
280
     0
102
RTVSPost2010PropOp55
 70
     1
102
RTVSPost2010Prop56
140
1.0
102
RTVSPost2010PropOp56
 70
     1
102
RTVSPost2010Prop57
140
1.0
102
RTVSPost2010PropOp57
 70
     1
102
RTVSPropertyOp0
 70
     1
102
RTVSPropertyOp1
 70
     1
102
RTVSPropertyOp2
 70
     1
102
RTVSPropertyOp3
 70
     1
102
RTVSPropertyOp4
 70
     1
102
RTVSPropertyOp5
 70
     1
102
RTVSPropertyOp6
 70
     1
102
RTVSPropertyOp7
 70
     1
102
RTVSPropertyOp8
 70
     1
102
RTVSPropertyOp9
 70
     1
102
RTVSPropertyOp10
 70
     1
102
RTVSPropertyOp11
 70
     1
102
RTVSPropertyOp12
 70
     1
102
RTVSPropertyOp13
 70
     1
102
RTVSPropertyOp14
 70
     1
102
RTVSPropertyOp15
 70
     1
102
RTVSPropertyOp16
 70
     1
102
RTVSPropertyOp17
 70
     1
102
RTVSPropertyOp18
 70
     1
102
RTVSPropertyOp19
 70
     1
102
RTVSPropertyOp20
 70
     1
102
RTVSPropertyOp21
 70
     1
102
RTVSPropertyOp22
 70
     1
102
RTVSPropertyOp23
 70
     1
102
RTVSPropertyOp24
 70
     1
102
RTVSPropertyOp25
 70
     1
102
RTVSPropertyOp26
 70
     1
102
RTVSPropertyOp27
 70
     1
102
RTVSPropertyOp28
 70
     1
102
RTVSPropertyOp29
 70
     1
102
RTVSPropertyOp30
 70
     1
102
RTVSPropertyOp31
 70
     1
102
RTVSPropertyOp32
 70
     1
102
RTVSPropertyOp33
 70
     1
102
RTVSPropertyOp34
 70
     1
102
RTVSPropertyOp35
 70
     1
102
RTVSPropertyOp36
 70
     1
102
RTVSPropertyOp37
 70
     1
102
RTVSPropertyOp38
 70
     1
102
RTVSPropertyOp39
 70
     1
102
RTVSPropertyOp40
 70
     1
102
RTVSPropertyOp41
 70
     1
102
RTVSPropertyOp42
 70
     1
102
RTVSPropertyOp43
 70
     1
102
RTVSPropertyOp44
 70
     1
102
RTVSPropertyOp45
 70
     1
102
RTVSPropertyOp46
 70
     1
102
RTVSPropertyOp47
 70
     1
102
RTVSPropertyOp48
 70
     1
102
RTVSPropertyOp49
 70
     1
102
RTVSPropertyOp50
 70
     1
102
RTVSPropertyOp51
 70
     0
102
RTVSPropertyOp52
 70
     0
102
RTVSPropertyOp53
 70
     1
102
RTVSPropertyOp54
 70
     1
102
RTVSPropertyOp55
 70
     1
102
RTVSPropertyOp56
 70
     1
102
RTVSPropertyOp57
 70
     1
102
RTVSPropertyOp58
 70
     1
102
RTVSPropertyOp59
 70
     1
102
RTVSPropertyOp60
 70
     1
102
RTVSPropertyOp61
 70
     1
102
RTVSPropertyOp62
 70
     1
  0
XRECORD
  5
C6B7
102
{ACAD_REACTORS
330
C6B6
102
}
330
C6B6
100
AcDbXrecord
280
     1
102
RTVSPost2010Prop28
280
     0
102
RTVSPost2010PropOp28
 70
     1
102
RTVSPost2010Prop29
280
     1
102
RTVSPost2010PropOp29
 70
     1
102
RTVSPost2010Prop30
280
     1
102
RTVSPost2010PropOp30
 70
     1
102
RTVSPost2010Prop31
280
     0
102
RTVSPost2010PropOp31
 70
     1
102
RTVSPost2010Prop32
280
     0
102
RTVSPost2010PropOp32
 70
     1
102
RTVSPost2010Prop33
280
     0
102
RTVSPost2010PropOp33
 70
     1
102
RTVSPost2010Prop34
280
     0
102
RTVSPost2010PropOp34
 70
     1
102
RTVSPost2010Prop35
280
     0
102
RTVSPost2010PropOp35
 70
     1
102
RTVSPost2010Prop36
280
     0
102
RTVSPost2010PropOp36
 70
     1
102
RTVSPost2010Prop37
 90
       50
102
RTVSPost2010PropOp37
 70
     1
102
RTVSPost2010Prop38
140
0.0
102
RTVSPost2010PropOp38
 70
     1
102
RTVSPost2010Prop39
140
1.0
102
RTVSPost2010PropOp39
 70
     1
102
RTVSPost2010Prop40
 90
        0
102
RTVSPost2010PropOp40
 70
     1
102
RTVSPost2010Prop41ColorIndex
 90
       18
102
RTVSPost2010Prop41ColorRGB
 90
        0
102
RTVSPost2010PropOp41
 70
     1
102
RTVSPost2010Prop42
 90
       50
102
RTVSPost2010PropOp42
 70
     1
102
RTVSPost2010Prop43
 90
        3
102
RTVSPost2010PropOp43
 70
     1
102
RTVSPost2010Prop44ColorIndex
 90
        5
102
RTVSPost2010Prop44ColorRGB
 90
      255
102
RTVSPost2010PropOp44
 70
     1
102
RTVSPost2010Prop45
280
     0
102
RTVSPost2010PropOp45
 70
     1
102
RTVSPost2010Prop46
 90
       50
102
RTVSPost2010PropOp46
 70
     1
102
RTVSPost2010Prop47
 90
       50
102
RTVSPost2010PropOp47
 70
     1
102
RTVSPost2010Prop48
 90
       50
102
RTVSPost2010PropOp48
 70
     1
102
RTVSPost2010Prop49
280
     0
102
RTVSPost2010PropOp49
 70
     1
102
RTVSPost2010Prop50
 90
       50
102
RTVSPost2010PropOp50
 70
     1
102
RTVSPost2010Prop51ColorIndex
 90
      256
102
RTVSPost2010Prop51ColorRGB
 90
-16777216
102
RTVSPost2010PropOp51
 70
     0
102
RTVSPost2010Prop52
140
1.0
102
RTVSPost2010PropOp52
 70
     0
102
RTVSPost2010Prop53
 90
        2
102
RTVSPost2010PropOp53
 70
     1
102
RTVSPost2010Prop54
  1
strokes_ogs.tif
102
RTVSPost2010PropOp54
 70
     1
102
RTVSPost2010Prop55
280
     0
102
RTVSPost2010PropOp55
 70
     1
102
RTVSPost2010Prop56
140
1.0
102
RTVSPost2010PropOp56
 70
     1
102
RTVSPost2010Prop57
140
1.0
102
RTVSPost2010PropOp57
 70
     1
102
RTVSPropertyOp0
 70
     1
102
RTVSPropertyOp1
 70
     1
102
RTVSPropertyOp2
 70
     1
102
RTVSPropertyOp3
 70
     1
102
RTVSPropertyOp4
 70
     1
102
RTVSPropertyOp5
 70
     1
102
RTVSPropertyOp6
 70
     1
102
RTVSPropertyOp7
 70
     1
102
RTVSPropertyOp8
 70
     1
102
RTVSPropertyOp9
 70
     1
102
RTVSPropertyOp10
 70
     1
102
RTVSPropertyOp11
 70
     1
102
RTVSPropertyOp12
 70
     1
102
RTVSPropertyOp13
 70
     1
102
RTVSPropertyOp14
 70
     1
102
RTVSPropertyOp15
 70
     1
102
RTVSPropertyOp16
 70
     1
102
RTVSPropertyOp17
 70
     1
102
RTVSPropertyOp18
 70
     1
102
RTVSPropertyOp19
 70
     1
102
RTVSPropertyOp20
 70
     1
102
RTVSPropertyOp21
 70
     1
102
RTVSPropertyOp22
 70
     1
102
RTVSPropertyOp23
 70
     1
102
RTVSPropertyOp24
 70
     1
102
RTVSPropertyOp25
 70
     1
102
RTVSPropertyOp26
 70
     1
102
RTVSPropertyOp27
 70
     1
102
RTVSPropertyOp28
 70
     1
102
RTVSPropertyOp29
 70
     1
102
RTVSPropertyOp30
 70
     1
102
RTVSPropertyOp31
 70
     1
102
RTVSPropertyOp32
 70
     1
102
RTVSPropertyOp33
 70
     1
102
RTVSPropertyOp34
 70
     1
102
RTVSPropertyOp35
 70
     1
102
RTVSPropertyOp36
 70
     1
102
RTVSPropertyOp37
 70
     1
102
RTVSPropertyOp38
 70
     1
102
RTVSPropertyOp39
 70
     1
102
RTVSPropertyOp40
 70
     1
102
RTVSPropertyOp41
 70
     1
102
RTVSPropertyOp42
 70
     1
102
RTVSPropertyOp43
 70
     1
102
RTVSPropertyOp44
 70
     1
102
RTVSPropertyOp45
 70
     1
102
RTVSPropertyOp46
 70
     1
102
RTVSPropertyOp47
 70
     1
102
RTVSPropertyOp48
 70
     1
102
RTVSPropertyOp49
 70
     1
102
RTVSPropertyOp50
 70
     1
102
RTVSPropertyOp51
 70
     0
102
RTVSPropertyOp52
 70
     0
102
RTVSPropertyOp53
 70
     1
102
RTVSPropertyOp54
 70
     1
102
RTVSPropertyOp55
 70
     1
102
RTVSPropertyOp56
 70
     1
102
RTVSPropertyOp57
 70
     1
102
RTVSPropertyOp58
 70
     1
102
RTVSPropertyOp59
 70
     1
102
RTVSPropertyOp60
 70
     1
102
RTVSPropertyOp61
 70
     1
102
RTVSPropertyOp62
 70
     1
  0
XRECORD
  5
C6B9
102
{ACAD_REACTORS
330
C6B8
102
}
330
C6B8
100
AcDbXrecord
280
     1
102
RTVSPost2010Prop28
280
     0
102
RTVSPost2010PropOp28
 70
     1
102
RTVSPost2010Prop29
280
     1
102
RTVSPost2010PropOp29
 70
     1
102
RTVSPost2010Prop30
280
     1
102
RTVSPost2010PropOp30
 70
     1
102
RTVSPost2010Prop31
280
     0
102
RTVSPost2010PropOp31
 70
     1
102
RTVSPost2010Prop32
280
     0
102
RTVSPost2010PropOp32
 70
     1
102
RTVSPost2010Prop33
280
     0
102
RTVSPost2010PropOp33
 70
     1
102
RTVSPost2010Prop34
280
     0
102
RTVSPost2010PropOp34
 70
     1
102
RTVSPost2010Prop35
280
     0
102
RTVSPost2010PropOp35
 70
     1
102
RTVSPost2010Prop36
280
     0
102
RTVSPost2010PropOp36
 70
     1
102
RTVSPost2010Prop37
 90
       50
102
RTVSPost2010PropOp37
 70
     1
102
RTVSPost2010Prop38
140
0.0
102
RTVSPost2010PropOp38
 70
     1
102
RTVSPost2010Prop39
140
1.0
102
RTVSPost2010PropOp39
 70
     1
102
RTVSPost2010Prop40
 90
        0
102
RTVSPost2010PropOp40
 70
     1
102
RTVSPost2010Prop41ColorIndex
 90
       18
102
RTVSPost2010Prop41ColorRGB
 90
        0
102
RTVSPost2010PropOp41
 70
     1
102
RTVSPost2010Prop42
 90
       50
102
RTVSPost2010PropOp42
 70
     1
102
RTVSPost2010Prop43
 90
        3
102
RTVSPost2010PropOp43
 70
     1
102
RTVSPost2010Prop44ColorIndex
 90
        5
102
RTVSPost2010Prop44ColorRGB
 90
      255
102
RTVSPost2010PropOp44
 70
     1
102
RTVSPost2010Prop45
280
     0
102
RTVSPost2010PropOp45
 70
     1
102
RTVSPost2010Prop46
 90
       50
102
RTVSPost2010PropOp46
 70
     1
102
RTVSPost2010Prop47
 90
       50
102
RTVSPost2010PropOp47
 70
     1
102
RTVSPost2010Prop48
 90
       50
102
RTVSPost2010PropOp48
 70
     1
102
RTVSPost2010Prop49
280
     0
102
RTVSPost2010PropOp49
 70
     1
102
RTVSPost2010Prop50
 90
       50
102
RTVSPost2010PropOp50
 70
     1
102
RTVSPost2010Prop51ColorIndex
 90
      256
102
RTVSPost2010Prop51ColorRGB
 90
-16777216
102
RTVSPost2010PropOp51
 70
     0
102
RTVSPost2010Prop52
140
1.0
102
RTVSPost2010PropOp52
 70
     0
102
RTVSPost2010Prop53
 90
        2
102
RTVSPost2010PropOp53
 70
     1
102
RTVSPost2010Prop54
  1
strokes_ogs.tif
102
RTVSPost2010PropOp54
 70
     1
102
RTVSPost2010Prop55
280
     0
102
RTVSPost2010PropOp55
 70
     1
102
RTVSPost2010Prop56
140
1.0
102
RTVSPost2010PropOp56
 70
     1
102
RTVSPost2010Prop57
140
1.0
102
RTVSPost2010PropOp57
 70
     1
102
RTVSPropertyOp0
 70
     1
102
RTVSPropertyOp1
 70
     1
102
RTVSPropertyOp2
 70
     1
102
RTVSPropertyOp3
 70
     1
102
RTVSPropertyOp4
 70
     1
102
RTVSPropertyOp5
 70
     1
102
RTVSPropertyOp6
 70
     1
102
RTVSPropertyOp7
 70
     1
102
RTVSPropertyOp8
 70
     1
102
RTVSPropertyOp9
 70
     1
102
RTVSPropertyOp10
 70
     1
102
RTVSPropertyOp11
 70
     1
102
RTVSPropertyOp12
 70
     1
102
RTVSPropertyOp13
 70
     1
102
RTVSPropertyOp14
 70
     1
102
RTVSPropertyOp15
 70
     1
102
RTVSPropertyOp16
 70
     1
102
RTVSPropertyOp17
 70
     1
102
RTVSPropertyOp18
 70
     1
102
RTVSPropertyOp19
 70
     1
102
RTVSPropertyOp20
 70
     1
102
RTVSPropertyOp21
 70
     1
102
RTVSPropertyOp22
 70
     1
102
RTVSPropertyOp23
 70
     1
102
RTVSPropertyOp24
 70
     1
102
RTVSPropertyOp25
 70
     1
102
RTVSPropertyOp26
 70
     1
102
RTVSPropertyOp27
 70
     1
102
RTVSPropertyOp28
 70
     1
102
RTVSPropertyOp29
 70
     1
102
RTVSPropertyOp30
 70
     1
102
RTVSPropertyOp31
 70
     1
102
RTVSPropertyOp32
 70
     1
102
RTVSPropertyOp33
 70
     1
102
RTVSPropertyOp34
 70
     1
102
RTVSPropertyOp35
 70
     1
102
RTVSPropertyOp36
 70
     1
102
RTVSPropertyOp37
 70
     1
102
RTVSPropertyOp38
 70
     1
102
RTVSPropertyOp39
 70
     1
102
RTVSPropertyOp40
 70
     1
102
RTVSPropertyOp41
 70
     1
102
RTVSPropertyOp42
 70
     1
102
RTVSPropertyOp43
 70
     1
102
RTVSPropertyOp44
 70
     1
102
RTVSPropertyOp45
 70
     1
102
RTVSPropertyOp46
 70
     1
102
RTVSPropertyOp47
 70
     1
102
RTVSPropertyOp48
 70
     1
102
RTVSPropertyOp49
 70
     1
102
RTVSPropertyOp50
 70
     1
102
RTVSPropertyOp51
 70
     0
102
RTVSPropertyOp52
 70
     0
102
RTVSPropertyOp53
 70
     1
102
RTVSPropertyOp54
 70
     1
102
RTVSPropertyOp55
 70
     1
102
RTVSPropertyOp56
 70
     1
102
RTVSPropertyOp57
 70
     1
102
RTVSPropertyOp58
 70
     1
102
RTVSPropertyOp59
 70
     1
102
RTVSPropertyOp60
 70
     1
102
RTVSPropertyOp61
 70
     1
102
RTVSPropertyOp62
 70
     1
  0
XRECORD
  5
C6AF
102
{ACAD_REACTORS
330
C6AE
102
}
330
C6AE
100
AcDbXrecord
280
     1
102
RTVSPost2010Prop28
280
     0
102
RTVSPost2010PropOp28
 70
     1
102
RTVSPost2010Prop29
280
     1
102
RTVSPost2010PropOp29
 70
     1
102
RTVSPost2010Prop30
280
     1
102
RTVSPost2010PropOp30
 70
     1
102
RTVSPost2010Prop31
280
     0
102
RTVSPost2010PropOp31
 70
     1
102
RTVSPost2010Prop32
280
     0
102
RTVSPost2010PropOp32
 70
     1
102
RTVSPost2010Prop33
280
     0
102
RTVSPost2010PropOp33
 70
     1
102
RTVSPost2010Prop34
280
     0
102
RTVSPost2010PropOp34
 70
     1
102
RTVSPost2010Prop35
280
     0
102
RTVSPost2010PropOp35
 70
     1
102
RTVSPost2010Prop36
280
     0
102
RTVSPost2010PropOp36
 70
     1
102
RTVSPost2010Prop37
 90
       50
102
RTVSPost2010PropOp37
 70
     1
102
RTVSPost2010Prop38
140
0.0
102
RTVSPost2010PropOp38
 70
     1
102
RTVSPost2010Prop39
140
1.0
102
RTVSPost2010PropOp39
 70
     1
102
RTVSPost2010Prop40
 90
        0
102
RTVSPost2010PropOp40
 70
     1
102
RTVSPost2010Prop41ColorIndex
 90
       18
102
RTVSPost2010Prop41ColorRGB
 90
        0
102
RTVSPost2010PropOp41
 70
     1
102
RTVSPost2010Prop42
 90
       50
102
RTVSPost2010PropOp42
 70
     1
102
RTVSPost2010Prop43
 90
        3
102
RTVSPost2010PropOp43
 70
     1
102
RTVSPost2010Prop44ColorIndex
 90
        5
102
RTVSPost2010Prop44ColorRGB
 90
      255
102
RTVSPost2010PropOp44
 70
     1
102
RTVSPost2010Prop45
280
     0
102
RTVSPost2010PropOp45
 70
     1
102
RTVSPost2010Prop46
 90
       50
102
RTVSPost2010PropOp46
 70
     1
102
RTVSPost2010Prop47
 90
       50
102
RTVSPost2010PropOp47
 70
     1
102
RTVSPost2010Prop48
 90
       50
102
RTVSPost2010PropOp48
 70
     1
102
RTVSPost2010Prop49
280
     0
102
RTVSPost2010PropOp49
 70
     1
102
RTVSPost2010Prop50
 90
       50
102
RTVSPost2010PropOp50
 70
     1
102
RTVSPost2010Prop51ColorIndex
 90
      256
102
RTVSPost2010Prop51ColorRGB
 90
-16777216
102
RTVSPost2010PropOp51
 70
     0
102
RTVSPost2010Prop52
140
1.0
102
RTVSPost2010PropOp52
 70
     0
102
RTVSPost2010Prop53
 90
        2
102
RTVSPost2010PropOp53
 70
     1
102
RTVSPost2010Prop54
  1
strokes_ogs.tif
102
RTVSPost2010PropOp54
 70
     1
102
RTVSPost2010Prop55
280
     0
102
RTVSPost2010PropOp55
 70
     1
102
RTVSPost2010Prop56
140
1.0
102
RTVSPost2010PropOp56
 70
     1
102
RTVSPost2010Prop57
140
1.0
102
RTVSPost2010PropOp57
 70
     1
102
RTVSPropertyOp0
 70
     1
102
RTVSPropertyOp1
 70
     1
102
RTVSPropertyOp2
 70
     1
102
RTVSPropertyOp3
 70
     1
102
RTVSPropertyOp4
 70
     1
102
RTVSPropertyOp5
 70
     1
102
RTVSPropertyOp6
 70
     1
102
RTVSPropertyOp7
 70
     1
102
RTVSPropertyOp8
 70
     1
102
RTVSPropertyOp9
 70
     1
102
RTVSPropertyOp10
 70
     1
102
RTVSPropertyOp11
 70
     1
102
RTVSPropertyOp12
 70
     1
102
RTVSPropertyOp13
 70
     1
102
RTVSPropertyOp14
 70
     1
102
RTVSPropertyOp15
 70
     1
102
RTVSPropertyOp16
 70
     1
102
RTVSPropertyOp17
 70
     1
102
RTVSPropertyOp18
 70
     1
102
RTVSPropertyOp19
 70
     1
102
RTVSPropertyOp20
 70
     1
102
RTVSPropertyOp21
 70
     1
102
RTVSPropertyOp22
 70
     1
102
RTVSPropertyOp23
 70
     1
102
RTVSPropertyOp24
 70
     1
102
RTVSPropertyOp25
 70
     1
102
RTVSPropertyOp26
 70
     1
102
RTVSPropertyOp27
 70
     1
102
RTVSPropertyOp28
 70
     1
102
RTVSPropertyOp29
 70
     1
102
RTVSPropertyOp30
 70
     1
102
RTVSPropertyOp31
 70
     1
102
RTVSPropertyOp32
 70
     1
102
RTVSPropertyOp33
 70
     1
102
RTVSPropertyOp34
 70
     1
102
RTVSPropertyOp35
 70
     1
102
RTVSPropertyOp36
 70
     1
102
RTVSPropertyOp37
 70
     1
102
RTVSPropertyOp38
 70
     1
102
RTVSPropertyOp39
 70
     1
102
RTVSPropertyOp40
 70
     1
102
RTVSPropertyOp41
 70
     1
102
RTVSPropertyOp42
 70
     1
102
RTVSPropertyOp43
 70
     1
102
RTVSPropertyOp44
 70
     1
102
RTVSPropertyOp45
 70
     1
102
RTVSPropertyOp46
 70
     1
102
RTVSPropertyOp47
 70
     1
102
RTVSPropertyOp48
 70
     1
102
RTVSPropertyOp49
 70
     1
102
RTVSPropertyOp50
 70
     1
102
RTVSPropertyOp51
 70
     0
102
RTVSPropertyOp52
 70
     0
102
RTVSPropertyOp53
 70
     1
102
RTVSPropertyOp54
 70
     1
102
RTVSPropertyOp55
 70
     1
102
RTVSPropertyOp56
 70
     1
102
RTVSPropertyOp57
 70
     1
102
RTVSPropertyOp58
 70
     1
102
RTVSPropertyOp59
 70
     1
102
RTVSPropertyOp60
 70
     1
102
RTVSPropertyOp61
 70
     1
102
RTVSPropertyOp62
 70
     1
  0
XRECORD
  5
C6A3
102
{ACAD_REACTORS
330
C6A2
102
}
330
C6A2
100
AcDbXrecord
280
     1
102
RTVSPost2010Prop28
280
     0
102
RTVSPost2010PropOp28
 70
     1
102
RTVSPost2010Prop29
280
     1
102
RTVSPost2010PropOp29
 70
     1
102
RTVSPost2010Prop30
280
     1
102
RTVSPost2010PropOp30
 70
     1
102
RTVSPost2010Prop31
280
     0
102
RTVSPost2010PropOp31
 70
     1
102
RTVSPost2010Prop32
280
     0
102
RTVSPost2010PropOp32
 70
     1
102
RTVSPost2010Prop33
280
     0
102
RTVSPost2010PropOp33
 70
     1
102
RTVSPost2010Prop34
280
     0
102
RTVSPost2010PropOp34
 70
     1
102
RTVSPost2010Prop35
280
     0
102
RTVSPost2010PropOp35
 70
     1
102
RTVSPost2010Prop36
280
     0
102
RTVSPost2010PropOp36
 70
     1
102
RTVSPost2010Prop37
 90
       50
102
RTVSPost2010PropOp37
 70
     1
102
RTVSPost2010Prop38
140
0.0
102
RTVSPost2010PropOp38
 70
     1
102
RTVSPost2010Prop39
140
1.0
102
RTVSPost2010PropOp39
 70
     1
102
RTVSPost2010Prop40
 90
        0
102
RTVSPost2010PropOp40
 70
     1
102
RTVSPost2010Prop41ColorIndex
 90
       18
102
RTVSPost2010Prop41ColorRGB
 90
        0
102
RTVSPost2010PropOp41
 70
     1
102
RTVSPost2010Prop42
 90
       50
102
RTVSPost2010PropOp42
 70
     1
102
RTVSPost2010Prop43
 90
        3
102
RTVSPost2010PropOp43
 70
     1
102
RTVSPost2010Prop44ColorIndex
 90
        5
102
RTVSPost2010Prop44ColorRGB
 90
      255
102
RTVSPost2010PropOp44
 70
     1
102
RTVSPost2010Prop45
280
     0
102
RTVSPost2010PropOp45
 70
     1
102
RTVSPost2010Prop46
 90
       50
102
RTVSPost2010PropOp46
 70
     1
102
RTVSPost2010Prop47
 90
       50
102
RTVSPost2010PropOp47
 70
     1
102
RTVSPost2010Prop48
 90
       50
102
RTVSPost2010PropOp48
 70
     1
102
RTVSPost2010Prop49
280
     0
102
RTVSPost2010PropOp49
 70
     1
102
RTVSPost2010Prop50
 90
       50
102
RTVSPost2010PropOp50
 70
     1
102
RTVSPost2010Prop51ColorIndex
 90
      256
102
RTVSPost2010Prop51ColorRGB
 90
-16777216
102
RTVSPost2010PropOp51
 70
     0
102
RTVSPost2010Prop52
140
1.0
102
RTVSPost2010PropOp52
 70
     0
102
RTVSPost2010Prop53
 90
        2
102
RTVSPost2010PropOp53
 70
     1
102
RTVSPost2010Prop54
  1
strokes_ogs.tif
102
RTVSPost2010PropOp54
 70
     1
102
RTVSPost2010Prop55
280
     0
102
RTVSPost2010PropOp55
 70
     1
102
RTVSPost2010Prop56
140
1.0
102
RTVSPost2010PropOp56
 70
     1
102
RTVSPost2010Prop57
140
1.0
102
RTVSPost2010PropOp57
 70
     1
102
RTVSPropertyOp0
 70
     1
102
RTVSPropertyOp1
 70
     1
102
RTVSPropertyOp2
 70
     1
102
RTVSPropertyOp3
 70
     1
102
RTVSPropertyOp4
 70
     1
102
RTVSPropertyOp5
 70
     1
102
RTVSPropertyOp6
 70
     1
102
RTVSPropertyOp7
 70
     1
102
RTVSPropertyOp8
 70
     1
102
RTVSPropertyOp9
 70
     1
102
RTVSPropertyOp10
 70
     1
102
RTVSPropertyOp11
 70
     1
102
RTVSPropertyOp12
 70
     1
102
RTVSPropertyOp13
 70
     1
102
RTVSPropertyOp14
 70
     1
102
RTVSPropertyOp15
 70
     1
102
RTVSPropertyOp16
 70
     1
102
RTVSPropertyOp17
 70
     1
102
RTVSPropertyOp18
 70
     1
102
RTVSPropertyOp19
 70
     1
102
RTVSPropertyOp20
 70
     1
102
RTVSPropertyOp21
 70
     1
102
RTVSPropertyOp22
 70
     1
102
RTVSPropertyOp23
 70
     1
102
RTVSPropertyOp24
 70
     1
102
RTVSPropertyOp25
 70
     1
102
RTVSPropertyOp26
 70
     1
102
RTVSPropertyOp27
 70
     1
102
RTVSPropertyOp28
 70
     1
102
RTVSPropertyOp29
 70
     1
102
RTVSPropertyOp30
 70
     1
102
RTVSPropertyOp31
 70
     1
102
RTVSPropertyOp32
 70
     1
102
RTVSPropertyOp33
 70
     1
102
RTVSPropertyOp34
 70
     1
102
RTVSPropertyOp35
 70
     1
102
RTVSPropertyOp36
 70
     1
102
RTVSPropertyOp37
 70
     1
102
RTVSPropertyOp38
 70
     1
102
RTVSPropertyOp39
 70
     1
102
RTVSPropertyOp40
 70
     1
102
RTVSPropertyOp41
 70
     1
102
RTVSPropertyOp42
 70
     1
102
RTVSPropertyOp43
 70
     1
102
RTVSPropertyOp44
 70
     1
102
RTVSPropertyOp45
 70
     1
102
RTVSPropertyOp46
 70
     1
102
RTVSPropertyOp47
 70
     1
102
RTVSPropertyOp48
 70
     1
102
RTVSPropertyOp49
 70
     1
102
RTVSPropertyOp50
 70
     1
102
RTVSPropertyOp51
 70
     0
102
RTVSPropertyOp52
 70
     0
102
RTVSPropertyOp53
 70
     1
102
RTVSPropertyOp54
 70
     1
102
RTVSPropertyOp55
 70
     1
102
RTVSPropertyOp56
 70
     1
102
RTVSPropertyOp57
 70
     1
102
RTVSPropertyOp58
 70
     1
102
RTVSPropertyOp59
 70
     1
102
RTVSPropertyOp60
 70
     1
102
RTVSPropertyOp61
 70
     1
102
RTVSPropertyOp62
 70
     1
  0
XRECORD
  5
C6BB
102
{ACAD_REACTORS
330
C6BA
102
}
330
C6BA
100
AcDbXrecord
280
     1
102
RTVSPost2010Prop28
280
     0
102
RTVSPost2010PropOp28
 70
     1
102
RTVSPost2010Prop29
280
     1
102
RTVSPost2010PropOp29
 70
     1
102
RTVSPost2010Prop30
280
     1
102
RTVSPost2010PropOp30
 70
     1
102
RTVSPost2010Prop31
280
     0
102
RTVSPost2010PropOp31
 70
     1
102
RTVSPost2010Prop32
280
     0
102
RTVSPost2010PropOp32
 70
     1
102
RTVSPost2010Prop33
280
     0
102
RTVSPost2010PropOp33
 70
     1
102
RTVSPost2010Prop34
280
     0
102
RTVSPost2010PropOp34
 70
     1
102
RTVSPost2010Prop35
280
     0
102
RTVSPost2010PropOp35
 70
     1
102
RTVSPost2010Prop36
280
     0
102
RTVSPost2010PropOp36
 70
     1
102
RTVSPost2010Prop37
 90
       50
102
RTVSPost2010PropOp37
 70
     1
102
RTVSPost2010Prop38
140
0.0
102
RTVSPost2010PropOp38
 70
     1
102
RTVSPost2010Prop39
140
1.0
102
RTVSPost2010PropOp39
 70
     1
102
RTVSPost2010Prop40
 90
        0
102
RTVSPost2010PropOp40
 70
     1
102
RTVSPost2010Prop41ColorIndex
 90
       18
102
RTVSPost2010Prop41ColorRGB
 90
        0
102
RTVSPost2010PropOp41
 70
     1
102
RTVSPost2010Prop42
 90
       50
102
RTVSPost2010PropOp42
 70
     1
102
RTVSPost2010Prop43
 90
        3
102
RTVSPost2010PropOp43
 70
     1
102
RTVSPost2010Prop44ColorIndex
 90
        5
102
RTVSPost2010Prop44ColorRGB
 90
      255
102
RTVSPost2010PropOp44
 70
     1
102
RTVSPost2010Prop45
280
     0
102
RTVSPost2010PropOp45
 70
     1
102
RTVSPost2010Prop46
 90
       50
102
RTVSPost2010PropOp46
 70
     1
102
RTVSPost2010Prop47
 90
       50
102
RTVSPost2010PropOp47
 70
     1
102
RTVSPost2010Prop48
 90
       50
102
RTVSPost2010PropOp48
 70
     1
102
RTVSPost2010Prop49
280
     0
102
RTVSPost2010PropOp49
 70
     1
102
RTVSPost2010Prop50
 90
       50
102
RTVSPost2010PropOp50
 70
     1
102
RTVSPost2010Prop51ColorIndex
 90
      256
102
RTVSPost2010Prop51ColorRGB
 90
-16777216
102
RTVSPost2010PropOp51
 70
     0
102
RTVSPost2010Prop52
140
1.0
102
RTVSPost2010PropOp52
 70
     0
102
RTVSPost2010Prop53
 90
        2
102
RTVSPost2010PropOp53
 70
     1
102
RTVSPost2010Prop54
  1
strokes_ogs.tif
102
RTVSPost2010PropOp54
 70
     1
102
RTVSPost2010Prop55
280
     0
102
RTVSPost2010PropOp55
 70
     1
102
RTVSPost2010Prop56
140
1.0
102
RTVSPost2010PropOp56
 70
     1
102
RTVSPost2010Prop57
140
1.0
102
RTVSPost2010PropOp57
 70
     1
102
RTVSPropertyOp0
 70
     1
102
RTVSPropertyOp1
 70
     1
102
RTVSPropertyOp2
 70
     1
102
RTVSPropertyOp3
 70
     1
102
RTVSPropertyOp4
 70
     1
102
RTVSPropertyOp5
 70
     1
102
RTVSPropertyOp6
 70
     1
102
RTVSPropertyOp7
 70
     1
102
RTVSPropertyOp8
 70
     1
102
RTVSPropertyOp9
 70
     1
102
RTVSPropertyOp10
 70
     1
102
RTVSPropertyOp11
 70
     1
102
RTVSPropertyOp12
 70
     1
102
RTVSPropertyOp13
 70
     1
102
RTVSPropertyOp14
 70
     1
102
RTVSPropertyOp15
 70
     1
102
RTVSPropertyOp16
 70
     1
102
RTVSPropertyOp17
 70
     1
102
RTVSPropertyOp18
 70
     1
102
RTVSPropertyOp19
 70
     1
102
RTVSPropertyOp20
 70
     1
102
RTVSPropertyOp21
 70
     1
102
RTVSPropertyOp22
 70
     1
102
RTVSPropertyOp23
 70
     1
102
RTVSPropertyOp24
 70
     1
102
RTVSPropertyOp25
 70
     1
102
RTVSPropertyOp26
 70
     1
102
RTVSPropertyOp27
 70
     1
102
RTVSPropertyOp28
 70
     1
102
RTVSPropertyOp29
 70
     1
102
RTVSPropertyOp30
 70
     1
102
RTVSPropertyOp31
 70
     1
102
RTVSPropertyOp32
 70
     1
102
RTVSPropertyOp33
 70
     1
102
RTVSPropertyOp34
 70
     1
102
RTVSPropertyOp35
 70
     1
102
RTVSPropertyOp36
 70
     1
102
RTVSPropertyOp37
 70
     1
102
RTVSPropertyOp38
 70
     1
102
RTVSPropertyOp39
 70
     1
102
RTVSPropertyOp40
 70
     1
102
RTVSPropertyOp41
 70
     1
102
RTVSPropertyOp42
 70
     1
102
RTVSPropertyOp43
 70
     1
102
RTVSPropertyOp44
 70
     1
102
RTVSPropertyOp45
 70
     1
102
RTVSPropertyOp46
 70
     1
102
RTVSPropertyOp47
 70
     1
102
RTVSPropertyOp48
 70
     1
102
RTVSPropertyOp49
 70
     1
102
RTVSPropertyOp50
 70
     1
102
RTVSPropertyOp51
 70
     0
102
RTVSPropertyOp52
 70
     0
102
RTVSPropertyOp53
 70
     1
102
RTVSPropertyOp54
 70
     1
102
RTVSPropertyOp55
 70
     1
102
RTVSPropertyOp56
 70
     1
102
RTVSPropertyOp57
 70
     1
102
RTVSPropertyOp58
 70
     1
102
RTVSPropertyOp59
 70
     1
102
RTVSPropertyOp60
 70
     1
102
RTVSPropertyOp61
 70
     1
102
RTVSPropertyOp62
 70
     1
  0
ENDSEC
  0
EOF
