  0
SECTION
  2
HEADER
  9
$ACADVER
  1
AC1015
  9
$ACADMAINTVER
 70
    20
  9
$DWGCODEPAGE
  3
ANSI_932
  9
$INSBASE
 10
0.0
 20
0.0
 30
0.0
  9
$EXTMIN
 10
10.0
 20
9.999999999999998
 30
0.0
  9
$EXTMAX
 10
276.345952
 20
256.2089999999999
 30
0.0
  9
$LIMMIN
 10
0.0
 20
0.0
  9
$LIMMAX
 10
495.0
 20
341.25
  9
$ORTHOMODE
 70
     1
  9
$REGENMODE
 70
     1
  9
$FILLMODE
 70
     1
  9
$QTEXTMODE
 70
     0
  9
$MIRRTEXT
 70
     1
  9
$LTSCALE
 40
20.0
  9
$ATTMODE
 70
     1
  9
$TEXTSIZE
 40
5.0
  9
$TRACEWID
 40
1.0
  9
$TEXTSTYLE
  7
STANDARD
  9
$CLAYER
  8
0
  9
$CELTYPE
  6
BYLAYER
  9
$CECOLOR
 62
   256
  9
$CELTSCALE
 40
1.0
  9
$DISPSILH
 70
     0
  9
$DIMSCALE
 40
1.0
  9
$DIMASZ
 40
2.5
  9
$DIMEXO
 40
1.0
  9
$DIMDLI
 40
10.0
  9
$DIMRND
 40
0.0
  9
$DIMDLE
 40
0.0
  9
$DIMEXE
 40
1.0
  9
$DIMTP
 40
0.0
  9
$DIMTM
 40
0.0
  9
$DIMTXT
 40
3.2
  9
$DIMCEN
 40
0.0
  9
$DIMTSZ
 40
0.0
  9
$DIMTOL
 70
     0
  9
$DIMLIM
 70
     0
  9
$DIMTIH
 70
     0
  9
$DIMTOH
 70
     0
  9
$DIMSE1
 70
     0
  9
$DIMSE2
 70
     0
  9
$DIMTAD
 70
     3
  9
$DIMZIN
 70
     8
  9
$DIMBLK
  1

  9
$DIMASO
 70
     1
  9
$DIMSHO
 70
     1
  9
$DIMPOST
  1

  9
$DIMAPOST
  1

  9
$DIMALT
 70
     0
  9
$DIMALTD
 70
     2
  9
$DIMALTF
 40
25.4
  9
$DIMLFAC
 40
1.0
  9
$DIMTOFL
 70
     1
  9
$DIMTVP
 40
0.0
  9
$DIMTIX
 70
     0
  9
$DIMSOXD
 70
     0
  9
$DIMSAH
 70
     1
  9
$DIMBLK1
  1

  9
$DIMBLK2
  1

  9
$DIMSTYLE
  2
STANDARD
  9
$DIMCLRD
 70
     0
  9
$DIMCLRE
 70
     0
  9
$DIMCLRT
 70
     0
  9
$DIMTFAC
 40
1.0
  9
$DIMGAP
 40
1.0
  9
$DIMJUST
 70
     0
  9
$DIMSD1
 70
     0
  9
$DIMSD2
 70
     0
  9
$DIMTOLJ
 70
     1
  9
$DIMTZIN
 70
     0
  9
$DIMALTZ
 70
     0
  9
$DIMALTTZ
 70
     0
  9
$DIMUPT
 70
     0
  9
$DIMDEC
 70
     4
  9
$DIMTDEC
 70
     4
  9
$DIMALTU
 70
     2
  9
$DIMALTTD
 70
     2
  9
$DIMTXSTY
  7
STANDARD
  9
$DIMAUNIT
 70
     0
  9
$DIMADEC
 70
     0
  9
$DIMALTRND
 40
0.0
  9
$DIMAZIN
 70
     0
  9
$DIMDSEP
 70
    46
  9
$DIMATFIT
 70
     3
  9
$DIMFRAC
 70
     0
  9
$DIMLDRBLK
  1

  9
$DIMLUNIT
 70
     2
  9
$DIMLWD
 70
    -2
  9
$DIMLWE
 70
    -2
  9
$DIMTMOVE
 70
     0
  9
$LUNITS
 70
     2
  9
$LUPREC
 70
     4
  9
$SKETCHINC
 40
1.0
  9
$FILLETRAD
 40
1.8
  9
$AUNITS
 70
     0
  9
$AUPREC
 70
     2
  9
$MENU
  1
.
  9
$ELEVATION
 40
0.0
  9
$PELEVATION
 40
0.0
  9
$THICKNESS
 40
0.0
  9
$LIMCHECK
 70
     0
  9
$CHAMFERA
 40
10.0
  9
$CHAMFERB
 40
10.0
  9
$CHAMFERC
 40
0.0
  9
$CHAMFERD
 40
0.0
  9
$SKPOLY
 70
     0
  9
$TDCREATE
 40
2451296.795314699
  9
$TDUCREATE
 40
2451296.420314699
  9
$TDUPDATE
 40
2457192.658308264
  9
$TDUUPDATE
 40
2457192.283308264
  9
$TDINDWG
 40
0.0000102199
  9
$TDUSRTIMER
 40
0.0000099074
  9
$USRTIMER
 70
     1
  9
$ANGBASE
 50
0.0
  9
$ANGDIR
 70
     0
  9
$PDMODE
 70
     0
  9
$PDSIZE
 40
0.0
  9
$PLINEWID
 40
0.0
  9
$SPLFRAME
 70
     0
  9
$SPLINETYPE
 70
     6
  9
$SPLINESEGS
 70
     8
  9
$HANDSEED
  5
BDE0
  9
$SURFTAB1
 70
     6
  9
$SURFTAB2
 70
     6
  9
$SURFTYPE
 70
     6
  9
$SURFU
 70
     6
  9
$SURFV
 70
     6
  9
$UCSBASE
  2

  9
$UCSNAME
  2

  9
$UCSORG
 10
0.0
 20
0.0
 30
0.0
  9
$UCSXDIR
 10
1.0
 20
0.0
 30
0.0
  9
$UCSYDIR
 10
0.0
 20
1.0
 30
0.0
  9
$UCSORTHOREF
  2

  9
$UCSORTHOVIEW
 70
     0
  9
$UCSORGTOP
 10
0.0
 20
0.0
 30
0.0
  9
$UCSORGBOTTOM
 10
0.0
 20
0.0
 30
0.0
  9
$UCSORGLEFT
 10
0.0
 20
0.0
 30
0.0
  9
$UCSORGRIGHT
 10
0.0
 20
0.0
 30
0.0
  9
$UCSORGFRONT
 10
0.0
 20
0.0
 30
0.0
  9
$UCSORGBACK
 10
0.0
 20
0.0
 30
0.0
  9
$PUCSBASE
  2

  9
$PUCSNAME
  2

  9
$PUCSORG
 10
0.0
 20
0.0
 30
0.0
  9
$PUCSXDIR
 10
1.0
 20
0.0
 30
0.0
  9
$PUCSYDIR
 10
0.0
 20
1.0
 30
0.0
  9
$PUCSORTHOREF
  2

  9
$PUCSORTHOVIEW
 70
     0
  9
$PUCSORGTOP
 10
0.0
 20
0.0
 30
0.0
  9
$PUCSORGBOTTOM
 10
0.0
 20
0.0
 30
0.0
  9
$PUCSORGLEFT
 10
0.0
 20
0.0
 30
0.0
  9
$PUCSORGRIGHT
 10
0.0
 20
0.0
 30
0.0
  9
$PUCSORGFRONT
 10
0.0
 20
0.0
 30
0.0
  9
$PUCSORGBACK
 10
0.0
 20
0.0
 30
0.0
  9
$USERI1
 70
     0
  9
$USERI2
 70
     0
  9
$USERI3
 70
     0
  9
$USERI4
 70
     0
  9
$USERI5
 70
     0
  9
$USERR1
 40
0.0
  9
$USERR2
 40
0.0
  9
$USERR3
 40
0.0
  9
$USERR4
 40
0.0
  9
$USERR5
 40
0.0
  9
$WORLDVIEW
 70
     1
  9
$SHADEDGE
 70
     3
  9
$SHADEDIF
 70
    70
  9
$TILEMODE
 70
     1
  9
$MAXACTVP
 70
    16
  9
$PINSBASE
 10
0.0
 20
0.0
 30
0.0
  9
$PLIMCHECK
 70
     0
  9
$PEXTMIN
 10
1.000000000000000E+20
 20
1.000000000000000E+20
 30
1.000000000000000E+20
  9
$PEXTMAX
 10
-1.000000000000000E+20
 20
-1.000000000000000E+20
 30
-1.000000000000000E+20
  9
$PLIMMIN
 10
0.0
 20
0.0
  9
$PLIMMAX
 10
420.0
 20
297.0
  9
$UNITMODE
 70
     0
  9
$VISRETAIN
 70
     0
  9
$PLINEGEN
 70
     0
  9
$PSLTSCALE
 70
     0
  9
$TREEDEPTH
 70
  3020
  9
$CMLSTYLE
  2
STANDARD
  9
$CMLJUST
 70
     0
  9
$CMLSCALE
 40
1.0
  9
$PROXYGRAPHICS
 70
     1
  9
$MEASUREMENT
 70
     0
  9
$CELWEIGHT
370
    -1
  9
$ENDCAPS
280
     0
  9
$JOINSTYLE
280
     0
  9
$LWDISPLAY
290
     0
  9
$INSUNITS
 70
     0
  9
$HYPERLINKBASE
  1

  9
$STYLESHEET
  1

  9
$XEDIT
290
     1
  9
$CEPSNTYPE
380
     0
  9
$PSTYLEMODE
290
     1
  9
$FINGERPRINTGUID
  2
{3C6A7484-6456-4044-82BA-22B75F34F9D9}
  9
$VERSIONGUID
  2
{F40B00B6-F9E4-4C3F-9F52-7CAF3E983847}
  9
$EXTNAMES
290
     1
  9
$PSVPSCALE
 40
0.0
  9
$OLESTARTUP
290
     0
  0
ENDSEC
  0
SECTION
  2
CLASSES
  0
CLASS
  1
ACDBDICTIONARYWDFLT
  2
AcDbDictionaryWithDefault
  3
ObjectDBX Classes
 90
        0
280
     0
281
     0
  0
CLASS
  1
ACDBPLACEHOLDER
  2
AcDbPlaceHolder
  3
ObjectDBX Classes
 90
        0
280
     0
281
     0
  0
CLASS
  1
LAYOUT
  2
AcDbLayout
  3
ObjectDBX Classes
 90
        0
280
     0
281
     0
  0
CLASS
  1
DICTIONARYVAR
  2
AcDbDictionaryVar
  3
ObjectDBX Classes
 90
        0
280
     0
281
     0
  0
CLASS
  1
MATERIAL
  2
AcDbMaterial
  3
ObjectDBX Classes
 90
     1153
280
     0
281
     0
  0
CLASS
  1
VISUALSTYLE
  2
AcDbVisualStyle
  3
ObjectDBX Classes
 90
     4095
280
     0
281
     0
  0
CLASS
  1
TABLESTYLE
  2
AcDbTableStyle
  3
ObjectDBX Classes
 90
     4095
280
     0
281
     0
  0
CLASS
  1
SCALE
  2
AcDbScale
  3
ObjectDBX Classes
 90
     1153
280
     0
281
     0
  0
CLASS
  1
MLEADERSTYLE
  2
AcDbMLeaderStyle
  3
ACDB_MLEADERSTYLE_CLASS
 90
     4095
280
     0
281
     0
  0
CLASS
  1
ACDBSECTIONVIEWSTYLE
  2
AcDbSectionViewStyle
  3
ObjectDBX Classes
 90
     1025
280
     0
281
     0
  0
CLASS
  1
ACDBDETAILVIEWSTYLE
  2
AcDbDetailViewStyle
  3
ObjectDBX Classes
 90
     1025
280
     0
281
     0
  0
CLASS
  1
CELLSTYLEMAP
  2
AcDbCellStyleMap
  3
ObjectDBX Classes
 90
     1152
280
     0
281
     0
  0
ENDSEC
  0
SECTION
  2
TABLES
  0
TABLE
  2
VPORT
  5
BB34
330
0
100
AcDbSymbolTable
 70
     1
  0
VPORT
  5
BD29
330
BB34
100
AcDbSymbolTableRecord
100
AcDbViewportTableRecord
  2
*ACTIVE
 70
     0
 10
0.0
 20
0.0
 11
1.0
 21
1.0
 12
217.7550428687426
 22
133.1081207154587
 13
0.0
 23
0.0
 14
10.0
 24
10.0
 15
10.0
 25
10.0
 16
0.0
 26
0.0
 36
1.0
 17
0.0
 27
0.0
 37
0.0
 40
248.9960237073648
 41
1.899603698811096
 42
50.0
 43
0.0
 44
0.0
 50
0.0
 51
0.0
 71
     0
 72
   100
 73
     1
 74
     0
 75
     0
 76
     0
 77
     0
 78
     0
281
     0
 65
     1
110
0.0
120
0.0
130
0.0
111
1.0
121
0.0
131
0.0
112
0.0
122
1.0
132
0.0
 79
     0
146
0.0
1001
ACAD_NAV_VCDISPLAY
1070
     3
  0
ENDTAB
  0
TABLE
  2
LTYPE
  5
BB31
330
0
100
AcDbSymbolTable
 70
     4
  0
LTYPE
  5
BB3F
330
BB31
100
AcDbSymbolTableRecord
100
AcDbLinetypeTableRecord
  2
BYBLOCK
 70
     0
  3

 72
    65
 73
     0
 40
0.0
  0
LTYPE
  5
BB40
330
BB31
100
AcDbSymbolTableRecord
100
AcDbLinetypeTableRecord
  2
BYLAYER
 70
     0
  3

 72
    65
 73
     0
 40
0.0
  0
LTYPE
  5
BB41
330
BB31
100
AcDbSymbolTableRecord
100
AcDbLinetypeTableRecord
  2
CONTINUOUS
 70
     0
  3
Solid line
 72
    65
 73
     0
 40
0.0
  0
LTYPE
  5
BB4F
330
BB31
100
AcDbSymbolTableRecord
100
AcDbLinetypeTableRecord
  2
DASHED
 70
     0
  3
__ __ __ __ __ __ __ __ __ __ __ __ __ __ __ __
 72
    65
 73
     2
 40
0.75
 49
0.5
 74
     0
 49
-0.25
 74
     0
  0
LTYPE
  5
BB50
330
BB31
100
AcDbSymbolTableRecord
100
AcDbLinetypeTableRecord
  2
CENTER
 70
     0
  3
____ _ ____ _ ____ _ ____ _ ____ _ ____ _ ____ 
 72
    65
 73
     4
 40
2.0
 49
1.25
 74
     0
 49
-0.25
 74
     0
 49
0.25
 74
     0
 49
-0.25
 74
     0
  0
LTYPE
  5
BB51
330
BB31
100
AcDbSymbolTableRecord
100
AcDbLinetypeTableRecord
  2
PHANTOM
 70
     0
  3
______  __  __  ______  __  __  ______  __  __ 
 72
    65
 73
     6
 40
2.5
 49
1.25
 74
     0
 49
-0.25
 74
     0
 49
0.25
 74
     0
 49
-0.25
 74
     0
 49
0.25
 74
     0
 49
-0.25
 74
     0
  0
ENDTAB
  0
TABLE
  2
LAYER
  5
BB2E
330
0
100
AcDbSymbolTable
 70
     8
  0
LAYER
  5
BB3C
102
{ACAD_XDICTIONARY
360
BD84
102
}
330
BB2E
100
AcDbSymbolTableRecord
100
AcDbLayerTableRecord
  2
0
 70
     0
 62
     7
  6
CONTINUOUS
370
    -3
390
BD32
  0
LAYER
  5
BB52
102
{ACAD_XDICTIONARY
360
BD86
102
}
330
BB2E
100
AcDbSymbolTableRecord
100
AcDbLayerTableRecord
  2
4
 70
     0
 62
     1
  6
CENTER
370
    -3
390
BD32
  0
LAYER
  5
BB53
102
{ACAD_XDICTIONARY
360
BD88
102
}
330
BB2E
100
AcDbSymbolTableRecord
100
AcDbLayerTableRecord
  2
5
 70
     0
 62
     6
  6
PHANTOM
370
    -3
390
BD32
  0
LAYER
  5
BB54
102
{ACAD_XDICTIONARY
360
BD8A
102
}
330
BB2E
100
AcDbSymbolTableRecord
100
AcDbLayerTableRecord
  2
1
 70
     0
 62
     7
  6
CONTINUOUS
370
    -3
390
BD32
  0
LAYER
  5
BB55
102
{ACAD_XDICTIONARY
360
BD8C
102
}
330
BB2E
100
AcDbSymbolTableRecord
100
AcDbLayerTableRecord
  2
2
 70
     0
 62
     4
  6
CONTINUOUS
370
    -3
390
BD32
  0
LAYER
  5
BB56
102
{ACAD_XDICTIONARY
360
BD8E
102
}
330
BB2E
100
AcDbSymbolTableRecord
100
AcDbLayerTableRecord
  2
3
 70
     0
 62
     2
  6
DASHED
370
    -3
390
BD32
  0
LAYER
  5
BB57
102
{ACAD_XDICTIONARY
360
BD90
102
}
330
BB2E
100
AcDbSymbolTableRecord
100
AcDbLayerTableRecord
  2
6
 70
     0
 62
     5
  6
CONTINUOUS
370
    -3
390
BD32
  0
LAYER
  5
BB58
102
{ACAD_XDICTIONARY
360
BD92
102
}
330
BB2E
100
AcDbSymbolTableRecord
100
AcDbLayerTableRecord
  2
7
 70
     0
 62
     3
  6
CONTINUOUS
370
    -3
390
BD32
  0
ENDTAB
  0
TABLE
  2
STYLE
  5
BB2F
330
0
100
AcDbSymbolTable
 70
     1
  0
STYLE
  5
BB3D
330
BB2F
100
AcDbSymbolTableRecord
100
AcDbTextStyleTableRecord
  2
STANDARD
 70
     0
 40
0.0
 41
1.0
 50
0.0
 71
     0
 42
5.0
  3
txt
  4

  0
ENDTAB
  0
TABLE
  2
VIEW
  5
BB32
330
0
100
AcDbSymbolTable
 70
     1
  0
VIEW
  5
BB59
330
BB32
100
AcDbSymbolTableRecord
100
AcDbViewTableRecord
  2
7
 70
     0
 40
284.4534409999998
 10
274.00741
 20
142.22672
 41
548.014821
 11
0.0
 21
0.0
 31
1.0
 12
0.0
 22
0.0
 32
0.0
 42
50.0
 43
0.0
 44
0.0
 50
0.0
 71
     0
281
     0
 72
     0
  0
ENDTAB
  0
TABLE
  2
UCS
  5
BB33
330
0
100
AcDbSymbolTable
 70
     0
  0
ENDTAB
  0
TABLE
  2
APPID
  5
BB35
330
0
100
AcDbSymbolTable
 70
     3
  0
APPID
  5
BB3E
330
BB35
100
AcDbSymbolTableRecord
100
AcDbRegAppTableRecord
  2
ACAD
 70
     0
  0
APPID
  5
BD9E
330
BB35
100
AcDbSymbolTableRecord
100
AcDbRegAppTableRecord
  2
ACAD_NAV_VCDISPLAY
 70
     0
  0
APPID
  5
BDD7
330
BB35
100
AcDbSymbolTableRecord
100
AcDbRegAppTableRecord
  2
ACAD_MLEADERVER
 70
     0
  0
ENDTAB
  0
TABLE
  2
DIMSTYLE
  5
BB36
330
0
100
AcDbSymbolTable
 70
     1
100
AcDbDimStyleTable
 71
     0
  0
DIMSTYLE
105
BB5B
330
BB36
100
AcDbSymbolTableRecord
100
AcDbDimStyleTableRecord
  2
STANDARD
 70
     0
 41
2.5
 42
1.0
 43
10.0
 44
1.0
 73
     0
 74
     0
 77
     3
 78
     8
140
3.2
141
0.0
147
1.0
172
     1
173
     1
284
     8
285
     8
286
     8
340
BB3D
  0
ENDTAB
  0
TABLE
  2
BLOCK_RECORD
  5
BB2D
330
0
100
AcDbSymbolTable
 70
     0
  0
BLOCK_RECORD
  5
BB4A
102
{ACAD_XDICTIONARY
360
BD2C
102
}
330
BB2D
100
AcDbSymbolTableRecord
100
AcDbBlockTableRecord
  2
*MODEL_SPACE
340
BD80
  0
BLOCK_RECORD
  5
BB46
102
{ACAD_XDICTIONARY
360
BD2A
102
}
330
BB2D
100
AcDbSymbolTableRecord
100
AcDbBlockTableRecord
  2
*PAPER_SPACE
340
BD81
  0
ENDTAB
  0
ENDSEC
  0
SECTION
  2
BLOCKS
  0
BLOCK
  5
BB4B
330
BB4A
100
AcDbEntity
  8
0
100
AcDbBlockBegin
  2
*MODEL_SPACE
 70
     0
 10
0.0
 20
0.0
 30
0.0
  3
*MODEL_SPACE
  1

  0
ENDBLK
  5
BB4C
330
BB4A
100
AcDbEntity
  8
0
100
AcDbBlockEnd
  0
BLOCK
  5
BB47
330
BB46
100
AcDbEntity
 67
     1
  8
0
100
AcDbBlockBegin
  2
*PAPER_SPACE
 70
     0
 10
0.0
 20
0.0
 30
0.0
  3
*PAPER_SPACE
  1

  0
ENDBLK
  5
BB48
330
BB46
100
AcDbEntity
 67
     1
  8
0
100
AcDbBlockEnd
  0
ENDSEC
  0
SECTION
  2
ENTITIES
  0
TEXT
  5
BB63
330
BB4A
100
AcDbEntity
  8
7
  6
Continuous
100
AcDbText
 10
10.0
 20
18.0
 30
0.0
 40
3.0
  1
TYPE No.TM-144SS-90
100
AcDbText
  0
TEXT
  5
BB64
330
BB4A
100
AcDbEntity
  8
7
  6
Continuous
100
AcDbText
 10
10.0
 20
26.0
 30
0.0
 40
3.0
  1
CODE No.5739
100
AcDbText
  0
TEXT
  5
BB65
330
BB4A
100
AcDbEntity
  8
1
  6
Continuous
100
AcDbText
 10
10.0
 20
10.0
 30
0.0
 40
1.399999999999999
  1
LAYER
100
AcDbText
  0
TEXT
  5
BB66
330
BB4A
100
AcDbEntity
  8
1
  6
Continuous
100
AcDbText
 10
17.97951099999998
 20
10.04873699999998
 30
0.0
 40
1.399999999999999
  1
1
100
AcDbText
  0
TEXT
  5
BB67
330
BB4A
100
AcDbEntity
  8
7
  6
Continuous
100
AcDbText
 10
29.97951099999999
 20
10.04873699999998
 30
0.0
 40
1.399999999999999
  1
7
100
AcDbText
  0
TEXT
  5
BB68
330
BB4A
100
AcDbEntity
  8
4
  6
CENTER
100
AcDbText
 10
23.97951099999999
 20
10.04873699999998
 30
0.0
 40
1.399999999999999
  1
4
100
AcDbText
  0
TEXT
  5
BB69
330
BB4A
100
AcDbEntity
  8
3
  6
DASHED
100
AcDbText
 10
21.979511
 20
10.04873699999998
 30
0.0
 40
1.399999999999999
  1
3
100
AcDbText
  0
TEXT
  5
BB6A
330
BB4A
100
AcDbEntity
  8
2
  6
Continuous
100
AcDbText
 10
19.97951099999999
 20
10.04873699999998
 30
0.0
 40
1.399999999999999
  1
2
100
AcDbText
  0
TEXT
  5
BB6B
330
BB4A
100
AcDbEntity
  8
6
  6
Continuous
100
AcDbText
 10
27.979511
 20
10.04873699999998
 30
0.0
 40
1.399999999999999
  1
6
100
AcDbText
  0
TEXT
  5
BB6C
330
BB4A
100
AcDbEntity
  8
5
  6
PHANTOM
100
AcDbText
 10
25.97951099999999
 20
10.04873699999998
 30
0.0
 40
1.399999999999999
  1
5
100
AcDbText
  0
LINE
  5
BB6D
330
BB4A
100
AcDbEntity
  8
1
  6
Continuous
100
AcDbLine
 10
141.045952
 20
185.709
 30
0.0
 11
151.545952
 21
185.709
 31
0.0
  0
LINE
  5
BB6E
330
BB4A
100
AcDbEntity
  8
1
  6
Continuous
100
AcDbLine
 10
163.5459519999998
 20
186.84
 30
0.0
 11
163.5459519999998
 21
190.6589999999999
 31
0.0
  0
LINE
  5
BB6F
330
BB4A
100
AcDbEntity
  8
1
  6
Continuous
100
AcDbLine
 10
159.545952
 20
186.209
 30
0.0
 11
159.545952
 21
196.7089999999998
 31
0.0
  0
LINE
  5
BB70
330
BB4A
100
AcDbEntity
  8
1
  6
Continuous
100
AcDbLine
 10
155.545952
 20
186.709
 30
0.0
 11
155.545952
 21
196.209
 31
0.0
  0
LINE
  5
BB71
330
BB4A
100
AcDbEntity
  8
1
  6
Continuous
100
AcDbLine
 10
137.045952
 20
188.709
 30
0.0
 11
137.045952
 21
196.209
 31
0.0
  0
LINE
  5
BB72
330
BB4A
100
AcDbEntity
  8
1
  6
Continuous
100
AcDbLine
 10
135.045952
 20
188.7069999999999
 30
0.0
 11
135.045952
 21
194.707
 31
0.0
  0
LINE
  5
BB73
330
BB4A
100
AcDbEntity
  8
4
  6
CENTER
100
AcDbLine
 10
146.295952
 20
86.499971
 30
0.0
 11
146.295952
 21
200.709
 31
0.0
  0
LINE
  5
BB74
330
BB4A
100
AcDbEntity
  8
1
  6
Continuous
100
AcDbLine
 10
138.5459519999998
 20
197.709
 30
0.0
 11
154.0459519999998
 21
197.709
 31
0.0
  0
LINE
  5
BB75
330
BB4A
100
AcDbEntity
  8
1
  6
Continuous
100
AcDbLine
 10
140.795952
 20
237.7089999999999
 30
0.0
 11
151.7959519999998
 21
237.7089999999999
 31
0.0
  0
LINE
  5
BB76
330
BB4A
100
AcDbEntity
  8
1
  6
Continuous
100
AcDbLine
 10
140.795952
 20
253.209
 30
0.0
 11
151.7959519999998
 21
253.209
 31
0.0
  0
LINE
  5
BB77
330
BB4A
100
AcDbEntity
  8
4
  6
CENTER
100
AcDbLine
 10
90.495952
 20
245.459
 30
0.0
 11
202.095952
 21
245.459
 31
0.0
  0
LINE
  5
BB78
330
BB4A
100
AcDbEntity
  8
4
  6
CENTER
100
AcDbLine
 10
259.845952
 20
86.499971
 30
0.0
 11
259.845952
 21
200.709038
 31
0.0
  0
LINE
  5
BB79
330
BB4A
100
AcDbEntity
  8
1
  6
Continuous
100
AcDbLine
 10
163.5459519999998
 20
241.459
 30
0.0
 11
163.5459519999998
 21
249.459
 31
0.0
  0
LINE
  5
BB7A
330
BB4A
100
AcDbEntity
  8
1
  6
Continuous
100
AcDbLine
 10
159.545952
 20
240.209
 30
0.0
 11
159.545952
 21
250.709
 31
0.0
  0
LINE
  5
BB7B
330
BB4A
100
AcDbEntity
  8
1
  6
Continuous
100
AcDbLine
 10
155.545952
 20
240.209
 30
0.0
 11
155.545952
 21
250.709
 31
0.0
  0
LINE
  5
BB7C
330
BB4A
100
AcDbEntity
  8
4
  6
CENTER
100
AcDbLine
 10
146.295952
 20
234.709
 30
0.0
 11
146.295952
 21
256.2089999999999
 31
0.0
  0
LINE
  5
BB7D
330
BB4A
100
AcDbEntity
  8
1
  6
Continuous
100
AcDbLine
 10
137.045952
 20
240.209
 30
0.0
 11
137.045952
 21
250.709
 31
0.0
  0
LINE
  5
BB7E
330
BB4A
100
AcDbEntity
  8
1
  6
Continuous
100
AcDbLine
 10
135.045952
 20
242.459
 30
0.0
 11
135.045952
 21
248.459
 31
0.0
  0
LINE
  5
BB7F
330
BB4A
100
AcDbEntity
  8
1
  6
Continuous
100
AcDbLine
 10
135.045952
 20
188.709
 30
0.0
 11
140.795952
 21
188.709
 31
0.0
  0
LINE
  5
BB80
330
BB4A
100
AcDbEntity
  8
1
  6
Continuous
100
AcDbLine
 10
135.045952
 20
194.709
 30
0.0
 11
137.045952
 21
194.709
 31
0.0
  0
ARC
  5
BB81
330
BB4A
100
AcDbEntity
  8
1
  6
Continuous
100
AcDbCircle
 10
138.5459519999998
 20
196.209
 30
0.0
 40
1.5
100
AcDbArc
 50
90.0
 51
180.0
  0
ARC
  5
BB82
330
BB4A
100
AcDbEntity
  8
1
  6
Continuous
100
AcDbCircle
 10
154.0459519999998
 20
196.209
 30
0.0
 40
1.5
100
AcDbArc
 50
0.0
 51
90.0
  0
ARC
  5
BB83
330
BB4A
100
AcDbEntity
  8
1
  6
Continuous
100
AcDbCircle
 10
146.295952
 20
185.514556
 30
0.0
 40
7.694443999999997
100
AcDbArc
 50
24.52954699999999
 51
155.4704529999999
  0
LINE
  5
BB84
330
BB4A
100
AcDbEntity
  8
1
  6
Continuous
100
AcDbLine
 10
151.7959519999998
 20
188.709
 30
0.0
 11
151.545952
 21
185.709
 31
0.0
  0
LINE
  5
BB85
330
BB4A
100
AcDbEntity
  8
1
  6
Continuous
100
AcDbLine
 10
140.795952
 20
188.709
 30
0.0
 11
141.045952
 21
185.709
 31
0.0
  0
ARC
  5
BB86
330
BB4A
100
AcDbEntity
  8
1
  6
Continuous
100
AcDbCircle
 10
146.295952
 20
184.7072139999999
 30
0.0
 40
6.801785999999997
100
AcDbArc
 50
36.039539
 51
143.960461
  0
LINE
  5
BB87
330
BB4A
100
AcDbEntity
  8
1
  6
Continuous
100
AcDbLine
 10
151.7959519999998
 20
188.709
 30
0.0
 11
155.545952
 21
188.709
 31
0.0
  0
LINE
  5
BB88
330
BB4A
100
AcDbEntity
  8
1
  6
Continuous
100
AcDbLine
 10
155.545952
 20
196.209
 30
0.0
 11
159.545952
 21
196.7089999999998
 31
0.0
  0
LINE
  5
BB89
330
BB4A
100
AcDbEntity
  8
1
  6
Continuous
100
AcDbLine
 10
155.545952
 20
186.709
 30
0.0
 11
159.545952
 21
186.209
 31
0.0
  0
LINE
  5
BB8A
330
BB4A
100
AcDbEntity
  8
4
  6
CENTER
100
AcDbLine
 10
130.0459519999998
 20
191.459
 30
0.0
 11
166.5459519999998
 21
191.459
 31
0.0
  0
LINE
  5
BB8B
330
BB4A
100
AcDbEntity
  8
1
  6
Continuous
100
AcDbLine
 10
159.545952
 20
196.0779999999998
 30
0.0
 11
163.5459519999998
 21
196.0779999999998
 31
0.0
  0
LINE
  5
BB8C
330
BB4A
100
AcDbEntity
  8
1
  6
Continuous
100
AcDbLine
 10
159.545952
 20
186.84
 30
0.0
 11
163.5459519999998
 21
186.84
 31
0.0
  0
LINE
  5
BB8D
330
BB4A
100
AcDbEntity
  8
1
  6
Continuous
100
AcDbLine
 10
160.545952
 20
192.2589999999999
 30
0.0
 11
163.5459519999998
 21
192.2589999999999
 31
0.0
  0
LINE
  5
BB8E
330
BB4A
100
AcDbEntity
  8
1
  6
Continuous
100
AcDbLine
 10
160.545952
 20
190.6589999999999
 30
0.0
 11
163.5459519999998
 21
190.6589999999999
 31
0.0
  0
LINE
  5
BB8F
330
BB4A
100
AcDbEntity
  8
1
  6
Continuous
100
AcDbLine
 10
160.545952
 20
190.6589999999999
 30
0.0
 11
160.545952
 21
192.2589999999999
 31
0.0
  0
LINE
  5
BB90
330
BB4A
100
AcDbEntity
  8
1
  6
Continuous
100
AcDbLine
 10
163.5459519999998
 20
192.2589999999999
 30
0.0
 11
163.5459519999998
 21
196.0779999999998
 31
0.0
  0
LINE
  5
BB91
330
BB4A
100
AcDbEntity
  8
1
  6
Continuous
100
AcDbLine
 10
159.545952
 20
193.7684999999999
 30
0.0
 11
162.0459519999998
 21
193.7684999999999
 31
0.0
  0
LINE
  5
BB92
330
BB4A
100
AcDbEntity
  8
1
  6
Continuous
100
AcDbLine
 10
159.545952
 20
189.1494999999999
 30
0.0
 11
162.0459519999998
 21
189.1494999999999
 31
0.0
  0
LINE
  5
BB93
330
BB4A
100
AcDbEntity
  8
1
  6
Continuous
100
AcDbLine
 10
162.0459519999998
 20
193.7684999999999
 30
0.0
 11
163.5459519999998
 21
193.1685
 31
0.0
  0
LINE
  5
BB94
330
BB4A
100
AcDbEntity
  8
1
  6
Continuous
100
AcDbLine
 10
162.0459519999998
 20
193.7684999999999
 30
0.0
 11
163.5459519999998
 21
194.3685
 31
0.0
  0
LINE
  5
BB95
330
BB4A
100
AcDbEntity
  8
1
  6
Continuous
100
AcDbLine
 10
162.0459519999998
 20
189.1494999999999
 30
0.0
 11
163.5459519999998
 21
189.7495
 31
0.0
  0
LINE
  5
BB96
330
BB4A
100
AcDbEntity
  8
1
  6
Continuous
100
AcDbLine
 10
162.0459519999998
 20
189.1494999999999
 30
0.0
 11
163.5459519999998
 21
188.5494999999998
 31
0.0
  0
LINE
  5
BB97
330
BB4A
100
AcDbEntity
  8
4
  6
CENTER
100
AcDbLine
 10
249.095952
 20
191.4590379999999
 30
0.0
 11
270.5959519999999
 21
191.4590379999999
 31
0.0
  0
ARC
  5
BB98
330
BB4A
100
AcDbEntity
  8
1
  6
Continuous
100
AcDbCircle
 10
259.845952
 20
191.4590379999999
 30
0.0
 40
3.0
100
AcDbArc
 50
15.46601
 51
164.5339899999999
  0
LINE
  5
BB99
330
BB4A
100
AcDbEntity
  8
1
  6
Continuous
100
AcDbLine
 10
255.8459519999999
 20
192.2590379999999
 30
0.0
 11
263.845952
 21
192.2590379999999
 31
0.0
  0
LINE
  5
BB9A
330
BB4A
100
AcDbEntity
  8
1
  6
Continuous
100
AcDbLine
 10
255.8459519999999
 20
190.6590379999999
 30
0.0
 11
263.845952
 21
190.6590379999999
 31
0.0
  0
ARC
  5
BB9B
330
BB4A
100
AcDbEntity
  8
1
  6
Continuous
100
AcDbCircle
 10
259.845952
 20
191.4590379999999
 30
0.0
 40
3.0
100
AcDbArc
 50
195.4660099999999
 51
344.53399
  0
CIRCLE
  5
BB9C
330
BB4A
100
AcDbEntity
  8
1
  6
Continuous
100
AcDbCircle
 10
259.845952
 20
191.4590379999999
 30
0.0
 40
5.25
  0
LINE
  5
BB9D
330
BB4A
100
AcDbEntity
  8
1
  6
Continuous
100
AcDbLine
 10
266.095952
 20
188.709038
 30
0.0
 11
266.095952
 21
192.209038
 31
0.0
  0
LINE
  5
BB9E
330
BB4A
100
AcDbEntity
  8
1
  6
Continuous
100
AcDbLine
 10
253.595952
 20
188.709038
 30
0.0
 11
253.595952
 21
192.209038
 31
0.0
  0
LINE
  5
BB9F
330
BB4A
100
AcDbEntity
  8
1
  6
Continuous
100
AcDbLine
 10
253.3421769999999
 20
188.709038
 30
0.0
 11
255.3738159999999
 21
188.709038
 31
0.0
  0
ARC
  5
BBA0
330
BB4A
100
AcDbEntity
  8
1
  6
Continuous
100
AcDbCircle
 10
259.845952
 20
191.407902
 30
0.0
 40
6.301135999999998
100
AcDbArc
 50
7.304446000000001
 51
172.6955539999999
  0
LINE
  5
BBA1
330
BB4A
100
AcDbEntity
  8
1
  6
Continuous
100
AcDbLine
 10
264.318087
 20
188.709038
 30
0.0
 11
266.3361019999999
 21
188.709038
 31
0.0
  0
ARC
  5
BBA2
330
BB4A
100
AcDbEntity
  8
1
  6
Continuous
100
AcDbCircle
 10
253.595952
 20
187.2090379999999
 30
0.0
 40
1.5
100
AcDbArc
 50
180.0
 51
260.405932
  0
ARC
  5
BBA3
330
BB4A
100
AcDbEntity
  8
1
  6
Continuous
100
AcDbCircle
 10
266.095952
 20
187.2090379999999
 30
0.0
 40
1.5
100
AcDbArc
 50
279.594068
 51
355.7894899999998
  0
LINE
  5
BBA4
330
BB4A
100
AcDbEntity
  8
1
  6
Continuous
100
AcDbLine
 10
159.545952
 20
249.459
 30
0.0
 11
163.5459519999998
 21
249.459
 31
0.0
  0
LINE
  5
BBA5
330
BB4A
100
AcDbEntity
  8
1
  6
Continuous
100
AcDbLine
 10
159.545952
 20
241.459
 30
0.0
 11
163.5459519999998
 21
241.459
 31
0.0
  0
LINE
  5
BBA6
330
BB4A
100
AcDbEntity
  8
1
  6
Continuous
100
AcDbLine
 10
159.545952
 20
250.709
 30
0.0
 11
155.545952
 21
250.2089999999999
 31
0.0
  0
LINE
  5
BBA7
330
BB4A
100
AcDbEntity
  8
1
  6
Continuous
100
AcDbLine
 10
159.545952
 20
240.209
 30
0.0
 11
155.545952
 21
240.709
 31
0.0
  0
LINE
  5
BBA8
330
BB4A
100
AcDbEntity
  8
1
  6
Continuous
100
AcDbLine
 10
138.045952
 20
251.709
 30
0.0
 11
139.2959519999998
 21
251.709
 31
0.0
  0
LINE
  5
BBA9
330
BB4A
100
AcDbEntity
  8
1
  6
Continuous
100
AcDbLine
 10
138.045952
 20
239.209
 30
0.0
 11
139.2959519999998
 21
239.209
 31
0.0
  0
LINE
  5
BBAA
330
BB4A
100
AcDbEntity
  8
1
  6
Continuous
100
AcDbLine
 10
135.045952
 20
248.459
 30
0.0
 11
137.045952
 21
248.459
 31
0.0
  0
LINE
  5
BBAB
330
BB4A
100
AcDbEntity
  8
1
  6
Continuous
100
AcDbLine
 10
135.045952
 20
242.459
 30
0.0
 11
137.045952
 21
242.459
 31
0.0
  0
ARC
  5
BBAC
330
BB4A
100
AcDbEntity
  8
1
  6
Continuous
100
AcDbCircle
 10
137.2959519999998
 20
245.459
 30
0.0
 40
3.75
100
AcDbArc
 50
126.869898
 51
233.130102
  0
ARC
  5
BBAD
330
BB4A
100
AcDbEntity
  8
1
  6
Continuous
100
AcDbCircle
 10
154.545952
 20
250.709
 30
0.0
 40
1.0
100
AcDbArc
 50
0.0
 51
90.0
  0
ARC
  5
BBAE
330
BB4A
100
AcDbEntity
  8
1
  6
Continuous
100
AcDbCircle
 10
154.545952
 20
240.209
 30
0.0
 40
1.0
100
AcDbArc
 50
270.0
 51
0.0
  0
ARC
  5
BBAF
330
BB4A
100
AcDbEntity
  8
1
  6
Continuous
100
AcDbCircle
 10
138.045952
 20
240.209
 30
0.0
 40
1.0
100
AcDbArc
 50
180.0
 51
270.0
  0
ARC
  5
BBB0
330
BB4A
100
AcDbEntity
  8
1
  6
Continuous
100
AcDbCircle
 10
138.045952
 20
250.709
 30
0.0
 40
1.0
100
AcDbArc
 50
90.0
 51
180.0
  0
ARC
  5
BBB1
330
BB4A
100
AcDbEntity
  8
1
  6
Continuous
100
AcDbCircle
 10
146.295952
 20
270.684
 30
0.0
 40
20.225
100
AcDbArc
 50
249.750657
 51
290.249343
  0
ARC
  5
BBB2
330
BB4A
100
AcDbEntity
  8
1
  6
Continuous
100
AcDbCircle
 10
146.295952
 20
220.2339999999999
 30
0.0
 40
20.225
100
AcDbArc
 50
69.75065699999999
 51
110.249343
  0
LINE
  5
BBB3
330
BB4A
100
AcDbEntity
  8
1
  6
Continuous
100
AcDbLine
 10
151.7959519999998
 20
253.209
 30
0.0
 11
153.295952
 21
251.709
 31
0.0
  0
LINE
  5
BBB4
330
BB4A
100
AcDbEntity
  8
1
  6
Continuous
100
AcDbLine
 10
140.795952
 20
253.209
 30
0.0
 11
139.2959519999998
 21
251.709
 31
0.0
  0
LINE
  5
BBB5
330
BB4A
100
AcDbEntity
  8
1
  6
Continuous
100
AcDbLine
 10
139.2959519999998
 20
239.209
 30
0.0
 11
140.795952
 21
237.7089999999999
 31
0.0
  0
LINE
  5
BBB6
330
BB4A
100
AcDbEntity
  8
1
  6
Continuous
100
AcDbLine
 10
153.295952
 20
239.209
 30
0.0
 11
151.7959519999998
 21
237.7089999999999
 31
0.0
  0
LINE
  5
BBB7
330
BB4A
100
AcDbEntity
  8
1
  6
Continuous
100
AcDbLine
 10
153.295952
 20
251.709
 30
0.0
 11
154.545952
 21
251.709
 31
0.0
  0
LINE
  5
BBB8
330
BB4A
100
AcDbEntity
  8
1
  6
Continuous
100
AcDbLine
 10
153.295952
 20
239.209
 30
0.0
 11
154.545952
 21
239.209
 31
0.0
  0
LINE
  5
BBB9
330
BB4A
100
AcDbEntity
  8
1
  6
Continuous
100
AcDbLine
 10
163.5459519999998
 20
246.059
 30
0.0
 11
162.0459519999998
 21
245.459
 31
0.0
  0
LINE
  5
BBBA
330
BB4A
100
AcDbEntity
  8
1
  6
Continuous
100
AcDbLine
 10
162.0459519999998
 20
245.459
 30
0.0
 11
163.5459519999998
 21
244.859
 31
0.0
  0
LINE
  5
BBBB
330
BB4A
100
AcDbEntity
  8
1
  6
Continuous
100
AcDbLine
 10
162.0459519999998
 20
245.459
 30
0.0
 11
159.545952
 21
245.459
 31
0.0
  0
LINE
  5
BBBC
330
BB4A
100
AcDbEntity
  8
1
  6
Continuous
100
AcDbLine
 10
266.652706
 20
186.622804
 30
0.0
 11
266.3459519999999
 21
186.6089999999999
 31
0.0
  0
LINE
  5
BBBD
330
BB4A
100
AcDbEntity
  8
1
  6
Continuous
100
AcDbLine
 10
253.016718
 20
186.6238159999998
 30
0.0
 11
253.345952
 21
186.6089999999999
 31
0.0
  0
LINE
  5
BBBE
330
BB4A
100
AcDbEntity
  8
1
  6
Continuous
100
AcDbLine
 10
100.495952
 20
251.9589999999999
 30
0.0
 11
139.5459519999998
 21
251.9589999999999
 31
0.0
  0
LINE
  5
BBBF
330
BB4A
100
AcDbEntity
  8
1
  6
Continuous
100
AcDbLine
 10
100.495952
 20
238.959
 30
0.0
 11
139.5459519999998
 21
238.959
 31
0.0
  0
LINE
  5
BBC0
330
BB4A
100
AcDbEntity
  8
1
  6
Continuous
100
AcDbLine
 10
153.0459519999998
 20
251.9589999999999
 30
0.0
 11
192.095952
 21
251.9589999999999
 31
0.0
  0
LINE
  5
BBC1
330
BB4A
100
AcDbEntity
  8
1
  6
Continuous
100
AcDbLine
 10
153.0459519999998
 20
238.959
 30
0.0
 11
192.095952
 21
238.959
 31
0.0
  0
ARC
  5
BBC2
330
BB4A
100
AcDbEntity
  8
1
  6
Continuous
100
AcDbCircle
 10
137.273285
 20
191.708
 30
0.0
 40
3.735641
100
AcDbArc
 50
126.600977
 51
233.399023
  0
LINE
  5
BBC3
330
BB4A
100
AcDbEntity
  8
1
  6
Continuous
100
AcDbLine
 10
266.3459519999999
 20
96.499971
 30
0.0
 11
266.3459519999999
 21
188.0999709999999
 31
0.0
  0
LINE
  5
BBC4
330
BB4A
100
AcDbEntity
  8
1
  6
Continuous
100
AcDbLine
 10
253.345952
 20
96.499971
 30
0.0
 11
253.345952
 21
188.0999709999999
 31
0.0
  0
ARC
  5
BBC5
330
BB4A
100
AcDbEntity
  8
1
  6
Continuous
100
AcDbCircle
 10
265.845952
 20
192.0142889999999
 30
0.0
 40
1.0
100
AcDbArc
 50
0.0
 51
84.600387
  0
ARC
  5
BBC6
330
BB4A
100
AcDbEntity
  8
1
  6
Continuous
100
AcDbCircle
 10
253.8459519999999
 20
192.0142889999999
 30
0.0
 40
1.0
100
AcDbArc
 50
95.39961299999999
 51
180.0
  0
LINE
  5
BBC7
330
BB4A
100
AcDbEntity
  8
1
  6
Continuous
100
AcDbLine
 10
266.845952
 20
192.0142889999999
 30
0.0
 11
267.591903
 21
187.098906
 31
0.0
  0
LINE
  5
BBC8
330
BB4A
100
AcDbEntity
  8
1
  6
Continuous
100
AcDbLine
 10
252.845952
 20
192.0142889999999
 30
0.0
 11
252.095952
 21
187.2090379999999
 31
0.0
  0
ARC
  5
BBC9
330
BB4A
100
AcDbEntity
  8
1
  6
Continuous
100
AcDbCircle
 10
32.75
 20
191.407902
 30
0.0
 40
6.301135999999998
100
AcDbArc
 50
7.304446000000001
 51
172.6955539999999
  0
LINE
  5
BBCA
330
BB4A
100
AcDbEntity
  8
4
  6
CENTER
100
AcDbLine
 10
32.75
 20
86.499971
 30
0.0
 11
32.75
 21
200.709038
 31
0.0
  0
LINE
  5
BBCB
330
BB4A
100
AcDbEntity
  8
1
  6
Continuous
100
AcDbLine
 10
26.25
 20
96.499971
 30
0.0
 11
26.25
 21
188.0999709999999
 31
0.0
  0
LINE
  5
BBCC
330
BB4A
100
AcDbEntity
  8
1
  6
Continuous
100
AcDbLine
 10
39.25
 20
96.499971
 30
0.0
 11
39.25
 21
188.0999709999999
 31
0.0
  0
LINE
  5
BBCD
330
BB4A
100
AcDbEntity
  8
4
  6
CENTER
100
AcDbLine
 10
22.0
 20
191.4590379999999
 30
0.0
 11
43.5
 21
191.4590379999999
 31
0.0
  0
LINE
  5
BBCE
330
BB4A
100
AcDbEntity
  8
1
  6
Continuous
100
AcDbLine
 10
25.75
 20
192.0142889999999
 30
0.0
 11
25.0
 21
187.2090379999999
 31
0.0
  0
ARC
  5
BBCF
330
BB4A
100
AcDbEntity
  8
1
  6
Continuous
100
AcDbCircle
 10
26.75
 20
192.0142889999999
 30
0.0
 40
1.0
100
AcDbArc
 50
95.39961299999999
 51
180.0
  0
LINE
  5
BBD0
330
BB4A
100
AcDbEntity
  8
1
  6
Continuous
100
AcDbLine
 10
25.920766
 20
186.6238159999998
 30
0.0
 11
26.25
 21
186.6089999999999
 31
0.0
  0
ARC
  5
BBD1
330
BB4A
100
AcDbEntity
  8
1
  6
Continuous
100
AcDbCircle
 10
26.5
 20
187.2090379999999
 30
0.0
 40
1.5
100
AcDbArc
 50
180.0
 51
260.405932
  0
LINE
  5
BBD2
330
BB4A
100
AcDbEntity
  8
1
  6
Continuous
100
AcDbLine
 10
26.246226
 20
188.709038
 30
0.0
 11
27.833508
 21
188.709038
 31
0.0
  0
LINE
  5
BBD3
330
BB4A
100
AcDbEntity
  8
1
  6
Continuous
100
AcDbLine
 10
26.5
 20
188.709038
 30
0.0
 11
26.5
 21
192.209038
 31
0.0
  0
LINE
  5
BBD4
330
BB4A
100
AcDbEntity
  8
1
  6
Continuous
100
AcDbLine
 10
39.75
 20
192.0142889999999
 30
0.0
 11
40.495952
 21
187.098906
 31
0.0
  0
ARC
  5
BBD5
330
BB4A
100
AcDbEntity
  8
1
  6
Continuous
100
AcDbCircle
 10
38.75
 20
192.0142889999999
 30
0.0
 40
1.0
100
AcDbArc
 50
0.0
 51
84.600387
  0
LINE
  5
BBD6
330
BB4A
100
AcDbEntity
  8
1
  6
Continuous
100
AcDbLine
 10
39.556754
 20
186.622804
 30
0.0
 11
39.25
 21
186.6089999999999
 31
0.0
  0
ARC
  5
BBD7
330
BB4A
100
AcDbEntity
  8
1
  6
Continuous
100
AcDbCircle
 10
39.0
 20
187.2090379999999
 30
0.0
 40
1.5
100
AcDbArc
 50
279.594068
 51
355.7894899999998
  0
LINE
  5
BBD8
330
BB4A
100
AcDbEntity
  8
1
  6
Continuous
100
AcDbLine
 10
37.66649199999999
 20
188.709038
 30
0.0
 11
39.24015
 21
188.709038
 31
0.0
  0
LINE
  5
BBD9
330
BB4A
100
AcDbEntity
  8
1
  6
Continuous
100
AcDbLine
 10
39.0
 20
188.709038
 30
0.0
 11
39.0
 21
192.209038
 31
0.0
  0
LINE
  5
BBDA
330
BB4A
100
AcDbEntity
  8
4
  6
CENTER
100
AcDbLine
 10
146.295952
 20
36.0
 30
0.0
 11
146.295952
 21
61.5
 31
0.0
  0
LINE
  5
BBDB
330
BB4A
100
AcDbEntity
  8
1
  6
Continuous
100
AcDbLine
 10
100.495952
 20
42.25
 30
0.0
 11
192.095952
 21
42.25
 31
0.0
  0
LINE
  5
BBDC
330
BB4A
100
AcDbEntity
  8
1
  6
Continuous
100
AcDbLine
 10
140.795952
 20
41.0
 30
0.0
 11
151.7959519999998
 21
41.0
 31
0.0
  0
LINE
  5
BBDD
330
BB4A
100
AcDbEntity
  8
1
  6
Continuous
100
AcDbLine
 10
100.495952
 20
55.25
 30
0.0
 11
192.095952
 21
55.25
 31
0.0
  0
LINE
  5
BBDE
330
BB4A
100
AcDbEntity
  8
4
  6
CENTER
100
AcDbLine
 10
90.495952
 20
48.75
 30
0.0
 11
202.095952
 21
48.75
 31
0.0
  0
LINE
  5
BBDF
330
BB4A
100
AcDbEntity
  8
1
  6
Continuous
100
AcDbLine
 10
140.795952
 20
56.5
 30
0.0
 11
151.7959519999998
 21
56.5
 31
0.0
  0
LINE
  5
BBE0
330
BB4A
100
AcDbEntity
  8
1
  6
Continuous
100
AcDbLine
 10
141.010274
 20
186.137131
 30
0.0
 11
137.615033
 21
182.149874
 31
0.0
  0
LINE
  5
BBE1
330
BB4A
100
AcDbEntity
  8
1
  6
Continuous
100
AcDbLine
 10
140.9400259999999
 20
186.9801009999999
 30
0.0
 11
137.1582129999999
 21
182.5388659999999
 31
0.0
  0
LINE
  5
BBE2
330
BB4A
100
AcDbEntity
  8
1
  6
Continuous
100
AcDbLine
 10
137.1582129999999
 20
182.5388659999999
 30
0.0
 11
137.615033
 21
182.149874
 31
0.0
  0
LINE
  5
BBE3
330
BB4A
100
AcDbEntity
  8
1
  6
Continuous
100
AcDbLine
 10
138.7141839999999
 20
184.3661469999999
 30
0.0
 11
139.171004
 21
183.977154
 31
0.0
  0
CIRCLE
  5
BBE4
330
BB4A
100
AcDbEntity
  8
1
  6
Continuous
100
AcDbCircle
 10
32.75
 20
191.707
 30
0.0
 40
3.0
  0
LINE
  5
BBE5
330
BB4A
100
AcDbEntity
  8
1
  6
Continuous
100
AcDbLine
 10
29.75
 20
191.707
 30
0.0
 11
28.75649199999999
 21
189.3241999999999
 31
0.0
  0
LINE
  5
BBE6
330
BB4A
100
AcDbEntity
  8
1
  6
Continuous
100
AcDbLine
 10
35.75
 20
191.707
 30
0.0
 11
36.743508
 21
189.3241999999999
 31
0.0
  0
ARC
  5
BBE7
330
BB4A
100
AcDbEntity
  8
1
  6
Continuous
100
AcDbCircle
 10
37.66649199999999
 20
189.7090379999999
 30
0.0
 40
1.0
100
AcDbArc
 50
202.6336909999999
 51
270.0
  0
ARC
  5
BBE8
330
BB4A
100
AcDbEntity
  8
1
  6
Continuous
100
AcDbCircle
 10
27.833508
 20
189.7090379999999
 30
0.0
 40
1.0
100
AcDbArc
 50
270.0
 51
337.3663089999999
  0
LINE
  5
BBE9
330
BB4A
100
AcDbEntity
  8
1
  6
Continuous
100
AcDbLine
 10
141.045952
 20
56.5
 30
0.0
 11
141.045952
 21
55.25
 31
0.0
  0
LINE
  5
BBEA
330
BB4A
100
AcDbEntity
  8
1
  6
Continuous
100
AcDbLine
 10
151.545952
 20
41.00044699999997
 30
0.0
 11
151.545952
 21
42.25
 31
0.0
  0
LINE
  5
BBEB
330
BB4A
100
AcDbEntity
  8
1
  6
Continuous
100
AcDbLine
 10
151.7959519999998
 20
56.5
 30
0.0
 11
151.7959519999998
 21
55.25
 31
0.0
  0
LINE
  5
BBEC
330
BB4A
100
AcDbEntity
  8
1
  6
Continuous
100
AcDbLine
 10
140.795952
 20
56.5
 30
0.0
 11
140.795952
 21
55.25
 31
0.0
  0
LINE
  5
BBED
330
BB4A
100
AcDbEntity
  8
1
  6
Continuous
100
AcDbLine
 10
140.795952
 20
56.5
 30
0.0
 11
139.5459519999998
 21
55.25
 31
0.0
  0
LINE
  5
BBEE
330
BB4A
100
AcDbEntity
  8
1
  6
Continuous
100
AcDbLine
 10
151.7959519999998
 20
56.5
 30
0.0
 11
153.0459519999998
 21
55.25
 31
0.0
  0
LINE
  5
BBEF
330
BB4A
100
AcDbEntity
  8
1
  6
Continuous
100
AcDbLine
 10
140.795952
 20
41.00044699999997
 30
0.0
 11
139.546026
 21
42.25
 31
0.0
  0
LINE
  5
BBF0
330
BB4A
100
AcDbEntity
  8
1
  6
Continuous
100
AcDbLine
 10
151.7959519999998
 20
41.0
 30
0.0
 11
153.0459519999998
 21
42.25
 31
0.0
  0
LINE
  5
BBF1
330
BB4A
100
AcDbEntity
  8
1
  6
Continuous
100
AcDbLine
 10
151.7959519999998
 20
42.25
 30
0.0
 11
151.7959519999998
 21
41.00044699999997
 31
0.0
  0
LINE
  5
BBF2
330
BB4A
100
AcDbEntity
  8
1
  6
Continuous
100
AcDbLine
 10
151.545952
 20
55.25
 30
0.0
 11
151.545952
 21
56.5
 31
0.0
  0
LINE
  5
BBF3
330
BB4A
100
AcDbEntity
  8
1
  6
Continuous
100
AcDbLine
 10
141.045952
 20
42.25
 30
0.0
 11
141.045952
 21
41.00044699999997
 31
0.0
  0
LINE
  5
BBF4
330
BB4A
100
AcDbEntity
  8
1
  6
Continuous
100
AcDbLine
 10
140.795952
 20
42.25
 30
0.0
 11
140.795952
 21
41.00044699999997
 31
0.0
  0
LINE
  5
BBF5
330
BB4A
100
AcDbEntity
  8
1
  6
Continuous
100
AcDbLine
 10
253.3421769999999
 20
188.709038
 30
0.0
 11
253.016718
 21
186.6238159999998
 31
0.0
  0
LINE
  5
BBF6
330
BB4A
100
AcDbEntity
  8
1
  6
Continuous
100
AcDbLine
 10
266.3361019999999
 20
188.709038
 30
0.0
 11
266.652706
 21
186.622804
 31
0.0
  0
LINE
  5
BBF7
330
BB4A
100
AcDbEntity
  8
1
  6
Continuous
100
AcDbLine
 10
26.246226
 20
188.709038
 30
0.0
 11
25.920766
 21
186.6238159999998
 31
0.0
  0
LINE
  5
BBF8
330
BB4A
100
AcDbEntity
  8
1
  6
Continuous
100
AcDbLine
 10
39.24015
 20
188.709038
 30
0.0
 11
39.556754
 21
186.622804
 31
0.0
  0
ARC
  5
BBF9
330
BB4A
100
AcDbEntity
  8
5
  6
PHANTOM
100
AcDbCircle
 10
146.295952
 20
146.324971
 30
0.0
 40
41.0
100
AcDbArc
 50
97.50538200000001
 51
52.782584
  0
ARC
  5
BBFA
330
BB4A
100
AcDbEntity
  8
1
  6
Continuous
100
AcDbCircle
 10
146.295952
 20
142.299971
 30
0.0
 40
45.0
100
AcDbArc
 50
96.83557999999999
 51
55.793254
  0
ARC
  5
BBFB
330
BB4A
100
AcDbEntity
  8
5
  6
PHANTOM
100
AcDbCircle
 10
146.286921
 20
146.3255519999999
 30
0.0
 40
41.798253
100
AcDbArc
 50
97.44069899999999
 51
52.91553
  0
ARC
  5
BBFC
330
BB4A
100
AcDbEntity
  8
5
  6
PHANTOM
100
AcDbCircle
 10
146.425289
 20
146.39067
 30
0.0
 40
42.45660899999999
100
AcDbArc
 50
18.195595
 51
53.15008299999999
  0
ARC
  5
BBFD
330
BB4A
100
AcDbEntity
  8
1
  6
Continuous
100
AcDbCircle
 10
146.295952
 20
142.299971
 30
0.0
 40
45.8
100
AcDbArc
 50
96.799373
 51
55.865177
  0
LINE
  5
BBFE
330
BB4A
100
AcDbEntity
  8
5
  6
PHANTOM
100
AcDbLine
 10
185.999033
 20
159.3980479999999
 30
0.0
 11
186.7589
 21
159.64825
 31
0.0
  0
LINE
  5
BBFF
330
BB4A
100
AcDbEntity
  8
4
  6
CENTER
100
AcDbLine
 10
276.345952
 20
142.299971
 30
0.0
 11
243.3459519999999
 21
142.299971
 31
0.0
  0
LINE
  5
BC00
330
BB4A
100
AcDbEntity
  8
1
  6
Continuous
100
AcDbLine
 10
172.398281
 20
180.903447
 30
0.0
 11
171.945748
 21
180.234182
 31
0.0
  0
LINE
  5
BC01
330
BB4A
100
AcDbEntity
  8
1
  6
Continuous
100
AcDbLine
 10
26.25
 20
96.499971
 30
0.0
 11
39.25
 21
96.499971
 31
0.0
  0
LINE
  5
BC02
330
BB4A
100
AcDbEntity
  8
1
  6
Continuous
100
AcDbLine
 10
100.495952
 20
238.959
 30
0.0
 11
100.495952
 21
251.9589999999999
 31
0.0
  0
LINE
  5
BC03
330
BB4A
100
AcDbEntity
  8
1
  6
Continuous
100
AcDbLine
 10
192.095952
 20
238.959
 30
0.0
 11
192.095952
 21
251.9589999999999
 31
0.0
  0
LINE
  5
BC04
330
BB4A
100
AcDbEntity
  8
1
  6
Continuous
100
AcDbLine
 10
253.345952
 20
96.499971
 30
0.0
 11
266.3459519999999
 21
96.499971
 31
0.0
  0
LINE
  5
BC05
330
BB4A
100
AcDbEntity
  8
4
  6
CENTER
100
AcDbLine
 10
202.095952
 20
142.299971
 30
0.0
 11
90.495952
 21
142.299971
 31
0.0
  0
LINE
  5
BC06
330
BB4A
100
AcDbEntity
  8
4
  6
CENTER
100
AcDbLine
 10
49.25
 20
142.299971
 30
0.0
 11
16.25
 21
142.299971
 31
0.0
  0
LINE
  5
BC07
330
BB4A
100
AcDbEntity
  8
1
  6
Continuous
100
AcDbLine
 10
32.98460099999999
 20
166.5773729999999
 30
0.0
 11
35.54407799999999
 21
166.5773729999999
 31
0.0
  0
ARC
  5
BC08
330
BB4A
100
AcDbEntity
  8
1
  6
Continuous
100
AcDbCircle
 10
35.54407799999999
 20
166.877373
 30
0.0
 40
0.3
100
AcDbArc
 50
270.0
 51
90.0
  0
ARC
  5
BC09
330
BB4A
100
AcDbEntity
  8
1
  6
Continuous
100
AcDbCircle
 10
29.84407800000001
 20
167.477373
 30
0.0
 40
0.3
100
AcDbArc
 50
90.0
 51
270.0
  0
LINE
  5
BC0A
330
BB4A
100
AcDbEntity
  8
1
  6
Continuous
100
AcDbLine
 10
29.84407800000001
 20
167.1773729999999
 30
0.0
 11
32.689631
 21
166.606661
 31
0.0
  0
LINE
  5
BC0B
330
BB4A
100
AcDbEntity
  8
1
  6
Continuous
100
AcDbLine
 10
35.54407799999999
 20
167.1773729999999
 30
0.0
 11
29.84407800000001
 21
167.777373
 31
0.0
  0
ARC
  5
BC0C
330
BB4A
100
AcDbEntity
  8
1
  6
Continuous
100
AcDbCircle
 10
32.98460099999999
 20
168.077373
 30
0.0
 40
1.5
100
AcDbArc
 50
258.6590749999999
 51
270.0
  0
LINE
  5
BC0D
330
BB4A
100
AcDbEntity
  8
1
  6
Continuous
100
AcDbLine
 10
35.54407799999999
 20
170.0556109999999
 30
0.0
 11
29.84407800000001
 21
170.655611
 31
0.0
  0
ARC
  5
BC0E
330
BB4A
100
AcDbEntity
  8
1
  6
Continuous
100
AcDbCircle
 10
35.54407799999999
 20
169.7556109999999
 30
0.0
 40
0.3
100
AcDbArc
 50
270.0
 51
90.0
  0
LINE
  5
BC0F
330
BB4A
100
AcDbEntity
  8
1
  6
Continuous
100
AcDbLine
 10
32.98460099999999
 20
169.455611
 30
0.0
 11
35.54407799999999
 21
169.455611
 31
0.0
  0
ARC
  5
BC10
330
BB4A
100
AcDbEntity
  8
1
  6
Continuous
100
AcDbCircle
 10
32.98460099999999
 20
170.955611
 30
0.0
 40
1.5
100
AcDbArc
 50
258.6590749999999
 51
270.0
  0
LINE
  5
BC11
330
BB4A
100
AcDbEntity
  8
1
  6
Continuous
100
AcDbLine
 10
29.84407800000001
 20
170.0556109999999
 30
0.0
 11
32.689631
 21
169.484899
 31
0.0
  0
ARC
  5
BC12
330
BB4A
100
AcDbEntity
  8
1
  6
Continuous
100
AcDbCircle
 10
29.84407800000001
 20
170.355611
 30
0.0
 40
0.3
100
AcDbArc
 50
90.0
 51
270.0
  0
LINE
  5
BC13
330
BB4A
100
AcDbEntity
  8
1
  6
Continuous
100
AcDbLine
 10
32.98460099999999
 20
171.568667
 30
0.0
 11
35.54407799999999
 21
171.568667
 31
0.0
  0
ARC
  5
BC14
330
BB4A
100
AcDbEntity
  8
1
  6
Continuous
100
AcDbCircle
 10
35.54407799999999
 20
171.8686669999999
 30
0.0
 40
0.3
100
AcDbArc
 50
270.0
 51
90.0
  0
LINE
  5
BC15
330
BB4A
100
AcDbEntity
  8
1
  6
Continuous
100
AcDbLine
 10
35.54407799999999
 20
172.1686669999999
 30
0.0
 11
29.84407800000001
 21
172.7686669999999
 31
0.0
  0
LINE
  5
BC16
330
BB4A
100
AcDbEntity
  8
1
  6
Continuous
100
AcDbLine
 10
29.84407800000001
 20
172.1686669999999
 30
0.0
 11
32.689631
 21
171.597955
 31
0.0
  0
ARC
  5
BC17
330
BB4A
100
AcDbEntity
  8
1
  6
Continuous
100
AcDbCircle
 10
32.98460099999999
 20
173.068667
 30
0.0
 40
1.5
100
AcDbArc
 50
258.6590749999999
 51
270.0
  0
ARC
  5
BC18
330
BB4A
100
AcDbEntity
  8
1
  6
Continuous
100
AcDbCircle
 10
29.84407800000001
 20
172.4686669999999
 30
0.0
 40
0.3
100
AcDbArc
 50
90.0
 51
270.0
  0
ARC
  5
BC19
330
BB4A
100
AcDbEntity
  8
1
  6
Continuous
100
AcDbCircle
 10
32.98460099999999
 20
175.659964
 30
0.0
 40
1.5
100
AcDbArc
 50
258.6590749999999
 51
270.0
  0
LINE
  5
BC1A
330
BB4A
100
AcDbEntity
  8
1
  6
Continuous
100
AcDbLine
 10
35.54407799999999
 20
174.7599639999999
 30
0.0
 11
29.84407800000001
 21
175.359964
 31
0.0
  0
ARC
  5
BC1B
330
BB4A
100
AcDbEntity
  8
1
  6
Continuous
100
AcDbCircle
 10
35.54407799999999
 20
174.4599639999999
 30
0.0
 40
0.3
100
AcDbArc
 50
270.0
 51
90.0
  0
LINE
  5
BC1C
330
BB4A
100
AcDbEntity
  8
1
  6
Continuous
100
AcDbLine
 10
32.98460099999999
 20
174.159964
 30
0.0
 11
35.54407799999999
 21
174.159964
 31
0.0
  0
ARC
  5
BC1D
330
BB4A
100
AcDbEntity
  8
1
  6
Continuous
100
AcDbCircle
 10
29.84407800000001
 20
175.0599639999999
 30
0.0
 40
0.3
100
AcDbArc
 50
90.0
 51
270.0
  0
LINE
  5
BC1E
330
BB4A
100
AcDbEntity
  8
1
  6
Continuous
100
AcDbLine
 10
29.84407800000001
 20
174.7599639999999
 30
0.0
 11
32.689631
 21
174.189252
 31
0.0
  0
LINE
  5
BC1F
330
BB4A
100
AcDbEntity
  8
1
  6
Continuous
100
AcDbLine
 10
32.98460099999999
 20
176.3208429999999
 30
0.0
 11
35.54407799999999
 21
176.3208429999999
 31
0.0
  0
ARC
  5
BC20
330
BB4A
100
AcDbEntity
  8
1
  6
Continuous
100
AcDbCircle
 10
35.54407799999999
 20
176.6208429999998
 30
0.0
 40
0.3
100
AcDbArc
 50
270.0
 51
90.0
  0
LINE
  5
BC21
330
BB4A
100
AcDbEntity
  8
1
  6
Continuous
100
AcDbLine
 10
35.54407799999999
 20
176.9208429999999
 30
0.0
 11
29.84407800000001
 21
177.5208429999999
 31
0.0
  0
ARC
  5
BC22
330
BB4A
100
AcDbEntity
  8
1
  6
Continuous
100
AcDbCircle
 10
32.98460099999999
 20
177.820843
 30
0.0
 40
1.5
100
AcDbArc
 50
258.6590749999999
 51
270.0
  0
LINE
  5
BC23
330
BB4A
100
AcDbEntity
  8
1
  6
Continuous
100
AcDbLine
 10
29.84407800000001
 20
176.9208429999999
 30
0.0
 11
32.689631
 21
176.350132
 31
0.0
  0
ARC
  5
BC24
330
BB4A
100
AcDbEntity
  8
1
  6
Continuous
100
AcDbCircle
 10
29.84407800000001
 20
177.220843
 30
0.0
 40
0.3
100
AcDbArc
 50
90.0
 51
270.0
  0
LINE
  5
BC25
330
BB4A
100
AcDbEntity
  8
1
  6
Continuous
100
AcDbLine
 10
35.54407799999999
 20
178.938252
 30
0.0
 11
29.84407800000001
 21
179.5382519999998
 31
0.0
  0
ARC
  5
BC26
330
BB4A
100
AcDbEntity
  8
1
  6
Continuous
100
AcDbCircle
 10
35.54407799999999
 20
178.638252
 30
0.0
 40
0.3
100
AcDbArc
 50
270.0
 51
90.0
  0
LINE
  5
BC27
330
BB4A
100
AcDbEntity
  8
1
  6
Continuous
100
AcDbLine
 10
32.98460099999999
 20
178.338252
 30
0.0
 11
35.54407799999999
 21
178.338252
 31
0.0
  0
LINE
  5
BC28
330
BB4A
100
AcDbEntity
  8
1
  6
Continuous
100
AcDbLine
 10
29.84407800000001
 20
178.938252
 30
0.0
 11
32.689631
 21
178.3675409999999
 31
0.0
  0
ARC
  5
BC29
330
BB4A
100
AcDbEntity
  8
1
  6
Continuous
100
AcDbCircle
 10
32.98460099999999
 20
179.838252
 30
0.0
 40
1.5
100
AcDbArc
 50
258.6590749999999
 51
270.0
  0
ARC
  5
BC2A
330
BB4A
100
AcDbEntity
  8
1
  6
Continuous
100
AcDbCircle
 10
29.84407800000001
 20
179.2382519999999
 30
0.0
 40
0.3
100
AcDbArc
 50
90.0
 51
270.0
  0
LINE
  5
BC2B
330
BB4A
100
AcDbEntity
  8
1
  6
Continuous
100
AcDbLine
 10
35.54407799999999
 20
180.8121879999999
 30
0.0
 11
29.84407800000001
 21
181.4121879999999
 31
0.0
  0
ARC
  5
BC2C
330
BB4A
100
AcDbEntity
  8
1
  6
Continuous
100
AcDbCircle
 10
35.54407799999999
 20
180.5121879999999
 30
0.0
 40
0.3
100
AcDbArc
 50
270.0
 51
90.0
  0
LINE
  5
BC2D
330
BB4A
100
AcDbEntity
  8
1
  6
Continuous
100
AcDbLine
 10
32.98460099999999
 20
180.2121879999999
 30
0.0
 11
35.54407799999999
 21
180.2121879999999
 31
0.0
  0
LINE
  5
BC2E
330
BB4A
100
AcDbEntity
  8
1
  6
Continuous
100
AcDbLine
 10
29.84407800000001
 20
180.8121879999999
 30
0.0
 11
32.689631
 21
180.241477
 31
0.0
  0
ARC
  5
BC2F
330
BB4A
100
AcDbEntity
  8
1
  6
Continuous
100
AcDbCircle
 10
32.98460099999999
 20
181.712188
 30
0.0
 40
1.5
100
AcDbArc
 50
258.6590749999999
 51
270.0
  0
ARC
  5
BC30
330
BB4A
100
AcDbEntity
  8
1
  6
Continuous
100
AcDbCircle
 10
29.84407800000001
 20
181.1121879999998
 30
0.0
 40
0.3
100
AcDbArc
 50
90.0
 51
270.0
  0
LINE
  5
BC31
330
BB4A
100
AcDbEntity
  8
1
  6
Continuous
100
AcDbLine
 10
35.54407799999999
 20
182.2078859999998
 30
0.0
 11
29.84407800000001
 21
182.8078859999999
 31
0.0
  0
ARC
  5
BC32
330
BB4A
100
AcDbEntity
  8
1
  6
Continuous
100
AcDbCircle
 10
35.54407799999999
 20
181.9078859999999
 30
0.0
 40
0.3
100
AcDbArc
 50
270.0
 51
90.0
  0
LINE
  5
BC33
330
BB4A
100
AcDbEntity
  8
1
  6
Continuous
100
AcDbLine
 10
32.98460099999999
 20
181.607886
 30
0.0
 11
35.54407799999999
 21
181.607886
 31
0.0
  0
LINE
  5
BC34
330
BB4A
100
AcDbEntity
  8
1
  6
Continuous
100
AcDbLine
 10
29.84407800000001
 20
182.2078859999998
 30
0.0
 11
32.689631
 21
181.637175
 31
0.0
  0
ARC
  5
BC35
330
BB4A
100
AcDbEntity
  8
1
  6
Continuous
100
AcDbCircle
 10
32.98460099999999
 20
183.107886
 30
0.0
 40
1.5
100
AcDbArc
 50
258.6590749999999
 51
270.0
  0
ARC
  5
BC36
330
BB4A
100
AcDbEntity
  8
1
  6
Continuous
100
AcDbCircle
 10
29.84407800000001
 20
182.5078859999999
 30
0.0
 40
0.3
100
AcDbArc
 50
90.0
 51
270.0
  0
LINE
  5
BC37
330
BB4A
100
AcDbEntity
  8
1
  6
Continuous
100
AcDbLine
 10
35.54407799999999
 20
185.788373
 30
0.0
 11
29.84407800000001
 21
186.3883729999998
 31
0.0
  0
ARC
  5
BC38
330
BB4A
100
AcDbEntity
  8
1
  6
Continuous
100
AcDbCircle
 10
35.54407799999999
 20
185.488373
 30
0.0
 40
0.3
100
AcDbArc
 50
340.528779
 51
90.0
  0
ARC
  5
BC39
330
BB4A
100
AcDbEntity
  8
1
  6
Continuous
100
AcDbCircle
 10
29.84407800000001
 20
186.0883729999999
 30
0.0
 40
0.3
100
AcDbArc
 50
90.0
 51
186.947931
  0
LINE
  5
BC3A
330
BB4A
100
AcDbEntity
  8
1
  6
Continuous
100
AcDbLine
 10
35.54407799999999
 20
164.490429
 30
0.0
 11
29.84407800000001
 21
165.0904289999998
 31
0.0
  0
LINE
  5
BC3B
330
BB4A
100
AcDbEntity
  8
1
  6
Continuous
100
AcDbLine
 10
32.98460099999999
 20
163.890429
 30
0.0
 11
35.54407799999999
 21
163.890429
 31
0.0
  0
ARC
  5
BC3C
330
BB4A
100
AcDbEntity
  8
1
  6
Continuous
100
AcDbCircle
 10
35.54407799999999
 20
164.190429
 30
0.0
 40
0.3
100
AcDbArc
 50
270.0
 51
90.0
  0
LINE
  5
BC3D
330
BB4A
100
AcDbEntity
  8
1
  6
Continuous
100
AcDbLine
 10
29.84407800000001
 20
164.490429
 30
0.0
 11
32.689631
 21
163.9197169999999
 31
0.0
  0
ARC
  5
BC3E
330
BB4A
100
AcDbEntity
  8
1
  6
Continuous
100
AcDbCircle
 10
29.84407800000001
 20
164.7904289999999
 30
0.0
 40
0.3
100
AcDbArc
 50
90.0
 51
270.0
  0
ARC
  5
BC3F
330
BB4A
100
AcDbEntity
  8
1
  6
Continuous
100
AcDbCircle
 10
35.54407799999999
 20
161.2882769999998
 30
0.0
 40
0.3
100
AcDbArc
 50
270.0
 51
90.0
  0
LINE
  5
BC40
330
BB4A
100
AcDbEntity
  8
1
  6
Continuous
100
AcDbLine
 10
32.98460099999999
 20
160.988277
 30
0.0
 11
35.54407799999999
 21
160.988277
 31
0.0
  0
LINE
  5
BC41
330
BB4A
100
AcDbEntity
  8
1
  6
Continuous
100
AcDbLine
 10
35.54407799999999
 20
161.5882769999998
 30
0.0
 11
29.84407800000001
 21
162.188277
 31
0.0
  0
ARC
  5
BC42
330
BB4A
100
AcDbEntity
  8
1
  6
Continuous
100
AcDbCircle
 10
32.98460099999999
 20
162.488277
 30
0.0
 40
1.5
100
AcDbArc
 50
258.6590749999999
 51
270.0
  0
LINE
  5
BC43
330
BB4A
100
AcDbEntity
  8
1
  6
Continuous
100
AcDbLine
 10
29.84407800000001
 20
161.5882769999998
 30
0.0
 11
32.689631
 21
161.0175649999999
 31
0.0
  0
ARC
  5
BC44
330
BB4A
100
AcDbEntity
  8
1
  6
Continuous
100
AcDbCircle
 10
29.84407800000001
 20
161.8882769999999
 30
0.0
 40
0.3
100
AcDbArc
 50
90.0
 51
270.0
  0
LINE
  5
BC45
330
BB4A
100
AcDbEntity
  8
1
  6
Continuous
100
AcDbLine
 10
35.54407799999999
 20
158.901333
 30
0.0
 11
29.84407800000001
 21
159.501333
 31
0.0
  0
LINE
  5
BC46
330
BB4A
100
AcDbEntity
  8
1
  6
Continuous
100
AcDbLine
 10
32.98460099999999
 20
158.3013329999998
 30
0.0
 11
35.54407799999999
 21
158.3013329999998
 31
0.0
  0
ARC
  5
BC47
330
BB4A
100
AcDbEntity
  8
1
  6
Continuous
100
AcDbCircle
 10
35.54407799999999
 20
158.601333
 30
0.0
 40
0.3
100
AcDbArc
 50
270.0
 51
90.0
  0
ARC
  5
BC48
330
BB4A
100
AcDbEntity
  8
1
  6
Continuous
100
AcDbCircle
 10
32.98460099999999
 20
159.801333
 30
0.0
 40
1.5
100
AcDbArc
 50
258.6590749999999
 51
270.0
  0
LINE
  5
BC49
330
BB4A
100
AcDbEntity
  8
1
  6
Continuous
100
AcDbLine
 10
29.84407800000001
 20
158.901333
 30
0.0
 11
32.689631
 21
158.330621
 31
0.0
  0
ARC
  5
BC4A
330
BB4A
100
AcDbEntity
  8
1
  6
Continuous
100
AcDbCircle
 10
29.84407800000001
 20
159.201333
 30
0.0
 40
0.3
100
AcDbArc
 50
90.0
 51
270.0
  0
LINE
  5
BC4B
330
BB4A
100
AcDbEntity
  8
1
  6
Continuous
100
AcDbLine
 10
35.54407799999999
 20
156.2143889999999
 30
0.0
 11
29.84407800000001
 21
156.8143889999998
 31
0.0
  0
LINE
  5
BC4C
330
BB4A
100
AcDbEntity
  8
1
  6
Continuous
100
AcDbLine
 10
29.84407800000001
 20
156.2143889999999
 30
0.0
 11
32.83565999999999
 21
155.6143889999999
 31
0.0
  0
LINE
  5
BC4D
330
BB4A
100
AcDbEntity
  8
1
  6
Continuous
100
AcDbLine
 10
32.83565999999999
 20
155.6143889999999
 30
0.0
 11
35.54407799999999
 21
155.6143889999999
 31
0.0
  0
ARC
  5
BC4E
330
BB4A
100
AcDbEntity
  8
1
  6
Continuous
100
AcDbCircle
 10
35.54407799999999
 20
155.914389
 30
0.0
 40
0.3
100
AcDbArc
 50
270.0
 51
90.0
  0
ARC
  5
BC4F
330
BB4A
100
AcDbEntity
  8
1
  6
Continuous
100
AcDbCircle
 10
29.84407800000001
 20
156.5143889999999
 30
0.0
 40
0.3
100
AcDbArc
 50
90.0
 51
270.0
  0
ARC
  5
BC50
330
BB4A
100
AcDbEntity
  8
1
  6
Continuous
100
AcDbCircle
 10
32.98460099999999
 20
154.7143889999999
 30
0.0
 40
1.5
100
AcDbArc
 50
258.6590749999999
 51
270.0
  0
ARC
  5
BC51
330
BB4A
100
AcDbEntity
  8
1
  6
Continuous
100
AcDbCircle
 10
35.54407799999999
 20
153.514389
 30
0.0
 40
0.3
100
AcDbArc
 50
270.0
 51
90.0
  0
LINE
  5
BC52
330
BB4A
100
AcDbEntity
  8
1
  6
Continuous
100
AcDbLine
 10
32.98460099999999
 20
153.2143889999999
 30
0.0
 11
35.54407799999999
 21
153.2143889999999
 31
0.0
  0
LINE
  5
BC53
330
BB4A
100
AcDbEntity
  8
1
  6
Continuous
100
AcDbLine
 10
35.54407799999999
 20
153.8143889999998
 30
0.0
 11
29.84407800000001
 21
154.4143889999998
 31
0.0
  0
LINE
  5
BC54
330
BB4A
100
AcDbEntity
  8
1
  6
Continuous
100
AcDbLine
 10
29.84407800000001
 20
153.8143889999998
 30
0.0
 11
32.689631
 21
153.2436769999999
 31
0.0
  0
ARC
  5
BC55
330
BB4A
100
AcDbEntity
  8
1
  6
Continuous
100
AcDbCircle
 10
29.84407800000001
 20
154.1143889999998
 30
0.0
 40
0.3
100
AcDbArc
 50
90.0
 51
270.0
  0
LINE
  5
BC56
330
BB4A
100
AcDbEntity
  8
1
  6
Continuous
100
AcDbLine
 10
35.54407799999999
 20
151.4143889999998
 30
0.0
 11
29.84407800000001
 21
152.0143889999999
 31
0.0
  0
LINE
  5
BC57
330
BB4A
100
AcDbEntity
  8
1
  6
Continuous
100
AcDbLine
 10
32.98460099999999
 20
150.8143889999998
 30
0.0
 11
35.54407799999999
 21
150.8143889999998
 31
0.0
  0
ARC
  5
BC58
330
BB4A
100
AcDbEntity
  8
1
  6
Continuous
100
AcDbCircle
 10
35.54407799999999
 20
151.1143889999999
 30
0.0
 40
0.3
100
AcDbArc
 50
270.0
 51
90.0
  0
ARC
  5
BC59
330
BB4A
100
AcDbEntity
  8
1
  6
Continuous
100
AcDbCircle
 10
32.98460099999999
 20
152.3143889999998
 30
0.0
 40
1.5
100
AcDbArc
 50
258.6590749999999
 51
270.0
  0
LINE
  5
BC5A
330
BB4A
100
AcDbEntity
  8
1
  6
Continuous
100
AcDbLine
 10
29.84407800000001
 20
151.4143889999998
 30
0.0
 11
32.689631
 21
150.843677
 31
0.0
  0
ARC
  5
BC5B
330
BB4A
100
AcDbEntity
  8
1
  6
Continuous
100
AcDbCircle
 10
29.84407800000001
 20
151.7143889999998
 30
0.0
 40
0.3
100
AcDbArc
 50
90.0
 51
270.0
  0
ARC
  5
BC5C
330
BB4A
100
AcDbEntity
  8
1
  6
Continuous
100
AcDbCircle
 10
134.2076419999999
 20
248.2972919999999
 30
0.0
 40
0.3
100
AcDbArc
 50
0.0
 51
180.0
  0
ARC
  5
BC5D
330
BB4A
100
AcDbEntity
  8
1
  6
Continuous
100
AcDbCircle
 10
133.6076419999999
 20
242.5972919999999
 30
0.0
 40
0.3
100
AcDbArc
 50
180.0
 51
0.0
  0
ARC
  5
BC5E
330
BB4A
100
AcDbEntity
  8
1
  6
Continuous
100
AcDbCircle
 10
131.6796469999998
 20
248.2972919999999
 30
0.0
 40
0.3
100
AcDbArc
 50
0.0
 51
180.0
  0
ARC
  5
BC5F
330
BB4A
100
AcDbEntity
  8
1
  6
Continuous
100
AcDbCircle
 10
131.0796469999999
 20
242.5972919999999
 30
0.0
 40
0.3
100
AcDbArc
 50
180.0
 51
0.0
  0
ARC
  5
BC60
330
BB4A
100
AcDbEntity
  8
1
  6
Continuous
100
AcDbCircle
 10
129.279647
 20
248.2972919999999
 30
0.0
 40
0.3
100
AcDbArc
 50
0.0
 51
180.0
  0
ARC
  5
BC61
330
BB4A
100
AcDbEntity
  8
1
  6
Continuous
100
AcDbCircle
 10
128.6796469999998
 20
242.5972919999999
 30
0.0
 40
0.3
100
AcDbArc
 50
180.0
 51
0.0
  0
ARC
  5
BC62
330
BB4A
100
AcDbEntity
  8
1
  6
Continuous
100
AcDbCircle
 10
32.98460099999999
 20
149.914389
 30
0.0
 40
1.5
100
AcDbArc
 50
258.6590749999999
 51
270.0
  0
ARC
  5
BC63
330
BB4A
100
AcDbEntity
  8
1
  6
Continuous
100
AcDbCircle
 10
35.54407799999999
 20
148.7143889999998
 30
0.0
 40
0.3
100
AcDbArc
 50
270.0
 51
90.0
  0
LINE
  5
BC64
330
BB4A
100
AcDbEntity
  8
1
  6
Continuous
100
AcDbLine
 10
32.98460099999999
 20
148.414389
 30
0.0
 11
35.54407799999999
 21
148.414389
 31
0.0
  0
LINE
  5
BC65
330
BB4A
100
AcDbEntity
  8
1
  6
Continuous
100
AcDbLine
 10
35.54407799999999
 20
149.0143889999998
 30
0.0
 11
29.84407800000001
 21
149.6143889999999
 31
0.0
  0
LINE
  5
BC66
330
BB4A
100
AcDbEntity
  8
1
  6
Continuous
100
AcDbLine
 10
29.84407800000001
 20
149.0143889999998
 30
0.0
 11
32.689631
 21
148.443677
 31
0.0
  0
ARC
  5
BC67
330
BB4A
100
AcDbEntity
  8
1
  6
Continuous
100
AcDbCircle
 10
29.84407800000001
 20
149.3143889999998
 30
0.0
 40
0.3
100
AcDbArc
 50
90.0
 51
270.0
  0
LINE
  5
BC68
330
BB4A
100
AcDbEntity
  8
1
  6
Continuous
100
AcDbLine
 10
35.54407799999999
 20
146.6143889999998
 30
0.0
 11
29.84407800000001
 21
147.2143889999999
 31
0.0
  0
LINE
  5
BC69
330
BB4A
100
AcDbEntity
  8
1
  6
Continuous
100
AcDbLine
 10
32.98460099999999
 20
146.0143889999999
 30
0.0
 11
35.54407799999999
 21
146.0143889999999
 31
0.0
  0
ARC
  5
BC6A
330
BB4A
100
AcDbEntity
  8
1
  6
Continuous
100
AcDbCircle
 10
35.54407799999999
 20
146.3143889999998
 30
0.0
 40
0.3
100
AcDbArc
 50
270.0
 51
90.0
  0
ARC
  5
BC6B
330
BB4A
100
AcDbEntity
  8
1
  6
Continuous
100
AcDbCircle
 10
32.98460099999999
 20
147.514389
 30
0.0
 40
1.5
100
AcDbArc
 50
258.6590749999999
 51
270.0
  0
LINE
  5
BC6C
330
BB4A
100
AcDbEntity
  8
1
  6
Continuous
100
AcDbLine
 10
29.84407800000001
 20
146.6143889999998
 30
0.0
 11
32.689631
 21
146.043677
 31
0.0
  0
ARC
  5
BC6D
330
BB4A
100
AcDbEntity
  8
1
  6
Continuous
100
AcDbCircle
 10
29.84407800000001
 20
146.9143889999998
 30
0.0
 40
0.3
100
AcDbArc
 50
90.0
 51
270.0
  0
ARC
  5
BC6E
330
BB4A
100
AcDbEntity
  8
1
  6
Continuous
100
AcDbCircle
 10
126.8796469999999
 20
248.2972919999999
 30
0.0
 40
0.3
100
AcDbArc
 50
0.0
 51
180.0
  0
ARC
  5
BC6F
330
BB4A
100
AcDbEntity
  8
1
  6
Continuous
100
AcDbCircle
 10
126.279647
 20
242.5972919999999
 30
0.0
 40
0.3
100
AcDbArc
 50
180.0
 51
0.0
  0
ARC
  5
BC70
330
BB4A
100
AcDbEntity
  8
1
  6
Continuous
100
AcDbCircle
 10
124.479647
 20
248.2972919999999
 30
0.0
 40
0.3
100
AcDbArc
 50
0.0
 51
180.0
  0
ARC
  5
BC71
330
BB4A
100
AcDbEntity
  8
1
  6
Continuous
100
AcDbCircle
 10
122.366985
 20
248.2972919999999
 30
0.0
 40
0.3
100
AcDbArc
 50
0.0
 51
180.0
  0
ARC
  5
BC72
330
BB4A
100
AcDbEntity
  8
1
  6
Continuous
100
AcDbCircle
 10
121.766985
 20
242.5972919999999
 30
0.0
 40
0.3
100
AcDbArc
 50
180.0
 51
0.0
  0
ARC
  5
BC73
330
BB4A
100
AcDbEntity
  8
1
  6
Continuous
100
AcDbCircle
 10
120.4458779999999
 20
248.2972919999999
 30
0.0
 40
0.3
100
AcDbArc
 50
0.0
 51
180.0
  0
ARC
  5
BC74
330
BB4A
100
AcDbEntity
  8
1
  6
Continuous
100
AcDbCircle
 10
119.8458779999999
 20
242.5972919999999
 30
0.0
 40
0.3
100
AcDbArc
 50
180.0
 51
0.0
  0
ARC
  5
BC75
330
BB4A
100
AcDbEntity
  8
1
  6
Continuous
100
AcDbCircle
 10
118.620561
 20
248.2972919999999
 30
0.0
 40
0.3
100
AcDbArc
 50
0.0
 51
180.0
  0
ARC
  5
BC76
330
BB4A
100
AcDbEntity
  8
1
  6
Continuous
100
AcDbCircle
 10
118.020561
 20
242.5972919999999
 30
0.0
 40
0.3
100
AcDbArc
 50
180.0
 51
0.0
  0
ARC
  5
BC77
330
BB4A
100
AcDbEntity
  8
1
  6
Continuous
100
AcDbCircle
 10
116.5078939999998
 20
248.2972919999999
 30
0.0
 40
0.3
100
AcDbArc
 50
0.0
 51
180.0
  0
ARC
  5
BC78
330
BB4A
100
AcDbEntity
  8
1
  6
Continuous
100
AcDbCircle
 10
115.907894
 20
242.5972919999999
 30
0.0
 40
0.3
100
AcDbArc
 50
180.0
 51
0.0
  0
ARC
  5
BC79
330
BB4A
100
AcDbEntity
  8
1
  6
Continuous
100
AcDbCircle
 10
114.491007
 20
248.2972919999999
 30
0.0
 40
0.3
100
AcDbArc
 50
0.0
 51
180.0
  0
ARC
  5
BC7A
330
BB4A
100
AcDbEntity
  8
1
  6
Continuous
100
AcDbCircle
 10
113.891007
 20
242.5972919999999
 30
0.0
 40
0.3
100
AcDbArc
 50
180.0
 51
0.0
  0
ARC
  5
BC7B
330
BB4A
100
AcDbEntity
  8
1
  6
Continuous
100
AcDbCircle
 10
112.161906
 20
242.5972919999999
 30
0.0
 40
0.3
100
AcDbArc
 50
180.0
 51
0.0
  0
ARC
  5
BC7C
330
BB4A
100
AcDbEntity
  8
1
  6
Continuous
100
AcDbCircle
 10
112.761906
 20
248.2972919999999
 30
0.0
 40
0.3
100
AcDbArc
 50
0.0
 51
180.0
  0
LINE
  5
BC7D
330
BB4A
100
AcDbEntity
  8
1
  6
Continuous
100
AcDbLine
 10
113.0619059999999
 20
248.2972919999999
 30
0.0
 11
112.461906
 21
242.5972919999999
 31
0.0
  0
LINE
  5
BC7E
330
BB4A
100
AcDbEntity
  8
1
  6
Continuous
100
AcDbLine
 10
114.791007
 20
248.2972919999999
 30
0.0
 11
114.191007
 21
242.5972919999999
 31
0.0
  0
LINE
  5
BC7F
330
BB4A
100
AcDbEntity
  8
1
  6
Continuous
100
AcDbLine
 10
116.807894
 20
248.2972919999999
 30
0.0
 11
116.207894
 21
242.5972919999999
 31
0.0
  0
LINE
  5
BC80
330
BB4A
100
AcDbEntity
  8
1
  6
Continuous
100
AcDbLine
 10
118.920561
 20
248.2972919999999
 30
0.0
 11
118.320561
 21
242.5972919999999
 31
0.0
  0
LINE
  5
BC81
330
BB4A
100
AcDbEntity
  8
1
  6
Continuous
100
AcDbLine
 10
120.745878
 20
248.2972919999999
 30
0.0
 11
120.145878
 21
242.5972919999999
 31
0.0
  0
LINE
  5
BC82
330
BB4A
100
AcDbEntity
  8
1
  6
Continuous
100
AcDbLine
 10
122.666985
 20
248.2972919999999
 30
0.0
 11
122.0669849999999
 21
242.5972919999999
 31
0.0
  0
LINE
  5
BC83
330
BB4A
100
AcDbEntity
  8
1
  6
Continuous
100
AcDbLine
 10
124.7796469999999
 20
248.2972919999999
 30
0.0
 11
124.179647
 21
242.5972919999999
 31
0.0
  0
LINE
  5
BC84
330
BB4A
100
AcDbEntity
  8
1
  6
Continuous
100
AcDbLine
 10
127.1796469999999
 20
248.2972919999999
 30
0.0
 11
126.5796469999998
 21
242.5972919999999
 31
0.0
  0
LINE
  5
BC85
330
BB4A
100
AcDbEntity
  8
1
  6
Continuous
100
AcDbLine
 10
129.5796469999999
 20
248.2972919999999
 30
0.0
 11
128.9796469999998
 21
242.5972919999999
 31
0.0
  0
LINE
  5
BC86
330
BB4A
100
AcDbEntity
  8
1
  6
Continuous
100
AcDbLine
 10
131.9796469999998
 20
248.2972919999999
 30
0.0
 11
131.3796469999997
 21
242.5972919999999
 31
0.0
  0
LINE
  5
BC87
330
BB4A
100
AcDbEntity
  8
1
  6
Continuous
100
AcDbLine
 10
134.507642
 20
248.2972919999999
 30
0.0
 11
134.468128
 21
247.9219069999998
 31
0.0
  0
LINE
  5
BC88
330
BB4A
100
AcDbEntity
  8
1
  6
Continuous
100
AcDbLine
 10
111.861906
 20
242.5972919999999
 30
0.0
 11
111.861906
 21
245.447292
 31
0.0
  0
LINE
  5
BC89
330
BB4A
100
AcDbEntity
  8
1
  6
Continuous
100
AcDbLine
 10
113.5910069999999
 20
242.5972919999999
 30
0.0
 11
113.5910069999999
 21
245.447292
 31
0.0
  0
LINE
  5
BC8A
330
BB4A
100
AcDbEntity
  8
1
  6
Continuous
100
AcDbLine
 10
115.6078939999999
 20
242.5972919999999
 30
0.0
 11
115.6078939999999
 21
245.447292
 31
0.0
  0
LINE
  5
BC8B
330
BB4A
100
AcDbEntity
  8
1
  6
Continuous
100
AcDbLine
 10
117.720561
 20
242.5972919999999
 30
0.0
 11
117.720561
 21
245.447292
 31
0.0
  0
LINE
  5
BC8C
330
BB4A
100
AcDbEntity
  8
1
  6
Continuous
100
AcDbLine
 10
119.545878
 20
242.5972919999999
 30
0.0
 11
119.545878
 21
245.447292
 31
0.0
  0
LINE
  5
BC8D
330
BB4A
100
AcDbEntity
  8
1
  6
Continuous
100
AcDbLine
 10
121.4669849999999
 20
242.5972919999999
 30
0.0
 11
121.4669849999999
 21
245.447292
 31
0.0
  0
LINE
  5
BC8E
330
BB4A
100
AcDbEntity
  8
1
  6
Continuous
100
AcDbLine
 10
112.461906
 20
248.2972919999999
 30
0.0
 11
111.861906
 21
245.447292
 31
0.0
  0
LINE
  5
BC8F
330
BB4A
100
AcDbEntity
  8
1
  6
Continuous
100
AcDbLine
 10
114.191007
 20
248.2972919999999
 30
0.0
 11
113.5910069999999
 21
245.447292
 31
0.0
  0
LINE
  5
BC90
330
BB4A
100
AcDbEntity
  8
1
  6
Continuous
100
AcDbLine
 10
116.207894
 20
248.2972919999999
 30
0.0
 11
115.6078939999999
 21
245.447292
 31
0.0
  0
LINE
  5
BC91
330
BB4A
100
AcDbEntity
  8
1
  6
Continuous
100
AcDbLine
 10
118.320561
 20
248.2972919999999
 30
0.0
 11
117.720561
 21
245.447292
 31
0.0
  0
LINE
  5
BC92
330
BB4A
100
AcDbEntity
  8
1
  6
Continuous
100
AcDbLine
 10
120.145878
 20
248.2972919999999
 30
0.0
 11
119.545878
 21
245.447292
 31
0.0
  0
LINE
  5
BC93
330
BB4A
100
AcDbEntity
  8
1
  6
Continuous
100
AcDbLine
 10
122.0669849999999
 20
248.2972919999999
 30
0.0
 11
121.4669849999999
 21
245.447292
 31
0.0
  0
LINE
  5
BC94
330
BB4A
100
AcDbEntity
  8
1
  6
Continuous
100
AcDbLine
 10
123.5796469999998
 20
242.5972919999999
 30
0.0
 11
123.5796469999998
 21
245.447292
 31
0.0
  0
LINE
  5
BC95
330
BB4A
100
AcDbEntity
  8
1
  6
Continuous
100
AcDbLine
 10
125.9796469999999
 20
242.5972919999999
 30
0.0
 11
125.9796469999999
 21
245.447292
 31
0.0
  0
LINE
  5
BC96
330
BB4A
100
AcDbEntity
  8
1
  6
Continuous
100
AcDbLine
 10
128.379647
 20
242.5972919999999
 30
0.0
 11
128.379647
 21
245.447292
 31
0.0
  0
LINE
  5
BC97
330
BB4A
100
AcDbEntity
  8
1
  6
Continuous
100
AcDbLine
 10
130.779647
 20
242.5972919999999
 30
0.0
 11
130.779647
 21
245.447292
 31
0.0
  0
LINE
  5
BC98
330
BB4A
100
AcDbEntity
  8
1
  6
Continuous
100
AcDbLine
 10
133.3076419999999
 20
242.5972919999999
 30
0.0
 11
133.3076419999999
 21
245.447292
 31
0.0
  0
LINE
  5
BC99
330
BB4A
100
AcDbEntity
  8
1
  6
Continuous
100
AcDbLine
 10
124.179647
 20
248.2972919999999
 30
0.0
 11
123.5796469999998
 21
245.447292
 31
0.0
  0
LINE
  5
BC9A
330
BB4A
100
AcDbEntity
  8
1
  6
Continuous
100
AcDbLine
 10
126.5796469999998
 20
248.2972919999999
 30
0.0
 11
125.9796469999999
 21
245.447292
 31
0.0
  0
LINE
  5
BC9B
330
BB4A
100
AcDbEntity
  8
1
  6
Continuous
100
AcDbLine
 10
128.9796469999998
 20
248.2972919999999
 30
0.0
 11
128.379647
 21
245.447292
 31
0.0
  0
LINE
  5
BC9C
330
BB4A
100
AcDbEntity
  8
1
  6
Continuous
100
AcDbLine
 10
131.3796469999997
 20
248.2972919999999
 30
0.0
 11
130.779647
 21
245.447292
 31
0.0
  0
LINE
  5
BC9D
330
BB4A
100
AcDbEntity
  8
1
  6
Continuous
100
AcDbLine
 10
133.9076419999998
 20
248.2972919999999
 30
0.0
 11
133.3076419999999
 21
245.447292
 31
0.0
  0
ARC
  5
BC9E
330
BB4A
100
AcDbEntity
  8
1
  6
Continuous
100
AcDbCircle
 10
109.2659529999999
 20
248.2972919999999
 30
0.0
 40
0.3
100
AcDbArc
 50
0.0
 51
118.2932479999999
  0
LINE
  5
BC9F
330
BB4A
100
AcDbEntity
  8
1
  6
Continuous
100
AcDbLine
 10
109.565953
 20
248.2972919999999
 30
0.0
 11
108.965953
 21
242.5972919999999
 31
0.0
  0
ARC
  5
BCA0
330
BB4A
100
AcDbEntity
  8
1
  6
Continuous
100
AcDbCircle
 10
108.665953
 20
242.5972919999999
 30
0.0
 40
0.3
100
AcDbArc
 50
228.1896849999998
 51
0.0
  0
LINE
  5
BCA1
330
BB4A
100
AcDbEntity
  8
1
  6
Continuous
100
AcDbLine
 10
32.98460099999999
 20
185.3883729999998
 30
0.0
 11
35.826921
 21
185.3883729999998
 31
0.0
  0
LINE
  5
BCA2
330
BB4A
100
AcDbEntity
  8
1
  6
Continuous
100
AcDbLine
 10
29.546281
 20
186.052083
 30
0.0
 11
32.69408
 21
185.4207519999999
 31
0.0
  0
LINE
  5
BCA3
330
BB4A
100
AcDbEntity
  8
1
  6
Continuous
100
AcDbLine
 10
32.69407799999999
 20
185.420753
 30
0.0
 11
32.98460099999999
 21
185.3883729999998
 31
0.0
  0
ARC
  5
BCA4
330
BB4A
100
AcDbEntity
  8
1
  6
Continuous
100
AcDbCircle
 10
35.54407799999999
 20
186.492678
 30
0.0
 40
0.3
100
AcDbArc
 50
340.528779
 51
90.0
  0
LINE
  5
BCA5
330
BB4A
100
AcDbEntity
  8
1
  6
Continuous
100
AcDbLine
 10
32.69407799999999
 20
186.425057
 30
0.0
 11
32.98460099999999
 21
186.3926779999999
 31
0.0
  0
LINE
  5
BCA6
330
BB4A
100
AcDbEntity
  8
1
  6
Continuous
100
AcDbLine
 10
32.98460099999999
 20
186.3926779999999
 30
0.0
 11
35.826921
 21
186.3926779999999
 31
0.0
  0
LINE
  5
BCA7
330
BB4A
100
AcDbEntity
  8
1
  6
Continuous
100
AcDbLine
 10
35.54407799999999
 20
186.7926779999999
 30
0.0
 11
29.84407800000001
 21
187.3926779999999
 31
0.0
  0
ARC
  5
BCA8
330
BB4A
100
AcDbEntity
  8
1
  6
Continuous
100
AcDbCircle
 10
29.84407800000001
 20
187.0926779999998
 30
0.0
 40
0.3
100
AcDbArc
 50
90.0
 51
186.947931
  0
LINE
  5
BCA9
330
BB4A
100
AcDbEntity
  8
1
  6
Continuous
100
AcDbLine
 10
29.546281
 20
187.0563879999999
 30
0.0
 11
32.69408
 21
186.425056
 31
0.0
  0
LINE
  5
BCAA
330
BB4A
100
AcDbEntity
  8
1
  6
Continuous
100
AcDbLine
 10
35.54407799999999
 20
184.5797739999999
 30
0.0
 11
29.84407800000001
 21
185.179774
 31
0.0
  0
LINE
  5
BCAB
330
BB4A
100
AcDbEntity
  8
1
  6
Continuous
100
AcDbLine
 10
32.98460099999999
 20
184.179774
 30
0.0
 11
35.826921
 21
184.179774
 31
0.0
  0
LINE
  5
BCAC
330
BB4A
100
AcDbEntity
  8
1
  6
Continuous
100
AcDbLine
 10
32.69407799999999
 20
184.212153
 30
0.0
 11
32.98460099999999
 21
184.179774
 31
0.0
  0
ARC
  5
BCAD
330
BB4A
100
AcDbEntity
  8
1
  6
Continuous
100
AcDbCircle
 10
35.54407799999999
 20
184.2797739999998
 30
0.0
 40
0.3
100
AcDbArc
 50
340.528779
 51
90.0
  0
ARC
  5
BCAE
330
BB4A
100
AcDbEntity
  8
1
  6
Continuous
100
AcDbCircle
 10
35.54407799999999
 20
183.2754689999999
 30
0.0
 40
0.3
100
AcDbArc
 50
340.528779
 51
90.0
  0
LINE
  5
BCAF
330
BB4A
100
AcDbEntity
  8
1
  6
Continuous
100
AcDbLine
 10
32.69407799999999
 20
183.2078479999999
 30
0.0
 11
32.98460099999999
 21
183.1754689999999
 31
0.0
  0
LINE
  5
BCB0
330
BB4A
100
AcDbEntity
  8
1
  6
Continuous
100
AcDbLine
 10
32.98460099999999
 20
183.1754689999999
 30
0.0
 11
35.826921
 21
183.1754689999999
 31
0.0
  0
LINE
  5
BCB1
330
BB4A
100
AcDbEntity
  8
1
  6
Continuous
100
AcDbLine
 10
35.54407799999999
 20
183.5754689999999
 30
0.0
 11
29.84407800000001
 21
184.1754689999999
 31
0.0
  0
LINE
  5
BCB2
330
BB4A
100
AcDbEntity
  8
1
  6
Continuous
100
AcDbLine
 10
29.546281
 20
184.843483
 30
0.0
 11
32.69408
 21
184.212152
 31
0.0
  0
ARC
  5
BCB3
330
BB4A
100
AcDbEntity
  8
1
  6
Continuous
100
AcDbCircle
 10
29.84407800000001
 20
184.879774
 30
0.0
 40
0.3
100
AcDbArc
 50
90.0
 51
186.947931
  0
ARC
  5
BCB4
330
BB4A
100
AcDbEntity
  8
1
  6
Continuous
100
AcDbCircle
 10
29.84407800000001
 20
183.8754689999999
 30
0.0
 40
0.3
100
AcDbArc
 50
90.0
 51
186.947931
  0
LINE
  5
BCB5
330
BB4A
100
AcDbEntity
  8
1
  6
Continuous
100
AcDbLine
 10
29.546281
 20
183.839179
 30
0.0
 11
32.69407799999999
 21
183.2078479999999
 31
0.0
  0
LINE
  5
BCB6
330
BB4A
100
AcDbEntity
  8
1
  6
Continuous
100
AcDbLine
 10
32.689631
 20
163.9197169999999
 30
0.0
 11
32.98460099999999
 21
163.890429
 31
0.0
  0
LINE
  5
BCB7
330
BB4A
100
AcDbEntity
  8
1
  6
Continuous
100
AcDbLine
 10
108.4659529999999
 20
242.373685
 30
0.0
 11
108.4659529999999
 21
245.436879
 31
0.0
  0
LINE
  5
BCB8
330
BB4A
100
AcDbEntity
  8
1
  6
Continuous
100
AcDbLine
 10
109.123758
 20
248.5614519999999
 30
0.0
 11
108.4659529999999
 21
245.436879
 31
0.0
  0
ARC
  5
BCB9
330
BB4A
100
AcDbEntity
  8
1
  6
Continuous
100
AcDbCircle
 10
110.7984209999999
 20
248.2972919999999
 30
0.0
 40
0.3
100
AcDbArc
 50
0.0
 51
118.2932479999999
  0
LINE
  5
BCBA
330
BB4A
100
AcDbEntity
  8
1
  6
Continuous
100
AcDbLine
 10
110.656226
 20
248.5614519999999
 30
0.0
 11
109.9984209999998
 21
245.436879
 31
0.0
  0
LINE
  5
BCBB
330
BB4A
100
AcDbEntity
  8
1
  6
Continuous
100
AcDbLine
 10
111.098421
 20
248.2972919999999
 30
0.0
 11
110.498421
 21
242.5972919999999
 31
0.0
  0
ARC
  5
BCBC
330
BB4A
100
AcDbEntity
  8
1
  6
Continuous
100
AcDbCircle
 10
110.1984209999999
 20
242.5972919999999
 30
0.0
 40
0.3
100
AcDbArc
 50
228.1896849999998
 51
0.0
  0
LINE
  5
BCBD
330
BB4A
100
AcDbEntity
  8
1
  6
Continuous
100
AcDbLine
 10
109.9984209999998
 20
242.373685
 30
0.0
 11
109.9984209999998
 21
245.436879
 31
0.0
  0
ARC
  5
BCBE
330
BB4A
100
AcDbEntity
  8
1
  6
Continuous
100
AcDbCircle
 10
107.733479
 20
248.2972919999999
 30
0.0
 40
0.3
100
AcDbArc
 50
0.0
 51
118.2932479999999
  0
LINE
  5
BCBF
330
BB4A
100
AcDbEntity
  8
1
  6
Continuous
100
AcDbLine
 10
107.5912839999999
 20
248.5614519999999
 30
0.0
 11
106.933479
 21
245.436879
 31
0.0
  0
LINE
  5
BCC0
330
BB4A
100
AcDbEntity
  8
1
  6
Continuous
100
AcDbLine
 10
108.0334789999999
 20
248.2972919999999
 30
0.0
 11
107.4334789999999
 21
242.5972919999999
 31
0.0
  0
ARC
  5
BCC1
330
BB4A
100
AcDbEntity
  8
1
  6
Continuous
100
AcDbCircle
 10
107.1334789999999
 20
242.5972919999999
 30
0.0
 40
0.3
100
AcDbArc
 50
228.1896849999998
 51
0.0
  0
LINE
  5
BCC2
330
BB4A
100
AcDbEntity
  8
1
  6
Continuous
100
AcDbLine
 10
106.933479
 20
242.373685
 30
0.0
 11
106.933479
 21
245.436879
 31
0.0
  0
LINE
  5
BCC3
330
BB4A
100
AcDbEntity
  8
1
  6
Continuous
100
AcDbLine
 10
259.5329479999999
 20
183.7475889999998
 30
0.0
 11
256.973472
 21
183.7475889999998
 31
0.0
  0
ARC
  5
BCC4
330
BB4A
100
AcDbEntity
  8
1
  6
Continuous
100
AcDbCircle
 10
256.973472
 20
183.447589
 30
0.0
 40
0.3
100
AcDbArc
 50
90.0
 51
270.0
  0
LINE
  5
BCC5
330
BB4A
100
AcDbEntity
  8
1
  6
Continuous
100
AcDbLine
 10
256.973472
 20
183.1475889999999
 30
0.0
 11
262.6734719999999
 21
182.5475889999999
 31
0.0
  0
LINE
  5
BCC6
330
BB4A
100
AcDbEntity
  8
1
  6
Continuous
100
AcDbLine
 10
259.5329479999999
 20
185.143287
 30
0.0
 11
256.973472
 21
185.143287
 31
0.0
  0
ARC
  5
BCC7
330
BB4A
100
AcDbEntity
  8
1
  6
Continuous
100
AcDbCircle
 10
256.973472
 20
184.843287
 30
0.0
 40
0.3
100
AcDbArc
 50
90.0
 51
270.0
  0
LINE
  5
BCC8
330
BB4A
100
AcDbEntity
  8
1
  6
Continuous
100
AcDbLine
 10
256.973472
 20
184.5432869999999
 30
0.0
 11
262.6734719999999
 21
183.9432869999999
 31
0.0
  0
ARC
  5
BCC9
330
BB4A
100
AcDbEntity
  8
1
  6
Continuous
100
AcDbCircle
 10
257.0213589999998
 20
186.2406919999999
 30
0.0
 40
0.3
100
AcDbArc
 50
160.528779
 51
270.0
  0
LINE
  5
BCCA
330
BB4A
100
AcDbEntity
  8
1
  6
Continuous
100
AcDbLine
 10
258.6776029999999
 20
186.3406919999999
 30
0.0
 11
256.738516
 21
186.3406919999999
 31
0.0
  0
LINE
  5
BCCB
330
BB4A
100
AcDbEntity
  8
1
  6
Continuous
100
AcDbLine
 10
257.0213589999998
 20
185.9406919999999
 30
0.0
 11
262.721359
 21
185.3406919999999
 31
0.0
  0
ARC
  5
BCCC
330
BB4A
100
AcDbEntity
  8
1
  6
Continuous
100
AcDbCircle
 10
262.6734719999999
 20
182.8475889999999
 30
0.0
 40
0.3
100
AcDbArc
 50
270.0
 51
90.0
  0
LINE
  5
BCCD
330
BB4A
100
AcDbEntity
  8
1
  6
Continuous
100
AcDbLine
 10
262.6734719999999
 20
183.1475889999999
 30
0.0
 11
259.876233
 21
183.7086109999999
 31
0.0
  0
ARC
  5
BCCE
330
BB4A
100
AcDbEntity
  8
1
  6
Continuous
100
AcDbCircle
 10
262.6734719999999
 20
184.243287
 30
0.0
 40
0.3
100
AcDbArc
 50
270.0
 51
90.0
  0
LINE
  5
BCCF
330
BB4A
100
AcDbEntity
  8
1
  6
Continuous
100
AcDbLine
 10
262.6734719999999
 20
184.5432869999999
 30
0.0
 11
259.827918
 21
185.113999
 31
0.0
  0
ARC
  5
BCD0
330
BB4A
100
AcDbEntity
  8
1
  6
Continuous
100
AcDbCircle
 10
262.721359
 20
185.6406919999998
 30
0.0
 40
0.3
100
AcDbArc
 50
270.0
 51
6.947930999999997
  0
LINE
  5
BCD1
330
BB4A
100
AcDbEntity
  8
1
  6
Continuous
100
AcDbLine
 10
263.019156
 20
185.676983
 30
0.0
 11
260.277683
 21
186.22682
 31
0.0
  0
LINE
  5
BCD2
330
BB4A
100
AcDbEntity
  8
1
  6
Continuous
100
AcDbLine
 10
259.5329479999999
 20
185.143287
 30
0.0
 11
259.827918
 21
185.113999
 31
0.0
  0
LINE
  5
BCD3
330
BB4A
100
AcDbEntity
  8
1
  6
Continuous
100
AcDbLine
 10
259.5329479999999
 20
183.7475889999998
 30
0.0
 11
259.876233
 21
183.7086109999999
 31
0.0
  0
LINE
  5
BCD4
330
BB4A
100
AcDbEntity
  8
1
  6
Continuous
100
AcDbLine
 10
253.345952
 20
182.1034469999999
 30
0.0
 11
254.9828929999999
 21
181.121282
 31
0.0
  0
LINE
  5
BCD5
330
BB4A
100
AcDbEntity
  8
1
  6
Continuous
100
AcDbLine
 10
255.7550509999999
 20
181.01254
 30
0.0
 11
259.5882889999999
 21
182.034737
 31
0.0
  0
LINE
  5
BCD6
330
BB4A
100
AcDbEntity
  8
1
  6
Continuous
100
AcDbLine
 10
260.103614
 20
182.034737
 30
0.0
 11
263.936852
 21
181.01254
 31
0.0
  0
LINE
  5
BCD7
330
BB4A
100
AcDbEntity
  8
1
  6
Continuous
100
AcDbLine
 10
264.7090099999999
 20
181.121282
 30
0.0
 11
266.3459519999999
 21
182.1034469999999
 31
0.0
  0
LINE
  5
BCD8
330
BB4A
100
AcDbEntity
  8
1
  6
Continuous
100
AcDbLine
 10
266.3459519999999
 20
181.614285
 30
0.0
 11
264.7090099999999
 21
180.63212
 31
0.0
  0
LINE
  5
BCD9
330
BB4A
100
AcDbEntity
  8
1
  6
Continuous
100
AcDbLine
 10
263.936852
 20
180.523378
 30
0.0
 11
260.103614
 21
181.545575
 31
0.0
  0
LINE
  5
BCDA
330
BB4A
100
AcDbEntity
  8
1
  6
Continuous
100
AcDbLine
 10
259.5882889999999
 20
181.545575
 30
0.0
 11
255.7550509999999
 21
180.523378
 31
0.0
  0
LINE
  5
BCDB
330
BB4A
100
AcDbEntity
  8
1
  6
Continuous
100
AcDbLine
 10
254.9828929999999
 20
180.63212
 30
0.0
 11
253.345952
 21
181.614285
 31
0.0
  0
ARC
  5
BCDC
330
BB4A
100
AcDbEntity
  8
1
  6
Continuous
100
AcDbCircle
 10
264.1945149999999
 20
181.4896129999999
 30
0.0
 40
1.0
100
AcDbArc
 50
255.0685829999999
 51
300.9637569999998
  0
ARC
  5
BCDD
330
BB4A
100
AcDbEntity
  8
1
  6
Continuous
100
AcDbCircle
 10
264.1945149999999
 20
181.978775
 30
0.0
 40
1.0
100
AcDbArc
 50
255.0685829999999
 51
300.9637569999998
  0
ARC
  5
BCDE
330
BB4A
100
AcDbEntity
  8
1
  6
Continuous
100
AcDbCircle
 10
259.845952
 20
181.068502
 30
0.0
 40
1.0
100
AcDbArc
 50
75.06858299999997
 51
104.9314169999999
  0
ARC
  5
BCDF
330
BB4A
100
AcDbEntity
  8
1
  6
Continuous
100
AcDbCircle
 10
259.845952
 20
180.5793399999998
 30
0.0
 40
1.0
100
AcDbArc
 50
75.06858299999997
 51
104.9314169999999
  0
ARC
  5
BCE0
330
BB4A
100
AcDbEntity
  8
1
  6
Continuous
100
AcDbCircle
 10
255.497389
 20
181.978775
 30
0.0
 40
1.0
100
AcDbArc
 50
239.036243
 51
284.9314169999999
  0
ARC
  5
BCE1
330
BB4A
100
AcDbEntity
  8
1
  6
Continuous
100
AcDbCircle
 10
255.497389
 20
181.4896129999999
 30
0.0
 40
1.0
100
AcDbArc
 50
239.036243
 51
284.9314169999999
  0
LINE
  5
BCE2
330
BB4A
100
AcDbEntity
  8
1
  6
Continuous
100
AcDbLine
 10
261.7396549999999
 20
186.5624689999999
 30
0.0
 11
262.721359
 21
186.459132
 31
0.0
  0
ARC
  5
BCE3
330
BB4A
100
AcDbEntity
  8
1
  6
Continuous
100
AcDbCircle
 10
262.721359
 20
186.759132
 30
0.0
 40
0.3
100
AcDbArc
 50
270.0
 51
6.947930999999997
  0
LINE
  5
BCE4
330
BB4A
100
AcDbEntity
  8
1
  6
Continuous
100
AcDbLine
 10
263.019156
 20
186.795423
 30
0.0
 11
262.461896
 21
186.9071879999999
 31
0.0
  0
ARC
  5
BCE5
330
BB4A
100
AcDbEntity
  8
1
  6
Continuous
100
AcDbCircle
 10
123.878941
 20
242.5972919999999
 30
0.0
 40
0.3
100
AcDbArc
 50
180.0
 51
0.0
  0
LINE
  5
BCE6
330
BB4A
100
AcDbEntity
  8
1
  6
Continuous
100
AcDbLine
 10
103.63065
 20
242.5719299999999
 30
0.0
 11
104.23065
 21
248.2719299999998
 31
0.0
  0
LINE
  5
BCE7
330
BB4A
100
AcDbEntity
  8
1
  6
Continuous
100
AcDbLine
 10
105.843554
 20
242.5719299999999
 30
0.0
 11
106.443554
 21
248.2719299999998
 31
0.0
  0
LINE
  5
BCE8
330
BB4A
100
AcDbEntity
  8
1
  6
Continuous
100
AcDbLine
 10
105.443554
 20
245.131407
 30
0.0
 11
105.443554
 21
242.2890869999999
 31
0.0
  0
ARC
  5
BCE9
330
BB4A
100
AcDbEntity
  8
1
  6
Continuous
100
AcDbCircle
 10
105.5435539999999
 20
242.5719299999999
 30
0.0
 40
0.3
100
AcDbArc
 50
250.5287789999999
 51
0.0
  0
LINE
  5
BCEA
330
BB4A
100
AcDbEntity
  8
1
  6
Continuous
100
AcDbLine
 10
104.439249
 20
245.131407
 30
0.0
 11
104.439249
 21
242.2890869999999
 31
0.0
  0
ARC
  5
BCEB
330
BB4A
100
AcDbEntity
  8
1
  6
Continuous
100
AcDbCircle
 10
104.539249
 20
242.5719299999999
 30
0.0
 40
0.3
100
AcDbArc
 50
250.5287789999999
 51
0.0
  0
LINE
  5
BCEC
330
BB4A
100
AcDbEntity
  8
1
  6
Continuous
100
AcDbLine
 10
104.8392489999999
 20
242.5719299999999
 30
0.0
 11
105.439249
 21
248.2719299999998
 31
0.0
  0
ARC
  5
BCED
330
BB4A
100
AcDbEntity
  8
1
  6
Continuous
100
AcDbCircle
 10
103.33065
 20
242.5719299999999
 30
0.0
 40
0.3
100
AcDbArc
 50
250.5287789999999
 51
0.0
  0
LINE
  5
BCEE
330
BB4A
100
AcDbEntity
  8
1
  6
Continuous
100
AcDbLine
 10
103.23065
 20
245.131407
 30
0.0
 11
103.23065
 21
242.2890869999999
 31
0.0
  0
ARC
  5
BCEF
330
BB4A
100
AcDbEntity
  8
1
  6
Continuous
100
AcDbCircle
 10
103.9306499999999
 20
248.2719299999998
 30
0.0
 40
0.3
100
AcDbArc
 50
0.0
 51
96.94793100000005
  0
LINE
  5
BCF0
330
BB4A
100
AcDbEntity
  8
1
  6
Continuous
100
AcDbLine
 10
103.8943589999998
 20
248.569727
 30
0.0
 11
103.2704639999999
 21
245.459
 31
0.0
  0
LINE
  5
BCF1
330
BB4A
100
AcDbEntity
  8
1
  6
Continuous
100
AcDbLine
 10
106.1072639999999
 20
248.569727
 30
0.0
 11
105.4833679999999
 21
245.459
 31
0.0
  0
ARC
  5
BCF2
330
BB4A
100
AcDbEntity
  8
1
  6
Continuous
100
AcDbCircle
 10
106.1435539999999
 20
248.2719299999998
 30
0.0
 40
0.3
100
AcDbArc
 50
0.0
 51
96.94793100000005
  0
LINE
  5
BCF3
330
BB4A
100
AcDbEntity
  8
1
  6
Continuous
100
AcDbLine
 10
105.102959
 20
248.569727
 30
0.0
 11
104.4646329999999
 21
245.387047
 31
0.0
  0
ARC
  5
BCF4
330
BB4A
100
AcDbEntity
  8
1
  6
Continuous
100
AcDbCircle
 10
105.139249
 20
248.2719299999998
 30
0.0
 40
0.3
100
AcDbArc
 50
0.0
 51
96.94793100000005
  0
LINE
  5
BCF5
330
BB4A
100
AcDbEntity
  8
1
  6
Continuous
100
AcDbLine
 10
105.4833679999999
 20
245.459
 30
0.0
 11
105.443554
 21
245.131407
 31
0.0
  0
LINE
  5
BCF6
330
BB4A
100
AcDbEntity
  8
1
  6
Continuous
100
AcDbLine
 10
104.4646329999999
 20
245.387047
 30
0.0
 11
104.439249
 21
245.131407
 31
0.0
  0
LINE
  5
BCF7
330
BB4A
100
AcDbEntity
  8
1
  6
Continuous
100
AcDbLine
 10
103.2704639999999
 20
245.459
 30
0.0
 11
103.23065
 21
245.131407
 31
0.0
  0
LINE
  5
BCF8
330
BB4A
100
AcDbEntity
  8
1
  6
Continuous
100
AcDbLine
 10
171.398281
 20
251.9589999999999
 30
0.0
 11
172.2395019999999
 21
250.276558
 31
0.0
  0
LINE
  5
BCF9
330
BB4A
100
AcDbEntity
  8
1
  6
Continuous
100
AcDbLine
 10
172.3212619999999
 20
249.612414
 30
0.0
 11
171.398281
 21
245.459
 31
0.0
  0
LINE
  5
BCFA
330
BB4A
100
AcDbEntity
  8
1
  6
Continuous
100
AcDbLine
 10
171.398281
 20
245.459
 30
0.0
 11
172.3212619999999
 21
241.3055859999999
 31
0.0
  0
LINE
  5
BCFB
330
BB4A
100
AcDbEntity
  8
1
  6
Continuous
100
AcDbLine
 10
172.2395019999999
 20
240.6414419999999
 30
0.0
 11
171.398281
 21
238.959
 31
0.0
  0
ARC
  5
BCFC
330
BB4A
100
AcDbEntity
  8
1
  6
Continuous
100
AcDbCircle
 10
171.3450749999998
 20
249.8293439999999
 30
0.0
 40
1.0
100
AcDbArc
 50
347.4711919999998
 51
26.565051
  0
ARC
  5
BCFD
330
BB4A
100
AcDbEntity
  8
1
  6
Continuous
100
AcDbCircle
 10
171.3450749999998
 20
241.0886559999999
 30
0.0
 40
1.0
100
AcDbArc
 50
333.434949
 51
12.52880799999999
  0
LINE
  5
BCFE
330
BB4A
100
AcDbEntity
  8
1
  6
Continuous
100
AcDbLine
 10
168.274867
 20
248.3192279999999
 30
0.0
 11
167.674867
 21
242.6192279999999
 31
0.0
  0
LINE
  5
BCFF
330
BB4A
100
AcDbEntity
  8
1
  6
Continuous
100
AcDbLine
 10
170.674867
 20
248.3192279999999
 30
0.0
 11
170.0748669999998
 21
242.6192279999999
 31
0.0
  0
LINE
  5
BD00
330
BB4A
100
AcDbEntity
  8
1
  6
Continuous
100
AcDbLine
 10
167.674867
 20
248.3192279999999
 30
0.0
 11
167.0748669999998
 21
245.4692279999999
 31
0.0
  0
ARC
  5
BD01
330
BB4A
100
AcDbEntity
  8
1
  6
Continuous
100
AcDbCircle
 10
170.3748669999999
 20
248.3192279999999
 30
0.0
 40
0.3
100
AcDbArc
 50
0.0
 51
180.0
  0
ARC
  5
BD02
330
BB4A
100
AcDbEntity
  8
1
  6
Continuous
100
AcDbCircle
 10
167.9748669999999
 20
248.3192279999999
 30
0.0
 40
0.3
100
AcDbArc
 50
0.0
 51
180.0
  0
LINE
  5
BD03
330
BB4A
100
AcDbEntity
  8
1
  6
Continuous
100
AcDbLine
 10
170.0748669999998
 20
248.3192279999999
 30
0.0
 11
169.4748669999999
 21
245.4692279999999
 31
0.0
  0
ARC
  5
BD04
330
BB4A
100
AcDbEntity
  8
1
  6
Continuous
100
AcDbCircle
 10
167.3741599999999
 20
242.6192279999999
 30
0.0
 40
0.3
100
AcDbArc
 50
180.0
 51
0.0
  0
LINE
  5
BD05
330
BB4A
100
AcDbEntity
  8
1
  6
Continuous
100
AcDbLine
 10
167.0748669999998
 20
242.6192279999999
 30
0.0
 11
167.0748669999998
 21
245.4692279999999
 31
0.0
  0
ARC
  5
BD06
330
BB4A
100
AcDbEntity
  8
1
  6
Continuous
100
AcDbCircle
 10
169.774867
 20
242.6192279999999
 30
0.0
 40
0.3
100
AcDbArc
 50
180.0
 51
0.0
  0
LINE
  5
BD07
330
BB4A
100
AcDbEntity
  8
1
  6
Continuous
100
AcDbLine
 10
169.4748669999999
 20
242.6192279999999
 30
0.0
 11
169.4748669999999
 21
245.4692279999999
 31
0.0
  0
LINE
  5
BD08
330
BB4A
100
AcDbEntity
  8
1
  6
Continuous
100
AcDbLine
 10
192.095952
 20
55.25
 30
0.0
 11
192.095952
 21
42.25
 31
0.0
  0
LINE
  5
BD09
330
BB4A
100
AcDbEntity
  8
1
  6
Continuous
100
AcDbLine
 10
100.495952
 20
42.25
 30
0.0
 11
100.495952
 21
55.25
 31
0.0
  0
LINE
  5
BD0A
330
BB4A
100
AcDbEntity
  8
1
  6
Continuous
100
AcDbLine
 10
134.0172829999999
 20
243.6388819999999
 30
0.0
 11
133.9076419999998
 21
242.5972919999999
 31
0.0
  0
LINE
  5
BD0B
330
BB4A
100
AcDbEntity
  8
1
  6
Continuous
100
AcDbLine
 10
266.3459519999999
 20
188.0999709999999
 30
0.0
 11
263.880696
 21
188.0999709999999
 31
0.0
  0
LINE
  5
BD0C
330
BB4A
100
AcDbEntity
  8
1
  6
Continuous
100
AcDbLine
 10
255.8112069999999
 20
188.0999709999999
 30
0.0
 11
253.345952
 21
188.0999709999999
 31
0.0
  0
LINE
  5
BD0D
330
BB4A
100
AcDbEntity
  8
1
  6
Continuous
100
AcDbLine
 10
26.25
 20
188.0999709999999
 30
0.0
 11
39.25
 21
188.0999709999999
 31
0.0
  0
ARC
  5
BD0E
330
BB4A
100
AcDbEntity
  8
1
  6
Continuous
100
AcDbCircle
 10
150.4237559999999
 20
181.6812089999999
 30
0.0
 40
7.021811999999997
100
AcDbArc
 50
43.45320800000001
 51
78.82720299999999
  0
ARC
  5
BD0F
330
BB4A
100
AcDbEntity
  8
1
  6
Continuous
100
AcDbCircle
 10
143.2712389999998
 20
121.435528
 30
0.0
 40
66.217958
100
AcDbArc
 50
63.90465500000002
 51
79.339235
  0
ARC
  5
BD10
330
BB4A
100
AcDbEntity
  8
1
  6
Continuous
100
AcDbCircle
 10
150.4237559999999
 20
181.6812089999999
 30
0.0
 40
6.221811999999999
100
AcDbArc
 50
43.969832
 51
77.998958
  0
ARC
  5
BD11
330
BB4A
100
AcDbEntity
  8
1
  6
Continuous
100
AcDbCircle
 10
150.4237559999999
 20
181.6812089999999
 30
0.0
 40
5.421812
100
AcDbArc
 50
43.969832
 51
76.92400499999997
  0
ARC
  5
BD12
330
BB4A
100
AcDbEntity
  8
1
  6
Continuous
100
AcDbCircle
 10
143.2712389999998
 20
121.435528
 30
0.0
 40
65.417958
100
AcDbArc
 50
63.95353
 51
79.283761
  0
ARC
  5
BD13
330
BB4A
100
AcDbEntity
  8
1
  6
Continuous
100
AcDbCircle
 10
143.2712389999998
 20
121.435528
 30
0.0
 40
64.617958
100
AcDbArc
 50
64.00375099999999
 51
79.283761
  0
ARC
  5
BD14
330
BB4A
100
AcDbEntity
  8
1
  6
Continuous
100
AcDbCircle
 10
155.621334
 20
186.6951659999998
 30
0.0
 40
1.0
100
AcDbArc
 50
223.969832
 51
259.2837609999999
  0
ARC
  5
BD15
330
BB4A
100
AcDbEntity
  8
1
  6
Continuous
100
AcDbCircle
 10
155.621334
 20
186.6951659999998
 30
0.0
 40
1.8
100
AcDbArc
 50
223.969832
 51
259.2837609999999
  0
ARC
  5
BD16
330
BB4A
100
AcDbEntity
  8
5
  6
PHANTOM
100
AcDbCircle
 10
150.4246959999998
 20
181.6924779999999
 30
0.0
 40
5.421812
100
AcDbArc
 50
43.969832
 51
76.92400499999997
  0
ARC
  5
BD17
330
BB4A
100
AcDbEntity
  8
5
  6
PHANTOM
100
AcDbCircle
 10
150.424157
 20
181.686013
 30
0.0
 40
6.221811999999999
100
AcDbArc
 50
43.969832
 51
77.998958
  0
ARC
  5
BD18
330
BB4A
100
AcDbEntity
  8
5
  6
PHANTOM
100
AcDbCircle
 10
155.621734
 20
186.6999689999999
 30
0.0
 40
1.0
100
AcDbArc
 50
223.969832
 51
259.2837609999999
  0
ARC
  5
BD19
330
BB4A
100
AcDbEntity
  8
5
  6
PHANTOM
100
AcDbCircle
 10
155.6222729999998
 20
186.7064339999998
 30
0.0
 40
1.8
100
AcDbArc
 50
223.969832
 51
259.2837609999999
  0
ARC
  5
BD1A
330
BB4A
100
AcDbEntity
  8
5
  6
PHANTOM
100
AcDbCircle
 10
144.4567889999999
 20
132.292574
 30
0.0
 40
53.747822
100
AcDbArc
 50
60.290393
 51
78.43357799999998
  0
ARC
  5
BD1B
330
BB4A
100
AcDbEntity
  8
5
  6
PHANTOM
100
AcDbCircle
 10
144.568678
 20
132.5306319999999
 30
0.0
 40
54.28560899999999
100
AcDbArc
 50
60.26843799999999
 51
78.45228
  0
ARC
  5
BD1C
330
BB4A
100
AcDbEntity
  8
5
  6
PHANTOM
100
AcDbCircle
 10
144.664104
 20
132.7336639999997
 30
0.0
 40
54.861982
100
AcDbArc
 50
60.25014
 51
78.579559
  0
ARC
  5
BD1D
330
BB4A
100
AcDbEntity
  8
5
  6
PHANTOM
100
AcDbCircle
 10
150.424157
 20
181.686013
 30
0.0
 40
7.021811999999997
100
AcDbArc
 50
43.386516
 51
78.82720299999999
  0
LINE
  5
BD1E
330
BB4A
100
AcDbEntity
  8
1
  6
Continuous
100
AcDbLine
 10
255.8459519999999
 20
189.149637
 30
0.0
 11
259.845952
 21
186.840236
 31
0.0
  0
LINE
  5
BD1F
330
BB4A
100
AcDbEntity
  8
1
  6
Continuous
100
AcDbLine
 10
259.845952
 20
186.840236
 30
0.0
 11
263.845952
 21
189.149637
 31
0.0
  0
LINE
  5
BD20
330
BB4A
100
AcDbEntity
  8
1
  6
Continuous
100
AcDbLine
 10
263.845952
 20
189.149637
 30
0.0
 11
263.845952
 21
193.768439
 31
0.0
  0
LINE
  5
BD21
330
BB4A
100
AcDbEntity
  8
1
  6
Continuous
100
AcDbLine
 10
263.845952
 20
193.768439
 30
0.0
 11
259.845952
 21
196.0778399999999
 31
0.0
  0
LINE
  5
BD22
330
BB4A
100
AcDbEntity
  8
1
  6
Continuous
100
AcDbLine
 10
259.845952
 20
196.0778399999999
 30
0.0
 11
255.8459519999999
 21
193.768439
 31
0.0
  0
LINE
  5
BD23
330
BB4A
100
AcDbEntity
  8
1
  6
Continuous
100
AcDbLine
 10
255.8459519999999
 20
193.768439
 30
0.0
 11
255.8459519999999
 21
189.149637
 31
0.0
  0
ENDSEC
  0
SECTION
  2
OBJECTS
  0
DICTIONARY
  5
BB38
330
0
100
AcDbDictionary
281
     1
  3
ACAD_CIP_PREVIOUS_PRODUCT_INFO
350
BD83
  3
ACAD_COLOR
350
BD65
  3
ACAD_DETAILVIEWSTYLE
350
BD7E
  3
ACAD_GROUP
350
BB39
  3
ACAD_LAYOUT
350
BB45
  3
ACAD_MATERIAL
350
BD33
  3
ACAD_MLEADERSTYLE
350
BD7A
  3
ACAD_MLINESTYLE
350
BB42
  3
ACAD_PLOTSETTINGS
350
BB44
  3
ACAD_PLOTSTYLENAME
350
BD31
  3
ACAD_SCALELIST
350
BD68
  3
ACAD_SECTIONVIEWSTYLE
350
BD7C
  3
ACAD_TABLESTYLE
350
BD66
  3
ACAD_VISUALSTYLE
350
BD4C
  3
ACDB_RECOMPOSE_DATA
350
BDA1
  3
AcDbVariableDictionary
350
BD94
  3
DWGPROPS
350
BDA2
  0
DICTIONARY
  5
BD84
330
BB3C
100
AcDbDictionary
280
     1
281
     1
  3
ADSK_XREC_LAYER_RECONCILED
360
BD85
  0
DICTIONARY
  5
BD86
330
BB52
100
AcDbDictionary
280
     1
281
     1
  3
ADSK_XREC_LAYER_RECONCILED
360
BD87
  0
DICTIONARY
  5
BD88
330
BB53
100
AcDbDictionary
280
     1
281
     1
  3
ADSK_XREC_LAYER_RECONCILED
360
BD89
  0
DICTIONARY
  5
BD8A
330
BB54
100
AcDbDictionary
280
     1
281
     1
  3
ADSK_XREC_LAYER_RECONCILED
360
BD8B
  0
DICTIONARY
  5
BD8C
330
BB55
100
AcDbDictionary
280
     1
281
     1
  3
ADSK_XREC_LAYER_RECONCILED
360
BD8D
  0
DICTIONARY
  5
BD8E
330
BB56
100
AcDbDictionary
280
     1
281
     1
  3
ADSK_XREC_LAYER_RECONCILED
360
BD8F
  0
DICTIONARY
  5
BD90
330
BB57
100
AcDbDictionary
280
     1
281
     1
  3
ADSK_XREC_LAYER_RECONCILED
360
BD91
  0
DICTIONARY
  5
BD92
330
BB58
100
AcDbDictionary
280
     1
281
     1
  3
ADSK_XREC_LAYER_RECONCILED
360
BD93
  0
DICTIONARY
  5
BD2C
330
BB4A
100
AcDbDictionary
281
     1
  3
ACAD_LAYOUTSELFREF
350
BD2D
  0
DICTIONARY
  5
BD2A
330
BB46
100
AcDbDictionary
281
     1
  3
ACAD_LAYOUTSELFREF
350
BD2B
  0
XRECORD
  5
BD83
102
{ACAD_REACTORS
330
BB38
102
}
330
BB38
100
AcDbXrecord
280
     1
300
ACDLT
300
2014
300
ACDLT_F_S
  0
DICTIONARY
  5
BD65
102
{ACAD_REACTORS
330
BB38
102
}
330
BB38
100
AcDbDictionary
281
     1
  0
DICTIONARY
  5
BD7E
102
{ACAD_REACTORS
330
BB38
102
}
330
BB38
100
AcDbDictionary
281
     1
  3
Imperial24
350
BD7F
  0
DICTIONARY
  5
BB39
102
{ACAD_REACTORS
330
BB38
102
}
330
BB38
100
AcDbDictionary
281
     1
  0
DICTIONARY
  5
BB45
102
{ACAD_REACTORS
330
BB38
102
}
330
BB38
100
AcDbDictionary
281
     1
  3
Model
350
BD80
  3
レイアウト1
350
BD81
  0
DICTIONARY
  5
BD33
102
{ACAD_REACTORS
330
BB38
102
}
330
BB38
100
AcDbDictionary
281
     1
  3
ByBlock
350
BD3C
  3
ByLayer
350
BD34
  3
Global
350
BD44
  0
DICTIONARY
  5
BD7A
102
{ACAD_REACTORS
330
BB38
102
}
330
BB38
100
AcDbDictionary
281
     1
  3
Standard
350
BD7B
  0
DICTIONARY
  5
BB42
102
{ACAD_REACTORS
330
BB38
102
}
330
BB38
100
AcDbDictionary
281
     1
  3
STANDARD
350
BB43
  0
DICTIONARY
  5
BB44
102
{ACAD_REACTORS
330
BB38
102
}
330
BB38
100
AcDbDictionary
281
     1
  0
ACDBDICTIONARYWDFLT
  5
BD31
102
{ACAD_REACTORS
330
BB38
102
}
330
BB38
100
AcDbDictionary
281
     1
  3
Normal
350
BD32
100
AcDbDictionaryWithDefault
340
BD32
  0
DICTIONARY
  5
BD68
102
{ACAD_REACTORS
330
BB38
102
}
330
BB38
100
AcDbDictionary
281
     1
  3
A0
350
BD69
  3
A1
350
BD6A
  3
A2
350
BD6B
  3
A3
350
BD6C
  3
A4
350
BD6D
  3
A5
350
BD6E
  3
A6
350
BD6F
  3
A7
350
BD70
  3
A8
350
BD71
  3
A9
350
BD72
  3
B0
350
BD73
  3
B1
350
BD74
  3
B2
350
BD75
  3
B3
350
BD76
  3
B4
350
BD77
  3
B5
350
BD78
  3
B6
350
BD79
  0
DICTIONARY
  5
BD7C
102
{ACAD_REACTORS
330
BB38
102
}
330
BB38
100
AcDbDictionary
281
     1
  3
Imperial24
350
BD7D
  0
DICTIONARY
  5
BD66
102
{ACAD_REACTORS
330
BB38
102
}
330
BB38
100
AcDbDictionary
281
     1
  3
Standard
350
BD67
  0
DICTIONARY
  5
BD4C
102
{ACAD_REACTORS
330
BB38
102
}
330
BB38
100
AcDbDictionary
281
     1
  3
2dWireframe
350
BD52
  3
Basic
350
BD51
  3
Brighten
350
BD58
  3
ColorChange
350
BD5C
  3
Conceptual
350
BD55
  3
Dim
350
BD57
  3
EdgeColorOff
350
BD64
  3
Facepattern
350
BD5B
  3
Flat
350
BD4D
  3
FlatWithEdges
350
BD4E
  3
Gouraud
350
BD4F
  3
GouraudWithEdges
350
BD50
  3
Hidden
350
BD54
  3
JitterOff
350
BD62
  3
Linepattern
350
BD5A
  3
OverhangOff
350
BD63
  3
Realistic
350
BD56
  3
Shaded
350
BD61
  3
Shaded with edges
350
BD60
  3
Shades of Gray
350
BD5D
  3
Sketchy
350
BD5E
  3
Thicken
350
BD59
  3
Wireframe
350
BD53
  3
X-Ray
350
BD5F
  0
XRECORD
  5
BDA1
102
{ACAD_REACTORS
330
BB38
102
}
330
BB38
100
AcDbXrecord
280
     1
 90
        1
330
BD67
  0
DICTIONARY
  5
BD94
102
{ACAD_REACTORS
330
BB38
102
}
330
BB38
100
AcDbDictionary
281
     1
  3
CANNOSCALE
350
BD99
  3
CMLEADERSTYLE
350
BD96
  3
CTABLESTYLE
350
BD95
  3
CVIEWDETAILSTYLE
350
BD97
  3
CVIEWSECTIONSTYLE
350
BD98
  3
DIMASSOC
350
BD9C
  3
INDEXCTL
350
BD9B
  3
SORTENTS
350
BD9A
  3
XCLIPFRAME
350
BD9D
  0
XRECORD
  5
BDA2
102
{ACAD_REACTORS
330
BB38
102
}
330
BB38
100
AcDbXrecord
280
     1
  1
DWGPROPS COOKIE
  2

  3

  4

  6

  7

  8
Yoshitsune
  9

300
=
301
=
302
=
303
=
304
=
305
=
306
=
307
=
308
=
309
=
 40
0.0000095486111111
 41
2451296.795314699
 42
2457192.658308264
  1

 90
        0
  0
XRECORD
  5
BD85
102
{ACAD_REACTORS
330
BD84
102
}
330
BD84
100
AcDbXrecord
280
     1
290
     1
  0
XRECORD
  5
BD87
102
{ACAD_REACTORS
330
BD86
102
}
330
BD86
100
AcDbXrecord
280
     1
290
     1
  0
XRECORD
  5
BD89
102
{ACAD_REACTORS
330
BD88
102
}
330
BD88
100
AcDbXrecord
280
     1
290
     1
  0
XRECORD
  5
BD8B
102
{ACAD_REACTORS
330
BD8A
102
}
330
BD8A
100
AcDbXrecord
280
     1
290
     1
  0
XRECORD
  5
BD8D
102
{ACAD_REACTORS
330
BD8C
102
}
330
BD8C
100
AcDbXrecord
280
     1
290
     1
  0
XRECORD
  5
BD8F
102
{ACAD_REACTORS
330
BD8E
102
}
330
BD8E
100
AcDbXrecord
280
     1
290
     1
  0
XRECORD
  5
BD91
102
{ACAD_REACTORS
330
BD90
102
}
330
BD90
100
AcDbXrecord
280
     1
290
     1
  0
XRECORD
  5
BD93
102
{ACAD_REACTORS
330
BD92
102
}
330
BD92
100
AcDbXrecord
280
     1
290
     1
  0
XRECORD
  5
BD2D
102
{ACAD_REACTORS
330
BD2C
102
}
330
BD2C
100
AcDbXrecord
280
     1
340
BB4A
  0
XRECORD
  5
BD2B
102
{ACAD_REACTORS
330
BD2A
102
}
330
BD2A
100
AcDbXrecord
280
     1
340
BB46
  0
ACDBDETAILVIEWSTYLE
  5
BD7F
102
{ACAD_XDICTIONARY
360
BDDA
102
}
102
{ACAD_REACTORS
330
BD7E
102
}
330
BD7E
100
AcDbModelDocViewStyle
 70
     0
  3
Imperial24
290
     0
100
AcDbDetailViewStyle
 70
     0
 71
     0
 90
        3
 71
     1
340
BB3D
 40
0.24
340
0
 40
0.24
300

 40
0.36
280
     3
 71
     2
340
BB41
 90
       25
 71
     3
340
BB3D
 40
0.24
 90
        1
 40
0.75
 90
        1
300
%<\AcVar ViewType \f "%tc1">% %<\AcVar ViewDetailId>%\PSCALE %<\AcVar ViewScale \f "%sn">%
 71
     4
340
BB41
 90
       25
340
BB41
 90
       25
280
     0
  0
LAYOUT
  5
BD80
102
{ACAD_XDICTIONARY
360
BDDC
102
}
102
{ACAD_REACTORS
330
BB45
102
}
330
BB45
100
AcDbPlotSettings
  1

  2
Canon LBP9100C
  4

  6

 40
0.0
 41
0.0
 42
0.0
 43
0.0
 44
0.0
 45
0.0
 46
0.0
 47
0.0
 48
0.0
 49
0.0
140
0.0
141
0.0
142
1.0
143
1.0
 70
  1712
 72
     0
 73
     0
 74
     0
  7

 75
     0
147
1.0
148
0.0
149
0.0
100
AcDbLayout
  1
Model
 70
     1
 71
     0
 10
0.0
 20
0.0
 11
12.0
 21
9.0
 12
0.0
 22
0.0
 32
0.0
 14
0.0
 24
0.0
 34
0.0
 15
0.0
 25
0.0
 35
0.0
146
0.0
 13
0.0
 23
0.0
 33
0.0
 16
1.0
 26
0.0
 36
0.0
 17
0.0
 27
1.0
 37
0.0
 76
     0
330
BB4A
331
BD29
  0
LAYOUT
  5
BD81
102
{ACAD_XDICTIONARY
360
BDDE
102
}
102
{ACAD_REACTORS
330
BB45
102
}
330
BB45
100
AcDbPlotSettings
  1

  2
Canon LBP9100C
  4

  6

 40
0.0
 41
0.0
 42
0.0
 43
0.0
 44
0.0
 45
0.0
 46
0.0
 47
0.0
 48
0.0
 49
0.0
140
0.0
141
0.0
142
1.0
143
1.0
 70
   688
 72
     0
 73
     0
 74
     5
  7

 75
    16
147
1.0
148
0.0
149
0.0
100
AcDbLayout
  1
レイアウト1
 70
     0
 71
     1
 10
0.0
 20
0.0
 11
420.0
 21
297.0
 12
0.0
 22
0.0
 32
0.0
 14
1.000000000000000E+20
 24
1.000000000000000E+20
 34
1.000000000000000E+20
 15
-1.000000000000000E+20
 25
-1.000000000000000E+20
 35
-1.000000000000000E+20
146
0.0
 13
0.0
 23
0.0
 33
0.0
 16
1.0
 26
0.0
 36
0.0
 17
0.0
 27
1.0
 37
0.0
 76
     0
330
BB46
  0
MATERIAL
  5
BD3C
102
{ACAD_XDICTIONARY
360
BD3D
102
}
102
{ACAD_REACTORS
330
BD33
102
}
330
BD33
100
AcDbMaterial
  1
ByBlock
 72
     0
 43
0.0208333333333333
 43
0.0
 43
0.0
 43
0.0
 43
0.0
 43
0.0208333333333333
 43
0.0
 43
0.0
 43
0.0
 43
0.0
 43
1.0
 43
0.0
 43
0.0
 43
0.0
 43
0.0
 43
1.0
 77
     0
 47
0.0208333333333333
 47
0.0
 47
0.0
 47
0.0
 47
0.0
 47
0.0208333333333333
 47
0.0
 47
0.0
 47
0.0
 47
0.0
 47
1.0
 47
0.0
 47
0.0
 47
0.0
 47
0.0
 47
1.0
171
     0
 49
0.0208333333333333
 49
0.0
 49
0.0
 49
0.0
 49
0.0
 49
0.0208333333333333
 49
0.0
 49
0.0
 49
0.0
 49
0.0
 49
1.0
 49
0.0
 49
0.0
 49
0.0
 49
0.0
 49
1.0
175
     0
142
0.0208333333333333
142
0.0
142
0.0
142
0.0
142
0.0
142
0.0208333333333333
142
0.0
142
0.0
142
0.0
142
0.0
142
1.0
142
0.0
142
0.0
142
0.0
142
0.0
142
1.0
179
     0
144
0.0208333333333333
144
0.0
144
0.0
144
0.0
144
0.0
144
0.0208333333333333
144
0.0
144
0.0
144
0.0
144
0.0
144
1.0
144
0.0
144
0.0
144
0.0
144
0.0
144
1.0
147
0.0208333333333333
147
0.0
147
0.0
147
0.0
147
0.0
147
0.0208333333333333
147
0.0
147
0.0
147
0.0
147
0.0
147
1.0
147
0.0
147
0.0
147
0.0
147
0.0
147
1.0
  0
MATERIAL
  5
BD34
102
{ACAD_XDICTIONARY
360
BD35
102
}
102
{ACAD_REACTORS
330
BD33
102
}
330
BD33
100
AcDbMaterial
  1
ByLayer
 72
     0
 43
0.0208333333333333
 43
0.0
 43
0.0
 43
0.0
 43
0.0
 43
0.0208333333333333
 43
0.0
 43
0.0
 43
0.0
 43
0.0
 43
1.0
 43
0.0
 43
0.0
 43
0.0
 43
0.0
 43
1.0
 77
     0
 47
0.0208333333333333
 47
0.0
 47
0.0
 47
0.0
 47
0.0
 47
0.0208333333333333
 47
0.0
 47
0.0
 47
0.0
 47
0.0
 47
1.0
 47
0.0
 47
0.0
 47
0.0
 47
0.0
 47
1.0
171
     0
 49
0.0208333333333333
 49
0.0
 49
0.0
 49
0.0
 49
0.0
 49
0.0208333333333333
 49
0.0
 49
0.0
 49
0.0
 49
0.0
 49
1.0
 49
0.0
 49
0.0
 49
0.0
 49
0.0
 49
1.0
175
     0
142
0.0208333333333333
142
0.0
142
0.0
142
0.0
142
0.0
142
0.0208333333333333
142
0.0
142
0.0
142
0.0
142
0.0
142
1.0
142
0.0
142
0.0
142
0.0
142
0.0
142
1.0
179
     0
144
0.0208333333333333
144
0.0
144
0.0
144
0.0
144
0.0
144
0.0208333333333333
144
0.0
144
0.0
144
0.0
144
0.0
144
1.0
144
0.0
144
0.0
144
0.0
144
0.0
144
1.0
147
0.0208333333333333
147
0.0
147
0.0
147
0.0
147
0.0
147
0.0208333333333333
147
0.0
147
0.0
147
0.0
147
0.0
147
1.0
147
0.0
147
0.0
147
0.0
147
0.0
147
1.0
  0
MATERIAL
  5
BD44
102
{ACAD_XDICTIONARY
360
BD45
102
}
102
{ACAD_REACTORS
330
BD33
102
}
330
BD33
100
AcDbMaterial
  1
Global
 72
     0
 43
0.0208333333333333
 43
0.0
 43
0.0
 43
0.0
 43
0.0
 43
0.0208333333333333
 43
0.0
 43
0.0
 43
0.0
 43
0.0
 43
1.0
 43
0.0
 43
0.0
 43
0.0
 43
0.0
 43
1.0
 77
     0
 47
0.0208333333333333
 47
0.0
 47
0.0
 47
0.0
 47
0.0
 47
0.0208333333333333
 47
0.0
 47
0.0
 47
0.0
 47
0.0
 47
1.0
 47
0.0
 47
0.0
 47
0.0
 47
0.0
 47
1.0
171
     0
 49
0.0208333333333333
 49
0.0
 49
0.0
 49
0.0
 49
0.0
 49
0.0208333333333333
 49
0.0
 49
0.0
 49
0.0
 49
0.0
 49
1.0
 49
0.0
 49
0.0
 49
0.0
 49
0.0
 49
1.0
175
     0
142
0.0208333333333333
142
0.0
142
0.0
142
0.0
142
0.0
142
0.0208333333333333
142
0.0
142
0.0
142
0.0
142
0.0
142
1.0
142
0.0
142
0.0
142
0.0
142
0.0
142
1.0
179
     0
144
0.0208333333333333
144
0.0
144
0.0
144
0.0
144
0.0
144
0.0208333333333333
144
0.0
144
0.0
144
0.0
144
0.0
144
1.0
144
0.0
144
0.0
144
0.0
144
0.0
144
1.0
147
0.0208333333333333
147
0.0
147
0.0
147
0.0
147
0.0
147
0.0208333333333333
147
0.0
147
0.0
147
0.0
147
0.0
147
1.0
147
0.0
147
0.0
147
0.0
147
0.0
147
1.0
  0
MLEADERSTYLE
  5
BD7B
102
{ACAD_REACTORS
330
BD7A
102
}
330
BD7A
100
AcDbMLeaderStyle
170
     2
171
     1
172
     0
 90
        2
 40
0.0
 41
0.0
173
     1
 91
-1056964608
340
BB3F
 92
       -2
290
     1
 42
0.09
291
     1
 43
0.36
  3
Standard
 44
0.18
300

342
BB3D
174
     1
178
     6
175
     1
176
     0
 93
-1056964608
 45
0.18
292
     0
297
     0
 46
0.18
 94
-1056964608
 47
1.0
 49
1.0
140
1.0
293
     1
141
0.0
294
     1
177
     0
142
1.0
295
     0
296
     0
143
0.125
1001
ACAD_MLEADERVER
1070
     2
  0
MLINESTYLE
  5
BB43
102
{ACAD_REACTORS
330
BB42
102
}
330
BB42
100
AcDbMlineStyle
  2
STANDARD
 70
     0
  3

 62
   256
 51
90.0
 52
90.0
 71
     2
 49
0.5
 62
   256
  6
BYLAYER
 49
-0.5
 62
   256
  6
BYLAYER
  0
ACDBPLACEHOLDER
  5
BD32
102
{ACAD_REACTORS
330
BD31
102
}
330
BD31
  0
SCALE
  5
BD69
102
{ACAD_REACTORS
330
BD68
102
}
330
BD68
100
AcDbScale
 70
     0
300
1:1
140
1.0
141
1.0
290
     1
  0
SCALE
  5
BD6A
102
{ACAD_REACTORS
330
BD68
102
}
330
BD68
100
AcDbScale
 70
     0
300
1/128" = 1'-0"
140
0.0078125
141
12.0
290
     0
  0
SCALE
  5
BD6B
102
{ACAD_REACTORS
330
BD68
102
}
330
BD68
100
AcDbScale
 70
     0
300
1/64" = 1'-0"
140
0.015625
141
12.0
290
     0
  0
SCALE
  5
BD6C
102
{ACAD_REACTORS
330
BD68
102
}
330
BD68
100
AcDbScale
 70
     0
300
1/32" = 1'-0"
140
0.03125
141
12.0
290
     0
  0
SCALE
  5
BD6D
102
{ACAD_REACTORS
330
BD68
102
}
330
BD68
100
AcDbScale
 70
     0
300
1/16" = 1'-0"
140
0.0625
141
12.0
290
     0
  0
SCALE
  5
BD6E
102
{ACAD_REACTORS
330
BD68
102
}
330
BD68
100
AcDbScale
 70
     0
300
3/32" = 1'-0"
140
0.09375
141
12.0
290
     0
  0
SCALE
  5
BD6F
102
{ACAD_REACTORS
330
BD68
102
}
330
BD68
100
AcDbScale
 70
     0
300
1/8" = 1'-0"
140
0.125
141
12.0
290
     0
  0
SCALE
  5
BD70
102
{ACAD_REACTORS
330
BD68
102
}
330
BD68
100
AcDbScale
 70
     0
300
3/16" = 1'-0"
140
0.1875
141
12.0
290
     0
  0
SCALE
  5
BD71
102
{ACAD_REACTORS
330
BD68
102
}
330
BD68
100
AcDbScale
 70
     0
300
1/4" = 1'-0"
140
0.25
141
12.0
290
     0
  0
SCALE
  5
BD72
102
{ACAD_REACTORS
330
BD68
102
}
330
BD68
100
AcDbScale
 70
     0
300
3/8" = 1'-0"
140
0.375
141
12.0
290
     0
  0
SCALE
  5
BD73
102
{ACAD_REACTORS
330
BD68
102
}
330
BD68
100
AcDbScale
 70
     0
300
1/2" = 1'-0"
140
0.5
141
12.0
290
     0
  0
SCALE
  5
BD74
102
{ACAD_REACTORS
330
BD68
102
}
330
BD68
100
AcDbScale
 70
     0
300
3/4" = 1'-0"
140
0.75
141
12.0
290
     0
  0
SCALE
  5
BD75
102
{ACAD_REACTORS
330
BD68
102
}
330
BD68
100
AcDbScale
 70
     0
300
1" = 1'-0"
140
1.0
141
12.0
290
     0
  0
SCALE
  5
BD76
102
{ACAD_REACTORS
330
BD68
102
}
330
BD68
100
AcDbScale
 70
     0
300
1-1/2" = 1'-0"
140
1.5
141
12.0
290
     0
  0
SCALE
  5
BD77
102
{ACAD_REACTORS
330
BD68
102
}
330
BD68
100
AcDbScale
 70
     0
300
3" = 1'-0"
140
3.0
141
12.0
290
     0
  0
SCALE
  5
BD78
102
{ACAD_REACTORS
330
BD68
102
}
330
BD68
100
AcDbScale
 70
     0
300
6" = 1'-0"
140
6.0
141
12.0
290
     0
  0
SCALE
  5
BD79
102
{ACAD_REACTORS
330
BD68
102
}
330
BD68
100
AcDbScale
 70
     0
300
1'-0" = 1'-0"
140
12.0
141
12.0
290
     0
  0
ACDBSECTIONVIEWSTYLE
  5
BD7D
102
{ACAD_XDICTIONARY
360
BDD8
102
}
102
{ACAD_REACTORS
330
BD7C
102
}
330
BD7C
100
AcDbModelDocViewStyle
 70
     0
  3
Imperial24
290
     0
100
AcDbSectionViewStyle
 70
     0
 71
     0
 90
       78
 71
     1
340
BB3D
 40
0.24
340
0
340
0
 40
0.24
300
I, O, Q, S, X, Z
 40
0.48
 90
        3
 40
0.18
 90
        1
 71
     2
340
BB41
 90
       25
340
BB41
 90
       50
 40
0.24
 40
0.0
 40
0.24
 71
     3
340
BB3D
 40
0.24
 90
        1
 40
0.75
 90
        1
300
%<\AcVar ViewType \f "%tc1">% %<\AcVar ViewSectionStartId>%-%<\AcVar ViewSectionEndId>%\PSCALE %<\AcVar ViewScale \f "%sn">%
 71
     4
300
ANSI31
 40
1.0
 90
        0
290
     0
290
     0
 90
        6
 40
0.0
 40
1.570796326794896
 40
0.2617993877991494
 40
1.308996938995747
 40
-0.2617993877991494
 40
1.832595714594046
  0
TABLESTYLE
  5
BD67
102
{ACAD_XDICTIONARY
360
BD9F
102
}
102
{ACAD_REACTORS
330
BD66
102
}
330
BD66
100
AcDbTableStyle
  3
Standard
 70
     0
 71
     0
 40
0.06
 41
0.06
280
     0
281
     0
  7
STANDARD
140
0.18
170
     2
 62
     0
 63
     7
283
     0
274
    -2
284
     1
 64
     0
275
    -2
285
     1
 65
     0
276
    -2
286
     1
 66
     0
277
    -2
287
     1
 67
     0
278
    -2
288
     1
 68
     0
279
    -2
289
     1
 69
     0
  7
STANDARD
140
0.25
170
     5
 62
     0
 63
     7
283
     0
274
    -2
284
     1
 64
     0
275
    -2
285
     1
 65
     0
276
    -2
286
     1
 66
     0
277
    -2
287
     1
 67
     0
278
    -2
288
     1
 68
     0
279
    -2
289
     1
 69
     0
  7
STANDARD
140
0.18
170
     5
 62
     0
 63
     7
283
     0
274
    -2
284
     1
 64
     0
275
    -2
285
     1
 65
     0
276
    -2
286
     1
 66
     0
277
    -2
287
     1
 67
     0
278
    -2
288
     1
 68
     0
279
    -2
289
     1
 69
     0
  0
VISUALSTYLE
  5
BD52
102
{ACAD_XDICTIONARY
360
BDB0
102
}
102
{ACAD_REACTORS
330
BD4C
102
}
330
BD4C
100
AcDbVisualStyle
  2
2dWireframe
 70
     4
 71
     0
 72
     2
 73
     0
 90
        0
 40
-0.6
 41
-30.0
 62
     5
 63
     7
 74
     1
 91
        4
 64
     7
 65
   257
 75
     1
175
     1
 42
1.0
 92
        0
 66
   257
 43
1.0
 76
     1
 77
     6
 78
     2
 67
     7
 79
     5
170
     0
171
     0
290
     0
174
     0
 93
        1
 44
0.0
173
     0
291
     0
 45
0.0
1001
ACAD
1000
AcDbSavedByObjectVersion
1070
     0
  0
VISUALSTYLE
  5
BD51
102
{ACAD_XDICTIONARY
360
BDAE
102
}
102
{ACAD_REACTORS
330
BD4C
102
}
330
BD4C
100
AcDbVisualStyle
  2
Basic
 70
     7
 71
     1
 72
     0
 73
     1
 90
        0
 40
-0.6
 41
-30.0
 62
     5
 63
     7
 74
     0
 91
        4
 64
     7
 65
   257
 75
     1
175
     1
 42
1.0
 92
        8
 66
     7
 43
1.0
 76
     1
 77
     6
 78
     2
 67
     7
 79
     5
170
     0
171
     0
290
     0
174
     0
 93
        1
 44
0.0
173
     0
291
     1
 45
0.0
1001
ACAD
1000
AcDbSavedByObjectVersion
1070
     0
  0
VISUALSTYLE
  5
BD58
102
{ACAD_XDICTIONARY
360
BDBC
102
}
102
{ACAD_REACTORS
330
BD4C
102
}
330
BD4C
100
AcDbVisualStyle
  2
Brighten
 70
    12
 71
     2
 72
     2
 73
     0
 90
        0
 40
-0.6
 41
-30.0
 62
     5
 63
     7
 74
     1
 91
        4
 64
     7
 65
   257
 75
     1
175
     1
 42
1.0
 92
        8
 66
     7
 43
1.0
 76
     1
 77
     6
 78
     2
 67
     7
 79
     5
170
     0
171
     0
290
     0
174
     0
 93
        1
 44
50.0
173
     0
291
     1
 45
0.0
1001
ACAD
1000
AcDbSavedByObjectVersion
1070
     0
  0
VISUALSTYLE
  5
BD5C
102
{ACAD_XDICTIONARY
360
BDC4
102
}
102
{ACAD_REACTORS
330
BD4C
102
}
330
BD4C
100
AcDbVisualStyle
  2
ColorChange
 70
    16
 71
     2
 72
     2
 73
     3
 90
        0
 40
-0.6
 41
-30.0
 62
     5
 63
     8
 74
     1
 91
        4
 64
     7
 65
   257
 75
     1
175
     1
 42
1.0
 92
        8
 66
     8
 43
1.0
 76
     1
 77
     6
 78
     2
 67
     7
 79
     5
170
     0
171
     0
290
     0
174
     0
 93
        1
 44
0.0
173
     0
291
     1
 45
0.0
1001
ACAD
1000
AcDbSavedByObjectVersion
1070
     0
  0
VISUALSTYLE
  5
BD55
102
{ACAD_XDICTIONARY
360
BDB6
102
}
102
{ACAD_REACTORS
330
BD4C
102
}
330
BD4C
100
AcDbVisualStyle
  2
Conceptual
 70
     9
 71
     3
 72
     2
 73
     0
 90
        0
 40
-0.6
 41
-30.0
 62
     5
 63
     7
 74
     2
 91
        2
 64
     7
 65
   257
 75
     1
175
     1
 42
179.0
 92
        8
 66
     7
 43
1.0
 76
     1
 77
     6
 78
     2
 67
     7
 79
     3
170
     0
171
     0
290
     0
174
     0
 93
        1
 44
0.0
173
     0
291
     0
 45
0.0
1001
ACAD
1000
AcDbSavedByObjectVersion
1070
     0
  0
VISUALSTYLE
  5
BD57
102
{ACAD_XDICTIONARY
360
BDBA
102
}
102
{ACAD_REACTORS
330
BD4C
102
}
330
BD4C
100
AcDbVisualStyle
  2
Dim
 70
    11
 71
     2
 72
     2
 73
     0
 90
        0
 40
-0.6
 41
-30.0
 62
     5
 63
     7
 74
     1
 91
        4
 64
     7
 65
   257
 75
     1
175
     1
 42
1.0
 92
        8
 66
     7
 43
1.0
 76
     1
 77
     6
 78
     2
 67
     7
 79
     5
170
     0
171
     0
290
     0
174
     0
 93
        1
 44
-50.0
173
     0
291
     1
 45
0.0
1001
ACAD
1000
AcDbSavedByObjectVersion
1070
     0
  0
VISUALSTYLE
  5
BD64
102
{ACAD_XDICTIONARY
360
BDD4
102
}
102
{ACAD_REACTORS
330
BD4C
102
}
330
BD4C
100
AcDbVisualStyle
  2
EdgeColorOff
 70
    22
 71
     2
 72
     2
 73
     0
 90
        0
 40
-0.6
 41
-30.0
 62
     5
 63
     7
 74
     1
 91
        4
 64
     7
 65
   257
 75
     1
175
     1
 42
1.0
 92
        8
 66
     7
 43
1.0
 76
     1
 77
     6
 78
     2
 67
     7
 79
     5
170
     0
171
     0
290
     0
174
     0
 93
        1
 44
0.0
173
     0
291
     1
 45
0.0
1001
ACAD
1000
AcDbSavedByObjectVersion
1070
     0
  0
VISUALSTYLE
  5
BD5B
102
{ACAD_XDICTIONARY
360
BDC2
102
}
102
{ACAD_REACTORS
330
BD4C
102
}
330
BD4C
100
AcDbVisualStyle
  2
Facepattern
 70
    15
 71
     2
 72
     2
 73
     0
 90
        0
 40
-0.6
 41
-30.0
 62
     5
 63
     7
 74
     1
 91
        4
 64
     7
 65
   257
 75
     1
175
     1
 42
1.0
 92
        8
 66
     7
 43
1.0
 76
     1
 77
     6
 78
     2
 67
     7
 79
     5
170
     0
171
     0
290
     0
174
     0
 93
        1
 44
0.0
173
     0
291
     1
 45
0.0
1001
ACAD
1000
AcDbSavedByObjectVersion
1070
     0
  0
VISUALSTYLE
  5
BD4D
102
{ACAD_XDICTIONARY
360
BDA6
102
}
102
{ACAD_REACTORS
330
BD4C
102
}
330
BD4C
100
AcDbVisualStyle
  2
Flat
 70
     0
 71
     2
 72
     1
 73
     1
 90
        2
 40
-0.6
 41
30.0
 62
     5
 63
     7
 74
     0
 91
        0
 64
     7
 65
   257
 75
     1
175
     1
 42
1.0
 92
        8
 66
     7
 43
1.0
 76
     1
 77
     6
 78
     2
 67
     7
 79
     5
170
     0
171
     0
290
     0
174
     0
 93
       13
 44
0.0
173
     0
291
     1
 45
0.0
1001
ACAD
1000
AcDbSavedByObjectVersion
1070
     0
  0
VISUALSTYLE
  5
BD4E
102
{ACAD_XDICTIONARY
360
BDA8
102
}
102
{ACAD_REACTORS
330
BD4C
102
}
330
BD4C
100
AcDbVisualStyle
  2
FlatWithEdges
 70
     1
 71
     2
 72
     1
 73
     1
 90
        2
 40
-0.6
 41
30.0
 62
     5
 63
     7
 74
     1
 91
        0
 64
     7
 65
   257
 75
     1
175
     1
 42
1.0
 92
        0
 66
   257
 43
1.0
 76
     1
 77
     6
 78
     2
 67
     7
 79
     5
170
     0
171
     0
290
     0
174
     0
 93
       13
 44
0.0
173
     0
291
     1
 45
0.0
1001
ACAD
1000
AcDbSavedByObjectVersion
1070
     0
  0
VISUALSTYLE
  5
BD4F
102
{ACAD_XDICTIONARY
360
BDAA
102
}
102
{ACAD_REACTORS
330
BD4C
102
}
330
BD4C
100
AcDbVisualStyle
  2
Gouraud
 70
     2
 71
     2
 72
     2
 73
     1
 90
        2
 40
-0.6
 41
30.0
 62
     5
 63
     7
 74
     0
 91
        0
 64
     7
 65
   257
 75
     1
175
     1
 42
1.0
 92
        0
 66
     7
 43
1.0
 76
     1
 77
     6
 78
     2
 67
     7
 79
     5
170
     0
171
     0
290
     0
174
     0
 93
       13
 44
0.0
173
     0
291
     1
 45
0.0
1001
ACAD
1000
AcDbSavedByObjectVersion
1070
     0
  0
VISUALSTYLE
  5
BD50
102
{ACAD_XDICTIONARY
360
BDAC
102
}
102
{ACAD_REACTORS
330
BD4C
102
}
330
BD4C
100
AcDbVisualStyle
  2
GouraudWithEdges
 70
     3
 71
     2
 72
     2
 73
     1
 90
        2
 40
-0.6
 41
30.0
 62
     5
 63
     7
 74
     1
 91
        0
 64
     7
 65
   257
 75
     1
175
     1
 42
1.0
 92
        0
 66
   257
 43
1.0
 76
     1
 77
     6
 78
     2
 67
     7
 79
     5
170
     0
171
     0
290
     0
174
     0
 93
       13
 44
0.0
173
     0
291
     1
 45
0.0
1001
ACAD
1000
AcDbSavedByObjectVersion
1070
     0
  0
VISUALSTYLE
  5
BD54
102
{ACAD_XDICTIONARY
360
BDB4
102
}
102
{ACAD_REACTORS
330
BD4C
102
}
330
BD4C
100
AcDbVisualStyle
  2
Hidden
 70
     6
 71
     1
 72
     2
 73
     2
 90
        0
 40
-0.6
 41
-30.0
 62
     5
 63
     7
 74
     2
 91
        2
 64
     7
 65
   257
 75
     2
175
     1
 42
40.0
 92
        0
 66
   257
 43
1.0
 76
     1
 77
     6
 78
     2
 67
     7
 79
     3
170
     0
171
     0
290
     0
174
     0
 93
        1
 44
0.0
173
     0
291
     0
 45
0.0
1001
ACAD
1000
AcDbSavedByObjectVersion
1070
     0
  0
VISUALSTYLE
  5
BD62
102
{ACAD_XDICTIONARY
360
BDD0
102
}
102
{ACAD_REACTORS
330
BD4C
102
}
330
BD4C
100
AcDbVisualStyle
  2
JitterOff
 70
    20
 71
     2
 72
     2
 73
     0
 90
        0
 40
-0.6
 41
-30.0
 62
     5
 63
     7
 74
     1
 91
        4
 64
     7
 65
   257
 75
     1
175
     1
 42
1.0
 92
       10
 66
     7
 43
1.0
 76
     1
 77
     6
 78
     2
 67
     7
 79
     5
170
     0
171
     0
290
     0
174
     0
 93
        1
 44
0.0
173
     0
291
     1
 45
0.0
1001
ACAD
1000
AcDbSavedByObjectVersion
1070
     0
  0
VISUALSTYLE
  5
BD5A
102
{ACAD_XDICTIONARY
360
BDC0
102
}
102
{ACAD_REACTORS
330
BD4C
102
}
330
BD4C
100
AcDbVisualStyle
  2
Linepattern
 70
    14
 71
     2
 72
     2
 73
     0
 90
        0
 40
-0.6
 41
-30.0
 62
     5
 63
     7
 74
     1
 91
        4
 64
     7
 65
   257
 75
     7
175
     7
 42
1.0
 92
        8
 66
     7
 43
1.0
 76
     1
 77
     6
 78
     2
 67
     7
 79
     5
170
     0
171
     0
290
     0
174
     0
 93
        1
 44
0.0
173
     0
291
     1
 45
0.0
1001
ACAD
1000
AcDbSavedByObjectVersion
1070
     0
  0
VISUALSTYLE
  5
BD63
102
{ACAD_XDICTIONARY
360
BDD2
102
}
102
{ACAD_REACTORS
330
BD4C
102
}
330
BD4C
100
AcDbVisualStyle
  2
OverhangOff
 70
    21
 71
     2
 72
     2
 73
     0
 90
        0
 40
-0.6
 41
-30.0
 62
     5
 63
     7
 74
     1
 91
        4
 64
     7
 65
   257
 75
     1
175
     1
 42
1.0
 92
        9
 66
     7
 43
1.0
 76
     1
 77
     6
 78
     2
 67
     7
 79
     5
170
     0
171
     0
290
     0
174
     0
 93
        1
 44
0.0
173
     0
291
     1
 45
0.0
1001
ACAD
1000
AcDbSavedByObjectVersion
1070
     0
  0
VISUALSTYLE
  5
BD56
102
{ACAD_XDICTIONARY
360
BDB8
102
}
102
{ACAD_REACTORS
330
BD4C
102
}
330
BD4C
100
AcDbVisualStyle
  2
Realistic
 70
     8
 71
     2
 72
     3
 73
     0
 90
        2
 40
-0.6
 41
30.0
 62
     5
 63
     7
 74
     0
 91
        0
 64
     7
 65
   257
 75
     1
175
     1
 42
1.0
 92
        8
 66
   257
 43
1.0
 76
     1
 77
     6
 78
     2
 67
     7
 79
     3
170
     0
171
     0
290
     0
174
     0
 93
       13
 44
0.0
173
     0
291
     0
 45
0.0
1001
ACAD
1000
AcDbSavedByObjectVersion
1070
     0
  0
VISUALSTYLE
  5
BD61
102
{ACAD_XDICTIONARY
360
BDCE
102
}
102
{ACAD_REACTORS
330
BD4C
102
}
330
BD4C
100
AcDbVisualStyle
  2
Shaded
 70
    27
 71
     2
 72
     2
 73
     1
 90
        2
 40
-0.6
 41
30.0
 62
     5
 63
     7
 74
     0
 91
        4
 64
     7
 65
   257
 75
     1
175
     1
 42
1.0
 92
        8
 66
   257
 43
1.0
 76
     1
 77
     6
 78
     2
 67
     8
 79
     3
170
     0
171
     0
290
     0
174
     0
 93
        5
 44
0.0
173
     0
291
     0
 45
0.0
1001
ACAD
1000
AcDbSavedByObjectVersion
1070
     0
  0
VISUALSTYLE
  5
BD60
102
{ACAD_XDICTIONARY
360
BDCC
102
}
102
{ACAD_REACTORS
330
BD4C
102
}
330
BD4C
100
AcDbVisualStyle
  2
Shaded with edges
 70
    26
 71
     2
 72
     2
 73
     1
 90
        2
 40
-0.6
 41
30.0
 62
     5
 63
     7
 74
     1
 91
       10
 64
     7
 65
   257
 75
     2
175
     1
 42
1.0
 92
        8
 66
   257
 43
1.0
 76
     1
 77
     6
 78
     2
 67
     7
 79
     3
170
     0
171
     0
290
     0
174
     0
 93
        5
 44
0.0
173
     0
291
     0
 45
0.0
1001
ACAD
1000
AcDbSavedByObjectVersion
1070
     0
  0
VISUALSTYLE
  5
BD5D
102
{ACAD_XDICTIONARY
360
BDC6
102
}
102
{ACAD_REACTORS
330
BD4C
102
}
330
BD4C
100
AcDbVisualStyle
  2
Shades of Gray
 70
    23
 71
     2
 72
     2
 73
     3
 90
        0
 40
-0.6
 41
-30.0
 62
     5
 63
     7
 74
     2
 91
        2
 64
     7
 65
     7
 75
     1
175
     1
 42
40.0
 92
        8
 66
     7
 43
1.0
 76
     1
 77
     6
 78
     2
 67
     7
 79
     3
170
     0
171
     0
290
     0
174
     0
 93
        1
 44
0.0
173
     0
291
     0
 45
0.0
1001
ACAD
1000
AcDbSavedByObjectVersion
1070
     0
  0
VISUALSTYLE
  5
BD5E
102
{ACAD_XDICTIONARY
360
BDC8
102
}
102
{ACAD_REACTORS
330
BD4C
102
}
330
BD4C
100
AcDbVisualStyle
  2
Sketchy
 70
    24
 71
     1
 72
     2
 73
     2
 90
        0
 40
-0.6
 41
-30.0
 62
     5
 63
     7
 74
     2
 91
        2
 64
     7
 65
     7
 75
     1
175
     1
 42
40.0
 92
       11
 66
     7
 43
1.0
 76
     1
 77
     6
 78
     2
 67
     7
 79
     6
170
     0
171
     0
290
     0
174
     0
 93
        1
 44
0.0
173
     0
291
     0
 45
0.0
1001
ACAD
1000
AcDbSavedByObjectVersion
1070
     0
  0
VISUALSTYLE
  5
BD59
102
{ACAD_XDICTIONARY
360
BDBE
102
}
102
{ACAD_REACTORS
330
BD4C
102
}
330
BD4C
100
AcDbVisualStyle
  2
Thicken
 70
    13
 71
     2
 72
     2
 73
     0
 90
        0
 40
-0.6
 41
-30.0
 62
     5
 63
     7
 74
     1
 91
        4
 64
     7
 65
   257
 75
     1
175
     1
 42
1.0
 92
       12
 66
     7
 43
1.0
 76
     1
 77
     6
 78
     2
 67
     7
 79
     5
170
     0
171
     0
290
     0
174
     0
 93
        1
 44
0.0
173
     0
291
     1
 45
0.0
1001
ACAD
1000
AcDbSavedByObjectVersion
1070
     0
  0
VISUALSTYLE
  5
BD53
102
{ACAD_XDICTIONARY
360
BDB2
102
}
102
{ACAD_REACTORS
330
BD4C
102
}
330
BD4C
100
AcDbVisualStyle
  2
Wireframe
 70
     5
 71
     0
 72
     2
 73
     0
 90
        0
 40
-0.6
 41
-30.0
 62
     5
 63
     7
 74
     1
 91
        4
 64
     7
 65
   257
 75
     1
175
     1
 42
1.0
 92
        0
 66
   257
 43
1.0
 76
     1
 77
     6
 78
     2
 67
     7
 79
     3
170
     0
171
     0
290
     0
174
     0
 93
        1
 44
0.0
173
     0
291
     0
 45
0.0
1001
ACAD
1000
AcDbSavedByObjectVersion
1070
     0
  0
VISUALSTYLE
  5
BD5F
102
{ACAD_XDICTIONARY
360
BDCA
102
}
102
{ACAD_REACTORS
330
BD4C
102
}
330
BD4C
100
AcDbVisualStyle
  2
X-Ray
 70
    25
 71
     2
 72
     2
 73
     1
 90
        1
 40
0.5
 41
-30.0
 62
     5
 63
     7
 74
     1
 91
        0
 64
     7
 65
   257
 75
     1
175
     1
 42
1.0
 92
        8
 66
     7
 43
1.0
 76
     1
 77
     6
 78
     2
 67
     7
 79
     3
170
     0
171
     0
290
     0
174
     0
 93
       13
 44
0.0
173
     0
291
     0
 45
0.0
1001
ACAD
1000
AcDbSavedByObjectVersion
1070
     0
  0
DICTIONARYVAR
  5
BD99
102
{ACAD_REACTORS
330
BD94
102
}
330
BD94
100
DictionaryVariables
280
     0
  1
1:1
  0
DICTIONARYVAR
  5
BD96
102
{ACAD_REACTORS
330
BD94
102
}
330
BD94
100
DictionaryVariables
280
     0
  1
STANDARD
  0
DICTIONARYVAR
  5
BD95
102
{ACAD_REACTORS
330
BD94
102
}
330
BD94
100
DictionaryVariables
280
     0
  1
STANDARD
  0
DICTIONARYVAR
  5
BD97
102
{ACAD_REACTORS
330
BD94
102
}
330
BD94
100
DictionaryVariables
280
     0
  1
Imperial24
  0
DICTIONARYVAR
  5
BD98
102
{ACAD_REACTORS
330
BD94
102
}
330
BD94
100
DictionaryVariables
280
     0
  1
Imperial24
  0
DICTIONARYVAR
  5
BD9C
102
{ACAD_REACTORS
330
BD94
102
}
330
BD94
100
DictionaryVariables
280
     0
  1
1
  0
DICTIONARYVAR
  5
BD9B
102
{ACAD_REACTORS
330
BD94
102
}
330
BD94
100
DictionaryVariables
280
     0
  1
0
  0
DICTIONARYVAR
  5
BD9A
102
{ACAD_REACTORS
330
BD94
102
}
330
BD94
100
DictionaryVariables
280
     0
  1
127
  0
DICTIONARYVAR
  5
BD9D
102
{ACAD_REACTORS
330
BD94
102
}
330
BD94
100
DictionaryVariables
280
     0
  1
2
  0
DICTIONARY
  5
BDDA
330
BD7F
100
AcDbDictionary
280
     1
281
     1
  3
ACAD_XREC_ROUNDTRIP
360
BDDB
  0
DICTIONARY
  5
BDDC
330
BD80
100
AcDbDictionary
280
     1
281
     1
  3
ACAD_XREC_ROUNDTRIP
360
BDDD
  0
DICTIONARY
  5
BDDE
330
BD81
100
AcDbDictionary
280
     1
281
     1
  3
ACAD_XREC_ROUNDTRIP
360
BDDF
  0
DICTIONARY
  5
BD3D
330
BD3C
100
AcDbDictionary
280
     1
281
     1
  3
ACAD_XREC_ROUNDTRIP
360
BDA4
  3
BUMPTILE
360
BD3F
  3
DIFFUSETILE
360
BD3E
  3
OPACITYTILE
360
BD42
  3
REFLECTIONTILE
360
BD41
  3
REFRACTIONTILE
360
BD43
  3
SPECULARTILE
360
BD40
  0
DICTIONARY
  5
BD35
330
BD34
100
AcDbDictionary
280
     1
281
     1
  3
ACAD_XREC_ROUNDTRIP
360
BDA3
  3
BUMPTILE
360
BD37
  3
DIFFUSETILE
360
BD36
  3
OPACITYTILE
360
BD3A
  3
REFLECTIONTILE
360
BD39
  3
REFRACTIONTILE
360
BD3B
  3
SPECULARTILE
360
BD38
  0
DICTIONARY
  5
BD45
330
BD44
100
AcDbDictionary
280
     1
281
     1
  3
ACAD_XREC_ROUNDTRIP
360
BDA5
  3
BUMPTILE
360
BD47
  3
DIFFUSETILE
360
BD46
  3
OPACITYTILE
360
BD4A
  3
REFLECTIONTILE
360
BD49
  3
REFRACTIONTILE
360
BD4B
  3
SPECULARTILE
360
BD48
  0
DICTIONARY
  5
BDD8
330
BD7D
100
AcDbDictionary
280
     1
281
     1
  3
ACAD_XREC_ROUNDTRIP
360
BDD9
  0
DICTIONARY
  5
BD9F
330
BD67
100
AcDbDictionary
280
     1
281
     1
  3
ACAD_ROUNDTRIP_2008_TABLESTYLE_CELLSTYLEMAP
360
BDA0
  3
ACAD_XREC_ROUNDTRIP
360
BDD6
  0
DICTIONARY
  5
BDB0
330
BD52
100
AcDbDictionary
280
     1
281
     1
  3
ACAD_XREC_ROUNDTRIP
360
BDB1
  0
DICTIONARY
  5
BDAE
330
BD51
100
AcDbDictionary
280
     1
281
     1
  3
ACAD_XREC_ROUNDTRIP
360
BDAF
  0
DICTIONARY
  5
BDBC
330
BD58
100
AcDbDictionary
280
     1
281
     1
  3
ACAD_XREC_ROUNDTRIP
360
BDBD
  0
DICTIONARY
  5
BDC4
330
BD5C
100
AcDbDictionary
280
     1
281
     1
  3
ACAD_XREC_ROUNDTRIP
360
BDC5
  0
DICTIONARY
  5
BDB6
330
BD55
100
AcDbDictionary
280
     1
281
     1
  3
ACAD_XREC_ROUNDTRIP
360
BDB7
  0
DICTIONARY
  5
BDBA
330
BD57
100
AcDbDictionary
280
     1
281
     1
  3
ACAD_XREC_ROUNDTRIP
360
BDBB
  0
DICTIONARY
  5
BDD4
330
BD64
100
AcDbDictionary
280
     1
281
     1
  3
ACAD_XREC_ROUNDTRIP
360
BDD5
  0
DICTIONARY
  5
BDC2
330
BD5B
100
AcDbDictionary
280
     1
281
     1
  3
ACAD_XREC_ROUNDTRIP
360
BDC3
  0
DICTIONARY
  5
BDA6
330
BD4D
100
AcDbDictionary
280
     1
281
     1
  3
ACAD_XREC_ROUNDTRIP
360
BDA7
  0
DICTIONARY
  5
BDA8
330
BD4E
100
AcDbDictionary
280
     1
281
     1
  3
ACAD_XREC_ROUNDTRIP
360
BDA9
  0
DICTIONARY
  5
BDAA
330
BD4F
100
AcDbDictionary
280
     1
281
     1
  3
ACAD_XREC_ROUNDTRIP
360
BDAB
  0
DICTIONARY
  5
BDAC
330
BD50
100
AcDbDictionary
280
     1
281
     1
  3
ACAD_XREC_ROUNDTRIP
360
BDAD
  0
DICTIONARY
  5
BDB4
330
BD54
100
AcDbDictionary
280
     1
281
     1
  3
ACAD_XREC_ROUNDTRIP
360
BDB5
  0
DICTIONARY
  5
BDD0
330
BD62
100
AcDbDictionary
280
     1
281
     1
  3
ACAD_XREC_ROUNDTRIP
360
BDD1
  0
DICTIONARY
  5
BDC0
330
BD5A
100
AcDbDictionary
280
     1
281
     1
  3
ACAD_XREC_ROUNDTRIP
360
BDC1
  0
DICTIONARY
  5
BDD2
330
BD63
100
AcDbDictionary
280
     1
281
     1
  3
ACAD_XREC_ROUNDTRIP
360
BDD3
  0
DICTIONARY
  5
BDB8
330
BD56
100
AcDbDictionary
280
     1
281
     1
  3
ACAD_XREC_ROUNDTRIP
360
BDB9
  0
DICTIONARY
  5
BDCE
330
BD61
100
AcDbDictionary
280
     1
281
     1
  3
ACAD_XREC_ROUNDTRIP
360
BDCF
  0
DICTIONARY
  5
BDCC
330
BD60
100
AcDbDictionary
280
     1
281
     1
  3
ACAD_XREC_ROUNDTRIP
360
BDCD
  0
DICTIONARY
  5
BDC6
330
BD5D
100
AcDbDictionary
280
     1
281
     1
  3
ACAD_XREC_ROUNDTRIP
360
BDC7
  0
DICTIONARY
  5
BDC8
330
BD5E
100
AcDbDictionary
280
     1
281
     1
  3
ACAD_XREC_ROUNDTRIP
360
BDC9
  0
DICTIONARY
  5
BDBE
330
BD59
100
AcDbDictionary
280
     1
281
     1
  3
ACAD_XREC_ROUNDTRIP
360
BDBF
  0
DICTIONARY
  5
BDB2
330
BD53
100
AcDbDictionary
280
     1
281
     1
  3
ACAD_XREC_ROUNDTRIP
360
BDB3
  0
DICTIONARY
  5
BDCA
330
BD5F
100
AcDbDictionary
280
     1
281
     1
  3
ACAD_XREC_ROUNDTRIP
360
BDCB
  0
XRECORD
  5
BDDB
102
{ACAD_REACTORS
330
BDDA
102
}
330
BDDA
100
AcDbXrecord
280
     1
102
DISPLAYNAME
  1
Imperial24
102
FLAGS
 90
        0
  0
XRECORD
  5
BDDD
102
{ACAD_REACTORS
330
BDDC
102
}
330
BDDC
100
AcDbXrecord
280
     1
102
SHADEPLOT
 70
     0
102
SHADEPLOTRESLEVEL
 70
     2
102
SHADEPLOTCUSTOMDPI
 70
   300
  0
XRECORD
  5
BDDF
102
{ACAD_REACTORS
330
BDDE
102
}
330
BDDE
100
AcDbXrecord
280
     1
102
SHADEPLOT
 70
     0
102
SHADEPLOTRESLEVEL
 70
     2
102
SHADEPLOTCUSTOMDPI
 70
   300
  0
XRECORD
  5
BDA4
102
{ACAD_REACTORS
330
BD3D
102
}
330
BD3D
100
AcDbXrecord
280
     1
102
MATERIAL
148
0.0
149
0.0
149
0.0
 93
        0
 94
      127
282
     0
 72
     0
 77
     0
171
     0
175
     0
179
     0
273
     0
  0
XRECORD
  5
BD3F
102
{ACAD_REACTORS
330
BD3D
102
}
330
BD3D
100
AcDbXrecord
280
     1
270
     1
271
     1
  0
XRECORD
  5
BD3E
102
{ACAD_REACTORS
330
BD3D
102
}
330
BD3D
100
AcDbXrecord
280
     1
270
     1
271
     1
  0
XRECORD
  5
BD42
102
{ACAD_REACTORS
330
BD3D
102
}
330
BD3D
100
AcDbXrecord
280
     1
270
     1
271
     1
  0
XRECORD
  5
BD41
102
{ACAD_REACTORS
330
BD3D
102
}
330
BD3D
100
AcDbXrecord
280
     1
270
     1
271
     1
  0
XRECORD
  5
BD43
102
{ACAD_REACTORS
330
BD3D
102
}
330
BD3D
100
AcDbXrecord
280
     1
270
     1
271
     1
  0
XRECORD
  5
BD40
102
{ACAD_REACTORS
330
BD3D
102
}
330
BD3D
100
AcDbXrecord
280
     1
270
     1
271
     1
  0
XRECORD
  5
BDA3
102
{ACAD_REACTORS
330
BD35
102
}
330
BD35
100
AcDbXrecord
280
     1
102
MATERIAL
148
0.0
149
0.0
149
0.0
 93
        0
 94
      127
282
     0
 72
     0
 77
     0
171
     0
175
     0
179
     0
273
     0
  0
XRECORD
  5
BD37
102
{ACAD_REACTORS
330
BD35
102
}
330
BD35
100
AcDbXrecord
280
     1
270
     1
271
     1
  0
XRECORD
  5
BD36
102
{ACAD_REACTORS
330
BD35
102
}
330
BD35
100
AcDbXrecord
280
     1
270
     1
271
     1
  0
XRECORD
  5
BD3A
102
{ACAD_REACTORS
330
BD35
102
}
330
BD35
100
AcDbXrecord
280
     1
270
     1
271
     1
  0
XRECORD
  5
BD39
102
{ACAD_REACTORS
330
BD35
102
}
330
BD35
100
AcDbXrecord
280
     1
270
     1
271
     1
  0
XRECORD
  5
BD3B
102
{ACAD_REACTORS
330
BD35
102
}
330
BD35
100
AcDbXrecord
280
     1
270
     1
271
     1
  0
XRECORD
  5
BD38
102
{ACAD_REACTORS
330
BD35
102
}
330
BD35
100
AcDbXrecord
280
     1
270
     1
271
     1
  0
XRECORD
  5
BDA5
102
{ACAD_REACTORS
330
BD45
102
}
330
BD45
100
AcDbXrecord
280
     1
102
MATERIAL
148
0.0
149
0.0
149
0.0
 93
        0
 94
      127
282
     0
 72
     0
 77
     0
171
     0
175
     0
179
     0
273
     0
  0
XRECORD
  5
BD47
102
{ACAD_REACTORS
330
BD45
102
}
330
BD45
100
AcDbXrecord
280
     1
270
     1
271
     1
  0
XRECORD
  5
BD46
102
{ACAD_REACTORS
330
BD45
102
}
330
BD45
100
AcDbXrecord
280
     1
270
     1
271
     1
  0
XRECORD
  5
BD4A
102
{ACAD_REACTORS
330
BD45
102
}
330
BD45
100
AcDbXrecord
280
     1
270
     1
271
     1
  0
XRECORD
  5
BD49
102
{ACAD_REACTORS
330
BD45
102
}
330
BD45
100
AcDbXrecord
280
     1
270
     1
271
     1
  0
XRECORD
  5
BD4B
102
{ACAD_REACTORS
330
BD45
102
}
330
BD45
100
AcDbXrecord
280
     1
270
     1
271
     1
  0
XRECORD
  5
BD48
102
{ACAD_REACTORS
330
BD45
102
}
330
BD45
100
AcDbXrecord
280
     1
270
     1
271
     1
  0
XRECORD
  5
BDD9
102
{ACAD_REACTORS
330
BDD8
102
}
330
BDD8
100
AcDbXrecord
280
     1
102
DISPLAYNAME
  1
Imperial24
102
FLAGS
 90
        0
  0
CELLSTYLEMAP
  5
BDA0
102
{ACAD_REACTORS
330
BD9F
102
}
330
BD9F
100
AcDbCellStyleMap
 90
        3
300
CELLSTYLE
  1
TABLEFORMAT_BEGIN
 90
        5
170
     1
 91
        0
 92
    32768
 62
   257
 93
        1
300
CONTENTFORMAT
  1
CONTENTFORMAT_BEGIN
 90
        0
 91
        0
 92
      512
 93
        0
300

 40
0.0
140
1.0
 94
        5
 62
     0
340
BB3D
144
0.25
309
CONTENTFORMAT_END
171
     0
 94
        0
309
TABLEFORMAT_END
  1
CELLSTYLE_BEGIN
 90
        1
 91
        1
300
_TITLE
309
CELLSTYLE_END
300
CELLSTYLE
  1
TABLEFORMAT_BEGIN
 90
        5
170
     1
 91
        0
 92
        0
 62
   257
 93
        1
300
CONTENTFORMAT
  1
CONTENTFORMAT_BEGIN
 90
        0
 91
        0
 92
      512
 93
        0
300

 40
0.0
140
1.0
 94
        5
 62
     0
340
BB3D
144
0.18
309
CONTENTFORMAT_END
171
     0
 94
        0
309
TABLEFORMAT_END
  1
CELLSTYLE_BEGIN
 90
        2
 91
        1
300
_HEADER
309
CELLSTYLE_END
300
CELLSTYLE
  1
TABLEFORMAT_BEGIN
 90
        5
170
     1
 91
        0
 92
        0
 62
   257
 93
        1
300
CONTENTFORMAT
  1
CONTENTFORMAT_BEGIN
 90
        0
 91
        0
 92
      512
 93
        0
300

 40
0.0
140
1.0
 94
        2
 62
     0
340
BB3D
144
0.18
309
CONTENTFORMAT_END
171
     0
 94
        0
309
TABLEFORMAT_END
  1
CELLSTYLE_BEGIN
 90
        3
 91
        2
300
_DATA
309
CELLSTYLE_END
  0
XRECORD
  5
BDD6
102
{ACAD_REACTORS
330
BD9F
102
}
330
BD9F
100
AcDbXrecord
280
     1
102
ACAD_ROUNDTRIP_PRE2007_TABLESTYLE
 90
      512
 91
        0
  1

 92
      512
 93
        0
  2

 94
      512
 95
        0
  3

  0
XRECORD
  5
BDB1
102
{ACAD_REACTORS
330
BDB0
102
}
330
BDB0
100
AcDbXrecord
280
     1
102
RTVSPost2010Prop28
280
     1
102
RTVSPost2010PropOp28
 70
     1
102
RTVSPost2010Prop29
280
     1
102
RTVSPost2010PropOp29
 70
     1
102
RTVSPost2010Prop30
280
     0
102
RTVSPost2010PropOp30
 70
     1
102
RTVSPost2010Prop31
280
     0
102
RTVSPost2010PropOp31
 70
     1
102
RTVSPost2010Prop32
280
     0
102
RTVSPost2010PropOp32
 70
     1
102
RTVSPost2010Prop33
280
     0
102
RTVSPost2010PropOp33
 70
     1
102
RTVSPost2010Prop34
280
     0
102
RTVSPost2010PropOp34
 70
     1
102
RTVSPost2010Prop35
280
     0
102
RTVSPost2010PropOp35
 70
     1
102
RTVSPost2010Prop36
280
     0
102
RTVSPost2010PropOp36
 70
     1
102
RTVSPost2010Prop37
 90
       50
102
RTVSPost2010PropOp37
 70
     1
102
RTVSPost2010Prop38
140
0.0
102
RTVSPost2010PropOp38
 70
     1
102
RTVSPost2010Prop39
140
1.0
102
RTVSPost2010PropOp39
 70
     1
102
RTVSPost2010Prop40
 90
        0
102
RTVSPost2010PropOp40
 70
     1
102
RTVSPost2010Prop41ColorIndex
 90
       18
102
RTVSPost2010Prop41ColorRGB
 90
        0
102
RTVSPost2010PropOp41
 70
     1
102
RTVSPost2010Prop42
 90
       50
102
RTVSPost2010PropOp42
 70
     1
102
RTVSPost2010Prop43
 90
        3
102
RTVSPost2010PropOp43
 70
     1
102
RTVSPost2010Prop44ColorIndex
 90
        5
102
RTVSPost2010Prop44ColorRGB
 90
      255
102
RTVSPost2010PropOp44
 70
     1
102
RTVSPost2010Prop45
280
     0
102
RTVSPost2010PropOp45
 70
     1
102
RTVSPost2010Prop46
 90
       50
102
RTVSPost2010PropOp46
 70
     1
102
RTVSPost2010Prop47
 90
       50
102
RTVSPost2010PropOp47
 70
     1
102
RTVSPost2010Prop48
 90
       50
102
RTVSPost2010PropOp48
 70
     1
102
RTVSPost2010Prop49
280
     0
102
RTVSPost2010PropOp49
 70
     1
102
RTVSPost2010Prop50
 90
       50
102
RTVSPost2010PropOp50
 70
     1
102
RTVSPost2010Prop51ColorIndex
 90
      256
102
RTVSPost2010Prop51ColorRGB
 90
-16777216
102
RTVSPost2010PropOp51
 70
     0
102
RTVSPost2010Prop52
140
1.0
102
RTVSPost2010PropOp52
 70
     0
102
RTVSPost2010Prop53
 90
        2
102
RTVSPost2010PropOp53
 70
     1
102
RTVSPost2010Prop54
  1
strokes_ogs.tif
102
RTVSPost2010PropOp54
 70
     1
102
RTVSPost2010Prop55
280
     0
102
RTVSPost2010PropOp55
 70
     1
102
RTVSPost2010Prop56
140
1.0
102
RTVSPost2010PropOp56
 70
     1
102
RTVSPost2010Prop57
140
1.0
102
RTVSPost2010PropOp57
 70
     1
102
RTVSPropertyOp0
 70
     1
102
RTVSPropertyOp1
 70
     1
102
RTVSPropertyOp2
 70
     1
102
RTVSPropertyOp3
 70
     1
102
RTVSPropertyOp4
 70
     1
102
RTVSPropertyOp5
 70
     1
102
RTVSPropertyOp6
 70
     1
102
RTVSPropertyOp7
 70
     1
102
RTVSPropertyOp8
 70
     1
102
RTVSPropertyOp9
 70
     1
102
RTVSPropertyOp10
 70
     1
102
RTVSPropertyOp11
 70
     1
102
RTVSPropertyOp12
 70
     1
102
RTVSPropertyOp13
 70
     1
102
RTVSPropertyOp14
 70
     1
102
RTVSPropertyOp15
 70
     1
102
RTVSPropertyOp16
 70
     1
102
RTVSPropertyOp17
 70
     1
102
RTVSPropertyOp18
 70
     1
102
RTVSPropertyOp19
 70
     1
102
RTVSPropertyOp20
 70
     1
102
RTVSPropertyOp21
 70
     1
102
RTVSPropertyOp22
 70
     1
102
RTVSPropertyOp23
 70
     1
102
RTVSPropertyOp24
 70
     1
102
RTVSPropertyOp25
 70
     1
102
RTVSPropertyOp26
 70
     1
102
RTVSPropertyOp27
 70
     1
102
RTVSPropertyOp28
 70
     1
102
RTVSPropertyOp29
 70
     1
102
RTVSPropertyOp30
 70
     1
102
RTVSPropertyOp31
 70
     1
102
RTVSPropertyOp32
 70
     1
102
RTVSPropertyOp33
 70
     1
102
RTVSPropertyOp34
 70
     1
102
RTVSPropertyOp35
 70
     1
102
RTVSPropertyOp36
 70
     1
102
RTVSPropertyOp37
 70
     1
102
RTVSPropertyOp38
 70
     1
102
RTVSPropertyOp39
 70
     1
102
RTVSPropertyOp40
 70
     1
102
RTVSPropertyOp41
 70
     1
102
RTVSPropertyOp42
 70
     1
102
RTVSPropertyOp43
 70
     1
102
RTVSPropertyOp44
 70
     1
102
RTVSPropertyOp45
 70
     1
102
RTVSPropertyOp46
 70
     1
102
RTVSPropertyOp47
 70
     1
102
RTVSPropertyOp48
 70
     1
102
RTVSPropertyOp49
 70
     1
102
RTVSPropertyOp50
 70
     1
102
RTVSPropertyOp51
 70
     0
102
RTVSPropertyOp52
 70
     0
102
RTVSPropertyOp53
 70
     1
102
RTVSPropertyOp54
 70
     1
102
RTVSPropertyOp55
 70
     1
102
RTVSPropertyOp56
 70
     1
102
RTVSPropertyOp57
 70
     1
102
RTVSPropertyOp58
 70
     1
102
RTVSPropertyOp59
 70
     1
102
RTVSPropertyOp60
 70
     1
102
RTVSPropertyOp61
 70
     1
102
RTVSPropertyOp62
 70
     1
  0
XRECORD
  5
BDAF
102
{ACAD_REACTORS
330
BDAE
102
}
330
BDAE
100
AcDbXrecord
280
     1
102
RTVSPost2010Prop28
280
     0
102
RTVSPost2010PropOp28
 70
     1
102
RTVSPost2010Prop29
280
     1
102
RTVSPost2010PropOp29
 70
     1
102
RTVSPost2010Prop30
280
     1
102
RTVSPost2010PropOp30
 70
     1
102
RTVSPost2010Prop31
280
     0
102
RTVSPost2010PropOp31
 70
     1
102
RTVSPost2010Prop32
280
     0
102
RTVSPost2010PropOp32
 70
     1
102
RTVSPost2010Prop33
280
     0
102
RTVSPost2010PropOp33
 70
     1
102
RTVSPost2010Prop34
280
     0
102
RTVSPost2010PropOp34
 70
     1
102
RTVSPost2010Prop35
280
     0
102
RTVSPost2010PropOp35
 70
     1
102
RTVSPost2010Prop36
280
     0
102
RTVSPost2010PropOp36
 70
     1
102
RTVSPost2010Prop37
 90
       50
102
RTVSPost2010PropOp37
 70
     1
102
RTVSPost2010Prop38
140
0.0
102
RTVSPost2010PropOp38
 70
     1
102
RTVSPost2010Prop39
140
1.0
102
RTVSPost2010PropOp39
 70
     1
102
RTVSPost2010Prop40
 90
        0
102
RTVSPost2010PropOp40
 70
     1
102
RTVSPost2010Prop41ColorIndex
 90
       18
102
RTVSPost2010Prop41ColorRGB
 90
        0
102
RTVSPost2010PropOp41
 70
     1
102
RTVSPost2010Prop42
 90
       50
102
RTVSPost2010PropOp42
 70
     1
102
RTVSPost2010Prop43
 90
        3
102
RTVSPost2010PropOp43
 70
     1
102
RTVSPost2010Prop44ColorIndex
 90
        5
102
RTVSPost2010Prop44ColorRGB
 90
      255
102
RTVSPost2010PropOp44
 70
     1
102
RTVSPost2010Prop45
280
     0
102
RTVSPost2010PropOp45
 70
     1
102
RTVSPost2010Prop46
 90
       50
102
RTVSPost2010PropOp46
 70
     1
102
RTVSPost2010Prop47
 90
       50
102
RTVSPost2010PropOp47
 70
     1
102
RTVSPost2010Prop48
 90
       50
102
RTVSPost2010PropOp48
 70
     1
102
RTVSPost2010Prop49
280
     0
102
RTVSPost2010PropOp49
 70
     1
102
RTVSPost2010Prop50
 90
       50
102
RTVSPost2010PropOp50
 70
     1
102
RTVSPost2010Prop51ColorIndex
 90
      256
102
RTVSPost2010Prop51ColorRGB
 90
-16777216
102
RTVSPost2010PropOp51
 70
     0
102
RTVSPost2010Prop52
140
1.0
102
RTVSPost2010PropOp52
 70
     0
102
RTVSPost2010Prop53
 90
        2
102
RTVSPost2010PropOp53
 70
     1
102
RTVSPost2010Prop54
  1
strokes_ogs.tif
102
RTVSPost2010PropOp54
 70
     1
102
RTVSPost2010Prop55
280
     0
102
RTVSPost2010PropOp55
 70
     1
102
RTVSPost2010Prop56
140
1.0
102
RTVSPost2010PropOp56
 70
     1
102
RTVSPost2010Prop57
140
1.0
102
RTVSPost2010PropOp57
 70
     1
102
RTVSPropertyOp0
 70
     1
102
RTVSPropertyOp1
 70
     1
102
RTVSPropertyOp2
 70
     1
102
RTVSPropertyOp3
 70
     1
102
RTVSPropertyOp4
 70
     1
102
RTVSPropertyOp5
 70
     1
102
RTVSPropertyOp6
 70
     1
102
RTVSPropertyOp7
 70
     1
102
RTVSPropertyOp8
 70
     1
102
RTVSPropertyOp9
 70
     1
102
RTVSPropertyOp10
 70
     1
102
RTVSPropertyOp11
 70
     1
102
RTVSPropertyOp12
 70
     1
102
RTVSPropertyOp13
 70
     1
102
RTVSPropertyOp14
 70
     1
102
RTVSPropertyOp15
 70
     1
102
RTVSPropertyOp16
 70
     1
102
RTVSPropertyOp17
 70
     1
102
RTVSPropertyOp18
 70
     1
102
RTVSPropertyOp19
 70
     1
102
RTVSPropertyOp20
 70
     1
102
RTVSPropertyOp21
 70
     1
102
RTVSPropertyOp22
 70
     1
102
RTVSPropertyOp23
 70
     1
102
RTVSPropertyOp24
 70
     1
102
RTVSPropertyOp25
 70
     1
102
RTVSPropertyOp26
 70
     1
102
RTVSPropertyOp27
 70
     1
102
RTVSPropertyOp28
 70
     1
102
RTVSPropertyOp29
 70
     1
102
RTVSPropertyOp30
 70
     1
102
RTVSPropertyOp31
 70
     1
102
RTVSPropertyOp32
 70
     1
102
RTVSPropertyOp33
 70
     1
102
RTVSPropertyOp34
 70
     1
102
RTVSPropertyOp35
 70
     1
102
RTVSPropertyOp36
 70
     1
102
RTVSPropertyOp37
 70
     1
102
RTVSPropertyOp38
 70
     1
102
RTVSPropertyOp39
 70
     1
102
RTVSPropertyOp40
 70
     1
102
RTVSPropertyOp41
 70
     1
102
RTVSPropertyOp42
 70
     1
102
RTVSPropertyOp43
 70
     1
102
RTVSPropertyOp44
 70
     1
102
RTVSPropertyOp45
 70
     1
102
RTVSPropertyOp46
 70
     1
102
RTVSPropertyOp47
 70
     1
102
RTVSPropertyOp48
 70
     1
102
RTVSPropertyOp49
 70
     1
102
RTVSPropertyOp50
 70
     1
102
RTVSPropertyOp51
 70
     0
102
RTVSPropertyOp52
 70
     0
102
RTVSPropertyOp53
 70
     1
102
RTVSPropertyOp54
 70
     1
102
RTVSPropertyOp55
 70
     1
102
RTVSPropertyOp56
 70
     1
102
RTVSPropertyOp57
 70
     1
102
RTVSPropertyOp58
 70
     1
102
RTVSPropertyOp59
 70
     1
102
RTVSPropertyOp60
 70
     1
102
RTVSPropertyOp61
 70
     1
102
RTVSPropertyOp62
 70
     1
  0
XRECORD
  5
BDBD
102
{ACAD_REACTORS
330
BDBC
102
}
330
BDBC
100
AcDbXrecord
280
     1
102
RTVSPost2010Prop28
280
     0
102
RTVSPost2010PropOp28
 70
     1
102
RTVSPost2010Prop29
280
     1
102
RTVSPost2010PropOp29
 70
     1
102
RTVSPost2010Prop30
280
     1
102
RTVSPost2010PropOp30
 70
     1
102
RTVSPost2010Prop31
280
     0
102
RTVSPost2010PropOp31
 70
     1
102
RTVSPost2010Prop32
280
     0
102
RTVSPost2010PropOp32
 70
     1
102
RTVSPost2010Prop33
280
     0
102
RTVSPost2010PropOp33
 70
     1
102
RTVSPost2010Prop34
280
     0
102
RTVSPost2010PropOp34
 70
     1
102
RTVSPost2010Prop35
280
     0
102
RTVSPost2010PropOp35
 70
     1
102
RTVSPost2010Prop36
280
     0
102
RTVSPost2010PropOp36
 70
     1
102
RTVSPost2010Prop37
 90
       50
102
RTVSPost2010PropOp37
 70
     1
102
RTVSPost2010Prop38
140
0.0
102
RTVSPost2010PropOp38
 70
     1
102
RTVSPost2010Prop39
140
1.0
102
RTVSPost2010PropOp39
 70
     1
102
RTVSPost2010Prop40
 90
        0
102
RTVSPost2010PropOp40
 70
     1
102
RTVSPost2010Prop41ColorIndex
 90
       18
102
RTVSPost2010Prop41ColorRGB
 90
        0
102
RTVSPost2010PropOp41
 70
     1
102
RTVSPost2010Prop42
 90
       50
102
RTVSPost2010PropOp42
 70
     1
102
RTVSPost2010Prop43
 90
        3
102
RTVSPost2010PropOp43
 70
     1
102
RTVSPost2010Prop44ColorIndex
 90
        5
102
RTVSPost2010Prop44ColorRGB
 90
      255
102
RTVSPost2010PropOp44
 70
     1
102
RTVSPost2010Prop45
280
     0
102
RTVSPost2010PropOp45
 70
     1
102
RTVSPost2010Prop46
 90
       50
102
RTVSPost2010PropOp46
 70
     1
102
RTVSPost2010Prop47
 90
       50
102
RTVSPost2010PropOp47
 70
     1
102
RTVSPost2010Prop48
 90
       50
102
RTVSPost2010PropOp48
 70
     1
102
RTVSPost2010Prop49
280
     0
102
RTVSPost2010PropOp49
 70
     1
102
RTVSPost2010Prop50
 90
       50
102
RTVSPost2010PropOp50
 70
     1
102
RTVSPost2010Prop51ColorIndex
 90
      256
102
RTVSPost2010Prop51ColorRGB
 90
-16777216
102
RTVSPost2010PropOp51
 70
     0
102
RTVSPost2010Prop52
140
1.0
102
RTVSPost2010PropOp52
 70
     0
102
RTVSPost2010Prop53
 90
        2
102
RTVSPost2010PropOp53
 70
     1
102
RTVSPost2010Prop54
  1
strokes_ogs.tif
102
RTVSPost2010PropOp54
 70
     1
102
RTVSPost2010Prop55
280
     0
102
RTVSPost2010PropOp55
 70
     1
102
RTVSPost2010Prop56
140
1.0
102
RTVSPost2010PropOp56
 70
     1
102
RTVSPost2010Prop57
140
1.0
102
RTVSPost2010PropOp57
 70
     1
102
RTVSPropertyOp0
 70
     1
102
RTVSPropertyOp1
 70
     1
102
RTVSPropertyOp2
 70
     1
102
RTVSPropertyOp3
 70
     1
102
RTVSPropertyOp4
 70
     1
102
RTVSPropertyOp5
 70
     1
102
RTVSPropertyOp6
 70
     1
102
RTVSPropertyOp7
 70
     1
102
RTVSPropertyOp8
 70
     1
102
RTVSPropertyOp9
 70
     1
102
RTVSPropertyOp10
 70
     1
102
RTVSPropertyOp11
 70
     1
102
RTVSPropertyOp12
 70
     1
102
RTVSPropertyOp13
 70
     1
102
RTVSPropertyOp14
 70
     1
102
RTVSPropertyOp15
 70
     1
102
RTVSPropertyOp16
 70
     1
102
RTVSPropertyOp17
 70
     1
102
RTVSPropertyOp18
 70
     1
102
RTVSPropertyOp19
 70
     1
102
RTVSPropertyOp20
 70
     1
102
RTVSPropertyOp21
 70
     1
102
RTVSPropertyOp22
 70
     1
102
RTVSPropertyOp23
 70
     1
102
RTVSPropertyOp24
 70
     1
102
RTVSPropertyOp25
 70
     1
102
RTVSPropertyOp26
 70
     1
102
RTVSPropertyOp27
 70
     1
102
RTVSPropertyOp28
 70
     1
102
RTVSPropertyOp29
 70
     1
102
RTVSPropertyOp30
 70
     1
102
RTVSPropertyOp31
 70
     1
102
RTVSPropertyOp32
 70
     1
102
RTVSPropertyOp33
 70
     1
102
RTVSPropertyOp34
 70
     1
102
RTVSPropertyOp35
 70
     1
102
RTVSPropertyOp36
 70
     1
102
RTVSPropertyOp37
 70
     1
102
RTVSPropertyOp38
 70
     1
102
RTVSPropertyOp39
 70
     1
102
RTVSPropertyOp40
 70
     1
102
RTVSPropertyOp41
 70
     1
102
RTVSPropertyOp42
 70
     1
102
RTVSPropertyOp43
 70
     1
102
RTVSPropertyOp44
 70
     1
102
RTVSPropertyOp45
 70
     1
102
RTVSPropertyOp46
 70
     1
102
RTVSPropertyOp47
 70
     1
102
RTVSPropertyOp48
 70
     1
102
RTVSPropertyOp49
 70
     1
102
RTVSPropertyOp50
 70
     1
102
RTVSPropertyOp51
 70
     0
102
RTVSPropertyOp52
 70
     0
102
RTVSPropertyOp53
 70
     1
102
RTVSPropertyOp54
 70
     1
102
RTVSPropertyOp55
 70
     1
102
RTVSPropertyOp56
 70
     1
102
RTVSPropertyOp57
 70
     1
102
RTVSPropertyOp58
 70
     1
102
RTVSPropertyOp59
 70
     1
102
RTVSPropertyOp60
 70
     1
102
RTVSPropertyOp61
 70
     1
102
RTVSPropertyOp62
 70
     1
  0
XRECORD
  5
BDC5
102
{ACAD_REACTORS
330
BDC4
102
}
330
BDC4
100
AcDbXrecord
280
     1
102
RTVSPost2010Prop28
280
     0
102
RTVSPost2010PropOp28
 70
     1
102
RTVSPost2010Prop29
280
     1
102
RTVSPost2010PropOp29
 70
     1
102
RTVSPost2010Prop30
280
     1
102
RTVSPost2010PropOp30
 70
     1
102
RTVSPost2010Prop31
280
     0
102
RTVSPost2010PropOp31
 70
     1
102
RTVSPost2010Prop32
280
     0
102
RTVSPost2010PropOp32
 70
     1
102
RTVSPost2010Prop33
280
     0
102
RTVSPost2010PropOp33
 70
     1
102
RTVSPost2010Prop34
280
     0
102
RTVSPost2010PropOp34
 70
     1
102
RTVSPost2010Prop35
280
     0
102
RTVSPost2010PropOp35
 70
     1
102
RTVSPost2010Prop36
280
     0
102
RTVSPost2010PropOp36
 70
     1
102
RTVSPost2010Prop37
 90
       50
102
RTVSPost2010PropOp37
 70
     1
102
RTVSPost2010Prop38
140
0.0
102
RTVSPost2010PropOp38
 70
     1
102
RTVSPost2010Prop39
140
1.0
102
RTVSPost2010PropOp39
 70
     1
102
RTVSPost2010Prop40
 90
        0
102
RTVSPost2010PropOp40
 70
     1
102
RTVSPost2010Prop41ColorIndex
 90
       18
102
RTVSPost2010Prop41ColorRGB
 90
        0
102
RTVSPost2010PropOp41
 70
     1
102
RTVSPost2010Prop42
 90
       50
102
RTVSPost2010PropOp42
 70
     1
102
RTVSPost2010Prop43
 90
        3
102
RTVSPost2010PropOp43
 70
     1
102
RTVSPost2010Prop44ColorIndex
 90
        5
102
RTVSPost2010Prop44ColorRGB
 90
      255
102
RTVSPost2010PropOp44
 70
     1
102
RTVSPost2010Prop45
280
     0
102
RTVSPost2010PropOp45
 70
     1
102
RTVSPost2010Prop46
 90
       50
102
RTVSPost2010PropOp46
 70
     1
102
RTVSPost2010Prop47
 90
       50
102
RTVSPost2010PropOp47
 70
     1
102
RTVSPost2010Prop48
 90
       50
102
RTVSPost2010PropOp48
 70
     1
102
RTVSPost2010Prop49
280
     0
102
RTVSPost2010PropOp49
 70
     1
102
RTVSPost2010Prop50
 90
       50
102
RTVSPost2010PropOp50
 70
     1
102
RTVSPost2010Prop51ColorIndex
 90
      256
102
RTVSPost2010Prop51ColorRGB
 90
-16777216
102
RTVSPost2010PropOp51
 70
     0
102
RTVSPost2010Prop52
140
1.0
102
RTVSPost2010PropOp52
 70
     0
102
RTVSPost2010Prop53
 90
        2
102
RTVSPost2010PropOp53
 70
     1
102
RTVSPost2010Prop54
  1
strokes_ogs.tif
102
RTVSPost2010PropOp54
 70
     1
102
RTVSPost2010Prop55
280
     0
102
RTVSPost2010PropOp55
 70
     1
102
RTVSPost2010Prop56
140
1.0
102
RTVSPost2010PropOp56
 70
     1
102
RTVSPost2010Prop57
140
1.0
102
RTVSPost2010PropOp57
 70
     1
102
RTVSPropertyOp0
 70
     1
102
RTVSPropertyOp1
 70
     1
102
RTVSPropertyOp2
 70
     1
102
RTVSPropertyOp3
 70
     1
102
RTVSPropertyOp4
 70
     1
102
RTVSPropertyOp5
 70
     1
102
RTVSPropertyOp6
 70
     1
102
RTVSPropertyOp7
 70
     1
102
RTVSPropertyOp8
 70
     1
102
RTVSPropertyOp9
 70
     1
102
RTVSPropertyOp10
 70
     1
102
RTVSPropertyOp11
 70
     1
102
RTVSPropertyOp12
 70
     1
102
RTVSPropertyOp13
 70
     1
102
RTVSPropertyOp14
 70
     1
102
RTVSPropertyOp15
 70
     1
102
RTVSPropertyOp16
 70
     1
102
RTVSPropertyOp17
 70
     1
102
RTVSPropertyOp18
 70
     1
102
RTVSPropertyOp19
 70
     1
102
RTVSPropertyOp20
 70
     1
102
RTVSPropertyOp21
 70
     1
102
RTVSPropertyOp22
 70
     1
102
RTVSPropertyOp23
 70
     1
102
RTVSPropertyOp24
 70
     1
102
RTVSPropertyOp25
 70
     1
102
RTVSPropertyOp26
 70
     1
102
RTVSPropertyOp27
 70
     1
102
RTVSPropertyOp28
 70
     1
102
RTVSPropertyOp29
 70
     1
102
RTVSPropertyOp30
 70
     1
102
RTVSPropertyOp31
 70
     1
102
RTVSPropertyOp32
 70
     1
102
RTVSPropertyOp33
 70
     1
102
RTVSPropertyOp34
 70
     1
102
RTVSPropertyOp35
 70
     1
102
RTVSPropertyOp36
 70
     1
102
RTVSPropertyOp37
 70
     1
102
RTVSPropertyOp38
 70
     1
102
RTVSPropertyOp39
 70
     1
102
RTVSPropertyOp40
 70
     1
102
RTVSPropertyOp41
 70
     1
102
RTVSPropertyOp42
 70
     1
102
RTVSPropertyOp43
 70
     1
102
RTVSPropertyOp44
 70
     1
102
RTVSPropertyOp45
 70
     1
102
RTVSPropertyOp46
 70
     1
102
RTVSPropertyOp47
 70
     1
102
RTVSPropertyOp48
 70
     1
102
RTVSPropertyOp49
 70
     1
102
RTVSPropertyOp50
 70
     1
102
RTVSPropertyOp51
 70
     0
102
RTVSPropertyOp52
 70
     0
102
RTVSPropertyOp53
 70
     1
102
RTVSPropertyOp54
 70
     1
102
RTVSPropertyOp55
 70
     1
102
RTVSPropertyOp56
 70
     1
102
RTVSPropertyOp57
 70
     1
102
RTVSPropertyOp58
 70
     1
102
RTVSPropertyOp59
 70
     1
102
RTVSPropertyOp60
 70
     1
102
RTVSPropertyOp61
 70
     1
102
RTVSPropertyOp62
 70
     1
  0
XRECORD
  5
BDB7
102
{ACAD_REACTORS
330
BDB6
102
}
330
BDB6
100
AcDbXrecord
280
     1
102
RTVSPost2010Prop28
280
     0
102
RTVSPost2010PropOp28
 70
     1
102
RTVSPost2010Prop29
280
     1
102
RTVSPost2010PropOp29
 70
     1
102
RTVSPost2010Prop30
280
     1
102
RTVSPost2010PropOp30
 70
     1
102
RTVSPost2010Prop31
280
     0
102
RTVSPost2010PropOp31
 70
     1
102
RTVSPost2010Prop32
280
     0
102
RTVSPost2010PropOp32
 70
     1
102
RTVSPost2010Prop33
280
     0
102
RTVSPost2010PropOp33
 70
     1
102
RTVSPost2010Prop34
280
     0
102
RTVSPost2010PropOp34
 70
     1
102
RTVSPost2010Prop35
280
     0
102
RTVSPost2010PropOp35
 70
     1
102
RTVSPost2010Prop36
280
     0
102
RTVSPost2010PropOp36
 70
     1
102
RTVSPost2010Prop37
 90
       50
102
RTVSPost2010PropOp37
 70
     1
102
RTVSPost2010Prop38
140
0.0
102
RTVSPost2010PropOp38
 70
     1
102
RTVSPost2010Prop39
140
1.0
102
RTVSPost2010PropOp39
 70
     1
102
RTVSPost2010Prop40
 90
        0
102
RTVSPost2010PropOp40
 70
     1
102
RTVSPost2010Prop41ColorIndex
 90
       18
102
RTVSPost2010Prop41ColorRGB
 90
        0
102
RTVSPost2010PropOp41
 70
     1
102
RTVSPost2010Prop42
 90
       50
102
RTVSPost2010PropOp42
 70
     1
102
RTVSPost2010Prop43
 90
        3
102
RTVSPost2010PropOp43
 70
     1
102
RTVSPost2010Prop44ColorIndex
 90
        5
102
RTVSPost2010Prop44ColorRGB
 90
      255
102
RTVSPost2010PropOp44
 70
     1
102
RTVSPost2010Prop45
280
     0
102
RTVSPost2010PropOp45
 70
     1
102
RTVSPost2010Prop46
 90
       50
102
RTVSPost2010PropOp46
 70
     1
102
RTVSPost2010Prop47
 90
       50
102
RTVSPost2010PropOp47
 70
     1
102
RTVSPost2010Prop48
 90
       50
102
RTVSPost2010PropOp48
 70
     1
102
RTVSPost2010Prop49
280
     0
102
RTVSPost2010PropOp49
 70
     1
102
RTVSPost2010Prop50
 90
       50
102
RTVSPost2010PropOp50
 70
     1
102
RTVSPost2010Prop51ColorIndex
 90
      256
102
RTVSPost2010Prop51ColorRGB
 90
-16777216
102
RTVSPost2010PropOp51
 70
     0
102
RTVSPost2010Prop52
140
1.0
102
RTVSPost2010PropOp52
 70
     0
102
RTVSPost2010Prop53
 90
        2
102
RTVSPost2010PropOp53
 70
     1
102
RTVSPost2010Prop54
  1
strokes_ogs.tif
102
RTVSPost2010PropOp54
 70
     1
102
RTVSPost2010Prop55
280
     0
102
RTVSPost2010PropOp55
 70
     1
102
RTVSPost2010Prop56
140
1.0
102
RTVSPost2010PropOp56
 70
     1
102
RTVSPost2010Prop57
140
1.0
102
RTVSPost2010PropOp57
 70
     1
102
RTVSPropertyOp0
 70
     1
102
RTVSPropertyOp1
 70
     1
102
RTVSPropertyOp2
 70
     1
102
RTVSPropertyOp3
 70
     1
102
RTVSPropertyOp4
 70
     1
102
RTVSPropertyOp5
 70
     1
102
RTVSPropertyOp6
 70
     1
102
RTVSPropertyOp7
 70
     1
102
RTVSPropertyOp8
 70
     1
102
RTVSPropertyOp9
 70
     1
102
RTVSPropertyOp10
 70
     1
102
RTVSPropertyOp11
 70
     1
102
RTVSPropertyOp12
 70
     1
102
RTVSPropertyOp13
 70
     1
102
RTVSPropertyOp14
 70
     1
102
RTVSPropertyOp15
 70
     1
102
RTVSPropertyOp16
 70
     1
102
RTVSPropertyOp17
 70
     1
102
RTVSPropertyOp18
 70
     1
102
RTVSPropertyOp19
 70
     1
102
RTVSPropertyOp20
 70
     1
102
RTVSPropertyOp21
 70
     1
102
RTVSPropertyOp22
 70
     1
102
RTVSPropertyOp23
 70
     1
102
RTVSPropertyOp24
 70
     1
102
RTVSPropertyOp25
 70
     1
102
RTVSPropertyOp26
 70
     1
102
RTVSPropertyOp27
 70
     1
102
RTVSPropertyOp28
 70
     1
102
RTVSPropertyOp29
 70
     1
102
RTVSPropertyOp30
 70
     1
102
RTVSPropertyOp31
 70
     1
102
RTVSPropertyOp32
 70
     1
102
RTVSPropertyOp33
 70
     1
102
RTVSPropertyOp34
 70
     1
102
RTVSPropertyOp35
 70
     1
102
RTVSPropertyOp36
 70
     1
102
RTVSPropertyOp37
 70
     1
102
RTVSPropertyOp38
 70
     1
102
RTVSPropertyOp39
 70
     1
102
RTVSPropertyOp40
 70
     1
102
RTVSPropertyOp41
 70
     1
102
RTVSPropertyOp42
 70
     1
102
RTVSPropertyOp43
 70
     1
102
RTVSPropertyOp44
 70
     1
102
RTVSPropertyOp45
 70
     1
102
RTVSPropertyOp46
 70
     1
102
RTVSPropertyOp47
 70
     1
102
RTVSPropertyOp48
 70
     1
102
RTVSPropertyOp49
 70
     1
102
RTVSPropertyOp50
 70
     1
102
RTVSPropertyOp51
 70
     0
102
RTVSPropertyOp52
 70
     0
102
RTVSPropertyOp53
 70
     1
102
RTVSPropertyOp54
 70
     1
102
RTVSPropertyOp55
 70
     1
102
RTVSPropertyOp56
 70
     1
102
RTVSPropertyOp57
 70
     1
102
RTVSPropertyOp58
 70
     1
102
RTVSPropertyOp59
 70
     1
102
RTVSPropertyOp60
 70
     1
102
RTVSPropertyOp61
 70
     1
102
RTVSPropertyOp62
 70
     1
  0
XRECORD
  5
BDBB
102
{ACAD_REACTORS
330
BDBA
102
}
330
BDBA
100
AcDbXrecord
280
     1
102
RTVSPost2010Prop28
280
     0
102
RTVSPost2010PropOp28
 70
     1
102
RTVSPost2010Prop29
280
     1
102
RTVSPost2010PropOp29
 70
     1
102
RTVSPost2010Prop30
280
     1
102
RTVSPost2010PropOp30
 70
     1
102
RTVSPost2010Prop31
280
     0
102
RTVSPost2010PropOp31
 70
     1
102
RTVSPost2010Prop32
280
     0
102
RTVSPost2010PropOp32
 70
     1
102
RTVSPost2010Prop33
280
     0
102
RTVSPost2010PropOp33
 70
     1
102
RTVSPost2010Prop34
280
     0
102
RTVSPost2010PropOp34
 70
     1
102
RTVSPost2010Prop35
280
     0
102
RTVSPost2010PropOp35
 70
     1
102
RTVSPost2010Prop36
280
     0
102
RTVSPost2010PropOp36
 70
     1
102
RTVSPost2010Prop37
 90
       50
102
RTVSPost2010PropOp37
 70
     1
102
RTVSPost2010Prop38
140
0.0
102
RTVSPost2010PropOp38
 70
     1
102
RTVSPost2010Prop39
140
1.0
102
RTVSPost2010PropOp39
 70
     1
102
RTVSPost2010Prop40
 90
        0
102
RTVSPost2010PropOp40
 70
     1
102
RTVSPost2010Prop41ColorIndex
 90
       18
102
RTVSPost2010Prop41ColorRGB
 90
        0
102
RTVSPost2010PropOp41
 70
     1
102
RTVSPost2010Prop42
 90
       50
102
RTVSPost2010PropOp42
 70
     1
102
RTVSPost2010Prop43
 90
        3
102
RTVSPost2010PropOp43
 70
     1
102
RTVSPost2010Prop44ColorIndex
 90
        5
102
RTVSPost2010Prop44ColorRGB
 90
      255
102
RTVSPost2010PropOp44
 70
     1
102
RTVSPost2010Prop45
280
     0
102
RTVSPost2010PropOp45
 70
     1
102
RTVSPost2010Prop46
 90
       50
102
RTVSPost2010PropOp46
 70
     1
102
RTVSPost2010Prop47
 90
       50
102
RTVSPost2010PropOp47
 70
     1
102
RTVSPost2010Prop48
 90
       50
102
RTVSPost2010PropOp48
 70
     1
102
RTVSPost2010Prop49
280
     0
102
RTVSPost2010PropOp49
 70
     1
102
RTVSPost2010Prop50
 90
       50
102
RTVSPost2010PropOp50
 70
     1
102
RTVSPost2010Prop51ColorIndex
 90
      256
102
RTVSPost2010Prop51ColorRGB
 90
-16777216
102
RTVSPost2010PropOp51
 70
     0
102
RTVSPost2010Prop52
140
1.0
102
RTVSPost2010PropOp52
 70
     0
102
RTVSPost2010Prop53
 90
        2
102
RTVSPost2010PropOp53
 70
     1
102
RTVSPost2010Prop54
  1
strokes_ogs.tif
102
RTVSPost2010PropOp54
 70
     1
102
RTVSPost2010Prop55
280
     0
102
RTVSPost2010PropOp55
 70
     1
102
RTVSPost2010Prop56
140
1.0
102
RTVSPost2010PropOp56
 70
     1
102
RTVSPost2010Prop57
140
1.0
102
RTVSPost2010PropOp57
 70
     1
102
RTVSPropertyOp0
 70
     1
102
RTVSPropertyOp1
 70
     1
102
RTVSPropertyOp2
 70
     1
102
RTVSPropertyOp3
 70
     1
102
RTVSPropertyOp4
 70
     1
102
RTVSPropertyOp5
 70
     1
102
RTVSPropertyOp6
 70
     1
102
RTVSPropertyOp7
 70
     1
102
RTVSPropertyOp8
 70
     1
102
RTVSPropertyOp9
 70
     1
102
RTVSPropertyOp10
 70
     1
102
RTVSPropertyOp11
 70
     1
102
RTVSPropertyOp12
 70
     1
102
RTVSPropertyOp13
 70
     1
102
RTVSPropertyOp14
 70
     1
102
RTVSPropertyOp15
 70
     1
102
RTVSPropertyOp16
 70
     1
102
RTVSPropertyOp17
 70
     1
102
RTVSPropertyOp18
 70
     1
102
RTVSPropertyOp19
 70
     1
102
RTVSPropertyOp20
 70
     1
102
RTVSPropertyOp21
 70
     1
102
RTVSPropertyOp22
 70
     1
102
RTVSPropertyOp23
 70
     1
102
RTVSPropertyOp24
 70
     1
102
RTVSPropertyOp25
 70
     1
102
RTVSPropertyOp26
 70
     1
102
RTVSPropertyOp27
 70
     1
102
RTVSPropertyOp28
 70
     1
102
RTVSPropertyOp29
 70
     1
102
RTVSPropertyOp30
 70
     1
102
RTVSPropertyOp31
 70
     1
102
RTVSPropertyOp32
 70
     1
102
RTVSPropertyOp33
 70
     1
102
RTVSPropertyOp34
 70
     1
102
RTVSPropertyOp35
 70
     1
102
RTVSPropertyOp36
 70
     1
102
RTVSPropertyOp37
 70
     1
102
RTVSPropertyOp38
 70
     1
102
RTVSPropertyOp39
 70
     1
102
RTVSPropertyOp40
 70
     1
102
RTVSPropertyOp41
 70
     1
102
RTVSPropertyOp42
 70
     1
102
RTVSPropertyOp43
 70
     1
102
RTVSPropertyOp44
 70
     1
102
RTVSPropertyOp45
 70
     1
102
RTVSPropertyOp46
 70
     1
102
RTVSPropertyOp47
 70
     1
102
RTVSPropertyOp48
 70
     1
102
RTVSPropertyOp49
 70
     1
102
RTVSPropertyOp50
 70
     1
102
RTVSPropertyOp51
 70
     0
102
RTVSPropertyOp52
 70
     0
102
RTVSPropertyOp53
 70
     1
102
RTVSPropertyOp54
 70
     1
102
RTVSPropertyOp55
 70
     1
102
RTVSPropertyOp56
 70
     1
102
RTVSPropertyOp57
 70
     1
102
RTVSPropertyOp58
 70
     1
102
RTVSPropertyOp59
 70
     1
102
RTVSPropertyOp60
 70
     1
102
RTVSPropertyOp61
 70
     1
102
RTVSPropertyOp62
 70
     1
  0
XRECORD
  5
BDD5
102
{ACAD_REACTORS
330
BDD4
102
}
330
BDD4
100
AcDbXrecord
280
     1
102
RTVSPost2010Prop28
280
     0
102
RTVSPost2010PropOp28
 70
     1
102
RTVSPost2010Prop29
280
     1
102
RTVSPost2010PropOp29
 70
     1
102
RTVSPost2010Prop30
280
     1
102
RTVSPost2010PropOp30
 70
     1
102
RTVSPost2010Prop31
280
     0
102
RTVSPost2010PropOp31
 70
     1
102
RTVSPost2010Prop32
280
     0
102
RTVSPost2010PropOp32
 70
     1
102
RTVSPost2010Prop33
280
     0
102
RTVSPost2010PropOp33
 70
     1
102
RTVSPost2010Prop34
280
     0
102
RTVSPost2010PropOp34
 70
     1
102
RTVSPost2010Prop35
280
     0
102
RTVSPost2010PropOp35
 70
     1
102
RTVSPost2010Prop36
280
     0
102
RTVSPost2010PropOp36
 70
     1
102
RTVSPost2010Prop37
 90
       50
102
RTVSPost2010PropOp37
 70
     0
102
RTVSPost2010Prop38
140
0.0
102
RTVSPost2010PropOp38
 70
     0
102
RTVSPost2010Prop39
140
1.0
102
RTVSPost2010PropOp39
 70
     0
102
RTVSPost2010Prop40
 90
        0
102
RTVSPost2010PropOp40
 70
     0
102
RTVSPost2010Prop41ColorIndex
 90
       18
102
RTVSPost2010Prop41ColorRGB
 90
        0
102
RTVSPost2010PropOp41
 70
     0
102
RTVSPost2010Prop42
 90
       50
102
RTVSPost2010PropOp42
 70
     0
102
RTVSPost2010Prop43
 90
        3
102
RTVSPost2010PropOp43
 70
     0
102
RTVSPost2010Prop44ColorIndex
 90
        5
102
RTVSPost2010Prop44ColorRGB
 90
      255
102
RTVSPost2010PropOp44
 70
     0
102
RTVSPost2010Prop45
280
     0
102
RTVSPost2010PropOp45
 70
     1
102
RTVSPost2010Prop46
 90
       50
102
RTVSPost2010PropOp46
 70
     0
102
RTVSPost2010Prop47
 90
       50
102
RTVSPost2010PropOp47
 70
     0
102
RTVSPost2010Prop48
 90
       50
102
RTVSPost2010PropOp48
 70
     0
102
RTVSPost2010Prop49
280
     0
102
RTVSPost2010PropOp49
 70
     1
102
RTVSPost2010Prop50
 90
       50
102
RTVSPost2010PropOp50
 70
     0
102
RTVSPost2010Prop51ColorIndex
 90
      256
102
RTVSPost2010Prop51ColorRGB
 90
-16777216
102
RTVSPost2010PropOp51
 70
     0
102
RTVSPost2010Prop52
140
1.0
102
RTVSPost2010PropOp52
 70
     0
102
RTVSPost2010Prop53
 90
        2
102
RTVSPost2010PropOp53
 70
     0
102
RTVSPost2010Prop54
  1
strokes_ogs.tif
102
RTVSPost2010PropOp54
 70
     0
102
RTVSPost2010Prop55
280
     0
102
RTVSPost2010PropOp55
 70
     1
102
RTVSPost2010Prop56
140
1.0
102
RTVSPost2010PropOp56
 70
     0
102
RTVSPost2010Prop57
140
1.0
102
RTVSPost2010PropOp57
 70
     0
102
RTVSPropertyOp0
 70
     0
102
RTVSPropertyOp1
 70
     0
102
RTVSPropertyOp2
 70
     0
102
RTVSPropertyOp3
 70
     0
102
RTVSPropertyOp4
 70
     0
102
RTVSPropertyOp5
 70
     0
102
RTVSPropertyOp6
 70
     0
102
RTVSPropertyOp7
 70
     0
102
RTVSPropertyOp8
 70
     0
102
RTVSPropertyOp9
 70
     0
102
RTVSPropertyOp10
 70
     0
102
RTVSPropertyOp11
 70
     0
102
RTVSPropertyOp12
 70
     0
102
RTVSPropertyOp13
 70
     0
102
RTVSPropertyOp14
 70
     2
102
RTVSPropertyOp15
 70
     0
102
RTVSPropertyOp16
 70
     0
102
RTVSPropertyOp17
 70
     0
102
RTVSPropertyOp18
 70
     0
102
RTVSPropertyOp19
 70
     0
102
RTVSPropertyOp20
 70
     0
102
RTVSPropertyOp21
 70
     0
102
RTVSPropertyOp22
 70
     0
102
RTVSPropertyOp23
 70
     0
102
RTVSPropertyOp24
 70
     0
102
RTVSPropertyOp25
 70
     0
102
RTVSPropertyOp26
 70
     0
102
RTVSPropertyOp27
 70
     0
102
RTVSPropertyOp28
 70
     1
102
RTVSPropertyOp29
 70
     1
102
RTVSPropertyOp30
 70
     1
102
RTVSPropertyOp31
 70
     1
102
RTVSPropertyOp32
 70
     1
102
RTVSPropertyOp33
 70
     1
102
RTVSPropertyOp34
 70
     1
102
RTVSPropertyOp35
 70
     1
102
RTVSPropertyOp36
 70
     1
102
RTVSPropertyOp37
 70
     0
102
RTVSPropertyOp38
 70
     0
102
RTVSPropertyOp39
 70
     0
102
RTVSPropertyOp40
 70
     0
102
RTVSPropertyOp41
 70
     0
102
RTVSPropertyOp42
 70
     0
102
RTVSPropertyOp43
 70
     0
102
RTVSPropertyOp44
 70
     0
102
RTVSPropertyOp45
 70
     1
102
RTVSPropertyOp46
 70
     0
102
RTVSPropertyOp47
 70
     0
102
RTVSPropertyOp48
 70
     0
102
RTVSPropertyOp49
 70
     1
102
RTVSPropertyOp50
 70
     0
102
RTVSPropertyOp51
 70
     0
102
RTVSPropertyOp52
 70
     0
102
RTVSPropertyOp53
 70
     0
102
RTVSPropertyOp54
 70
     0
102
RTVSPropertyOp55
 70
     1
102
RTVSPropertyOp56
 70
     0
102
RTVSPropertyOp57
 70
     0
102
RTVSPropertyOp58
 70
     0
102
RTVSPropertyOp59
 70
     0
102
RTVSPropertyOp60
 70
     0
102
RTVSPropertyOp61
 70
     0
102
RTVSPropertyOp62
 70
     0
  0
XRECORD
  5
BDC3
102
{ACAD_REACTORS
330
BDC2
102
}
330
BDC2
100
AcDbXrecord
280
     1
102
RTVSPost2010Prop28
280
     0
102
RTVSPost2010PropOp28
 70
     1
102
RTVSPost2010Prop29
280
     1
102
RTVSPost2010PropOp29
 70
     1
102
RTVSPost2010Prop30
280
     1
102
RTVSPost2010PropOp30
 70
     1
102
RTVSPost2010Prop31
280
     0
102
RTVSPost2010PropOp31
 70
     1
102
RTVSPost2010Prop32
280
     0
102
RTVSPost2010PropOp32
 70
     1
102
RTVSPost2010Prop33
280
     0
102
RTVSPost2010PropOp33
 70
     1
102
RTVSPost2010Prop34
280
     0
102
RTVSPost2010PropOp34
 70
     1
102
RTVSPost2010Prop35
280
     0
102
RTVSPost2010PropOp35
 70
     1
102
RTVSPost2010Prop36
280
     0
102
RTVSPost2010PropOp36
 70
     1
102
RTVSPost2010Prop37
 90
       50
102
RTVSPost2010PropOp37
 70
     1
102
RTVSPost2010Prop38
140
0.0
102
RTVSPost2010PropOp38
 70
     1
102
RTVSPost2010Prop39
140
1.0
102
RTVSPost2010PropOp39
 70
     1
102
RTVSPost2010Prop40
 90
        0
102
RTVSPost2010PropOp40
 70
     1
102
RTVSPost2010Prop41ColorIndex
 90
       18
102
RTVSPost2010Prop41ColorRGB
 90
        0
102
RTVSPost2010PropOp41
 70
     1
102
RTVSPost2010Prop42
 90
       50
102
RTVSPost2010PropOp42
 70
     1
102
RTVSPost2010Prop43
 90
        3
102
RTVSPost2010PropOp43
 70
     1
102
RTVSPost2010Prop44ColorIndex
 90
        5
102
RTVSPost2010Prop44ColorRGB
 90
      255
102
RTVSPost2010PropOp44
 70
     1
102
RTVSPost2010Prop45
280
     0
102
RTVSPost2010PropOp45
 70
     1
102
RTVSPost2010Prop46
 90
       50
102
RTVSPost2010PropOp46
 70
     1
102
RTVSPost2010Prop47
 90
       50
102
RTVSPost2010PropOp47
 70
     1
102
RTVSPost2010Prop48
 90
       50
102
RTVSPost2010PropOp48
 70
     1
102
RTVSPost2010Prop49
280
     0
102
RTVSPost2010PropOp49
 70
     1
102
RTVSPost2010Prop50
 90
       50
102
RTVSPost2010PropOp50
 70
     1
102
RTVSPost2010Prop51ColorIndex
 90
      256
102
RTVSPost2010Prop51ColorRGB
 90
-16777216
102
RTVSPost2010PropOp51
 70
     0
102
RTVSPost2010Prop52
140
1.0
102
RTVSPost2010PropOp52
 70
     0
102
RTVSPost2010Prop53
 90
        2
102
RTVSPost2010PropOp53
 70
     1
102
RTVSPost2010Prop54
  1
strokes_ogs.tif
102
RTVSPost2010PropOp54
 70
     1
102
RTVSPost2010Prop55
280
     0
102
RTVSPost2010PropOp55
 70
     1
102
RTVSPost2010Prop56
140
1.0
102
RTVSPost2010PropOp56
 70
     1
102
RTVSPost2010Prop57
140
1.0
102
RTVSPost2010PropOp57
 70
     1
102
RTVSPropertyOp0
 70
     1
102
RTVSPropertyOp1
 70
     1
102
RTVSPropertyOp2
 70
     1
102
RTVSPropertyOp3
 70
     1
102
RTVSPropertyOp4
 70
     1
102
RTVSPropertyOp5
 70
     1
102
RTVSPropertyOp6
 70
     1
102
RTVSPropertyOp7
 70
     1
102
RTVSPropertyOp8
 70
     1
102
RTVSPropertyOp9
 70
     1
102
RTVSPropertyOp10
 70
     1
102
RTVSPropertyOp11
 70
     1
102
RTVSPropertyOp12
 70
     1
102
RTVSPropertyOp13
 70
     1
102
RTVSPropertyOp14
 70
     1
102
RTVSPropertyOp15
 70
     1
102
RTVSPropertyOp16
 70
     1
102
RTVSPropertyOp17
 70
     1
102
RTVSPropertyOp18
 70
     1
102
RTVSPropertyOp19
 70
     1
102
RTVSPropertyOp20
 70
     1
102
RTVSPropertyOp21
 70
     1
102
RTVSPropertyOp22
 70
     1
102
RTVSPropertyOp23
 70
     1
102
RTVSPropertyOp24
 70
     1
102
RTVSPropertyOp25
 70
     1
102
RTVSPropertyOp26
 70
     1
102
RTVSPropertyOp27
 70
     1
102
RTVSPropertyOp28
 70
     1
102
RTVSPropertyOp29
 70
     1
102
RTVSPropertyOp30
 70
     1
102
RTVSPropertyOp31
 70
     1
102
RTVSPropertyOp32
 70
     1
102
RTVSPropertyOp33
 70
     1
102
RTVSPropertyOp34
 70
     1
102
RTVSPropertyOp35
 70
     1
102
RTVSPropertyOp36
 70
     1
102
RTVSPropertyOp37
 70
     1
102
RTVSPropertyOp38
 70
     1
102
RTVSPropertyOp39
 70
     1
102
RTVSPropertyOp40
 70
     1
102
RTVSPropertyOp41
 70
     1
102
RTVSPropertyOp42
 70
     1
102
RTVSPropertyOp43
 70
     1
102
RTVSPropertyOp44
 70
     1
102
RTVSPropertyOp45
 70
     1
102
RTVSPropertyOp46
 70
     1
102
RTVSPropertyOp47
 70
     1
102
RTVSPropertyOp48
 70
     1
102
RTVSPropertyOp49
 70
     1
102
RTVSPropertyOp50
 70
     1
102
RTVSPropertyOp51
 70
     0
102
RTVSPropertyOp52
 70
     0
102
RTVSPropertyOp53
 70
     1
102
RTVSPropertyOp54
 70
     1
102
RTVSPropertyOp55
 70
     1
102
RTVSPropertyOp56
 70
     1
102
RTVSPropertyOp57
 70
     1
102
RTVSPropertyOp58
 70
     1
102
RTVSPropertyOp59
 70
     1
102
RTVSPropertyOp60
 70
     1
102
RTVSPropertyOp61
 70
     1
102
RTVSPropertyOp62
 70
     1
  0
XRECORD
  5
BDA7
102
{ACAD_REACTORS
330
BDA6
102
}
330
BDA6
100
AcDbXrecord
280
     1
102
RTVSPost2010Prop28
280
     0
102
RTVSPost2010PropOp28
 70
     1
102
RTVSPost2010Prop29
280
     1
102
RTVSPost2010PropOp29
 70
     1
102
RTVSPost2010Prop30
280
     1
102
RTVSPost2010PropOp30
 70
     1
102
RTVSPost2010Prop31
280
     0
102
RTVSPost2010PropOp31
 70
     1
102
RTVSPost2010Prop32
280
     0
102
RTVSPost2010PropOp32
 70
     1
102
RTVSPost2010Prop33
280
     0
102
RTVSPost2010PropOp33
 70
     1
102
RTVSPost2010Prop34
280
     0
102
RTVSPost2010PropOp34
 70
     1
102
RTVSPost2010Prop35
280
     0
102
RTVSPost2010PropOp35
 70
     1
102
RTVSPost2010Prop36
280
     0
102
RTVSPost2010PropOp36
 70
     1
102
RTVSPost2010Prop37
 90
       50
102
RTVSPost2010PropOp37
 70
     1
102
RTVSPost2010Prop38
140
0.0
102
RTVSPost2010PropOp38
 70
     1
102
RTVSPost2010Prop39
140
1.0
102
RTVSPost2010PropOp39
 70
     1
102
RTVSPost2010Prop40
 90
        0
102
RTVSPost2010PropOp40
 70
     1
102
RTVSPost2010Prop41ColorIndex
 90
       18
102
RTVSPost2010Prop41ColorRGB
 90
        0
102
RTVSPost2010PropOp41
 70
     1
102
RTVSPost2010Prop42
 90
       50
102
RTVSPost2010PropOp42
 70
     1
102
RTVSPost2010Prop43
 90
        3
102
RTVSPost2010PropOp43
 70
     1
102
RTVSPost2010Prop44ColorIndex
 90
        5
102
RTVSPost2010Prop44ColorRGB
 90
      255
102
RTVSPost2010PropOp44
 70
     1
102
RTVSPost2010Prop45
280
     0
102
RTVSPost2010PropOp45
 70
     1
102
RTVSPost2010Prop46
 90
       50
102
RTVSPost2010PropOp46
 70
     1
102
RTVSPost2010Prop47
 90
       50
102
RTVSPost2010PropOp47
 70
     1
102
RTVSPost2010Prop48
 90
       50
102
RTVSPost2010PropOp48
 70
     1
102
RTVSPost2010Prop49
280
     0
102
RTVSPost2010PropOp49
 70
     1
102
RTVSPost2010Prop50
 90
       50
102
RTVSPost2010PropOp50
 70
     1
102
RTVSPost2010Prop51ColorIndex
 90
      256
102
RTVSPost2010Prop51ColorRGB
 90
-16777216
102
RTVSPost2010PropOp51
 70
     0
102
RTVSPost2010Prop52
140
1.0
102
RTVSPost2010PropOp52
 70
     0
102
RTVSPost2010Prop53
 90
        2
102
RTVSPost2010PropOp53
 70
     1
102
RTVSPost2010Prop54
  1
strokes_ogs.tif
102
RTVSPost2010PropOp54
 70
     1
102
RTVSPost2010Prop55
280
     0
102
RTVSPost2010PropOp55
 70
     1
102
RTVSPost2010Prop56
140
1.0
102
RTVSPost2010PropOp56
 70
     1
102
RTVSPost2010Prop57
140
1.0
102
RTVSPost2010PropOp57
 70
     1
102
RTVSPropertyOp0
 70
     1
102
RTVSPropertyOp1
 70
     1
102
RTVSPropertyOp2
 70
     1
102
RTVSPropertyOp3
 70
     1
102
RTVSPropertyOp4
 70
     1
102
RTVSPropertyOp5
 70
     1
102
RTVSPropertyOp6
 70
     1
102
RTVSPropertyOp7
 70
     1
102
RTVSPropertyOp8
 70
     1
102
RTVSPropertyOp9
 70
     1
102
RTVSPropertyOp10
 70
     1
102
RTVSPropertyOp11
 70
     1
102
RTVSPropertyOp12
 70
     1
102
RTVSPropertyOp13
 70
     1
102
RTVSPropertyOp14
 70
     1
102
RTVSPropertyOp15
 70
     1
102
RTVSPropertyOp16
 70
     1
102
RTVSPropertyOp17
 70
     1
102
RTVSPropertyOp18
 70
     1
102
RTVSPropertyOp19
 70
     1
102
RTVSPropertyOp20
 70
     1
102
RTVSPropertyOp21
 70
     1
102
RTVSPropertyOp22
 70
     1
102
RTVSPropertyOp23
 70
     1
102
RTVSPropertyOp24
 70
     1
102
RTVSPropertyOp25
 70
     1
102
RTVSPropertyOp26
 70
     1
102
RTVSPropertyOp27
 70
     1
102
RTVSPropertyOp28
 70
     1
102
RTVSPropertyOp29
 70
     1
102
RTVSPropertyOp30
 70
     1
102
RTVSPropertyOp31
 70
     1
102
RTVSPropertyOp32
 70
     1
102
RTVSPropertyOp33
 70
     1
102
RTVSPropertyOp34
 70
     1
102
RTVSPropertyOp35
 70
     1
102
RTVSPropertyOp36
 70
     1
102
RTVSPropertyOp37
 70
     1
102
RTVSPropertyOp38
 70
     1
102
RTVSPropertyOp39
 70
     1
102
RTVSPropertyOp40
 70
     1
102
RTVSPropertyOp41
 70
     1
102
RTVSPropertyOp42
 70
     1
102
RTVSPropertyOp43
 70
     1
102
RTVSPropertyOp44
 70
     1
102
RTVSPropertyOp45
 70
     1
102
RTVSPropertyOp46
 70
     1
102
RTVSPropertyOp47
 70
     1
102
RTVSPropertyOp48
 70
     1
102
RTVSPropertyOp49
 70
     1
102
RTVSPropertyOp50
 70
     1
102
RTVSPropertyOp51
 70
     0
102
RTVSPropertyOp52
 70
     0
102
RTVSPropertyOp53
 70
     1
102
RTVSPropertyOp54
 70
     1
102
RTVSPropertyOp55
 70
     1
102
RTVSPropertyOp56
 70
     1
102
RTVSPropertyOp57
 70
     1
102
RTVSPropertyOp58
 70
     1
102
RTVSPropertyOp59
 70
     1
102
RTVSPropertyOp60
 70
     1
102
RTVSPropertyOp61
 70
     1
102
RTVSPropertyOp62
 70
     1
  0
XRECORD
  5
BDA9
102
{ACAD_REACTORS
330
BDA8
102
}
330
BDA8
100
AcDbXrecord
280
     1
102
RTVSPost2010Prop28
280
     0
102
RTVSPost2010PropOp28
 70
     1
102
RTVSPost2010Prop29
280
     1
102
RTVSPost2010PropOp29
 70
     1
102
RTVSPost2010Prop30
280
     1
102
RTVSPost2010PropOp30
 70
     1
102
RTVSPost2010Prop31
280
     0
102
RTVSPost2010PropOp31
 70
     1
102
RTVSPost2010Prop32
280
     0
102
RTVSPost2010PropOp32
 70
     1
102
RTVSPost2010Prop33
280
     0
102
RTVSPost2010PropOp33
 70
     1
102
RTVSPost2010Prop34
280
     0
102
RTVSPost2010PropOp34
 70
     1
102
RTVSPost2010Prop35
280
     0
102
RTVSPost2010PropOp35
 70
     1
102
RTVSPost2010Prop36
280
     0
102
RTVSPost2010PropOp36
 70
     1
102
RTVSPost2010Prop37
 90
       50
102
RTVSPost2010PropOp37
 70
     1
102
RTVSPost2010Prop38
140
0.0
102
RTVSPost2010PropOp38
 70
     1
102
RTVSPost2010Prop39
140
1.0
102
RTVSPost2010PropOp39
 70
     1
102
RTVSPost2010Prop40
 90
        0
102
RTVSPost2010PropOp40
 70
     1
102
RTVSPost2010Prop41ColorIndex
 90
       18
102
RTVSPost2010Prop41ColorRGB
 90
        0
102
RTVSPost2010PropOp41
 70
     1
102
RTVSPost2010Prop42
 90
       50
102
RTVSPost2010PropOp42
 70
     1
102
RTVSPost2010Prop43
 90
        3
102
RTVSPost2010PropOp43
 70
     1
102
RTVSPost2010Prop44ColorIndex
 90
        5
102
RTVSPost2010Prop44ColorRGB
 90
      255
102
RTVSPost2010PropOp44
 70
     1
102
RTVSPost2010Prop45
280
     0
102
RTVSPost2010PropOp45
 70
     1
102
RTVSPost2010Prop46
 90
       50
102
RTVSPost2010PropOp46
 70
     1
102
RTVSPost2010Prop47
 90
       50
102
RTVSPost2010PropOp47
 70
     1
102
RTVSPost2010Prop48
 90
       50
102
RTVSPost2010PropOp48
 70
     1
102
RTVSPost2010Prop49
280
     0
102
RTVSPost2010PropOp49
 70
     1
102
RTVSPost2010Prop50
 90
       50
102
RTVSPost2010PropOp50
 70
     1
102
RTVSPost2010Prop51ColorIndex
 90
      256
102
RTVSPost2010Prop51ColorRGB
 90
-16777216
102
RTVSPost2010PropOp51
 70
     0
102
RTVSPost2010Prop52
140
1.0
102
RTVSPost2010PropOp52
 70
     0
102
RTVSPost2010Prop53
 90
        2
102
RTVSPost2010PropOp53
 70
     1
102
RTVSPost2010Prop54
  1
strokes_ogs.tif
102
RTVSPost2010PropOp54
 70
     1
102
RTVSPost2010Prop55
280
     0
102
RTVSPost2010PropOp55
 70
     1
102
RTVSPost2010Prop56
140
1.0
102
RTVSPost2010PropOp56
 70
     1
102
RTVSPost2010Prop57
140
1.0
102
RTVSPost2010PropOp57
 70
     1
102
RTVSPropertyOp0
 70
     1
102
RTVSPropertyOp1
 70
     1
102
RTVSPropertyOp2
 70
     1
102
RTVSPropertyOp3
 70
     1
102
RTVSPropertyOp4
 70
     1
102
RTVSPropertyOp5
 70
     1
102
RTVSPropertyOp6
 70
     1
102
RTVSPropertyOp7
 70
     1
102
RTVSPropertyOp8
 70
     1
102
RTVSPropertyOp9
 70
     1
102
RTVSPropertyOp10
 70
     1
102
RTVSPropertyOp11
 70
     1
102
RTVSPropertyOp12
 70
     1
102
RTVSPropertyOp13
 70
     1
102
RTVSPropertyOp14
 70
     1
102
RTVSPropertyOp15
 70
     1
102
RTVSPropertyOp16
 70
     1
102
RTVSPropertyOp17
 70
     1
102
RTVSPropertyOp18
 70
     1
102
RTVSPropertyOp19
 70
     1
102
RTVSPropertyOp20
 70
     1
102
RTVSPropertyOp21
 70
     1
102
RTVSPropertyOp22
 70
     1
102
RTVSPropertyOp23
 70
     1
102
RTVSPropertyOp24
 70
     1
102
RTVSPropertyOp25
 70
     1
102
RTVSPropertyOp26
 70
     1
102
RTVSPropertyOp27
 70
     1
102
RTVSPropertyOp28
 70
     1
102
RTVSPropertyOp29
 70
     1
102
RTVSPropertyOp30
 70
     1
102
RTVSPropertyOp31
 70
     1
102
RTVSPropertyOp32
 70
     1
102
RTVSPropertyOp33
 70
     1
102
RTVSPropertyOp34
 70
     1
102
RTVSPropertyOp35
 70
     1
102
RTVSPropertyOp36
 70
     1
102
RTVSPropertyOp37
 70
     1
102
RTVSPropertyOp38
 70
     1
102
RTVSPropertyOp39
 70
     1
102
RTVSPropertyOp40
 70
     1
102
RTVSPropertyOp41
 70
     1
102
RTVSPropertyOp42
 70
     1
102
RTVSPropertyOp43
 70
     1
102
RTVSPropertyOp44
 70
     1
102
RTVSPropertyOp45
 70
     1
102
RTVSPropertyOp46
 70
     1
102
RTVSPropertyOp47
 70
     1
102
RTVSPropertyOp48
 70
     1
102
RTVSPropertyOp49
 70
     1
102
RTVSPropertyOp50
 70
     1
102
RTVSPropertyOp51
 70
     0
102
RTVSPropertyOp52
 70
     0
102
RTVSPropertyOp53
 70
     1
102
RTVSPropertyOp54
 70
     1
102
RTVSPropertyOp55
 70
     1
102
RTVSPropertyOp56
 70
     1
102
RTVSPropertyOp57
 70
     1
102
RTVSPropertyOp58
 70
     1
102
RTVSPropertyOp59
 70
     1
102
RTVSPropertyOp60
 70
     1
102
RTVSPropertyOp61
 70
     1
102
RTVSPropertyOp62
 70
     1
  0
XRECORD
  5
BDAB
102
{ACAD_REACTORS
330
BDAA
102
}
330
BDAA
100
AcDbXrecord
280
     1
102
RTVSPost2010Prop28
280
     0
102
RTVSPost2010PropOp28
 70
     1
102
RTVSPost2010Prop29
280
     1
102
RTVSPost2010PropOp29
 70
     1
102
RTVSPost2010Prop30
280
     1
102
RTVSPost2010PropOp30
 70
     1
102
RTVSPost2010Prop31
280
     0
102
RTVSPost2010PropOp31
 70
     1
102
RTVSPost2010Prop32
280
     0
102
RTVSPost2010PropOp32
 70
     1
102
RTVSPost2010Prop33
280
     0
102
RTVSPost2010PropOp33
 70
     1
102
RTVSPost2010Prop34
280
     0
102
RTVSPost2010PropOp34
 70
     1
102
RTVSPost2010Prop35
280
     0
102
RTVSPost2010PropOp35
 70
     1
102
RTVSPost2010Prop36
280
     0
102
RTVSPost2010PropOp36
 70
     1
102
RTVSPost2010Prop37
 90
       50
102
RTVSPost2010PropOp37
 70
     1
102
RTVSPost2010Prop38
140
0.0
102
RTVSPost2010PropOp38
 70
     1
102
RTVSPost2010Prop39
140
1.0
102
RTVSPost2010PropOp39
 70
     1
102
RTVSPost2010Prop40
 90
        0
102
RTVSPost2010PropOp40
 70
     1
102
RTVSPost2010Prop41ColorIndex
 90
       18
102
RTVSPost2010Prop41ColorRGB
 90
        0
102
RTVSPost2010PropOp41
 70
     1
102
RTVSPost2010Prop42
 90
       50
102
RTVSPost2010PropOp42
 70
     1
102
RTVSPost2010Prop43
 90
        3
102
RTVSPost2010PropOp43
 70
     1
102
RTVSPost2010Prop44ColorIndex
 90
        5
102
RTVSPost2010Prop44ColorRGB
 90
      255
102
RTVSPost2010PropOp44
 70
     1
102
RTVSPost2010Prop45
280
     0
102
RTVSPost2010PropOp45
 70
     1
102
RTVSPost2010Prop46
 90
       50
102
RTVSPost2010PropOp46
 70
     1
102
RTVSPost2010Prop47
 90
       50
102
RTVSPost2010PropOp47
 70
     1
102
RTVSPost2010Prop48
 90
       50
102
RTVSPost2010PropOp48
 70
     1
102
RTVSPost2010Prop49
280
     0
102
RTVSPost2010PropOp49
 70
     1
102
RTVSPost2010Prop50
 90
       50
102
RTVSPost2010PropOp50
 70
     1
102
RTVSPost2010Prop51ColorIndex
 90
      256
102
RTVSPost2010Prop51ColorRGB
 90
-16777216
102
RTVSPost2010PropOp51
 70
     0
102
RTVSPost2010Prop52
140
1.0
102
RTVSPost2010PropOp52
 70
     0
102
RTVSPost2010Prop53
 90
        2
102
RTVSPost2010PropOp53
 70
     1
102
RTVSPost2010Prop54
  1
strokes_ogs.tif
102
RTVSPost2010PropOp54
 70
     1
102
RTVSPost2010Prop55
280
     0
102
RTVSPost2010PropOp55
 70
     1
102
RTVSPost2010Prop56
140
1.0
102
RTVSPost2010PropOp56
 70
     1
102
RTVSPost2010Prop57
140
1.0
102
RTVSPost2010PropOp57
 70
     1
102
RTVSPropertyOp0
 70
     1
102
RTVSPropertyOp1
 70
     1
102
RTVSPropertyOp2
 70
     1
102
RTVSPropertyOp3
 70
     1
102
RTVSPropertyOp4
 70
     1
102
RTVSPropertyOp5
 70
     1
102
RTVSPropertyOp6
 70
     1
102
RTVSPropertyOp7
 70
     1
102
RTVSPropertyOp8
 70
     1
102
RTVSPropertyOp9
 70
     1
102
RTVSPropertyOp10
 70
     1
102
RTVSPropertyOp11
 70
     1
102
RTVSPropertyOp12
 70
     1
102
RTVSPropertyOp13
 70
     1
102
RTVSPropertyOp14
 70
     1
102
RTVSPropertyOp15
 70
     1
102
RTVSPropertyOp16
 70
     1
102
RTVSPropertyOp17
 70
     1
102
RTVSPropertyOp18
 70
     1
102
RTVSPropertyOp19
 70
     1
102
RTVSPropertyOp20
 70
     1
102
RTVSPropertyOp21
 70
     1
102
RTVSPropertyOp22
 70
     1
102
RTVSPropertyOp23
 70
     1
102
RTVSPropertyOp24
 70
     1
102
RTVSPropertyOp25
 70
     1
102
RTVSPropertyOp26
 70
     1
102
RTVSPropertyOp27
 70
     1
102
RTVSPropertyOp28
 70
     1
102
RTVSPropertyOp29
 70
     1
102
RTVSPropertyOp30
 70
     1
102
RTVSPropertyOp31
 70
     1
102
RTVSPropertyOp32
 70
     1
102
RTVSPropertyOp33
 70
     1
102
RTVSPropertyOp34
 70
     1
102
RTVSPropertyOp35
 70
     1
102
RTVSPropertyOp36
 70
     1
102
RTVSPropertyOp37
 70
     1
102
RTVSPropertyOp38
 70
     1
102
RTVSPropertyOp39
 70
     1
102
RTVSPropertyOp40
 70
     1
102
RTVSPropertyOp41
 70
     1
102
RTVSPropertyOp42
 70
     1
102
RTVSPropertyOp43
 70
     1
102
RTVSPropertyOp44
 70
     1
102
RTVSPropertyOp45
 70
     1
102
RTVSPropertyOp46
 70
     1
102
RTVSPropertyOp47
 70
     1
102
RTVSPropertyOp48
 70
     1
102
RTVSPropertyOp49
 70
     1
102
RTVSPropertyOp50
 70
     1
102
RTVSPropertyOp51
 70
     0
102
RTVSPropertyOp52
 70
     0
102
RTVSPropertyOp53
 70
     1
102
RTVSPropertyOp54
 70
     1
102
RTVSPropertyOp55
 70
     1
102
RTVSPropertyOp56
 70
     1
102
RTVSPropertyOp57
 70
     1
102
RTVSPropertyOp58
 70
     1
102
RTVSPropertyOp59
 70
     1
102
RTVSPropertyOp60
 70
     1
102
RTVSPropertyOp61
 70
     1
102
RTVSPropertyOp62
 70
     1
  0
XRECORD
  5
BDAD
102
{ACAD_REACTORS
330
BDAC
102
}
330
BDAC
100
AcDbXrecord
280
     1
102
RTVSPost2010Prop28
280
     0
102
RTVSPost2010PropOp28
 70
     1
102
RTVSPost2010Prop29
280
     1
102
RTVSPost2010PropOp29
 70
     1
102
RTVSPost2010Prop30
280
     1
102
RTVSPost2010PropOp30
 70
     1
102
RTVSPost2010Prop31
280
     0
102
RTVSPost2010PropOp31
 70
     1
102
RTVSPost2010Prop32
280
     0
102
RTVSPost2010PropOp32
 70
     1
102
RTVSPost2010Prop33
280
     0
102
RTVSPost2010PropOp33
 70
     1
102
RTVSPost2010Prop34
280
     0
102
RTVSPost2010PropOp34
 70
     1
102
RTVSPost2010Prop35
280
     0
102
RTVSPost2010PropOp35
 70
     1
102
RTVSPost2010Prop36
280
     0
102
RTVSPost2010PropOp36
 70
     1
102
RTVSPost2010Prop37
 90
       50
102
RTVSPost2010PropOp37
 70
     1
102
RTVSPost2010Prop38
140
0.0
102
RTVSPost2010PropOp38
 70
     1
102
RTVSPost2010Prop39
140
1.0
102
RTVSPost2010PropOp39
 70
     1
102
RTVSPost2010Prop40
 90
        0
102
RTVSPost2010PropOp40
 70
     1
102
RTVSPost2010Prop41ColorIndex
 90
       18
102
RTVSPost2010Prop41ColorRGB
 90
        0
102
RTVSPost2010PropOp41
 70
     1
102
RTVSPost2010Prop42
 90
       50
102
RTVSPost2010PropOp42
 70
     1
102
RTVSPost2010Prop43
 90
        3
102
RTVSPost2010PropOp43
 70
     1
102
RTVSPost2010Prop44ColorIndex
 90
        5
102
RTVSPost2010Prop44ColorRGB
 90
      255
102
RTVSPost2010PropOp44
 70
     1
102
RTVSPost2010Prop45
280
     0
102
RTVSPost2010PropOp45
 70
     1
102
RTVSPost2010Prop46
 90
       50
102
RTVSPost2010PropOp46
 70
     1
102
RTVSPost2010Prop47
 90
       50
102
RTVSPost2010PropOp47
 70
     1
102
RTVSPost2010Prop48
 90
       50
102
RTVSPost2010PropOp48
 70
     1
102
RTVSPost2010Prop49
280
     0
102
RTVSPost2010PropOp49
 70
     1
102
RTVSPost2010Prop50
 90
       50
102
RTVSPost2010PropOp50
 70
     1
102
RTVSPost2010Prop51ColorIndex
 90
      256
102
RTVSPost2010Prop51ColorRGB
 90
-16777216
102
RTVSPost2010PropOp51
 70
     0
102
RTVSPost2010Prop52
140
1.0
102
RTVSPost2010PropOp52
 70
     0
102
RTVSPost2010Prop53
 90
        2
102
RTVSPost2010PropOp53
 70
     1
102
RTVSPost2010Prop54
  1
strokes_ogs.tif
102
RTVSPost2010PropOp54
 70
     1
102
RTVSPost2010Prop55
280
     0
102
RTVSPost2010PropOp55
 70
     1
102
RTVSPost2010Prop56
140
1.0
102
RTVSPost2010PropOp56
 70
     1
102
RTVSPost2010Prop57
140
1.0
102
RTVSPost2010PropOp57
 70
     1
102
RTVSPropertyOp0
 70
     1
102
RTVSPropertyOp1
 70
     1
102
RTVSPropertyOp2
 70
     1
102
RTVSPropertyOp3
 70
     1
102
RTVSPropertyOp4
 70
     1
102
RTVSPropertyOp5
 70
     1
102
RTVSPropertyOp6
 70
     1
102
RTVSPropertyOp7
 70
     1
102
RTVSPropertyOp8
 70
     1
102
RTVSPropertyOp9
 70
     1
102
RTVSPropertyOp10
 70
     1
102
RTVSPropertyOp11
 70
     1
102
RTVSPropertyOp12
 70
     1
102
RTVSPropertyOp13
 70
     1
102
RTVSPropertyOp14
 70
     1
102
RTVSPropertyOp15
 70
     1
102
RTVSPropertyOp16
 70
     1
102
RTVSPropertyOp17
 70
     1
102
RTVSPropertyOp18
 70
     1
102
RTVSPropertyOp19
 70
     1
102
RTVSPropertyOp20
 70
     1
102
RTVSPropertyOp21
 70
     1
102
RTVSPropertyOp22
 70
     1
102
RTVSPropertyOp23
 70
     1
102
RTVSPropertyOp24
 70
     1
102
RTVSPropertyOp25
 70
     1
102
RTVSPropertyOp26
 70
     1
102
RTVSPropertyOp27
 70
     1
102
RTVSPropertyOp28
 70
     1
102
RTVSPropertyOp29
 70
     1
102
RTVSPropertyOp30
 70
     1
102
RTVSPropertyOp31
 70
     1
102
RTVSPropertyOp32
 70
     1
102
RTVSPropertyOp33
 70
     1
102
RTVSPropertyOp34
 70
     1
102
RTVSPropertyOp35
 70
     1
102
RTVSPropertyOp36
 70
     1
102
RTVSPropertyOp37
 70
     1
102
RTVSPropertyOp38
 70
     1
102
RTVSPropertyOp39
 70
     1
102
RTVSPropertyOp40
 70
     1
102
RTVSPropertyOp41
 70
     1
102
RTVSPropertyOp42
 70
     1
102
RTVSPropertyOp43
 70
     1
102
RTVSPropertyOp44
 70
     1
102
RTVSPropertyOp45
 70
     1
102
RTVSPropertyOp46
 70
     1
102
RTVSPropertyOp47
 70
     1
102
RTVSPropertyOp48
 70
     1
102
RTVSPropertyOp49
 70
     1
102
RTVSPropertyOp50
 70
     1
102
RTVSPropertyOp51
 70
     0
102
RTVSPropertyOp52
 70
     0
102
RTVSPropertyOp53
 70
     1
102
RTVSPropertyOp54
 70
     1
102
RTVSPropertyOp55
 70
     1
102
RTVSPropertyOp56
 70
     1
102
RTVSPropertyOp57
 70
     1
102
RTVSPropertyOp58
 70
     1
102
RTVSPropertyOp59
 70
     1
102
RTVSPropertyOp60
 70
     1
102
RTVSPropertyOp61
 70
     1
102
RTVSPropertyOp62
 70
     1
  0
XRECORD
  5
BDB5
102
{ACAD_REACTORS
330
BDB4
102
}
330
BDB4
100
AcDbXrecord
280
     1
102
RTVSPost2010Prop28
280
     0
102
RTVSPost2010PropOp28
 70
     1
102
RTVSPost2010Prop29
280
     1
102
RTVSPost2010PropOp29
 70
     1
102
RTVSPost2010Prop30
280
     1
102
RTVSPost2010PropOp30
 70
     1
102
RTVSPost2010Prop31
280
     0
102
RTVSPost2010PropOp31
 70
     1
102
RTVSPost2010Prop32
280
     0
102
RTVSPost2010PropOp32
 70
     1
102
RTVSPost2010Prop33
280
     0
102
RTVSPost2010PropOp33
 70
     1
102
RTVSPost2010Prop34
280
     0
102
RTVSPost2010PropOp34
 70
     1
102
RTVSPost2010Prop35
280
     0
102
RTVSPost2010PropOp35
 70
     1
102
RTVSPost2010Prop36
280
     0
102
RTVSPost2010PropOp36
 70
     1
102
RTVSPost2010Prop37
 90
       50
102
RTVSPost2010PropOp37
 70
     1
102
RTVSPost2010Prop38
140
0.0
102
RTVSPost2010PropOp38
 70
     1
102
RTVSPost2010Prop39
140
1.0
102
RTVSPost2010PropOp39
 70
     1
102
RTVSPost2010Prop40
 90
        0
102
RTVSPost2010PropOp40
 70
     1
102
RTVSPost2010Prop41ColorIndex
 90
       18
102
RTVSPost2010Prop41ColorRGB
 90
        0
102
RTVSPost2010PropOp41
 70
     1
102
RTVSPost2010Prop42
 90
       50
102
RTVSPost2010PropOp42
 70
     1
102
RTVSPost2010Prop43
 90
        3
102
RTVSPost2010PropOp43
 70
     1
102
RTVSPost2010Prop44ColorIndex
 90
        5
102
RTVSPost2010Prop44ColorRGB
 90
      255
102
RTVSPost2010PropOp44
 70
     1
102
RTVSPost2010Prop45
280
     0
102
RTVSPost2010PropOp45
 70
     1
102
RTVSPost2010Prop46
 90
       50
102
RTVSPost2010PropOp46
 70
     1
102
RTVSPost2010Prop47
 90
       50
102
RTVSPost2010PropOp47
 70
     1
102
RTVSPost2010Prop48
 90
       50
102
RTVSPost2010PropOp48
 70
     1
102
RTVSPost2010Prop49
280
     0
102
RTVSPost2010PropOp49
 70
     1
102
RTVSPost2010Prop50
 90
       50
102
RTVSPost2010PropOp50
 70
     1
102
RTVSPost2010Prop51ColorIndex
 90
      256
102
RTVSPost2010Prop51ColorRGB
 90
-16777216
102
RTVSPost2010PropOp51
 70
     0
102
RTVSPost2010Prop52
140
1.0
102
RTVSPost2010PropOp52
 70
     0
102
RTVSPost2010Prop53
 90
        2
102
RTVSPost2010PropOp53
 70
     1
102
RTVSPost2010Prop54
  1
strokes_ogs.tif
102
RTVSPost2010PropOp54
 70
     1
102
RTVSPost2010Prop55
280
     0
102
RTVSPost2010PropOp55
 70
     1
102
RTVSPost2010Prop56
140
1.0
102
RTVSPost2010PropOp56
 70
     1
102
RTVSPost2010Prop57
140
1.0
102
RTVSPost2010PropOp57
 70
     1
102
RTVSPropertyOp0
 70
     1
102
RTVSPropertyOp1
 70
     1
102
RTVSPropertyOp2
 70
     1
102
RTVSPropertyOp3
 70
     1
102
RTVSPropertyOp4
 70
     1
102
RTVSPropertyOp5
 70
     1
102
RTVSPropertyOp6
 70
     1
102
RTVSPropertyOp7
 70
     1
102
RTVSPropertyOp8
 70
     1
102
RTVSPropertyOp9
 70
     1
102
RTVSPropertyOp10
 70
     1
102
RTVSPropertyOp11
 70
     1
102
RTVSPropertyOp12
 70
     1
102
RTVSPropertyOp13
 70
     1
102
RTVSPropertyOp14
 70
     1
102
RTVSPropertyOp15
 70
     1
102
RTVSPropertyOp16
 70
     1
102
RTVSPropertyOp17
 70
     1
102
RTVSPropertyOp18
 70
     1
102
RTVSPropertyOp19
 70
     1
102
RTVSPropertyOp20
 70
     1
102
RTVSPropertyOp21
 70
     1
102
RTVSPropertyOp22
 70
     1
102
RTVSPropertyOp23
 70
     1
102
RTVSPropertyOp24
 70
     1
102
RTVSPropertyOp25
 70
     1
102
RTVSPropertyOp26
 70
     1
102
RTVSPropertyOp27
 70
     1
102
RTVSPropertyOp28
 70
     1
102
RTVSPropertyOp29
 70
     1
102
RTVSPropertyOp30
 70
     1
102
RTVSPropertyOp31
 70
     1
102
RTVSPropertyOp32
 70
     1
102
RTVSPropertyOp33
 70
     1
102
RTVSPropertyOp34
 70
     1
102
RTVSPropertyOp35
 70
     1
102
RTVSPropertyOp36
 70
     1
102
RTVSPropertyOp37
 70
     1
102
RTVSPropertyOp38
 70
     1
102
RTVSPropertyOp39
 70
     1
102
RTVSPropertyOp40
 70
     1
102
RTVSPropertyOp41
 70
     1
102
RTVSPropertyOp42
 70
     1
102
RTVSPropertyOp43
 70
     1
102
RTVSPropertyOp44
 70
     1
102
RTVSPropertyOp45
 70
     1
102
RTVSPropertyOp46
 70
     1
102
RTVSPropertyOp47
 70
     1
102
RTVSPropertyOp48
 70
     1
102
RTVSPropertyOp49
 70
     1
102
RTVSPropertyOp50
 70
     1
102
RTVSPropertyOp51
 70
     0
102
RTVSPropertyOp52
 70
     0
102
RTVSPropertyOp53
 70
     1
102
RTVSPropertyOp54
 70
     1
102
RTVSPropertyOp55
 70
     1
102
RTVSPropertyOp56
 70
     1
102
RTVSPropertyOp57
 70
     1
102
RTVSPropertyOp58
 70
     1
102
RTVSPropertyOp59
 70
     1
102
RTVSPropertyOp60
 70
     1
102
RTVSPropertyOp61
 70
     1
102
RTVSPropertyOp62
 70
     1
  0
XRECORD
  5
BDD1
102
{ACAD_REACTORS
330
BDD0
102
}
330
BDD0
100
AcDbXrecord
280
     1
102
RTVSPost2010Prop28
280
     0
102
RTVSPost2010PropOp28
 70
     1
102
RTVSPost2010Prop29
280
     1
102
RTVSPost2010PropOp29
 70
     1
102
RTVSPost2010Prop30
280
     1
102
RTVSPost2010PropOp30
 70
     1
102
RTVSPost2010Prop31
280
     0
102
RTVSPost2010PropOp31
 70
     1
102
RTVSPost2010Prop32
280
     0
102
RTVSPost2010PropOp32
 70
     1
102
RTVSPost2010Prop33
280
     0
102
RTVSPost2010PropOp33
 70
     1
102
RTVSPost2010Prop34
280
     0
102
RTVSPost2010PropOp34
 70
     1
102
RTVSPost2010Prop35
280
     0
102
RTVSPost2010PropOp35
 70
     1
102
RTVSPost2010Prop36
280
     0
102
RTVSPost2010PropOp36
 70
     1
102
RTVSPost2010Prop37
 90
       50
102
RTVSPost2010PropOp37
 70
     0
102
RTVSPost2010Prop38
140
0.0
102
RTVSPost2010PropOp38
 70
     0
102
RTVSPost2010Prop39
140
1.0
102
RTVSPost2010PropOp39
 70
     0
102
RTVSPost2010Prop40
 90
        0
102
RTVSPost2010PropOp40
 70
     0
102
RTVSPost2010Prop41ColorIndex
 90
       18
102
RTVSPost2010Prop41ColorRGB
 90
        0
102
RTVSPost2010PropOp41
 70
     0
102
RTVSPost2010Prop42
 90
       50
102
RTVSPost2010PropOp42
 70
     0
102
RTVSPost2010Prop43
 90
        3
102
RTVSPost2010PropOp43
 70
     0
102
RTVSPost2010Prop44ColorIndex
 90
        5
102
RTVSPost2010Prop44ColorRGB
 90
      255
102
RTVSPost2010PropOp44
 70
     0
102
RTVSPost2010Prop45
280
     0
102
RTVSPost2010PropOp45
 70
     1
102
RTVSPost2010Prop46
 90
       50
102
RTVSPost2010PropOp46
 70
     0
102
RTVSPost2010Prop47
 90
       50
102
RTVSPost2010PropOp47
 70
     0
102
RTVSPost2010Prop48
 90
       50
102
RTVSPost2010PropOp48
 70
     0
102
RTVSPost2010Prop49
280
     0
102
RTVSPost2010PropOp49
 70
     1
102
RTVSPost2010Prop50
 90
       50
102
RTVSPost2010PropOp50
 70
     0
102
RTVSPost2010Prop51ColorIndex
 90
      256
102
RTVSPost2010Prop51ColorRGB
 90
-16777216
102
RTVSPost2010PropOp51
 70
     0
102
RTVSPost2010Prop52
140
1.0
102
RTVSPost2010PropOp52
 70
     0
102
RTVSPost2010Prop53
 90
        2
102
RTVSPost2010PropOp53
 70
     0
102
RTVSPost2010Prop54
  1
strokes_ogs.tif
102
RTVSPost2010PropOp54
 70
     0
102
RTVSPost2010Prop55
280
     0
102
RTVSPost2010PropOp55
 70
     1
102
RTVSPost2010Prop56
140
1.0
102
RTVSPost2010PropOp56
 70
     0
102
RTVSPost2010Prop57
140
1.0
102
RTVSPost2010PropOp57
 70
     0
102
RTVSPropertyOp0
 70
     0
102
RTVSPropertyOp1
 70
     0
102
RTVSPropertyOp2
 70
     0
102
RTVSPropertyOp3
 70
     0
102
RTVSPropertyOp4
 70
     0
102
RTVSPropertyOp5
 70
     0
102
RTVSPropertyOp6
 70
     0
102
RTVSPropertyOp7
 70
     0
102
RTVSPropertyOp8
 70
     0
102
RTVSPropertyOp9
 70
     0
102
RTVSPropertyOp10
 70
     0
102
RTVSPropertyOp11
 70
     0
102
RTVSPropertyOp12
 70
     0
102
RTVSPropertyOp13
 70
     0
102
RTVSPropertyOp14
 70
     2
102
RTVSPropertyOp15
 70
     0
102
RTVSPropertyOp16
 70
     0
102
RTVSPropertyOp17
 70
     0
102
RTVSPropertyOp18
 70
     0
102
RTVSPropertyOp19
 70
     0
102
RTVSPropertyOp20
 70
     0
102
RTVSPropertyOp21
 70
     0
102
RTVSPropertyOp22
 70
     0
102
RTVSPropertyOp23
 70
     0
102
RTVSPropertyOp24
 70
     0
102
RTVSPropertyOp25
 70
     0
102
RTVSPropertyOp26
 70
     0
102
RTVSPropertyOp27
 70
     0
102
RTVSPropertyOp28
 70
     1
102
RTVSPropertyOp29
 70
     1
102
RTVSPropertyOp30
 70
     1
102
RTVSPropertyOp31
 70
     1
102
RTVSPropertyOp32
 70
     1
102
RTVSPropertyOp33
 70
     1
102
RTVSPropertyOp34
 70
     1
102
RTVSPropertyOp35
 70
     1
102
RTVSPropertyOp36
 70
     1
102
RTVSPropertyOp37
 70
     0
102
RTVSPropertyOp38
 70
     0
102
RTVSPropertyOp39
 70
     0
102
RTVSPropertyOp40
 70
     0
102
RTVSPropertyOp41
 70
     0
102
RTVSPropertyOp42
 70
     0
102
RTVSPropertyOp43
 70
     0
102
RTVSPropertyOp44
 70
     0
102
RTVSPropertyOp45
 70
     1
102
RTVSPropertyOp46
 70
     0
102
RTVSPropertyOp47
 70
     0
102
RTVSPropertyOp48
 70
     0
102
RTVSPropertyOp49
 70
     1
102
RTVSPropertyOp50
 70
     0
102
RTVSPropertyOp51
 70
     0
102
RTVSPropertyOp52
 70
     0
102
RTVSPropertyOp53
 70
     0
102
RTVSPropertyOp54
 70
     0
102
RTVSPropertyOp55
 70
     1
102
RTVSPropertyOp56
 70
     0
102
RTVSPropertyOp57
 70
     0
102
RTVSPropertyOp58
 70
     0
102
RTVSPropertyOp59
 70
     0
102
RTVSPropertyOp60
 70
     0
102
RTVSPropertyOp61
 70
     0
102
RTVSPropertyOp62
 70
     0
  0
XRECORD
  5
BDC1
102
{ACAD_REACTORS
330
BDC0
102
}
330
BDC0
100
AcDbXrecord
280
     1
102
RTVSPost2010Prop28
280
     0
102
RTVSPost2010PropOp28
 70
     1
102
RTVSPost2010Prop29
280
     1
102
RTVSPost2010PropOp29
 70
     1
102
RTVSPost2010Prop30
280
     1
102
RTVSPost2010PropOp30
 70
     1
102
RTVSPost2010Prop31
280
     0
102
RTVSPost2010PropOp31
 70
     1
102
RTVSPost2010Prop32
280
     0
102
RTVSPost2010PropOp32
 70
     1
102
RTVSPost2010Prop33
280
     0
102
RTVSPost2010PropOp33
 70
     1
102
RTVSPost2010Prop34
280
     0
102
RTVSPost2010PropOp34
 70
     1
102
RTVSPost2010Prop35
280
     0
102
RTVSPost2010PropOp35
 70
     1
102
RTVSPost2010Prop36
280
     0
102
RTVSPost2010PropOp36
 70
     1
102
RTVSPost2010Prop37
 90
       50
102
RTVSPost2010PropOp37
 70
     1
102
RTVSPost2010Prop38
140
0.0
102
RTVSPost2010PropOp38
 70
     1
102
RTVSPost2010Prop39
140
1.0
102
RTVSPost2010PropOp39
 70
     1
102
RTVSPost2010Prop40
 90
        0
102
RTVSPost2010PropOp40
 70
     1
102
RTVSPost2010Prop41ColorIndex
 90
       18
102
RTVSPost2010Prop41ColorRGB
 90
        0
102
RTVSPost2010PropOp41
 70
     1
102
RTVSPost2010Prop42
 90
       50
102
RTVSPost2010PropOp42
 70
     1
102
RTVSPost2010Prop43
 90
        3
102
RTVSPost2010PropOp43
 70
     1
102
RTVSPost2010Prop44ColorIndex
 90
        5
102
RTVSPost2010Prop44ColorRGB
 90
      255
102
RTVSPost2010PropOp44
 70
     1
102
RTVSPost2010Prop45
280
     0
102
RTVSPost2010PropOp45
 70
     1
102
RTVSPost2010Prop46
 90
       50
102
RTVSPost2010PropOp46
 70
     1
102
RTVSPost2010Prop47
 90
       50
102
RTVSPost2010PropOp47
 70
     1
102
RTVSPost2010Prop48
 90
       50
102
RTVSPost2010PropOp48
 70
     1
102
RTVSPost2010Prop49
280
     0
102
RTVSPost2010PropOp49
 70
     1
102
RTVSPost2010Prop50
 90
       50
102
RTVSPost2010PropOp50
 70
     1
102
RTVSPost2010Prop51ColorIndex
 90
      256
102
RTVSPost2010Prop51ColorRGB
 90
-16777216
102
RTVSPost2010PropOp51
 70
     0
102
RTVSPost2010Prop52
140
1.0
102
RTVSPost2010PropOp52
 70
     0
102
RTVSPost2010Prop53
 90
        2
102
RTVSPost2010PropOp53
 70
     1
102
RTVSPost2010Prop54
  1
strokes_ogs.tif
102
RTVSPost2010PropOp54
 70
     1
102
RTVSPost2010Prop55
280
     0
102
RTVSPost2010PropOp55
 70
     1
102
RTVSPost2010Prop56
140
1.0
102
RTVSPost2010PropOp56
 70
     1
102
RTVSPost2010Prop57
140
1.0
102
RTVSPost2010PropOp57
 70
     1
102
RTVSPropertyOp0
 70
     1
102
RTVSPropertyOp1
 70
     1
102
RTVSPropertyOp2
 70
     1
102
RTVSPropertyOp3
 70
     1
102
RTVSPropertyOp4
 70
     1
102
RTVSPropertyOp5
 70
     1
102
RTVSPropertyOp6
 70
     1
102
RTVSPropertyOp7
 70
     1
102
RTVSPropertyOp8
 70
     1
102
RTVSPropertyOp9
 70
     1
102
RTVSPropertyOp10
 70
     1
102
RTVSPropertyOp11
 70
     1
102
RTVSPropertyOp12
 70
     1
102
RTVSPropertyOp13
 70
     1
102
RTVSPropertyOp14
 70
     1
102
RTVSPropertyOp15
 70
     1
102
RTVSPropertyOp16
 70
     1
102
RTVSPropertyOp17
 70
     1
102
RTVSPropertyOp18
 70
     1
102
RTVSPropertyOp19
 70
     1
102
RTVSPropertyOp20
 70
     1
102
RTVSPropertyOp21
 70
     1
102
RTVSPropertyOp22
 70
     1
102
RTVSPropertyOp23
 70
     1
102
RTVSPropertyOp24
 70
     1
102
RTVSPropertyOp25
 70
     1
102
RTVSPropertyOp26
 70
     1
102
RTVSPropertyOp27
 70
     1
102
RTVSPropertyOp28
 70
     1
102
RTVSPropertyOp29
 70
     1
102
RTVSPropertyOp30
 70
     1
102
RTVSPropertyOp31
 70
     1
102
RTVSPropertyOp32
 70
     1
102
RTVSPropertyOp33
 70
     1
102
RTVSPropertyOp34
 70
     1
102
RTVSPropertyOp35
 70
     1
102
RTVSPropertyOp36
 70
     1
102
RTVSPropertyOp37
 70
     1
102
RTVSPropertyOp38
 70
     1
102
RTVSPropertyOp39
 70
     1
102
RTVSPropertyOp40
 70
     1
102
RTVSPropertyOp41
 70
     1
102
RTVSPropertyOp42
 70
     1
102
RTVSPropertyOp43
 70
     1
102
RTVSPropertyOp44
 70
     1
102
RTVSPropertyOp45
 70
     1
102
RTVSPropertyOp46
 70
     1
102
RTVSPropertyOp47
 70
     1
102
RTVSPropertyOp48
 70
     1
102
RTVSPropertyOp49
 70
     1
102
RTVSPropertyOp50
 70
     1
102
RTVSPropertyOp51
 70
     0
102
RTVSPropertyOp52
 70
     0
102
RTVSPropertyOp53
 70
     1
102
RTVSPropertyOp54
 70
     1
102
RTVSPropertyOp55
 70
     1
102
RTVSPropertyOp56
 70
     1
102
RTVSPropertyOp57
 70
     1
102
RTVSPropertyOp58
 70
     1
102
RTVSPropertyOp59
 70
     1
102
RTVSPropertyOp60
 70
     1
102
RTVSPropertyOp61
 70
     1
102
RTVSPropertyOp62
 70
     1
  0
XRECORD
  5
BDD3
102
{ACAD_REACTORS
330
BDD2
102
}
330
BDD2
100
AcDbXrecord
280
     1
102
RTVSPost2010Prop28
280
     0
102
RTVSPost2010PropOp28
 70
     1
102
RTVSPost2010Prop29
280
     1
102
RTVSPost2010PropOp29
 70
     1
102
RTVSPost2010Prop30
280
     1
102
RTVSPost2010PropOp30
 70
     1
102
RTVSPost2010Prop31
280
     0
102
RTVSPost2010PropOp31
 70
     1
102
RTVSPost2010Prop32
280
     0
102
RTVSPost2010PropOp32
 70
     1
102
RTVSPost2010Prop33
280
     0
102
RTVSPost2010PropOp33
 70
     1
102
RTVSPost2010Prop34
280
     0
102
RTVSPost2010PropOp34
 70
     1
102
RTVSPost2010Prop35
280
     0
102
RTVSPost2010PropOp35
 70
     1
102
RTVSPost2010Prop36
280
     0
102
RTVSPost2010PropOp36
 70
     1
102
RTVSPost2010Prop37
 90
       50
102
RTVSPost2010PropOp37
 70
     0
102
RTVSPost2010Prop38
140
0.0
102
RTVSPost2010PropOp38
 70
     0
102
RTVSPost2010Prop39
140
1.0
102
RTVSPost2010PropOp39
 70
     0
102
RTVSPost2010Prop40
 90
        0
102
RTVSPost2010PropOp40
 70
     0
102
RTVSPost2010Prop41ColorIndex
 90
       18
102
RTVSPost2010Prop41ColorRGB
 90
        0
102
RTVSPost2010PropOp41
 70
     0
102
RTVSPost2010Prop42
 90
       50
102
RTVSPost2010PropOp42
 70
     0
102
RTVSPost2010Prop43
 90
        3
102
RTVSPost2010PropOp43
 70
     0
102
RTVSPost2010Prop44ColorIndex
 90
        5
102
RTVSPost2010Prop44ColorRGB
 90
      255
102
RTVSPost2010PropOp44
 70
     0
102
RTVSPost2010Prop45
280
     0
102
RTVSPost2010PropOp45
 70
     1
102
RTVSPost2010Prop46
 90
       50
102
RTVSPost2010PropOp46
 70
     0
102
RTVSPost2010Prop47
 90
       50
102
RTVSPost2010PropOp47
 70
     0
102
RTVSPost2010Prop48
 90
       50
102
RTVSPost2010PropOp48
 70
     0
102
RTVSPost2010Prop49
280
     0
102
RTVSPost2010PropOp49
 70
     1
102
RTVSPost2010Prop50
 90
       50
102
RTVSPost2010PropOp50
 70
     0
102
RTVSPost2010Prop51ColorIndex
 90
      256
102
RTVSPost2010Prop51ColorRGB
 90
-16777216
102
RTVSPost2010PropOp51
 70
     0
102
RTVSPost2010Prop52
140
1.0
102
RTVSPost2010PropOp52
 70
     0
102
RTVSPost2010Prop53
 90
        2
102
RTVSPost2010PropOp53
 70
     0
102
RTVSPost2010Prop54
  1
strokes_ogs.tif
102
RTVSPost2010PropOp54
 70
     0
102
RTVSPost2010Prop55
280
     0
102
RTVSPost2010PropOp55
 70
     1
102
RTVSPost2010Prop56
140
1.0
102
RTVSPost2010PropOp56
 70
     0
102
RTVSPost2010Prop57
140
1.0
102
RTVSPost2010PropOp57
 70
     0
102
RTVSPropertyOp0
 70
     0
102
RTVSPropertyOp1
 70
     0
102
RTVSPropertyOp2
 70
     0
102
RTVSPropertyOp3
 70
     0
102
RTVSPropertyOp4
 70
     0
102
RTVSPropertyOp5
 70
     0
102
RTVSPropertyOp6
 70
     0
102
RTVSPropertyOp7
 70
     0
102
RTVSPropertyOp8
 70
     0
102
RTVSPropertyOp9
 70
     0
102
RTVSPropertyOp10
 70
     0
102
RTVSPropertyOp11
 70
     0
102
RTVSPropertyOp12
 70
     0
102
RTVSPropertyOp13
 70
     0
102
RTVSPropertyOp14
 70
     2
102
RTVSPropertyOp15
 70
     0
102
RTVSPropertyOp16
 70
     0
102
RTVSPropertyOp17
 70
     0
102
RTVSPropertyOp18
 70
     0
102
RTVSPropertyOp19
 70
     0
102
RTVSPropertyOp20
 70
     0
102
RTVSPropertyOp21
 70
     0
102
RTVSPropertyOp22
 70
     0
102
RTVSPropertyOp23
 70
     0
102
RTVSPropertyOp24
 70
     0
102
RTVSPropertyOp25
 70
     0
102
RTVSPropertyOp26
 70
     0
102
RTVSPropertyOp27
 70
     0
102
RTVSPropertyOp28
 70
     1
102
RTVSPropertyOp29
 70
     1
102
RTVSPropertyOp30
 70
     1
102
RTVSPropertyOp31
 70
     1
102
RTVSPropertyOp32
 70
     1
102
RTVSPropertyOp33
 70
     1
102
RTVSPropertyOp34
 70
     1
102
RTVSPropertyOp35
 70
     1
102
RTVSPropertyOp36
 70
     1
102
RTVSPropertyOp37
 70
     0
102
RTVSPropertyOp38
 70
     0
102
RTVSPropertyOp39
 70
     0
102
RTVSPropertyOp40
 70
     0
102
RTVSPropertyOp41
 70
     0
102
RTVSPropertyOp42
 70
     0
102
RTVSPropertyOp43
 70
     0
102
RTVSPropertyOp44
 70
     0
102
RTVSPropertyOp45
 70
     1
102
RTVSPropertyOp46
 70
     0
102
RTVSPropertyOp47
 70
     0
102
RTVSPropertyOp48
 70
     0
102
RTVSPropertyOp49
 70
     1
102
RTVSPropertyOp50
 70
     0
102
RTVSPropertyOp51
 70
     0
102
RTVSPropertyOp52
 70
     0
102
RTVSPropertyOp53
 70
     0
102
RTVSPropertyOp54
 70
     0
102
RTVSPropertyOp55
 70
     1
102
RTVSPropertyOp56
 70
     0
102
RTVSPropertyOp57
 70
     0
102
RTVSPropertyOp58
 70
     0
102
RTVSPropertyOp59
 70
     0
102
RTVSPropertyOp60
 70
     0
102
RTVSPropertyOp61
 70
     0
102
RTVSPropertyOp62
 70
     0
  0
XRECORD
  5
BDB9
102
{ACAD_REACTORS
330
BDB8
102
}
330
BDB8
100
AcDbXrecord
280
     1
102
RTVSPost2010Prop28
280
     0
102
RTVSPost2010PropOp28
 70
     1
102
RTVSPost2010Prop29
280
     1
102
RTVSPost2010PropOp29
 70
     1
102
RTVSPost2010Prop30
280
     1
102
RTVSPost2010PropOp30
 70
     1
102
RTVSPost2010Prop31
280
     0
102
RTVSPost2010PropOp31
 70
     1
102
RTVSPost2010Prop32
280
     0
102
RTVSPost2010PropOp32
 70
     1
102
RTVSPost2010Prop33
280
     0
102
RTVSPost2010PropOp33
 70
     1
102
RTVSPost2010Prop34
280
     0
102
RTVSPost2010PropOp34
 70
     1
102
RTVSPost2010Prop35
280
     0
102
RTVSPost2010PropOp35
 70
     1
102
RTVSPost2010Prop36
280
     0
102
RTVSPost2010PropOp36
 70
     1
102
RTVSPost2010Prop37
 90
       50
102
RTVSPost2010PropOp37
 70
     1
102
RTVSPost2010Prop38
140
0.0
102
RTVSPost2010PropOp38
 70
     1
102
RTVSPost2010Prop39
140
1.0
102
RTVSPost2010PropOp39
 70
     1
102
RTVSPost2010Prop40
 90
        0
102
RTVSPost2010PropOp40
 70
     1
102
RTVSPost2010Prop41ColorIndex
 90
       18
102
RTVSPost2010Prop41ColorRGB
 90
        0
102
RTVSPost2010PropOp41
 70
     1
102
RTVSPost2010Prop42
 90
       50
102
RTVSPost2010PropOp42
 70
     1
102
RTVSPost2010Prop43
 90
        3
102
RTVSPost2010PropOp43
 70
     1
102
RTVSPost2010Prop44ColorIndex
 90
        5
102
RTVSPost2010Prop44ColorRGB
 90
      255
102
RTVSPost2010PropOp44
 70
     1
102
RTVSPost2010Prop45
280
     0
102
RTVSPost2010PropOp45
 70
     1
102
RTVSPost2010Prop46
 90
       50
102
RTVSPost2010PropOp46
 70
     1
102
RTVSPost2010Prop47
 90
       50
102
RTVSPost2010PropOp47
 70
     1
102
RTVSPost2010Prop48
 90
       50
102
RTVSPost2010PropOp48
 70
     1
102
RTVSPost2010Prop49
280
     0
102
RTVSPost2010PropOp49
 70
     1
102
RTVSPost2010Prop50
 90
       50
102
RTVSPost2010PropOp50
 70
     1
102
RTVSPost2010Prop51ColorIndex
 90
      256
102
RTVSPost2010Prop51ColorRGB
 90
-16777216
102
RTVSPost2010PropOp51
 70
     0
102
RTVSPost2010Prop52
140
1.0
102
RTVSPost2010PropOp52
 70
     0
102
RTVSPost2010Prop53
 90
        2
102
RTVSPost2010PropOp53
 70
     1
102
RTVSPost2010Prop54
  1
strokes_ogs.tif
102
RTVSPost2010PropOp54
 70
     1
102
RTVSPost2010Prop55
280
     0
102
RTVSPost2010PropOp55
 70
     1
102
RTVSPost2010Prop56
140
1.0
102
RTVSPost2010PropOp56
 70
     1
102
RTVSPost2010Prop57
140
1.0
102
RTVSPost2010PropOp57
 70
     1
102
RTVSPropertyOp0
 70
     1
102
RTVSPropertyOp1
 70
     1
102
RTVSPropertyOp2
 70
     1
102
RTVSPropertyOp3
 70
     1
102
RTVSPropertyOp4
 70
     1
102
RTVSPropertyOp5
 70
     1
102
RTVSPropertyOp6
 70
     1
102
RTVSPropertyOp7
 70
     1
102
RTVSPropertyOp8
 70
     1
102
RTVSPropertyOp9
 70
     1
102
RTVSPropertyOp10
 70
     1
102
RTVSPropertyOp11
 70
     1
102
RTVSPropertyOp12
 70
     1
102
RTVSPropertyOp13
 70
     1
102
RTVSPropertyOp14
 70
     1
102
RTVSPropertyOp15
 70
     1
102
RTVSPropertyOp16
 70
     1
102
RTVSPropertyOp17
 70
     1
102
RTVSPropertyOp18
 70
     1
102
RTVSPropertyOp19
 70
     1
102
RTVSPropertyOp20
 70
     1
102
RTVSPropertyOp21
 70
     1
102
RTVSPropertyOp22
 70
     1
102
RTVSPropertyOp23
 70
     1
102
RTVSPropertyOp24
 70
     1
102
RTVSPropertyOp25
 70
     1
102
RTVSPropertyOp26
 70
     1
102
RTVSPropertyOp27
 70
     1
102
RTVSPropertyOp28
 70
     1
102
RTVSPropertyOp29
 70
     1
102
RTVSPropertyOp30
 70
     1
102
RTVSPropertyOp31
 70
     1
102
RTVSPropertyOp32
 70
     1
102
RTVSPropertyOp33
 70
     1
102
RTVSPropertyOp34
 70
     1
102
RTVSPropertyOp35
 70
     1
102
RTVSPropertyOp36
 70
     1
102
RTVSPropertyOp37
 70
     1
102
RTVSPropertyOp38
 70
     1
102
RTVSPropertyOp39
 70
     1
102
RTVSPropertyOp40
 70
     1
102
RTVSPropertyOp41
 70
     1
102
RTVSPropertyOp42
 70
     1
102
RTVSPropertyOp43
 70
     1
102
RTVSPropertyOp44
 70
     1
102
RTVSPropertyOp45
 70
     1
102
RTVSPropertyOp46
 70
     1
102
RTVSPropertyOp47
 70
     1
102
RTVSPropertyOp48
 70
     1
102
RTVSPropertyOp49
 70
     1
102
RTVSPropertyOp50
 70
     1
102
RTVSPropertyOp51
 70
     0
102
RTVSPropertyOp52
 70
     0
102
RTVSPropertyOp53
 70
     1
102
RTVSPropertyOp54
 70
     1
102
RTVSPropertyOp55
 70
     1
102
RTVSPropertyOp56
 70
     1
102
RTVSPropertyOp57
 70
     1
102
RTVSPropertyOp58
 70
     1
102
RTVSPropertyOp59
 70
     1
102
RTVSPropertyOp60
 70
     1
102
RTVSPropertyOp61
 70
     1
102
RTVSPropertyOp62
 70
     1
  0
XRECORD
  5
BDCF
102
{ACAD_REACTORS
330
BDCE
102
}
330
BDCE
100
AcDbXrecord
280
     1
102
RTVSPost2010Prop28
280
     0
102
RTVSPost2010PropOp28
 70
     1
102
RTVSPost2010Prop29
280
     1
102
RTVSPost2010PropOp29
 70
     1
102
RTVSPost2010Prop30
280
     1
102
RTVSPost2010PropOp30
 70
     1
102
RTVSPost2010Prop31
280
     0
102
RTVSPost2010PropOp31
 70
     1
102
RTVSPost2010Prop32
280
     0
102
RTVSPost2010PropOp32
 70
     1
102
RTVSPost2010Prop33
280
     0
102
RTVSPost2010PropOp33
 70
     1
102
RTVSPost2010Prop34
280
     0
102
RTVSPost2010PropOp34
 70
     1
102
RTVSPost2010Prop35
280
     0
102
RTVSPost2010PropOp35
 70
     1
102
RTVSPost2010Prop36
280
     0
102
RTVSPost2010PropOp36
 70
     1
102
RTVSPost2010Prop37
 90
       50
102
RTVSPost2010PropOp37
 70
     1
102
RTVSPost2010Prop38
140
0.0
102
RTVSPost2010PropOp38
 70
     1
102
RTVSPost2010Prop39
140
1.0
102
RTVSPost2010PropOp39
 70
     1
102
RTVSPost2010Prop40
 90
        0
102
RTVSPost2010PropOp40
 70
     1
102
RTVSPost2010Prop41ColorIndex
 90
       18
102
RTVSPost2010Prop41ColorRGB
 90
        0
102
RTVSPost2010PropOp41
 70
     1
102
RTVSPost2010Prop42
 90
       50
102
RTVSPost2010PropOp42
 70
     1
102
RTVSPost2010Prop43
 90
        3
102
RTVSPost2010PropOp43
 70
     1
102
RTVSPost2010Prop44ColorIndex
 90
        5
102
RTVSPost2010Prop44ColorRGB
 90
      255
102
RTVSPost2010PropOp44
 70
     1
102
RTVSPost2010Prop45
280
     0
102
RTVSPost2010PropOp45
 70
     1
102
RTVSPost2010Prop46
 90
       50
102
RTVSPost2010PropOp46
 70
     1
102
RTVSPost2010Prop47
 90
       50
102
RTVSPost2010PropOp47
 70
     1
102
RTVSPost2010Prop48
 90
       50
102
RTVSPost2010PropOp48
 70
     1
102
RTVSPost2010Prop49
280
     0
102
RTVSPost2010PropOp49
 70
     1
102
RTVSPost2010Prop50
 90
       50
102
RTVSPost2010PropOp50
 70
     1
102
RTVSPost2010Prop51ColorIndex
 90
      256
102
RTVSPost2010Prop51ColorRGB
 90
-16777216
102
RTVSPost2010PropOp51
 70
     0
102
RTVSPost2010Prop52
140
1.0
102
RTVSPost2010PropOp52
 70
     0
102
RTVSPost2010Prop53
 90
        2
102
RTVSPost2010PropOp53
 70
     1
102
RTVSPost2010Prop54
  1
strokes_ogs.tif
102
RTVSPost2010PropOp54
 70
     1
102
RTVSPost2010Prop55
280
     0
102
RTVSPost2010PropOp55
 70
     1
102
RTVSPost2010Prop56
140
1.0
102
RTVSPost2010PropOp56
 70
     1
102
RTVSPost2010Prop57
140
1.0
102
RTVSPost2010PropOp57
 70
     1
102
RTVSPropertyOp0
 70
     1
102
RTVSPropertyOp1
 70
     1
102
RTVSPropertyOp2
 70
     1
102
RTVSPropertyOp3
 70
     1
102
RTVSPropertyOp4
 70
     1
102
RTVSPropertyOp5
 70
     1
102
RTVSPropertyOp6
 70
     1
102
RTVSPropertyOp7
 70
     1
102
RTVSPropertyOp8
 70
     1
102
RTVSPropertyOp9
 70
     1
102
RTVSPropertyOp10
 70
     1
102
RTVSPropertyOp11
 70
     1
102
RTVSPropertyOp12
 70
     1
102
RTVSPropertyOp13
 70
     1
102
RTVSPropertyOp14
 70
     1
102
RTVSPropertyOp15
 70
     1
102
RTVSPropertyOp16
 70
     1
102
RTVSPropertyOp17
 70
     1
102
RTVSPropertyOp18
 70
     1
102
RTVSPropertyOp19
 70
     1
102
RTVSPropertyOp20
 70
     1
102
RTVSPropertyOp21
 70
     1
102
RTVSPropertyOp22
 70
     1
102
RTVSPropertyOp23
 70
     1
102
RTVSPropertyOp24
 70
     1
102
RTVSPropertyOp25
 70
     1
102
RTVSPropertyOp26
 70
     1
102
RTVSPropertyOp27
 70
     1
102
RTVSPropertyOp28
 70
     1
102
RTVSPropertyOp29
 70
     1
102
RTVSPropertyOp30
 70
     1
102
RTVSPropertyOp31
 70
     1
102
RTVSPropertyOp32
 70
     1
102
RTVSPropertyOp33
 70
     1
102
RTVSPropertyOp34
 70
     1
102
RTVSPropertyOp35
 70
     1
102
RTVSPropertyOp36
 70
     1
102
RTVSPropertyOp37
 70
     1
102
RTVSPropertyOp38
 70
     1
102
RTVSPropertyOp39
 70
     1
102
RTVSPropertyOp40
 70
     1
102
RTVSPropertyOp41
 70
     1
102
RTVSPropertyOp42
 70
     1
102
RTVSPropertyOp43
 70
     1
102
RTVSPropertyOp44
 70
     1
102
RTVSPropertyOp45
 70
     1
102
RTVSPropertyOp46
 70
     1
102
RTVSPropertyOp47
 70
     1
102
RTVSPropertyOp48
 70
     1
102
RTVSPropertyOp49
 70
     1
102
RTVSPropertyOp50
 70
     1
102
RTVSPropertyOp51
 70
     0
102
RTVSPropertyOp52
 70
     0
102
RTVSPropertyOp53
 70
     1
102
RTVSPropertyOp54
 70
     1
102
RTVSPropertyOp55
 70
     1
102
RTVSPropertyOp56
 70
     1
102
RTVSPropertyOp57
 70
     1
102
RTVSPropertyOp58
 70
     1
102
RTVSPropertyOp59
 70
     1
102
RTVSPropertyOp60
 70
     1
102
RTVSPropertyOp61
 70
     1
102
RTVSPropertyOp62
 70
     1
  0
XRECORD
  5
BDCD
102
{ACAD_REACTORS
330
BDCC
102
}
330
BDCC
100
AcDbXrecord
280
     1
102
RTVSPost2010Prop28
280
     0
102
RTVSPost2010PropOp28
 70
     1
102
RTVSPost2010Prop29
280
     1
102
RTVSPost2010PropOp29
 70
     1
102
RTVSPost2010Prop30
280
     1
102
RTVSPost2010PropOp30
 70
     1
102
RTVSPost2010Prop31
280
     0
102
RTVSPost2010PropOp31
 70
     1
102
RTVSPost2010Prop32
280
     0
102
RTVSPost2010PropOp32
 70
     1
102
RTVSPost2010Prop33
280
     0
102
RTVSPost2010PropOp33
 70
     1
102
RTVSPost2010Prop34
280
     0
102
RTVSPost2010PropOp34
 70
     1
102
RTVSPost2010Prop35
280
     0
102
RTVSPost2010PropOp35
 70
     1
102
RTVSPost2010Prop36
280
     0
102
RTVSPost2010PropOp36
 70
     1
102
RTVSPost2010Prop37
 90
       50
102
RTVSPost2010PropOp37
 70
     1
102
RTVSPost2010Prop38
140
0.0
102
RTVSPost2010PropOp38
 70
     1
102
RTVSPost2010Prop39
140
1.0
102
RTVSPost2010PropOp39
 70
     1
102
RTVSPost2010Prop40
 90
        0
102
RTVSPost2010PropOp40
 70
     1
102
RTVSPost2010Prop41ColorIndex
 90
       18
102
RTVSPost2010Prop41ColorRGB
 90
        0
102
RTVSPost2010PropOp41
 70
     1
102
RTVSPost2010Prop42
 90
       50
102
RTVSPost2010PropOp42
 70
     1
102
RTVSPost2010Prop43
 90
        3
102
RTVSPost2010PropOp43
 70
     1
102
RTVSPost2010Prop44ColorIndex
 90
        5
102
RTVSPost2010Prop44ColorRGB
 90
      255
102
RTVSPost2010PropOp44
 70
     1
102
RTVSPost2010Prop45
280
     0
102
RTVSPost2010PropOp45
 70
     1
102
RTVSPost2010Prop46
 90
       50
102
RTVSPost2010PropOp46
 70
     1
102
RTVSPost2010Prop47
 90
       50
102
RTVSPost2010PropOp47
 70
     1
102
RTVSPost2010Prop48
 90
       50
102
RTVSPost2010PropOp48
 70
     1
102
RTVSPost2010Prop49
280
     0
102
RTVSPost2010PropOp49
 70
     1
102
RTVSPost2010Prop50
 90
       50
102
RTVSPost2010PropOp50
 70
     1
102
RTVSPost2010Prop51ColorIndex
 90
      256
102
RTVSPost2010Prop51ColorRGB
 90
-16777216
102
RTVSPost2010PropOp51
 70
     0
102
RTVSPost2010Prop52
140
1.0
102
RTVSPost2010PropOp52
 70
     0
102
RTVSPost2010Prop53
 90
        2
102
RTVSPost2010PropOp53
 70
     1
102
RTVSPost2010Prop54
  1
strokes_ogs.tif
102
RTVSPost2010PropOp54
 70
     1
102
RTVSPost2010Prop55
280
     0
102
RTVSPost2010PropOp55
 70
     1
102
RTVSPost2010Prop56
140
1.0
102
RTVSPost2010PropOp56
 70
     1
102
RTVSPost2010Prop57
140
1.0
102
RTVSPost2010PropOp57
 70
     1
102
RTVSPropertyOp0
 70
     1
102
RTVSPropertyOp1
 70
     1
102
RTVSPropertyOp2
 70
     1
102
RTVSPropertyOp3
 70
     1
102
RTVSPropertyOp4
 70
     1
102
RTVSPropertyOp5
 70
     1
102
RTVSPropertyOp6
 70
     1
102
RTVSPropertyOp7
 70
     1
102
RTVSPropertyOp8
 70
     1
102
RTVSPropertyOp9
 70
     1
102
RTVSPropertyOp10
 70
     1
102
RTVSPropertyOp11
 70
     1
102
RTVSPropertyOp12
 70
     1
102
RTVSPropertyOp13
 70
     1
102
RTVSPropertyOp14
 70
     1
102
RTVSPropertyOp15
 70
     1
102
RTVSPropertyOp16
 70
     1
102
RTVSPropertyOp17
 70
     1
102
RTVSPropertyOp18
 70
     1
102
RTVSPropertyOp19
 70
     1
102
RTVSPropertyOp20
 70
     1
102
RTVSPropertyOp21
 70
     1
102
RTVSPropertyOp22
 70
     1
102
RTVSPropertyOp23
 70
     1
102
RTVSPropertyOp24
 70
     1
102
RTVSPropertyOp25
 70
     1
102
RTVSPropertyOp26
 70
     1
102
RTVSPropertyOp27
 70
     1
102
RTVSPropertyOp28
 70
     1
102
RTVSPropertyOp29
 70
     1
102
RTVSPropertyOp30
 70
     1
102
RTVSPropertyOp31
 70
     1
102
RTVSPropertyOp32
 70
     1
102
RTVSPropertyOp33
 70
     1
102
RTVSPropertyOp34
 70
     1
102
RTVSPropertyOp35
 70
     1
102
RTVSPropertyOp36
 70
     1
102
RTVSPropertyOp37
 70
     1
102
RTVSPropertyOp38
 70
     1
102
RTVSPropertyOp39
 70
     1
102
RTVSPropertyOp40
 70
     1
102
RTVSPropertyOp41
 70
     1
102
RTVSPropertyOp42
 70
     1
102
RTVSPropertyOp43
 70
     1
102
RTVSPropertyOp44
 70
     1
102
RTVSPropertyOp45
 70
     1
102
RTVSPropertyOp46
 70
     1
102
RTVSPropertyOp47
 70
     1
102
RTVSPropertyOp48
 70
     1
102
RTVSPropertyOp49
 70
     1
102
RTVSPropertyOp50
 70
     1
102
RTVSPropertyOp51
 70
     0
102
RTVSPropertyOp52
 70
     0
102
RTVSPropertyOp53
 70
     1
102
RTVSPropertyOp54
 70
     1
102
RTVSPropertyOp55
 70
     1
102
RTVSPropertyOp56
 70
     1
102
RTVSPropertyOp57
 70
     1
102
RTVSPropertyOp58
 70
     1
102
RTVSPropertyOp59
 70
     1
102
RTVSPropertyOp60
 70
     1
102
RTVSPropertyOp61
 70
     1
102
RTVSPropertyOp62
 70
     1
  0
XRECORD
  5
BDC7
102
{ACAD_REACTORS
330
BDC6
102
}
330
BDC6
100
AcDbXrecord
280
     1
102
RTVSPost2010Prop28
280
     0
102
RTVSPost2010PropOp28
 70
     1
102
RTVSPost2010Prop29
280
     1
102
RTVSPost2010PropOp29
 70
     1
102
RTVSPost2010Prop30
280
     1
102
RTVSPost2010PropOp30
 70
     1
102
RTVSPost2010Prop31
280
     0
102
RTVSPost2010PropOp31
 70
     1
102
RTVSPost2010Prop32
280
     0
102
RTVSPost2010PropOp32
 70
     1
102
RTVSPost2010Prop33
280
     0
102
RTVSPost2010PropOp33
 70
     1
102
RTVSPost2010Prop34
280
     0
102
RTVSPost2010PropOp34
 70
     1
102
RTVSPost2010Prop35
280
     0
102
RTVSPost2010PropOp35
 70
     1
102
RTVSPost2010Prop36
280
     0
102
RTVSPost2010PropOp36
 70
     1
102
RTVSPost2010Prop37
 90
       50
102
RTVSPost2010PropOp37
 70
     1
102
RTVSPost2010Prop38
140
0.0
102
RTVSPost2010PropOp38
 70
     1
102
RTVSPost2010Prop39
140
1.0
102
RTVSPost2010PropOp39
 70
     1
102
RTVSPost2010Prop40
 90
        0
102
RTVSPost2010PropOp40
 70
     1
102
RTVSPost2010Prop41ColorIndex
 90
       18
102
RTVSPost2010Prop41ColorRGB
 90
        0
102
RTVSPost2010PropOp41
 70
     1
102
RTVSPost2010Prop42
 90
       50
102
RTVSPost2010PropOp42
 70
     1
102
RTVSPost2010Prop43
 90
        3
102
RTVSPost2010PropOp43
 70
     1
102
RTVSPost2010Prop44ColorIndex
 90
        5
102
RTVSPost2010Prop44ColorRGB
 90
      255
102
RTVSPost2010PropOp44
 70
     1
102
RTVSPost2010Prop45
280
     0
102
RTVSPost2010PropOp45
 70
     1
102
RTVSPost2010Prop46
 90
       50
102
RTVSPost2010PropOp46
 70
     1
102
RTVSPost2010Prop47
 90
       50
102
RTVSPost2010PropOp47
 70
     1
102
RTVSPost2010Prop48
 90
       50
102
RTVSPost2010PropOp48
 70
     1
102
RTVSPost2010Prop49
280
     0
102
RTVSPost2010PropOp49
 70
     1
102
RTVSPost2010Prop50
 90
       50
102
RTVSPost2010PropOp50
 70
     1
102
RTVSPost2010Prop51ColorIndex
 90
      256
102
RTVSPost2010Prop51ColorRGB
 90
-16777216
102
RTVSPost2010PropOp51
 70
     0
102
RTVSPost2010Prop52
140
1.0
102
RTVSPost2010PropOp52
 70
     0
102
RTVSPost2010Prop53
 90
        2
102
RTVSPost2010PropOp53
 70
     1
102
RTVSPost2010Prop54
  1
strokes_ogs.tif
102
RTVSPost2010PropOp54
 70
     1
102
RTVSPost2010Prop55
280
     0
102
RTVSPost2010PropOp55
 70
     1
102
RTVSPost2010Prop56
140
1.0
102
RTVSPost2010PropOp56
 70
     1
102
RTVSPost2010Prop57
140
1.0
102
RTVSPost2010PropOp57
 70
     1
102
RTVSPropertyOp0
 70
     1
102
RTVSPropertyOp1
 70
     1
102
RTVSPropertyOp2
 70
     1
102
RTVSPropertyOp3
 70
     1
102
RTVSPropertyOp4
 70
     1
102
RTVSPropertyOp5
 70
     1
102
RTVSPropertyOp6
 70
     1
102
RTVSPropertyOp7
 70
     1
102
RTVSPropertyOp8
 70
     1
102
RTVSPropertyOp9
 70
     1
102
RTVSPropertyOp10
 70
     1
102
RTVSPropertyOp11
 70
     1
102
RTVSPropertyOp12
 70
     1
102
RTVSPropertyOp13
 70
     1
102
RTVSPropertyOp14
 70
     1
102
RTVSPropertyOp15
 70
     1
102
RTVSPropertyOp16
 70
     1
102
RTVSPropertyOp17
 70
     1
102
RTVSPropertyOp18
 70
     1
102
RTVSPropertyOp19
 70
     1
102
RTVSPropertyOp20
 70
     1
102
RTVSPropertyOp21
 70
     1
102
RTVSPropertyOp22
 70
     1
102
RTVSPropertyOp23
 70
     1
102
RTVSPropertyOp24
 70
     1
102
RTVSPropertyOp25
 70
     1
102
RTVSPropertyOp26
 70
     1
102
RTVSPropertyOp27
 70
     1
102
RTVSPropertyOp28
 70
     1
102
RTVSPropertyOp29
 70
     1
102
RTVSPropertyOp30
 70
     1
102
RTVSPropertyOp31
 70
     1
102
RTVSPropertyOp32
 70
     1
102
RTVSPropertyOp33
 70
     1
102
RTVSPropertyOp34
 70
     1
102
RTVSPropertyOp35
 70
     1
102
RTVSPropertyOp36
 70
     1
102
RTVSPropertyOp37
 70
     1
102
RTVSPropertyOp38
 70
     1
102
RTVSPropertyOp39
 70
     1
102
RTVSPropertyOp40
 70
     1
102
RTVSPropertyOp41
 70
     1
102
RTVSPropertyOp42
 70
     1
102
RTVSPropertyOp43
 70
     1
102
RTVSPropertyOp44
 70
     1
102
RTVSPropertyOp45
 70
     1
102
RTVSPropertyOp46
 70
     1
102
RTVSPropertyOp47
 70
     1
102
RTVSPropertyOp48
 70
     1
102
RTVSPropertyOp49
 70
     1
102
RTVSPropertyOp50
 70
     1
102
RTVSPropertyOp51
 70
     0
102
RTVSPropertyOp52
 70
     0
102
RTVSPropertyOp53
 70
     1
102
RTVSPropertyOp54
 70
     1
102
RTVSPropertyOp55
 70
     1
102
RTVSPropertyOp56
 70
     1
102
RTVSPropertyOp57
 70
     1
102
RTVSPropertyOp58
 70
     1
102
RTVSPropertyOp59
 70
     1
102
RTVSPropertyOp60
 70
     1
102
RTVSPropertyOp61
 70
     1
102
RTVSPropertyOp62
 70
     1
  0
XRECORD
  5
BDC9
102
{ACAD_REACTORS
330
BDC8
102
}
330
BDC8
100
AcDbXrecord
280
     1
102
RTVSPost2010Prop28
280
     0
102
RTVSPost2010PropOp28
 70
     1
102
RTVSPost2010Prop29
280
     1
102
RTVSPost2010PropOp29
 70
     1
102
RTVSPost2010Prop30
280
     1
102
RTVSPost2010PropOp30
 70
     1
102
RTVSPost2010Prop31
280
     0
102
RTVSPost2010PropOp31
 70
     1
102
RTVSPost2010Prop32
280
     0
102
RTVSPost2010PropOp32
 70
     1
102
RTVSPost2010Prop33
280
     0
102
RTVSPost2010PropOp33
 70
     1
102
RTVSPost2010Prop34
280
     0
102
RTVSPost2010PropOp34
 70
     1
102
RTVSPost2010Prop35
280
     0
102
RTVSPost2010PropOp35
 70
     1
102
RTVSPost2010Prop36
280
     0
102
RTVSPost2010PropOp36
 70
     1
102
RTVSPost2010Prop37
 90
       50
102
RTVSPost2010PropOp37
 70
     1
102
RTVSPost2010Prop38
140
0.0
102
RTVSPost2010PropOp38
 70
     1
102
RTVSPost2010Prop39
140
1.0
102
RTVSPost2010PropOp39
 70
     1
102
RTVSPost2010Prop40
 90
        0
102
RTVSPost2010PropOp40
 70
     1
102
RTVSPost2010Prop41ColorIndex
 90
       18
102
RTVSPost2010Prop41ColorRGB
 90
        0
102
RTVSPost2010PropOp41
 70
     1
102
RTVSPost2010Prop42
 90
       50
102
RTVSPost2010PropOp42
 70
     1
102
RTVSPost2010Prop43
 90
        3
102
RTVSPost2010PropOp43
 70
     1
102
RTVSPost2010Prop44ColorIndex
 90
        5
102
RTVSPost2010Prop44ColorRGB
 90
      255
102
RTVSPost2010PropOp44
 70
     1
102
RTVSPost2010Prop45
280
     0
102
RTVSPost2010PropOp45
 70
     1
102
RTVSPost2010Prop46
 90
       50
102
RTVSPost2010PropOp46
 70
     1
102
RTVSPost2010Prop47
 90
       50
102
RTVSPost2010PropOp47
 70
     1
102
RTVSPost2010Prop48
 90
       50
102
RTVSPost2010PropOp48
 70
     1
102
RTVSPost2010Prop49
280
     0
102
RTVSPost2010PropOp49
 70
     1
102
RTVSPost2010Prop50
 90
       50
102
RTVSPost2010PropOp50
 70
     1
102
RTVSPost2010Prop51ColorIndex
 90
      256
102
RTVSPost2010Prop51ColorRGB
 90
-16777216
102
RTVSPost2010PropOp51
 70
     0
102
RTVSPost2010Prop52
140
1.0
102
RTVSPost2010PropOp52
 70
     0
102
RTVSPost2010Prop53
 90
        2
102
RTVSPost2010PropOp53
 70
     1
102
RTVSPost2010Prop54
  1
strokes_ogs.tif
102
RTVSPost2010PropOp54
 70
     1
102
RTVSPost2010Prop55
280
     0
102
RTVSPost2010PropOp55
 70
     1
102
RTVSPost2010Prop56
140
1.0
102
RTVSPost2010PropOp56
 70
     1
102
RTVSPost2010Prop57
140
1.0
102
RTVSPost2010PropOp57
 70
     1
102
RTVSPropertyOp0
 70
     1
102
RTVSPropertyOp1
 70
     1
102
RTVSPropertyOp2
 70
     1
102
RTVSPropertyOp3
 70
     1
102
RTVSPropertyOp4
 70
     1
102
RTVSPropertyOp5
 70
     1
102
RTVSPropertyOp6
 70
     1
102
RTVSPropertyOp7
 70
     1
102
RTVSPropertyOp8
 70
     1
102
RTVSPropertyOp9
 70
     1
102
RTVSPropertyOp10
 70
     1
102
RTVSPropertyOp11
 70
     1
102
RTVSPropertyOp12
 70
     1
102
RTVSPropertyOp13
 70
     1
102
RTVSPropertyOp14
 70
     1
102
RTVSPropertyOp15
 70
     1
102
RTVSPropertyOp16
 70
     1
102
RTVSPropertyOp17
 70
     1
102
RTVSPropertyOp18
 70
     1
102
RTVSPropertyOp19
 70
     1
102
RTVSPropertyOp20
 70
     1
102
RTVSPropertyOp21
 70
     1
102
RTVSPropertyOp22
 70
     1
102
RTVSPropertyOp23
 70
     1
102
RTVSPropertyOp24
 70
     1
102
RTVSPropertyOp25
 70
     1
102
RTVSPropertyOp26
 70
     1
102
RTVSPropertyOp27
 70
     1
102
RTVSPropertyOp28
 70
     1
102
RTVSPropertyOp29
 70
     1
102
RTVSPropertyOp30
 70
     1
102
RTVSPropertyOp31
 70
     1
102
RTVSPropertyOp32
 70
     1
102
RTVSPropertyOp33
 70
     1
102
RTVSPropertyOp34
 70
     1
102
RTVSPropertyOp35
 70
     1
102
RTVSPropertyOp36
 70
     1
102
RTVSPropertyOp37
 70
     1
102
RTVSPropertyOp38
 70
     1
102
RTVSPropertyOp39
 70
     1
102
RTVSPropertyOp40
 70
     1
102
RTVSPropertyOp41
 70
     1
102
RTVSPropertyOp42
 70
     1
102
RTVSPropertyOp43
 70
     1
102
RTVSPropertyOp44
 70
     1
102
RTVSPropertyOp45
 70
     1
102
RTVSPropertyOp46
 70
     1
102
RTVSPropertyOp47
 70
     1
102
RTVSPropertyOp48
 70
     1
102
RTVSPropertyOp49
 70
     1
102
RTVSPropertyOp50
 70
     1
102
RTVSPropertyOp51
 70
     0
102
RTVSPropertyOp52
 70
     0
102
RTVSPropertyOp53
 70
     1
102
RTVSPropertyOp54
 70
     1
102
RTVSPropertyOp55
 70
     1
102
RTVSPropertyOp56
 70
     1
102
RTVSPropertyOp57
 70
     1
102
RTVSPropertyOp58
 70
     1
102
RTVSPropertyOp59
 70
     1
102
RTVSPropertyOp60
 70
     1
102
RTVSPropertyOp61
 70
     1
102
RTVSPropertyOp62
 70
     1
  0
XRECORD
  5
BDBF
102
{ACAD_REACTORS
330
BDBE
102
}
330
BDBE
100
AcDbXrecord
280
     1
102
RTVSPost2010Prop28
280
     0
102
RTVSPost2010PropOp28
 70
     1
102
RTVSPost2010Prop29
280
     1
102
RTVSPost2010PropOp29
 70
     1
102
RTVSPost2010Prop30
280
     1
102
RTVSPost2010PropOp30
 70
     1
102
RTVSPost2010Prop31
280
     0
102
RTVSPost2010PropOp31
 70
     1
102
RTVSPost2010Prop32
280
     0
102
RTVSPost2010PropOp32
 70
     1
102
RTVSPost2010Prop33
280
     0
102
RTVSPost2010PropOp33
 70
     1
102
RTVSPost2010Prop34
280
     0
102
RTVSPost2010PropOp34
 70
     1
102
RTVSPost2010Prop35
280
     0
102
RTVSPost2010PropOp35
 70
     1
102
RTVSPost2010Prop36
280
     0
102
RTVSPost2010PropOp36
 70
     1
102
RTVSPost2010Prop37
 90
       50
102
RTVSPost2010PropOp37
 70
     1
102
RTVSPost2010Prop38
140
0.0
102
RTVSPost2010PropOp38
 70
     1
102
RTVSPost2010Prop39
140
1.0
102
RTVSPost2010PropOp39
 70
     1
102
RTVSPost2010Prop40
 90
        0
102
RTVSPost2010PropOp40
 70
     1
102
RTVSPost2010Prop41ColorIndex
 90
       18
102
RTVSPost2010Prop41ColorRGB
 90
        0
102
RTVSPost2010PropOp41
 70
     1
102
RTVSPost2010Prop42
 90
       50
102
RTVSPost2010PropOp42
 70
     1
102
RTVSPost2010Prop43
 90
        3
102
RTVSPost2010PropOp43
 70
     1
102
RTVSPost2010Prop44ColorIndex
 90
        5
102
RTVSPost2010Prop44ColorRGB
 90
      255
102
RTVSPost2010PropOp44
 70
     1
102
RTVSPost2010Prop45
280
     0
102
RTVSPost2010PropOp45
 70
     1
102
RTVSPost2010Prop46
 90
       50
102
RTVSPost2010PropOp46
 70
     1
102
RTVSPost2010Prop47
 90
       50
102
RTVSPost2010PropOp47
 70
     1
102
RTVSPost2010Prop48
 90
       50
102
RTVSPost2010PropOp48
 70
     1
102
RTVSPost2010Prop49
280
     0
102
RTVSPost2010PropOp49
 70
     1
102
RTVSPost2010Prop50
 90
       50
102
RTVSPost2010PropOp50
 70
     1
102
RTVSPost2010Prop51ColorIndex
 90
      256
102
RTVSPost2010Prop51ColorRGB
 90
-16777216
102
RTVSPost2010PropOp51
 70
     0
102
RTVSPost2010Prop52
140
1.0
102
RTVSPost2010PropOp52
 70
     0
102
RTVSPost2010Prop53
 90
        2
102
RTVSPost2010PropOp53
 70
     1
102
RTVSPost2010Prop54
  1
strokes_ogs.tif
102
RTVSPost2010PropOp54
 70
     1
102
RTVSPost2010Prop55
280
     0
102
RTVSPost2010PropOp55
 70
     1
102
RTVSPost2010Prop56
140
1.0
102
RTVSPost2010PropOp56
 70
     1
102
RTVSPost2010Prop57
140
1.0
102
RTVSPost2010PropOp57
 70
     1
102
RTVSPropertyOp0
 70
     1
102
RTVSPropertyOp1
 70
     1
102
RTVSPropertyOp2
 70
     1
102
RTVSPropertyOp3
 70
     1
102
RTVSPropertyOp4
 70
     1
102
RTVSPropertyOp5
 70
     1
102
RTVSPropertyOp6
 70
     1
102
RTVSPropertyOp7
 70
     1
102
RTVSPropertyOp8
 70
     1
102
RTVSPropertyOp9
 70
     1
102
RTVSPropertyOp10
 70
     1
102
RTVSPropertyOp11
 70
     1
102
RTVSPropertyOp12
 70
     1
102
RTVSPropertyOp13
 70
     1
102
RTVSPropertyOp14
 70
     1
102
RTVSPropertyOp15
 70
     1
102
RTVSPropertyOp16
 70
     1
102
RTVSPropertyOp17
 70
     1
102
RTVSPropertyOp18
 70
     1
102
RTVSPropertyOp19
 70
     1
102
RTVSPropertyOp20
 70
     1
102
RTVSPropertyOp21
 70
     1
102
RTVSPropertyOp22
 70
     1
102
RTVSPropertyOp23
 70
     1
102
RTVSPropertyOp24
 70
     1
102
RTVSPropertyOp25
 70
     1
102
RTVSPropertyOp26
 70
     1
102
RTVSPropertyOp27
 70
     1
102
RTVSPropertyOp28
 70
     1
102
RTVSPropertyOp29
 70
     1
102
RTVSPropertyOp30
 70
     1
102
RTVSPropertyOp31
 70
     1
102
RTVSPropertyOp32
 70
     1
102
RTVSPropertyOp33
 70
     1
102
RTVSPropertyOp34
 70
     1
102
RTVSPropertyOp35
 70
     1
102
RTVSPropertyOp36
 70
     1
102
RTVSPropertyOp37
 70
     1
102
RTVSPropertyOp38
 70
     1
102
RTVSPropertyOp39
 70
     1
102
RTVSPropertyOp40
 70
     1
102
RTVSPropertyOp41
 70
     1
102
RTVSPropertyOp42
 70
     1
102
RTVSPropertyOp43
 70
     1
102
RTVSPropertyOp44
 70
     1
102
RTVSPropertyOp45
 70
     1
102
RTVSPropertyOp46
 70
     1
102
RTVSPropertyOp47
 70
     1
102
RTVSPropertyOp48
 70
     1
102
RTVSPropertyOp49
 70
     1
102
RTVSPropertyOp50
 70
     1
102
RTVSPropertyOp51
 70
     0
102
RTVSPropertyOp52
 70
     0
102
RTVSPropertyOp53
 70
     1
102
RTVSPropertyOp54
 70
     1
102
RTVSPropertyOp55
 70
     1
102
RTVSPropertyOp56
 70
     1
102
RTVSPropertyOp57
 70
     1
102
RTVSPropertyOp58
 70
     1
102
RTVSPropertyOp59
 70
     1
102
RTVSPropertyOp60
 70
     1
102
RTVSPropertyOp61
 70
     1
102
RTVSPropertyOp62
 70
     1
  0
XRECORD
  5
BDB3
102
{ACAD_REACTORS
330
BDB2
102
}
330
BDB2
100
AcDbXrecord
280
     1
102
RTVSPost2010Prop28
280
     0
102
RTVSPost2010PropOp28
 70
     1
102
RTVSPost2010Prop29
280
     1
102
RTVSPost2010PropOp29
 70
     1
102
RTVSPost2010Prop30
280
     1
102
RTVSPost2010PropOp30
 70
     1
102
RTVSPost2010Prop31
280
     0
102
RTVSPost2010PropOp31
 70
     1
102
RTVSPost2010Prop32
280
     0
102
RTVSPost2010PropOp32
 70
     1
102
RTVSPost2010Prop33
280
     0
102
RTVSPost2010PropOp33
 70
     1
102
RTVSPost2010Prop34
280
     0
102
RTVSPost2010PropOp34
 70
     1
102
RTVSPost2010Prop35
280
     0
102
RTVSPost2010PropOp35
 70
     1
102
RTVSPost2010Prop36
280
     0
102
RTVSPost2010PropOp36
 70
     1
102
RTVSPost2010Prop37
 90
       50
102
RTVSPost2010PropOp37
 70
     1
102
RTVSPost2010Prop38
140
0.0
102
RTVSPost2010PropOp38
 70
     1
102
RTVSPost2010Prop39
140
1.0
102
RTVSPost2010PropOp39
 70
     1
102
RTVSPost2010Prop40
 90
        0
102
RTVSPost2010PropOp40
 70
     1
102
RTVSPost2010Prop41ColorIndex
 90
       18
102
RTVSPost2010Prop41ColorRGB
 90
        0
102
RTVSPost2010PropOp41
 70
     1
102
RTVSPost2010Prop42
 90
       50
102
RTVSPost2010PropOp42
 70
     1
102
RTVSPost2010Prop43
 90
        3
102
RTVSPost2010PropOp43
 70
     1
102
RTVSPost2010Prop44ColorIndex
 90
        5
102
RTVSPost2010Prop44ColorRGB
 90
      255
102
RTVSPost2010PropOp44
 70
     1
102
RTVSPost2010Prop45
280
     0
102
RTVSPost2010PropOp45
 70
     1
102
RTVSPost2010Prop46
 90
       50
102
RTVSPost2010PropOp46
 70
     1
102
RTVSPost2010Prop47
 90
       50
102
RTVSPost2010PropOp47
 70
     1
102
RTVSPost2010Prop48
 90
       50
102
RTVSPost2010PropOp48
 70
     1
102
RTVSPost2010Prop49
280
     0
102
RTVSPost2010PropOp49
 70
     1
102
RTVSPost2010Prop50
 90
       50
102
RTVSPost2010PropOp50
 70
     1
102
RTVSPost2010Prop51ColorIndex
 90
      256
102
RTVSPost2010Prop51ColorRGB
 90
-16777216
102
RTVSPost2010PropOp51
 70
     0
102
RTVSPost2010Prop52
140
1.0
102
RTVSPost2010PropOp52
 70
     0
102
RTVSPost2010Prop53
 90
        2
102
RTVSPost2010PropOp53
 70
     1
102
RTVSPost2010Prop54
  1
strokes_ogs.tif
102
RTVSPost2010PropOp54
 70
     1
102
RTVSPost2010Prop55
280
     0
102
RTVSPost2010PropOp55
 70
     1
102
RTVSPost2010Prop56
140
1.0
102
RTVSPost2010PropOp56
 70
     1
102
RTVSPost2010Prop57
140
1.0
102
RTVSPost2010PropOp57
 70
     1
102
RTVSPropertyOp0
 70
     1
102
RTVSPropertyOp1
 70
     1
102
RTVSPropertyOp2
 70
     1
102
RTVSPropertyOp3
 70
     1
102
RTVSPropertyOp4
 70
     1
102
RTVSPropertyOp5
 70
     1
102
RTVSPropertyOp6
 70
     1
102
RTVSPropertyOp7
 70
     1
102
RTVSPropertyOp8
 70
     1
102
RTVSPropertyOp9
 70
     1
102
RTVSPropertyOp10
 70
     1
102
RTVSPropertyOp11
 70
     1
102
RTVSPropertyOp12
 70
     1
102
RTVSPropertyOp13
 70
     1
102
RTVSPropertyOp14
 70
     1
102
RTVSPropertyOp15
 70
     1
102
RTVSPropertyOp16
 70
     1
102
RTVSPropertyOp17
 70
     1
102
RTVSPropertyOp18
 70
     1
102
RTVSPropertyOp19
 70
     1
102
RTVSPropertyOp20
 70
     1
102
RTVSPropertyOp21
 70
     1
102
RTVSPropertyOp22
 70
     1
102
RTVSPropertyOp23
 70
     1
102
RTVSPropertyOp24
 70
     1
102
RTVSPropertyOp25
 70
     1
102
RTVSPropertyOp26
 70
     1
102
RTVSPropertyOp27
 70
     1
102
RTVSPropertyOp28
 70
     1
102
RTVSPropertyOp29
 70
     1
102
RTVSPropertyOp30
 70
     1
102
RTVSPropertyOp31
 70
     1
102
RTVSPropertyOp32
 70
     1
102
RTVSPropertyOp33
 70
     1
102
RTVSPropertyOp34
 70
     1
102
RTVSPropertyOp35
 70
     1
102
RTVSPropertyOp36
 70
     1
102
RTVSPropertyOp37
 70
     1
102
RTVSPropertyOp38
 70
     1
102
RTVSPropertyOp39
 70
     1
102
RTVSPropertyOp40
 70
     1
102
RTVSPropertyOp41
 70
     1
102
RTVSPropertyOp42
 70
     1
102
RTVSPropertyOp43
 70
     1
102
RTVSPropertyOp44
 70
     1
102
RTVSPropertyOp45
 70
     1
102
RTVSPropertyOp46
 70
     1
102
RTVSPropertyOp47
 70
     1
102
RTVSPropertyOp48
 70
     1
102
RTVSPropertyOp49
 70
     1
102
RTVSPropertyOp50
 70
     1
102
RTVSPropertyOp51
 70
     0
102
RTVSPropertyOp52
 70
     0
102
RTVSPropertyOp53
 70
     1
102
RTVSPropertyOp54
 70
     1
102
RTVSPropertyOp55
 70
     1
102
RTVSPropertyOp56
 70
     1
102
RTVSPropertyOp57
 70
     1
102
RTVSPropertyOp58
 70
     1
102
RTVSPropertyOp59
 70
     1
102
RTVSPropertyOp60
 70
     1
102
RTVSPropertyOp61
 70
     1
102
RTVSPropertyOp62
 70
     1
  0
XRECORD
  5
BDCB
102
{ACAD_REACTORS
330
BDCA
102
}
330
BDCA
100
AcDbXrecord
280
     1
102
RTVSPost2010Prop28
280
     0
102
RTVSPost2010PropOp28
 70
     1
102
RTVSPost2010Prop29
280
     1
102
RTVSPost2010PropOp29
 70
     1
102
RTVSPost2010Prop30
280
     1
102
RTVSPost2010PropOp30
 70
     1
102
RTVSPost2010Prop31
280
     0
102
RTVSPost2010PropOp31
 70
     1
102
RTVSPost2010Prop32
280
     0
102
RTVSPost2010PropOp32
 70
     1
102
RTVSPost2010Prop33
280
     0
102
RTVSPost2010PropOp33
 70
     1
102
RTVSPost2010Prop34
280
     0
102
RTVSPost2010PropOp34
 70
     1
102
RTVSPost2010Prop35
280
     0
102
RTVSPost2010PropOp35
 70
     1
102
RTVSPost2010Prop36
280
     0
102
RTVSPost2010PropOp36
 70
     1
102
RTVSPost2010Prop37
 90
       50
102
RTVSPost2010PropOp37
 70
     1
102
RTVSPost2010Prop38
140
0.0
102
RTVSPost2010PropOp38
 70
     1
102
RTVSPost2010Prop39
140
1.0
102
RTVSPost2010PropOp39
 70
     1
102
RTVSPost2010Prop40
 90
        0
102
RTVSPost2010PropOp40
 70
     1
102
RTVSPost2010Prop41ColorIndex
 90
       18
102
RTVSPost2010Prop41ColorRGB
 90
        0
102
RTVSPost2010PropOp41
 70
     1
102
RTVSPost2010Prop42
 90
       50
102
RTVSPost2010PropOp42
 70
     1
102
RTVSPost2010Prop43
 90
        3
102
RTVSPost2010PropOp43
 70
     1
102
RTVSPost2010Prop44ColorIndex
 90
        5
102
RTVSPost2010Prop44ColorRGB
 90
      255
102
RTVSPost2010PropOp44
 70
     1
102
RTVSPost2010Prop45
280
     0
102
RTVSPost2010PropOp45
 70
     1
102
RTVSPost2010Prop46
 90
       50
102
RTVSPost2010PropOp46
 70
     1
102
RTVSPost2010Prop47
 90
       50
102
RTVSPost2010PropOp47
 70
     1
102
RTVSPost2010Prop48
 90
       50
102
RTVSPost2010PropOp48
 70
     1
102
RTVSPost2010Prop49
280
     0
102
RTVSPost2010PropOp49
 70
     1
102
RTVSPost2010Prop50
 90
       50
102
RTVSPost2010PropOp50
 70
     1
102
RTVSPost2010Prop51ColorIndex
 90
      256
102
RTVSPost2010Prop51ColorRGB
 90
-16777216
102
RTVSPost2010PropOp51
 70
     0
102
RTVSPost2010Prop52
140
1.0
102
RTVSPost2010PropOp52
 70
     0
102
RTVSPost2010Prop53
 90
        2
102
RTVSPost2010PropOp53
 70
     1
102
RTVSPost2010Prop54
  1
strokes_ogs.tif
102
RTVSPost2010PropOp54
 70
     1
102
RTVSPost2010Prop55
280
     0
102
RTVSPost2010PropOp55
 70
     1
102
RTVSPost2010Prop56
140
1.0
102
RTVSPost2010PropOp56
 70
     1
102
RTVSPost2010Prop57
140
1.0
102
RTVSPost2010PropOp57
 70
     1
102
RTVSPropertyOp0
 70
     1
102
RTVSPropertyOp1
 70
     1
102
RTVSPropertyOp2
 70
     1
102
RTVSPropertyOp3
 70
     1
102
RTVSPropertyOp4
 70
     1
102
RTVSPropertyOp5
 70
     1
102
RTVSPropertyOp6
 70
     1
102
RTVSPropertyOp7
 70
     1
102
RTVSPropertyOp8
 70
     1
102
RTVSPropertyOp9
 70
     1
102
RTVSPropertyOp10
 70
     1
102
RTVSPropertyOp11
 70
     1
102
RTVSPropertyOp12
 70
     1
102
RTVSPropertyOp13
 70
     1
102
RTVSPropertyOp14
 70
     1
102
RTVSPropertyOp15
 70
     1
102
RTVSPropertyOp16
 70
     1
102
RTVSPropertyOp17
 70
     1
102
RTVSPropertyOp18
 70
     1
102
RTVSPropertyOp19
 70
     1
102
RTVSPropertyOp20
 70
     1
102
RTVSPropertyOp21
 70
     1
102
RTVSPropertyOp22
 70
     1
102
RTVSPropertyOp23
 70
     1
102
RTVSPropertyOp24
 70
     1
102
RTVSPropertyOp25
 70
     1
102
RTVSPropertyOp26
 70
     1
102
RTVSPropertyOp27
 70
     1
102
RTVSPropertyOp28
 70
     1
102
RTVSPropertyOp29
 70
     1
102
RTVSPropertyOp30
 70
     1
102
RTVSPropertyOp31
 70
     1
102
RTVSPropertyOp32
 70
     1
102
RTVSPropertyOp33
 70
     1
102
RTVSPropertyOp34
 70
     1
102
RTVSPropertyOp35
 70
     1
102
RTVSPropertyOp36
 70
     1
102
RTVSPropertyOp37
 70
     1
102
RTVSPropertyOp38
 70
     1
102
RTVSPropertyOp39
 70
     1
102
RTVSPropertyOp40
 70
     1
102
RTVSPropertyOp41
 70
     1
102
RTVSPropertyOp42
 70
     1
102
RTVSPropertyOp43
 70
     1
102
RTVSPropertyOp44
 70
     1
102
RTVSPropertyOp45
 70
     1
102
RTVSPropertyOp46
 70
     1
102
RTVSPropertyOp47
 70
     1
102
RTVSPropertyOp48
 70
     1
102
RTVSPropertyOp49
 70
     1
102
RTVSPropertyOp50
 70
     1
102
RTVSPropertyOp51
 70
     0
102
RTVSPropertyOp52
 70
     0
102
RTVSPropertyOp53
 70
     1
102
RTVSPropertyOp54
 70
     1
102
RTVSPropertyOp55
 70
     1
102
RTVSPropertyOp56
 70
     1
102
RTVSPropertyOp57
 70
     1
102
RTVSPropertyOp58
 70
     1
102
RTVSPropertyOp59
 70
     1
102
RTVSPropertyOp60
 70
     1
102
RTVSPropertyOp61
 70
     1
102
RTVSPropertyOp62
 70
     1
  0
ENDSEC
  0
EOF
