  0
SECTION
  2
HEADER
  9
$ACADVER
  1
AC1015
  9
$ACADMAINTVER
 70
    20
  9
$DWGCODEPAGE
  3
ANSI_932
  9
$INSBASE
 10
0.0
 20
0.0
 30
0.0
  9
$EXTMIN
 10
10.0
 20
9.999999999999998
 30
0.0
  9
$EXTMAX
 10
261.478747
 20
241.394138
 30
0.0
  9
$LIMMIN
 10
0.0
 20
0.0
  9
$LIMMAX
 10
396.0
 20
273.0
  9
$ORTHOMODE
 70
     1
  9
$REGENMODE
 70
     1
  9
$FILLMODE
 70
     1
  9
$QTEXTMODE
 70
     0
  9
$MIRRTEXT
 70
     1
  9
$LTSCALE
 40
20.0
  9
$ATTMODE
 70
     1
  9
$TEXTSIZE
 40
5.0
  9
$TRACEWID
 40
1.0
  9
$TEXTSTYLE
  7
STANDARD
  9
$CLAYER
  8
0
  9
$CELTYPE
  6
BYLAYER
  9
$CECOLOR
 62
   256
  9
$CELTSCALE
 40
1.0
  9
$DISPSILH
 70
     0
  9
$DIMSCALE
 40
1.0
  9
$DIMASZ
 40
2.5
  9
$DIMEXO
 40
1.0
  9
$DIMDLI
 40
10.0
  9
$DIMRND
 40
0.0
  9
$DIMDLE
 40
0.0
  9
$DIMEXE
 40
1.0
  9
$DIMTP
 40
0.0
  9
$DIMTM
 40
0.0
  9
$DIMTXT
 40
3.2
  9
$DIMCEN
 40
0.0
  9
$DIMTSZ
 40
0.0
  9
$DIMTOL
 70
     0
  9
$DIMLIM
 70
     0
  9
$DIMTIH
 70
     0
  9
$DIMTOH
 70
     0
  9
$DIMSE1
 70
     0
  9
$DIMSE2
 70
     0
  9
$DIMTAD
 70
     3
  9
$DIMZIN
 70
     8
  9
$DIMBLK
  1

  9
$DIMASO
 70
     1
  9
$DIMSHO
 70
     1
  9
$DIMPOST
  1

  9
$DIMAPOST
  1

  9
$DIMALT
 70
     0
  9
$DIMALTD
 70
     2
  9
$DIMALTF
 40
25.4
  9
$DIMLFAC
 40
1.0
  9
$DIMTOFL
 70
     1
  9
$DIMTVP
 40
0.0
  9
$DIMTIX
 70
     0
  9
$DIMSOXD
 70
     0
  9
$DIMSAH
 70
     1
  9
$DIMBLK1
  1

  9
$DIMBLK2
  1

  9
$DIMSTYLE
  2
STANDARD
  9
$DIMCLRD
 70
     0
  9
$DIMCLRE
 70
     0
  9
$DIMCLRT
 70
     0
  9
$DIMTFAC
 40
1.0
  9
$DIMGAP
 40
1.0
  9
$DIMJUST
 70
     0
  9
$DIMSD1
 70
     0
  9
$DIMSD2
 70
     0
  9
$DIMTOLJ
 70
     1
  9
$DIMTZIN
 70
     0
  9
$DIMALTZ
 70
     0
  9
$DIMALTTZ
 70
     0
  9
$DIMUPT
 70
     0
  9
$DIMDEC
 70
     4
  9
$DIMTDEC
 70
     4
  9
$DIMALTU
 70
     2
  9
$DIMALTTD
 70
     2
  9
$DIMTXSTY
  7
STANDARD
  9
$DIMAUNIT
 70
     0
  9
$DIMADEC
 70
     0
  9
$DIMALTRND
 40
0.0
  9
$DIMAZIN
 70
     0
  9
$DIMDSEP
 70
    46
  9
$DIMATFIT
 70
     3
  9
$DIMFRAC
 70
     0
  9
$DIMLDRBLK
  1

  9
$DIMLUNIT
 70
     2
  9
$DIMLWD
 70
    -2
  9
$DIMLWE
 70
    -2
  9
$DIMTMOVE
 70
     0
  9
$LUNITS
 70
     2
  9
$LUPREC
 70
     4
  9
$SKETCHINC
 40
1.0
  9
$FILLETRAD
 40
1.0
  9
$AUNITS
 70
     0
  9
$AUPREC
 70
     2
  9
$MENU
  1
.
  9
$ELEVATION
 40
0.0
  9
$PELEVATION
 40
0.0
  9
$THICKNESS
 40
0.0
  9
$LIMCHECK
 70
     0
  9
$CHAMFERA
 40
10.0
  9
$CHAMFERB
 40
10.0
  9
$CHAMFERC
 40
0.0
  9
$CHAMFERD
 40
0.0
  9
$SKPOLY
 70
     0
  9
$TDCREATE
 40
2451296.796906598
  9
$TDUCREATE
 40
2451296.421906597
  9
$TDUPDATE
 40
2457192.658399943
  9
$TDUUPDATE
 40
2457192.283399942
  9
$TDINDWG
 40
0.0000117130
  9
$TDUSRTIMER
 40
0.0000106829
  9
$USRTIMER
 70
     1
  9
$ANGBASE
 50
0.0
  9
$ANGDIR
 70
     0
  9
$PDMODE
 70
     0
  9
$PDSIZE
 40
0.0
  9
$PLINEWID
 40
0.0
  9
$SPLFRAME
 70
     0
  9
$SPLINETYPE
 70
     6
  9
$SPLINESEGS
 70
     8
  9
$HANDSEED
  5
C130
  9
$SURFTAB1
 70
     6
  9
$SURFTAB2
 70
     6
  9
$SURFTYPE
 70
     6
  9
$SURFU
 70
     6
  9
$SURFV
 70
     6
  9
$UCSBASE
  2

  9
$UCSNAME
  2

  9
$UCSORG
 10
0.0
 20
0.0
 30
0.0
  9
$UCSXDIR
 10
1.0
 20
0.0
 30
0.0
  9
$UCSYDIR
 10
0.0
 20
1.0
 30
0.0
  9
$UCSORTHOREF
  2

  9
$UCSORTHOVIEW
 70
     0
  9
$UCSORGTOP
 10
0.0
 20
0.0
 30
0.0
  9
$UCSORGBOTTOM
 10
0.0
 20
0.0
 30
0.0
  9
$UCSORGLEFT
 10
0.0
 20
0.0
 30
0.0
  9
$UCSORGRIGHT
 10
0.0
 20
0.0
 30
0.0
  9
$UCSORGFRONT
 10
0.0
 20
0.0
 30
0.0
  9
$UCSORGBACK
 10
0.0
 20
0.0
 30
0.0
  9
$PUCSBASE
  2

  9
$PUCSNAME
  2

  9
$PUCSORG
 10
0.0
 20
0.0
 30
0.0
  9
$PUCSXDIR
 10
1.0
 20
0.0
 30
0.0
  9
$PUCSYDIR
 10
0.0
 20
1.0
 30
0.0
  9
$PUCSORTHOREF
  2

  9
$PUCSORTHOVIEW
 70
     0
  9
$PUCSORGTOP
 10
0.0
 20
0.0
 30
0.0
  9
$PUCSORGBOTTOM
 10
0.0
 20
0.0
 30
0.0
  9
$PUCSORGLEFT
 10
0.0
 20
0.0
 30
0.0
  9
$PUCSORGRIGHT
 10
0.0
 20
0.0
 30
0.0
  9
$PUCSORGFRONT
 10
0.0
 20
0.0
 30
0.0
  9
$PUCSORGBACK
 10
0.0
 20
0.0
 30
0.0
  9
$USERI1
 70
     0
  9
$USERI2
 70
     0
  9
$USERI3
 70
     0
  9
$USERI4
 70
     0
  9
$USERI5
 70
     0
  9
$USERR1
 40
0.0
  9
$USERR2
 40
0.0
  9
$USERR3
 40
0.0
  9
$USERR4
 40
0.0
  9
$USERR5
 40
0.0
  9
$WORLDVIEW
 70
     1
  9
$SHADEDGE
 70
     3
  9
$SHADEDIF
 70
    70
  9
$TILEMODE
 70
     1
  9
$MAXACTVP
 70
    16
  9
$PINSBASE
 10
0.0
 20
0.0
 30
0.0
  9
$PLIMCHECK
 70
     0
  9
$PEXTMIN
 10
1.000000000000000E+20
 20
1.000000000000000E+20
 30
1.000000000000000E+20
  9
$PEXTMAX
 10
-1.000000000000000E+20
 20
-1.000000000000000E+20
 30
-1.000000000000000E+20
  9
$PLIMMIN
 10
0.0
 20
0.0
  9
$PLIMMAX
 10
420.0
 20
297.0
  9
$UNITMODE
 70
     0
  9
$VISRETAIN
 70
     0
  9
$PLINEGEN
 70
     0
  9
$PSLTSCALE
 70
     0
  9
$TREEDEPTH
 70
  3020
  9
$CMLSTYLE
  2
STANDARD
  9
$CMLJUST
 70
     0
  9
$CMLSCALE
 40
1.0
  9
$PROXYGRAPHICS
 70
     1
  9
$MEASUREMENT
 70
     0
  9
$CELWEIGHT
370
    -1
  9
$ENDCAPS
280
     0
  9
$JOINSTYLE
280
     0
  9
$LWDISPLAY
290
     0
  9
$INSUNITS
 70
     0
  9
$HYPERLINKBASE
  1

  9
$STYLESHEET
  1

  9
$XEDIT
290
     1
  9
$CEPSNTYPE
380
     0
  9
$PSTYLEMODE
290
     1
  9
$FINGERPRINTGUID
  2
{C508CB81-55D9-4C0B-9AFB-2B1B12ED1BE4}
  9
$VERSIONGUID
  2
{4BC9CAD4-2DCA-440E-908C-1A54F69047B0}
  9
$EXTNAMES
290
     1
  9
$PSVPSCALE
 40
0.0
  9
$OLESTARTUP
290
     0
  0
ENDSEC
  0
SECTION
  2
CLASSES
  0
CLASS
  1
ACDBDICTIONARYWDFLT
  2
AcDbDictionaryWithDefault
  3
ObjectDBX Classes
 90
        0
280
     0
281
     0
  0
CLASS
  1
ACDBPLACEHOLDER
  2
AcDbPlaceHolder
  3
ObjectDBX Classes
 90
        0
280
     0
281
     0
  0
CLASS
  1
LAYOUT
  2
AcDbLayout
  3
ObjectDBX Classes
 90
        0
280
     0
281
     0
  0
CLASS
  1
DICTIONARYVAR
  2
AcDbDictionaryVar
  3
ObjectDBX Classes
 90
        0
280
     0
281
     0
  0
CLASS
  1
MATERIAL
  2
AcDbMaterial
  3
ObjectDBX Classes
 90
     1153
280
     0
281
     0
  0
CLASS
  1
VISUALSTYLE
  2
AcDbVisualStyle
  3
ObjectDBX Classes
 90
     4095
280
     0
281
     0
  0
CLASS
  1
TABLESTYLE
  2
AcDbTableStyle
  3
ObjectDBX Classes
 90
     4095
280
     0
281
     0
  0
CLASS
  1
SCALE
  2
AcDbScale
  3
ObjectDBX Classes
 90
     1153
280
     0
281
     0
  0
CLASS
  1
MLEADERSTYLE
  2
AcDbMLeaderStyle
  3
ACDB_MLEADERSTYLE_CLASS
 90
     4095
280
     0
281
     0
  0
CLASS
  1
ACDBSECTIONVIEWSTYLE
  2
AcDbSectionViewStyle
  3
ObjectDBX Classes
 90
     1025
280
     0
281
     0
  0
CLASS
  1
ACDBDETAILVIEWSTYLE
  2
AcDbDetailViewStyle
  3
ObjectDBX Classes
 90
     1025
280
     0
281
     0
  0
CLASS
  1
CELLSTYLEMAP
  2
AcDbCellStyleMap
  3
ObjectDBX Classes
 90
     1152
280
     0
281
     0
  0
ENDSEC
  0
SECTION
  2
TABLES
  0
TABLE
  2
VPORT
  5
BE65
330
0
100
AcDbSymbolTable
 70
     1
  0
VPORT
  5
C079
330
BE65
100
AcDbSymbolTableRecord
100
AcDbViewportTableRecord
  2
*ACTIVE
 70
     0
 10
0.0
 20
0.0
 11
1.0
 21
1.0
 12
205.8410916217111
 22
125.7005545170983
 13
0.0
 23
0.0
 14
10.0
 24
10.0
 15
10.0
 25
10.0
 16
0.0
 26
0.0
 36
1.0
 17
0.0
 27
0.0
 37
0.0
 40
234.0109807635068
 41
1.899603698811096
 42
50.0
 43
0.0
 44
0.0
 50
0.0
 51
0.0
 71
     0
 72
   100
 73
     1
 74
     0
 75
     0
 76
     0
 77
     0
 78
     0
281
     0
 65
     1
110
0.0
120
0.0
130
0.0
111
1.0
121
0.0
131
0.0
112
0.0
122
1.0
132
0.0
 79
     0
146
0.0
1001
ACAD_NAV_VCDISPLAY
1070
     3
  0
ENDTAB
  0
TABLE
  2
LTYPE
  5
BE62
330
0
100
AcDbSymbolTable
 70
     4
  0
LTYPE
  5
BE70
330
BE62
100
AcDbSymbolTableRecord
100
AcDbLinetypeTableRecord
  2
BYBLOCK
 70
     0
  3

 72
    65
 73
     0
 40
0.0
  0
LTYPE
  5
BE71
330
BE62
100
AcDbSymbolTableRecord
100
AcDbLinetypeTableRecord
  2
BYLAYER
 70
     0
  3

 72
    65
 73
     0
 40
0.0
  0
LTYPE
  5
BE72
330
BE62
100
AcDbSymbolTableRecord
100
AcDbLinetypeTableRecord
  2
CONTINUOUS
 70
     0
  3
Solid line
 72
    65
 73
     0
 40
0.0
  0
LTYPE
  5
BE80
330
BE62
100
AcDbSymbolTableRecord
100
AcDbLinetypeTableRecord
  2
DASHED
 70
     0
  3
__ __ __ __ __ __ __ __ __ __ __ __ __ __ __ __
 72
    65
 73
     2
 40
0.75
 49
0.5
 74
     0
 49
-0.25
 74
     0
  0
LTYPE
  5
BE81
330
BE62
100
AcDbSymbolTableRecord
100
AcDbLinetypeTableRecord
  2
CENTER
 70
     0
  3
____ _ ____ _ ____ _ ____ _ ____ _ ____ _ ____ 
 72
    65
 73
     4
 40
2.0
 49
1.25
 74
     0
 49
-0.25
 74
     0
 49
0.25
 74
     0
 49
-0.25
 74
     0
  0
LTYPE
  5
BE82
330
BE62
100
AcDbSymbolTableRecord
100
AcDbLinetypeTableRecord
  2
PHANTOM
 70
     0
  3
______  __  __  ______  __  __  ______  __  __ 
 72
    65
 73
     6
 40
2.5
 49
1.25
 74
     0
 49
-0.25
 74
     0
 49
0.25
 74
     0
 49
-0.25
 74
     0
 49
0.25
 74
     0
 49
-0.25
 74
     0
  0
ENDTAB
  0
TABLE
  2
LAYER
  5
BE5F
330
0
100
AcDbSymbolTable
 70
     8
  0
LAYER
  5
BE6D
102
{ACAD_XDICTIONARY
360
C0D4
102
}
330
BE5F
100
AcDbSymbolTableRecord
100
AcDbLayerTableRecord
  2
0
 70
     0
 62
     7
  6
CONTINUOUS
370
    -3
390
C082
  0
LAYER
  5
BE83
102
{ACAD_XDICTIONARY
360
C0D6
102
}
330
BE5F
100
AcDbSymbolTableRecord
100
AcDbLayerTableRecord
  2
4
 70
     0
 62
     1
  6
CENTER
370
    -3
390
C082
  0
LAYER
  5
BE84
102
{ACAD_XDICTIONARY
360
C0D8
102
}
330
BE5F
100
AcDbSymbolTableRecord
100
AcDbLayerTableRecord
  2
5
 70
     0
 62
     6
  6
PHANTOM
370
    -3
390
C082
  0
LAYER
  5
BE85
102
{ACAD_XDICTIONARY
360
C0DA
102
}
330
BE5F
100
AcDbSymbolTableRecord
100
AcDbLayerTableRecord
  2
1
 70
     0
 62
     7
  6
CONTINUOUS
370
    -3
390
C082
  0
LAYER
  5
BE86
102
{ACAD_XDICTIONARY
360
C0DC
102
}
330
BE5F
100
AcDbSymbolTableRecord
100
AcDbLayerTableRecord
  2
2
 70
     0
 62
     4
  6
CONTINUOUS
370
    -3
390
C082
  0
LAYER
  5
BE87
102
{ACAD_XDICTIONARY
360
C0DE
102
}
330
BE5F
100
AcDbSymbolTableRecord
100
AcDbLayerTableRecord
  2
3
 70
     0
 62
     2
  6
DASHED
370
    -3
390
C082
  0
LAYER
  5
BE88
102
{ACAD_XDICTIONARY
360
C0E0
102
}
330
BE5F
100
AcDbSymbolTableRecord
100
AcDbLayerTableRecord
  2
6
 70
     0
 62
     5
  6
CONTINUOUS
370
    -3
390
C082
  0
LAYER
  5
BE89
102
{ACAD_XDICTIONARY
360
C0E2
102
}
330
BE5F
100
AcDbSymbolTableRecord
100
AcDbLayerTableRecord
  2
7
 70
     0
 62
     3
  6
CONTINUOUS
370
    -3
390
C082
  0
ENDTAB
  0
TABLE
  2
STYLE
  5
BE60
330
0
100
AcDbSymbolTable
 70
     1
  0
STYLE
  5
BE6E
330
BE60
100
AcDbSymbolTableRecord
100
AcDbTextStyleTableRecord
  2
STANDARD
 70
     0
 40
0.0
 41
1.0
 50
0.0
 71
     0
 42
5.0
  3
txt
  4

  0
ENDTAB
  0
TABLE
  2
VIEW
  5
BE63
330
0
100
AcDbSymbolTable
 70
     0
  0
ENDTAB
  0
TABLE
  2
UCS
  5
BE64
330
0
100
AcDbSymbolTable
 70
     0
  0
ENDTAB
  0
TABLE
  2
APPID
  5
BE66
330
0
100
AcDbSymbolTable
 70
     3
  0
APPID
  5
BE6F
330
BE66
100
AcDbSymbolTableRecord
100
AcDbRegAppTableRecord
  2
ACAD
 70
     0
  0
APPID
  5
C0EE
330
BE66
100
AcDbSymbolTableRecord
100
AcDbRegAppTableRecord
  2
ACAD_NAV_VCDISPLAY
 70
     0
  0
APPID
  5
C127
330
BE66
100
AcDbSymbolTableRecord
100
AcDbRegAppTableRecord
  2
ACAD_MLEADERVER
 70
     0
  0
ENDTAB
  0
TABLE
  2
DIMSTYLE
  5
BE67
330
0
100
AcDbSymbolTable
 70
     1
100
AcDbDimStyleTable
 71
     0
  0
DIMSTYLE
105
BE8B
330
BE67
100
AcDbSymbolTableRecord
100
AcDbDimStyleTableRecord
  2
STANDARD
 70
     0
 41
2.5
 42
1.0
 43
10.0
 44
1.0
 73
     0
 74
     0
 77
     3
 78
     8
140
3.2
141
0.0
147
1.0
172
     1
173
     1
284
     8
285
     8
286
     8
340
BE6E
  0
ENDTAB
  0
TABLE
  2
BLOCK_RECORD
  5
BE5E
330
0
100
AcDbSymbolTable
 70
     0
  0
BLOCK_RECORD
  5
BE7B
102
{ACAD_XDICTIONARY
360
C07C
102
}
330
BE5E
100
AcDbSymbolTableRecord
100
AcDbBlockTableRecord
  2
*MODEL_SPACE
340
C0D0
  0
BLOCK_RECORD
  5
BE77
102
{ACAD_XDICTIONARY
360
C07A
102
}
330
BE5E
100
AcDbSymbolTableRecord
100
AcDbBlockTableRecord
  2
*PAPER_SPACE
340
C0D1
  0
ENDTAB
  0
ENDSEC
  0
SECTION
  2
BLOCKS
  0
BLOCK
  5
BE7C
330
BE7B
100
AcDbEntity
  8
0
100
AcDbBlockBegin
  2
*MODEL_SPACE
 70
     0
 10
0.0
 20
0.0
 30
0.0
  3
*MODEL_SPACE
  1

  0
ENDBLK
  5
BE7D
330
BE7B
100
AcDbEntity
  8
0
100
AcDbBlockEnd
  0
BLOCK
  5
BE78
330
BE77
100
AcDbEntity
 67
     1
  8
0
100
AcDbBlockBegin
  2
*PAPER_SPACE
 70
     0
 10
0.0
 20
0.0
 30
0.0
  3
*PAPER_SPACE
  1

  0
ENDBLK
  5
BE79
330
BE77
100
AcDbEntity
 67
     1
  8
0
100
AcDbBlockEnd
  0
ENDSEC
  0
SECTION
  2
ENTITIES
  0
TEXT
  5
BE93
330
BE7B
100
AcDbEntity
  8
7
  6
Continuous
100
AcDbText
 10
10.0
 20
18.0
 30
0.0
 40
3.0
  1
TYPE No.TM-144SUS-75
100
AcDbText
  0
TEXT
  5
BE94
330
BE7B
100
AcDbEntity
  8
7
  6
Continuous
100
AcDbText
 10
10.0
 20
26.0
 30
0.0
 40
3.0
  1
CODE No.5718
100
AcDbText
  0
TEXT
  5
BE95
330
BE7B
100
AcDbEntity
  8
1
  6
Continuous
100
AcDbText
 10
10.0
 20
10.0
 30
0.0
 40
1.399999999999999
  1
LAYER
100
AcDbText
  0
TEXT
  5
BE96
330
BE7B
100
AcDbEntity
  8
1
  6
Continuous
100
AcDbText
 10
17.97951099999998
 20
10.04873699999998
 30
0.0
 40
1.399999999999999
  1
1
100
AcDbText
  0
TEXT
  5
BE97
330
BE7B
100
AcDbEntity
  8
7
  6
Continuous
100
AcDbText
 10
29.97951099999999
 20
10.04873699999998
 30
0.0
 40
1.399999999999999
  1
7
100
AcDbText
  0
TEXT
  5
BE98
330
BE7B
100
AcDbEntity
  8
4
  6
CENTER
100
AcDbText
 10
23.97951099999999
 20
10.04873699999998
 30
0.0
 40
1.399999999999999
  1
4
100
AcDbText
  0
TEXT
  5
BE99
330
BE7B
100
AcDbEntity
  8
3
  6
DASHED
100
AcDbText
 10
21.979511
 20
10.04873699999998
 30
0.0
 40
1.399999999999999
  1
3
100
AcDbText
  0
TEXT
  5
BE9A
330
BE7B
100
AcDbEntity
  8
2
  6
Continuous
100
AcDbText
 10
19.97951099999999
 20
10.04873699999998
 30
0.0
 40
1.399999999999999
  1
2
100
AcDbText
  0
TEXT
  5
BE9B
330
BE7B
100
AcDbEntity
  8
6
  6
Continuous
100
AcDbText
 10
27.979511
 20
10.04873699999998
 30
0.0
 40
1.399999999999999
  1
6
100
AcDbText
  0
TEXT
  5
BE9C
330
BE7B
100
AcDbEntity
  8
5
  6
PHANTOM
100
AcDbText
 10
25.97951099999999
 20
10.04873699999998
 30
0.0
 40
1.399999999999999
  1
5
100
AcDbText
  0
LINE
  5
BE9D
330
BE7B
100
AcDbEntity
  8
1
  6
Continuous
100
AcDbLine
 10
133.628747
 20
169.8937379999998
 30
0.0
 11
144.628747
 21
169.8937379999998
 31
0.0
  0
LINE
  5
BE9E
330
BE7B
100
AcDbEntity
  8
1
  6
Continuous
100
AcDbLine
 10
156.378747
 20
170.870238
 30
0.0
 11
156.378747
 21
174.843738
 31
0.0
  0
LINE
  5
BE9F
330
BE7B
100
AcDbEntity
  8
1
  6
Continuous
100
AcDbLine
 10
148.378747
 20
171.1437379999999
 30
0.0
 11
148.378747
 21
180.3937379999999
 31
0.0
  0
LINE
  5
BEA0
330
BE7B
100
AcDbEntity
  8
1
  6
Continuous
100
AcDbLine
 10
129.878747
 20
172.8937379999999
 30
0.0
 11
129.878747
 21
180.3937379999999
 31
0.0
  0
LINE
  5
BEA1
330
BE7B
100
AcDbEntity
  8
4
  6
CENTER
100
AcDbLine
 10
139.1287469999997
 20
85.978317
 30
0.0
 11
139.1287469999997
 21
184.8937379999999
 31
0.0
  0
LINE
  5
BEA2
330
BE7B
100
AcDbEntity
  8
1
  6
Continuous
100
AcDbLine
 10
131.378747
 20
181.8937379999999
 30
0.0
 11
146.878747
 21
181.8937379999999
 31
0.0
  0
LINE
  5
BEA3
330
BE7B
100
AcDbEntity
  8
1
  6
Continuous
100
AcDbLine
 10
133.3287469999999
 20
221.8941379999999
 30
0.0
 11
144.9287469999999
 21
221.8941379999999
 31
0.0
  0
LINE
  5
BEA4
330
BE7B
100
AcDbEntity
  8
1
  6
Continuous
100
AcDbLine
 10
133.3287469999999
 20
237.394138
 30
0.0
 11
144.9287469999999
 21
237.394138
 31
0.0
  0
LINE
  5
BEA5
330
BE7B
100
AcDbEntity
  8
4
  6
CENTER
100
AcDbLine
 10
91.034132
 20
229.644138
 30
0.0
 11
187.228747
 21
229.644138
 31
0.0
  0
LINE
  5
BEA6
330
BE7B
100
AcDbEntity
  8
4
  6
CENTER
100
AcDbLine
 10
244.978747
 20
85.978317
 30
0.0
 11
244.978747
 21
184.893776
 31
0.0
  0
LINE
  5
BEA7
330
BE7B
100
AcDbEntity
  8
1
  6
Continuous
100
AcDbLine
 10
148.378747
 20
224.894138
 30
0.0
 11
148.378747
 21
234.3941379999999
 31
0.0
  0
LINE
  5
BEA8
330
BE7B
100
AcDbEntity
  8
4
  6
CENTER
100
AcDbLine
 10
139.1287469999997
 20
217.8941379999999
 30
0.0
 11
139.1287469999997
 21
241.394138
 31
0.0
  0
LINE
  5
BEA9
330
BE7B
100
AcDbEntity
  8
1
  6
Continuous
100
AcDbLine
 10
129.878747
 20
224.894138
 30
0.0
 11
129.878747
 21
234.3941379999999
 31
0.0
  0
LINE
  5
BEAA
330
BE7B
100
AcDbEntity
  8
1
  6
Continuous
100
AcDbLine
 10
129.8579139999999
 20
172.8937379999999
 30
0.0
 11
133.3287469999999
 21
172.8937379999999
 31
0.0
  0
ARC
  5
BEAB
330
BE7B
100
AcDbEntity
  8
1
  6
Continuous
100
AcDbCircle
 10
131.378747
 20
180.3937379999999
 30
0.0
 40
1.5
100
AcDbArc
 50
90.0
 51
180.0
  0
ARC
  5
BEAC
330
BE7B
100
AcDbEntity
  8
1
  6
Continuous
100
AcDbCircle
 10
146.878747
 20
180.3937379999999
 30
0.0
 40
1.5
100
AcDbArc
 50
0.0
 51
90.0
  0
LINE
  5
BEAD
330
BE7B
100
AcDbEntity
  8
1
  6
Continuous
100
AcDbLine
 10
144.9287469999999
 20
172.8937379999999
 30
0.0
 11
148.378747
 21
172.8937379999999
 31
0.0
  0
LINE
  5
BEAE
330
BE7B
100
AcDbEntity
  8
4
  6
CENTER
100
AcDbLine
 10
122.878747
 20
175.6437379999999
 30
0.0
 11
159.378747
 21
175.6437379999999
 31
0.0
  0
LINE
  5
BEAF
330
BE7B
100
AcDbEntity
  8
1
  6
Continuous
100
AcDbLine
 10
153.378747
 20
176.4437379999999
 30
0.0
 11
156.378747
 21
176.4437379999999
 31
0.0
  0
LINE
  5
BEB0
330
BE7B
100
AcDbEntity
  8
1
  6
Continuous
100
AcDbLine
 10
153.378747
 20
174.843738
 30
0.0
 11
156.378747
 21
174.843738
 31
0.0
  0
LINE
  5
BEB1
330
BE7B
100
AcDbEntity
  8
1
  6
Continuous
100
AcDbLine
 10
153.378747
 20
174.843738
 30
0.0
 11
153.378747
 21
176.4437379999999
 31
0.0
  0
LINE
  5
BEB2
330
BE7B
100
AcDbEntity
  8
1
  6
Continuous
100
AcDbLine
 10
156.378747
 20
176.4437379999999
 30
0.0
 11
156.378747
 21
180.4172379999999
 31
0.0
  0
LINE
  5
BEB3
330
BE7B
100
AcDbEntity
  8
4
  6
CENTER
100
AcDbLine
 10
234.228747
 20
175.643776
 30
0.0
 11
255.728747
 21
175.643776
 31
0.0
  0
LINE
  5
BEB4
330
BE7B
100
AcDbEntity
  8
1
  6
Continuous
100
AcDbLine
 10
239.978747
 20
176.443776
 30
0.0
 11
249.978747
 21
176.443776
 31
0.0
  0
LINE
  5
BEB5
330
BE7B
100
AcDbEntity
  8
1
  6
Continuous
100
AcDbLine
 10
239.978747
 20
174.8437759999999
 30
0.0
 11
249.978747
 21
174.8437759999999
 31
0.0
  0
LINE
  5
BEB6
330
BE7B
100
AcDbEntity
  8
1
  6
Continuous
100
AcDbLine
 10
251.228747
 20
172.8937759999998
 30
0.0
 11
251.228747
 21
177.025464
 31
0.0
  0
LINE
  5
BEB7
330
BE7B
100
AcDbEntity
  8
1
  6
Continuous
100
AcDbLine
 10
238.728747
 20
172.8937759999998
 30
0.0
 11
238.728747
 21
177.025464
 31
0.0
  0
LINE
  5
BEB8
330
BE7B
100
AcDbEntity
  8
1
  6
Continuous
100
AcDbLine
 10
238.311324
 20
172.8937759999998
 30
0.0
 11
240.0810429999999
 21
172.8937759999998
 31
0.0
  0
LINE
  5
BEB9
330
BE7B
100
AcDbEntity
  8
1
  6
Continuous
100
AcDbLine
 10
249.8764509999999
 20
172.8937759999998
 30
0.0
 11
251.64617
 21
172.8937759999998
 31
0.0
  0
ARC
  5
BEBA
330
BE7B
100
AcDbEntity
  8
1
  6
Continuous
100
AcDbCircle
 10
238.728747
 20
171.393776
 30
0.0
 40
1.5
100
AcDbArc
 50
180.0
 51
260.405932
  0
ARC
  5
BEBB
330
BE7B
100
AcDbEntity
  8
1
  6
Continuous
100
AcDbCircle
 10
251.228747
 20
171.393776
 30
0.0
 40
1.5
100
AcDbArc
 50
279.594068
 51
0.0
  0
LINE
  5
BEBC
330
BE7B
100
AcDbEntity
  8
1
  6
Continuous
100
AcDbLine
 10
131.378747
 20
235.894138
 30
0.0
 11
132.128747
 21
235.894138
 31
0.0
  0
LINE
  5
BEBD
330
BE7B
100
AcDbEntity
  8
1
  6
Continuous
100
AcDbLine
 10
131.378747
 20
223.394138
 30
0.0
 11
132.128747
 21
223.394138
 31
0.0
  0
LINE
  5
BEBE
330
BE7B
100
AcDbEntity
  8
1
  6
Continuous
100
AcDbLine
 10
146.128747
 20
235.894138
 30
0.0
 11
146.878747
 21
235.894138
 31
0.0
  0
LINE
  5
BEBF
330
BE7B
100
AcDbEntity
  8
1
  6
Continuous
100
AcDbLine
 10
146.128747
 20
223.394138
 30
0.0
 11
146.878747
 21
223.394138
 31
0.0
  0
LINE
  5
BEC0
330
BE7B
100
AcDbEntity
  8
1
  6
Continuous
100
AcDbLine
 10
251.8910509999999
 20
170.8122919999999
 30
0.0
 11
251.478747
 21
170.7937379999999
 31
0.0
  0
LINE
  5
BEC1
330
BE7B
100
AcDbEntity
  8
1
  6
Continuous
100
AcDbLine
 10
238.0664439999999
 20
170.8122919999999
 30
0.0
 11
238.478747
 21
170.7937379999999
 31
0.0
  0
ARC
  5
BEC2
330
BE7B
100
AcDbEntity
  8
1
  6
Continuous
100
AcDbCircle
 10
146.878747
 20
234.3941379999999
 30
0.0
 40
1.5
100
AcDbArc
 50
0.0
 51
90.0
  0
ARC
  5
BEC3
330
BE7B
100
AcDbEntity
  8
1
  6
Continuous
100
AcDbCircle
 10
131.378747
 20
234.3941379999999
 30
0.0
 40
1.5
100
AcDbArc
 50
90.0
 51
180.0
  0
ARC
  5
BEC4
330
BE7B
100
AcDbEntity
  8
1
  6
Continuous
100
AcDbCircle
 10
131.378747
 20
224.894138
 30
0.0
 40
1.5
100
AcDbArc
 50
180.0
 51
270.0
  0
ARC
  5
BEC5
330
BE7B
100
AcDbEntity
  8
1
  6
Continuous
100
AcDbCircle
 10
146.878747
 20
224.894138
 30
0.0
 40
1.5
100
AcDbArc
 50
270.0
 51
0.0
  0
ARC
  5
BEC6
330
BE7B
100
AcDbEntity
  8
1
  6
Continuous
100
AcDbCircle
 10
129.878747
 20
229.644138
 30
0.0
 40
3.0
100
AcDbArc
 50
90.0
 51
270.0
  0
ARC
  5
BEC7
330
BE7B
100
AcDbEntity
  8
1
  6
Continuous
100
AcDbCircle
 10
129.8683299999999
 20
175.8937379999999
 30
0.0
 40
3.000017999999998
100
AcDbArc
 50
89.80105700000001
 51
270.1989429999999
  0
LINE
  5
BEC8
330
BE7B
100
AcDbEntity
  8
1
  6
Continuous
100
AcDbLine
 10
144.628747
 20
169.8937379999998
 30
0.0
 11
144.9287469999999
 21
172.8937379999999
 31
0.0
  0
LINE
  5
BEC9
330
BE7B
100
AcDbEntity
  8
1
  6
Continuous
100
AcDbLine
 10
133.3287469999999
 20
172.8937379999999
 30
0.0
 11
133.628747
 21
169.8937379999998
 31
0.0
  0
ARC
  5
BECA
330
BE7B
100
AcDbEntity
  8
1
  6
Continuous
100
AcDbCircle
 10
139.1287469999997
 20
168.787071
 30
0.0
 40
7.106666999999997
100
AcDbArc
 50
35.30024799999999
 51
144.6997519999999
  0
LINE
  5
BECB
330
BE7B
100
AcDbEntity
  8
1
  6
Continuous
100
AcDbLine
 10
150.3787469999998
 20
170.3937379999999
 30
0.0
 11
150.3787469999998
 21
180.8937379999999
 31
0.0
  0
ARC
  5
BECC
330
BE7B
100
AcDbEntity
  8
1
  6
Continuous
100
AcDbCircle
 10
155.378747
 20
180.4172379999999
 30
0.0
 40
1.0
100
AcDbArc
 50
0.0
 51
28.45706
  0
ARC
  5
BECD
330
BE7B
100
AcDbEntity
  8
1
  6
Continuous
100
AcDbCircle
 10
155.378747
 20
170.870238
 30
0.0
 40
1.0
100
AcDbArc
 50
331.5429399999998
 51
0.0
  0
LINE
  5
BECE
330
BE7B
100
AcDbEntity
  8
1
  6
Continuous
100
AcDbLine
 10
152.352093
 20
177.8937379999999
 30
0.0
 11
154.578747
 21
177.8937379999999
 31
0.0
  0
LINE
  5
BECF
330
BE7B
100
AcDbEntity
  8
1
  6
Continuous
100
AcDbLine
 10
152.352093
 20
173.3937379999999
 30
0.0
 11
154.578747
 21
173.3937379999999
 31
0.0
  0
ARC
  5
BED0
330
BE7B
100
AcDbEntity
  8
1
  6
Continuous
100
AcDbCircle
 10
153.46542
 20
179.2941059999999
 30
0.0
 40
6.004484999999997
100
AcDbArc
 50
239.065273
 51
259.3146159999998
  0
ARC
  5
BED1
330
BE7B
100
AcDbEntity
  8
1
  6
Continuous
100
AcDbCircle
 10
153.46542
 20
171.99337
 30
0.0
 40
6.004484999999997
100
AcDbArc
 50
60.974955
 51
79.314616
  0
ARC
  5
BED2
330
BE7B
100
AcDbEntity
  8
1
  6
Continuous
100
AcDbCircle
 10
153.46542
 20
171.99337
 30
0.0
 40
6.004484999999997
100
AcDbArc
 50
100.6853839999999
 51
120.934727
  0
ARC
  5
BED3
330
BE7B
100
AcDbEntity
  8
1
  6
Continuous
100
AcDbCircle
 10
153.46542
 20
179.2941059999999
 30
0.0
 40
6.004484999999997
100
AcDbArc
 50
280.685384
 51
299.0250449999999
  0
LINE
  5
BED4
330
BE7B
100
AcDbEntity
  8
1
  6
Continuous
100
AcDbLine
 10
152.352093
 20
179.193738
 30
0.0
 11
154.578747
 21
179.193738
 31
0.0
  0
LINE
  5
BED5
330
BE7B
100
AcDbEntity
  8
1
  6
Continuous
100
AcDbLine
 10
152.352093
 20
172.093738
 30
0.0
 11
154.578747
 21
172.093738
 31
0.0
  0
ARC
  5
BED6
330
BE7B
100
AcDbEntity
  8
1
  6
Continuous
100
AcDbCircle
 10
153.46542
 20
185.094106
 30
0.0
 40
6.004484999999997
100
AcDbArc
 50
239.065273
 51
259.3146159999998
  0
ARC
  5
BED7
330
BE7B
100
AcDbEntity
  8
1
  6
Continuous
100
AcDbCircle
 10
153.46542
 20
166.1933699999998
 30
0.0
 40
6.004484999999997
100
AcDbArc
 50
60.974955
 51
79.314616
  0
ARC
  5
BED8
330
BE7B
100
AcDbEntity
  8
1
  6
Continuous
100
AcDbCircle
 10
153.46542
 20
166.1933699999998
 30
0.0
 40
6.004484999999997
100
AcDbArc
 50
100.6853839999999
 51
120.934727
  0
ARC
  5
BED9
330
BE7B
100
AcDbEntity
  8
1
  6
Continuous
100
AcDbCircle
 10
153.46542
 20
185.094106
 30
0.0
 40
6.004484999999997
100
AcDbArc
 50
280.685384
 51
299.0250449999999
  0
LINE
  5
BEDA
330
BE7B
100
AcDbEntity
  8
1
  6
Continuous
100
AcDbLine
 10
148.378747
 20
180.1437379999999
 30
0.0
 11
150.3787469999998
 21
180.1437379999999
 31
0.0
  0
LINE
  5
BEDB
330
BE7B
100
AcDbEntity
  8
1
  6
Continuous
100
AcDbLine
 10
148.378747
 20
171.1437379999999
 30
0.0
 11
150.3787469999998
 21
171.1437379999999
 31
0.0
  0
ARC
  5
BEDC
330
BE7B
100
AcDbEntity
  8
1
  6
Continuous
100
AcDbCircle
 10
153.3183339999999
 20
176.867931
 30
0.0
 40
7.110299
100
AcDbArc
 50
245.5797249999998
 51
254.238518
  0
ARC
  5
BEDD
330
BE7B
100
AcDbEntity
  8
1
  6
Continuous
100
AcDbCircle
 10
153.3183339999999
 20
174.419545
 30
0.0
 40
7.110299
100
AcDbArc
 50
65.57972499999999
 51
74.24076499999998
  0
ARC
  5
BEDE
330
BE7B
100
AcDbEntity
  8
1
  6
Continuous
100
AcDbCircle
 10
153.3183339999999
 20
174.419545
 30
0.0
 40
7.110299
100
AcDbArc
 50
105.7592349999999
 51
114.420275
  0
ARC
  5
BEDF
330
BE7B
100
AcDbEntity
  8
1
  6
Continuous
100
AcDbCircle
 10
153.3183339999999
 20
176.867931
 30
0.0
 40
7.110299
100
AcDbArc
 50
285.761482
 51
294.420275
  0
LINE
  5
BEE0
330
BE7B
100
AcDbEntity
  8
1
  6
Continuous
100
AcDbLine
 10
148.378747
 20
234.144138
 30
0.0
 11
150.3787469999998
 21
234.144138
 31
0.0
  0
LINE
  5
BEE1
330
BE7B
100
AcDbEntity
  8
1
  6
Continuous
100
AcDbLine
 10
148.378747
 20
225.144138
 30
0.0
 11
150.3787469999998
 21
225.144138
 31
0.0
  0
LINE
  5
BEE2
330
BE7B
100
AcDbEntity
  8
1
  6
Continuous
100
AcDbLine
 10
150.3787469999998
 20
224.6441379999999
 30
0.0
 11
150.3787469999998
 21
234.6441379999999
 31
0.0
  0
LINE
  5
BEE3
330
BE7B
100
AcDbEntity
  8
1
  6
Continuous
100
AcDbLine
 10
150.3787469999998
 20
234.6441379999999
 30
0.0
 11
155.378747
 21
234.6441379999999
 31
0.0
  0
LINE
  5
BEE4
330
BE7B
100
AcDbEntity
  8
1
  6
Continuous
100
AcDbLine
 10
150.3787469999998
 20
224.6441379999999
 30
0.0
 11
155.378747
 21
224.6441379999999
 31
0.0
  0
LINE
  5
BEE5
330
BE7B
100
AcDbEntity
  8
1
  6
Continuous
100
AcDbLine
 10
156.378747
 20
225.644138
 30
0.0
 11
156.378747
 21
233.644138
 31
0.0
  0
LINE
  5
BEE6
330
BE7B
100
AcDbEntity
  8
1
  6
Continuous
100
AcDbLine
 10
152.6178779999999
 20
230.1441379999999
 30
0.0
 11
154.578747
 21
230.1441379999999
 31
0.0
  0
LINE
  5
BEE7
330
BE7B
100
AcDbEntity
  8
1
  6
Continuous
100
AcDbLine
 10
152.6178779999999
 20
229.144138
 30
0.0
 11
154.578747
 21
229.144138
 31
0.0
  0
ARC
  5
BEE8
330
BE7B
100
AcDbEntity
  8
1
  6
Continuous
100
AcDbCircle
 10
153.598312
 20
234.0289209999999
 30
0.0
 40
4.006592999999998
100
AcDbArc
 50
216.5279299999999
 51
255.8355779999999
  0
ARC
  5
BEE9
330
BE7B
100
AcDbEntity
  8
1
  6
Continuous
100
AcDbCircle
 10
153.598312
 20
225.2593549999999
 30
0.0
 40
4.006592999999998
100
AcDbArc
 50
46.05521399999997
 51
75.835578
  0
ARC
  5
BEEA
330
BE7B
100
AcDbEntity
  8
1
  6
Continuous
100
AcDbCircle
 10
153.598312
 20
234.0289209999999
 30
0.0
 40
4.006592999999998
100
AcDbArc
 50
284.164422
 51
313.9447859999999
  0
ARC
  5
BEEB
330
BE7B
100
AcDbEntity
  8
1
  6
Continuous
100
AcDbCircle
 10
153.598312
 20
225.2593549999999
 30
0.0
 40
4.006592999999998
100
AcDbArc
 50
104.164422
 51
143.4720699999998
  0
ARC
  5
BEEC
330
BE7B
100
AcDbEntity
  8
1
  6
Continuous
100
AcDbCircle
 10
155.378747
 20
233.644138
 30
0.0
 40
1.0
100
AcDbArc
 50
0.0
 51
90.0
  0
ARC
  5
BEED
330
BE7B
100
AcDbEntity
  8
1
  6
Continuous
100
AcDbCircle
 10
155.378747
 20
225.644138
 30
0.0
 40
1.0
100
AcDbArc
 50
270.0
 51
0.0
  0
ARC
  5
BEEE
330
BE7B
100
AcDbEntity
  8
1
  6
Continuous
100
AcDbCircle
 10
153.7430699999999
 20
228.8339799999999
 30
0.0
 40
5.869947999999999
100
AcDbArc
 50
64.77410899999999
 51
81.81526300000001
  0
ARC
  5
BEEF
330
BE7B
100
AcDbEntity
  8
1
  6
Continuous
100
AcDbCircle
 10
153.7430699999999
 20
230.454296
 30
0.0
 40
5.869947999999999
100
AcDbArc
 50
235.030267
 51
261.815263
  0
ARC
  5
BEF0
330
BE7B
100
AcDbEntity
  8
1
  6
Continuous
100
AcDbCircle
 10
153.7430699999999
 20
228.8339799999999
 30
0.0
 40
5.869947999999999
100
AcDbArc
 50
98.184737
 51
124.969733
  0
ARC
  5
BEF1
330
BE7B
100
AcDbEntity
  8
1
  6
Continuous
100
AcDbCircle
 10
153.7430699999999
 20
230.454296
 30
0.0
 40
5.869947999999999
100
AcDbArc
 50
278.1847369999999
 51
295.225891
  0
ARC
  5
BEF2
330
BE7B
100
AcDbEntity
  8
1
  6
Continuous
100
AcDbCircle
 10
244.978747
 20
175.643776
 30
0.0
 40
4.5
100
AcDbArc
 50
190.240348
 51
349.759652
  0
ARC
  5
BEF3
330
BE7B
100
AcDbEntity
  8
1
  6
Continuous
100
AcDbCircle
 10
244.978747
 20
175.643776
 30
0.0
 40
4.5
100
AcDbArc
 50
10.24034799999999
 51
169.7596519999999
  0
LINE
  5
BEF4
330
BE7B
100
AcDbEntity
  8
1
  6
Continuous
100
AcDbLine
 10
252.728747
 20
171.393776
 30
0.0
 11
252.1198969999999
 21
176.569
 31
0.0
  0
LINE
  5
BEF5
330
BE7B
100
AcDbEntity
  8
1
  6
Continuous
100
AcDbLine
 10
237.228747
 20
171.393776
 30
0.0
 11
237.837597
 21
176.569
 31
0.0
  0
LINE
  5
BEF6
330
BE7B
100
AcDbEntity
  8
1
  6
Continuous
100
AcDbLine
 10
238.0664439999999
 20
170.8122919999999
 30
0.0
 11
238.311324
 21
172.8937759999998
 31
0.0
  0
LINE
  5
BEF7
330
BE7B
100
AcDbEntity
  8
1
  6
Continuous
100
AcDbLine
 10
251.8910509999999
 20
170.8122919999999
 30
0.0
 11
251.64617
 21
172.8937759999998
 31
0.0
  0
LINE
  5
BEF8
330
BE7B
100
AcDbEntity
  8
1
  6
Continuous
100
AcDbLine
 10
155.2494599999999
 20
181.2625779999999
 30
0.0
 11
151.387209
 21
181.2625779999999
 31
0.0
  0
LINE
  5
BEF9
330
BE7B
100
AcDbEntity
  8
1
  6
Continuous
100
AcDbLine
 10
155.2497289999998
 20
170.0249739999998
 30
0.0
 11
151.3869399999999
 21
170.0249739999998
 31
0.0
  0
ARC
  5
BEFA
330
BE7B
100
AcDbEntity
  8
1
  6
Continuous
100
AcDbCircle
 10
244.978747
 20
175.4476549999999
 30
0.0
 40
6.446082999999998
100
AcDbArc
 50
14.168254
 51
165.831746
  0
ARC
  5
BEFB
330
BE7B
100
AcDbEntity
  8
1
  6
Continuous
100
AcDbCircle
 10
239.327323
 20
176.3937379999999
 30
0.0
 40
1.5
100
AcDbArc
 50
102.599855
 51
173.2901629999998
  0
ARC
  5
BEFC
330
BE7B
100
AcDbEntity
  8
1
  6
Continuous
100
AcDbCircle
 10
250.6301709999999
 20
176.3937379999999
 30
0.0
 40
1.5
100
AcDbArc
 50
6.709836999999998
 51
77.40014499999998
  0
LINE
  5
BEFD
330
BE7B
100
AcDbEntity
  8
1
  6
Continuous
100
AcDbLine
 10
238.478747
 20
172.038776
 30
0.0
 11
241.2227909999999
 21
172.038776
 31
0.0
  0
LINE
  5
BEFE
330
BE7B
100
AcDbEntity
  8
1
  6
Continuous
100
AcDbLine
 10
251.478747
 20
95.97170699999999
 30
0.0
 11
251.478747
 21
172.038776
 31
0.0
  0
LINE
  5
BEFF
330
BE7B
100
AcDbEntity
  8
1
  6
Continuous
100
AcDbLine
 10
238.478747
 20
95.97170699999999
 30
0.0
 11
238.478747
 21
172.038776
 31
0.0
  0
LINE
  5
BF00
330
BE7B
100
AcDbEntity
  8
1
  6
Continuous
100
AcDbLine
 10
248.7347039999999
 20
172.038776
 30
0.0
 11
251.478747
 21
172.038776
 31
0.0
  0
LINE
  5
BF01
330
BE7B
100
AcDbEntity
  8
1
  6
Continuous
100
AcDbLine
 10
101.0341319999999
 20
236.144138
 30
0.0
 11
132.3287469999999
 21
236.144138
 31
0.0
  0
LINE
  5
BF02
330
BE7B
100
AcDbEntity
  8
1
  6
Continuous
100
AcDbLine
 10
101.0341319999999
 20
223.144138
 30
0.0
 11
132.3287469999999
 21
223.144138
 31
0.0
  0
LINE
  5
BF03
330
BE7B
100
AcDbEntity
  8
1
  6
Continuous
100
AcDbLine
 10
145.9287469999999
 20
236.144138
 30
0.0
 11
177.228747
 21
236.144138
 31
0.0
  0
LINE
  5
BF04
330
BE7B
100
AcDbEntity
  8
1
  6
Continuous
100
AcDbLine
 10
145.9287469999999
 20
223.144138
 30
0.0
 11
177.228747
 21
223.144138
 31
0.0
  0
LINE
  5
BF05
330
BE7B
100
AcDbEntity
  8
4
  6
CENTER
100
AcDbLine
 10
22.473062
 20
175.643776
 30
0.0
 11
43.973062
 21
175.643776
 31
0.0
  0
LINE
  5
BF06
330
BE7B
100
AcDbEntity
  8
4
  6
CENTER
100
AcDbLine
 10
33.22306199999999
 20
85.978317
 30
0.0
 11
33.22306199999999
 21
184.893776
 31
0.0
  0
ARC
  5
BF07
330
BE7B
100
AcDbEntity
  8
1
  6
Continuous
100
AcDbCircle
 10
33.22306199999999
 20
175.4476549999999
 30
0.0
 40
6.446082999999998
100
AcDbArc
 50
14.168254
 51
165.831746
  0
LINE
  5
BF08
330
BE7B
100
AcDbEntity
  8
1
  6
Continuous
100
AcDbLine
 10
39.723062
 20
95.97170699999999
 30
0.0
 11
39.723062
 21
172.038776
 31
0.0
  0
LINE
  5
BF09
330
BE7B
100
AcDbEntity
  8
1
  6
Continuous
100
AcDbLine
 10
26.72306199999999
 20
95.97170699999999
 30
0.0
 11
26.72306199999999
 21
172.038776
 31
0.0
  0
ARC
  5
BF0A
330
BE7B
100
AcDbEntity
  8
1
  6
Continuous
100
AcDbCircle
 10
26.97306199999999
 20
171.393776
 30
0.0
 40
1.5
100
AcDbArc
 50
180.0
 51
260.405932
  0
LINE
  5
BF0B
330
BE7B
100
AcDbEntity
  8
1
  6
Continuous
100
AcDbLine
 10
25.47306199999999
 20
171.393776
 30
0.0
 11
26.08191099999999
 21
176.569
 31
0.0
  0
ARC
  5
BF0C
330
BE7B
100
AcDbEntity
  8
1
  6
Continuous
100
AcDbCircle
 10
27.57163699999999
 20
176.3937379999999
 30
0.0
 40
1.5
100
AcDbArc
 50
102.599855
 51
173.2901629999998
  0
LINE
  5
BF0D
330
BE7B
100
AcDbEntity
  8
1
  6
Continuous
100
AcDbLine
 10
39.47306199999999
 20
172.8937759999998
 30
0.0
 11
39.47306199999999
 21
177.025464
 31
0.0
  0
LINE
  5
BF0E
330
BE7B
100
AcDbEntity
  8
1
  6
Continuous
100
AcDbLine
 10
38.16067499999999
 20
172.8937759999998
 30
0.0
 11
39.89048499999999
 21
172.8937759999998
 31
0.0
  0
ARC
  5
BF0F
330
BE7B
100
AcDbEntity
  8
1
  6
Continuous
100
AcDbCircle
 10
39.47306199999999
 20
171.393776
 30
0.0
 40
1.5
100
AcDbArc
 50
279.594068
 51
0.0
  0
LINE
  5
BF10
330
BE7B
100
AcDbEntity
  8
1
  6
Continuous
100
AcDbLine
 10
40.13536499999999
 20
170.8122919999999
 30
0.0
 11
39.723062
 21
170.7937379999999
 31
0.0
  0
LINE
  5
BF11
330
BE7B
100
AcDbEntity
  8
1
  6
Continuous
100
AcDbLine
 10
40.973062
 20
171.393776
 30
0.0
 11
40.364212
 21
176.569
 31
0.0
  0
LINE
  5
BF12
330
BE7B
100
AcDbEntity
  8
1
  6
Continuous
100
AcDbLine
 10
40.13536499999999
 20
170.8122919999999
 30
0.0
 11
39.89048499999999
 21
172.8937759999998
 31
0.0
  0
ARC
  5
BF13
330
BE7B
100
AcDbEntity
  8
1
  6
Continuous
100
AcDbCircle
 10
38.87448599999999
 20
176.3937379999999
 30
0.0
 40
1.5
100
AcDbArc
 50
6.709836999999998
 51
77.40014499999998
  0
LINE
  5
BF14
330
BE7B
100
AcDbEntity
  8
1
  6
Continuous
100
AcDbLine
 10
26.97306199999999
 20
172.8937759999998
 30
0.0
 11
26.97306199999999
 21
177.025464
 31
0.0
  0
LINE
  5
BF15
330
BE7B
100
AcDbEntity
  8
1
  6
Continuous
100
AcDbLine
 10
26.310758
 20
170.8122919999999
 30
0.0
 11
26.72306199999999
 21
170.7937379999999
 31
0.0
  0
LINE
  5
BF16
330
BE7B
100
AcDbEntity
  8
1
  6
Continuous
100
AcDbLine
 10
26.310758
 20
170.8122919999999
 30
0.0
 11
26.55563799999999
 21
172.8937759999998
 31
0.0
  0
LINE
  5
BF17
330
BE7B
100
AcDbEntity
  8
1
  6
Continuous
100
AcDbLine
 10
26.55563799999999
 20
172.8937759999998
 30
0.0
 11
28.28544799999999
 21
172.8937759999998
 31
0.0
  0
LINE
  5
BF18
330
BE7B
100
AcDbEntity
  8
1
  6
Continuous
100
AcDbLine
 10
26.72306199999999
 20
172.038776
 30
0.0
 11
39.723062
 21
172.038776
 31
0.0
  0
CIRCLE
  5
BF19
330
BE7B
100
AcDbEntity
  8
1
  6
Continuous
100
AcDbCircle
 10
33.22306199999999
 20
175.8937379999999
 30
0.0
 40
3.0
  0
LINE
  5
BF1A
330
BE7B
100
AcDbEntity
  8
1
  6
Continuous
100
AcDbLine
 10
30.238103
 20
176.193776
 30
0.0
 11
29.21919
 21
173.53583
 31
0.0
  0
LINE
  5
BF1B
330
BE7B
100
AcDbEntity
  8
1
  6
Continuous
100
AcDbLine
 10
36.20801999999999
 20
176.193776
 30
0.0
 11
37.226933
 21
173.53583
 31
0.0
  0
ARC
  5
BF1C
330
BE7B
100
AcDbEntity
  8
1
  6
Continuous
100
AcDbCircle
 10
38.16067499999999
 20
173.8937759999998
 30
0.0
 40
1.0
100
AcDbArc
 50
200.9741219999999
 51
270.0
  0
ARC
  5
BF1D
330
BE7B
100
AcDbEntity
  8
1
  6
Continuous
100
AcDbCircle
 10
28.28544799999999
 20
173.8937759999998
 30
0.0
 40
1.0
100
AcDbArc
 50
270.0
 51
339.0258779999999
  0
LINE
  5
BF1E
330
BE7B
100
AcDbEntity
  8
4
  6
CENTER
100
AcDbLine
 10
139.1287469999997
 20
36.477938
 30
0.0
 11
139.1287469999997
 21
59.977938
 31
0.0
  0
LINE
  5
BF1F
330
BE7B
100
AcDbEntity
  8
1
  6
Continuous
100
AcDbLine
 10
101.0287469999999
 20
41.72793799999999
 30
0.0
 11
177.228747
 21
41.72793799999999
 31
0.0
  0
LINE
  5
BF20
330
BE7B
100
AcDbEntity
  8
1
  6
Continuous
100
AcDbLine
 10
133.3287469999999
 20
40.47793799999999
 30
0.0
 11
144.9287469999999
 21
40.47793799999999
 31
0.0
  0
LINE
  5
BF21
330
BE7B
100
AcDbEntity
  8
1
  6
Continuous
100
AcDbLine
 10
101.0287469999999
 20
54.727938
 30
0.0
 11
177.228747
 21
54.727938
 31
0.0
  0
LINE
  5
BF22
330
BE7B
100
AcDbEntity
  8
4
  6
CENTER
100
AcDbLine
 10
91.02874699999999
 20
48.227938
 30
0.0
 11
187.228747
 21
48.227938
 31
0.0
  0
LINE
  5
BF23
330
BE7B
100
AcDbEntity
  8
1
  6
Continuous
100
AcDbLine
 10
133.3287469999999
 20
55.977938
 30
0.0
 11
144.9287469999999
 21
55.977938
 31
0.0
  0
LINE
  5
BF24
330
BE7B
100
AcDbEntity
  8
1
  6
Continuous
100
AcDbLine
 10
33.51358499999999
 20
148.0404599999999
 30
0.0
 11
36.073062
 21
148.0404599999999
 31
0.0
  0
ARC
  5
BF25
330
BE7B
100
AcDbEntity
  8
1
  6
Continuous
100
AcDbCircle
 10
36.073062
 20
148.34046
 30
0.0
 40
0.3
100
AcDbArc
 50
270.0
 51
90.0
  0
ARC
  5
BF26
330
BE7B
100
AcDbEntity
  8
1
  6
Continuous
100
AcDbCircle
 10
30.373062
 20
148.94046
 30
0.0
 40
0.3
100
AcDbArc
 50
90.0
 51
270.0
  0
LINE
  5
BF27
330
BE7B
100
AcDbEntity
  8
1
  6
Continuous
100
AcDbLine
 10
30.373062
 20
148.64046
 30
0.0
 11
33.218615
 21
148.069749
 31
0.0
  0
LINE
  5
BF28
330
BE7B
100
AcDbEntity
  8
1
  6
Continuous
100
AcDbLine
 10
36.073062
 20
148.64046
 30
0.0
 11
30.373062
 21
149.24046
 31
0.0
  0
ARC
  5
BF29
330
BE7B
100
AcDbEntity
  8
1
  6
Continuous
100
AcDbCircle
 10
33.51358499999999
 20
149.54046
 30
0.0
 40
1.5
100
AcDbArc
 50
258.6590749999999
 51
270.0
  0
LINE
  5
BF2A
330
BE7B
100
AcDbEntity
  8
1
  6
Continuous
100
AcDbLine
 10
36.073062
 20
164.508182
 30
0.0
 11
30.373062
 21
165.1081819999999
 31
0.0
  0
ARC
  5
BF2B
330
BE7B
100
AcDbEntity
  8
1
  6
Continuous
100
AcDbCircle
 10
36.073062
 20
164.208182
 30
0.0
 40
0.3
100
AcDbArc
 50
318.189685
 51
90.0
  0
ARC
  5
BF2C
330
BE7B
100
AcDbEntity
  8
1
  6
Continuous
100
AcDbCircle
 10
30.373062
 20
164.8081819999999
 30
0.0
 40
0.3
100
AcDbArc
 50
90.0
 51
208.985474
  0
LINE
  5
BF2D
330
BE7B
100
AcDbEntity
  8
1
  6
Continuous
100
AcDbLine
 10
36.073062
 20
170.24046
 30
0.0
 11
30.373062
 21
170.84046
 31
0.0
  0
ARC
  5
BF2E
330
BE7B
100
AcDbEntity
  8
1
  6
Continuous
100
AcDbCircle
 10
36.073062
 20
169.94046
 30
0.0
 40
0.3
100
AcDbArc
 50
340.528779
 51
90.0
  0
ARC
  5
BF2F
330
BE7B
100
AcDbEntity
  8
1
  6
Continuous
100
AcDbCircle
 10
30.373062
 20
170.54046
 30
0.0
 40
0.3
100
AcDbArc
 50
90.0
 51
186.947931
  0
LINE
  5
BF30
330
BE7B
100
AcDbEntity
  8
1
  6
Continuous
100
AcDbLine
 10
133.503383
 20
171.147376
 30
0.0
 11
128.473174
 21
168.0889089999998
 31
0.0
  0
LINE
  5
BF31
330
BE7B
100
AcDbEntity
  8
1
  6
Continuous
100
AcDbLine
 10
133.569579
 20
170.485422
 30
0.0
 11
128.784889
 21
167.576236
 31
0.0
  0
LINE
  5
BF32
330
BE7B
100
AcDbEntity
  8
1
  6
Continuous
100
AcDbLine
 10
128.473174
 20
168.0889089999998
 30
0.0
 11
128.784889
 21
167.576236
 31
0.0
  0
LINE
  5
BF33
330
BE7B
100
AcDbEntity
  8
1
  6
Continuous
100
AcDbLine
 10
129.7548559999999
 20
168.868198
 30
0.0
 11
130.066572
 21
168.3555249999998
 31
0.0
  0
LINE
  5
BF34
330
BE7B
100
AcDbEntity
  8
1
  6
Continuous
100
AcDbLine
 10
36.073062
 20
146.24046
 30
0.0
 11
30.373062
 21
146.84046
 31
0.0
  0
LINE
  5
BF35
330
BE7B
100
AcDbEntity
  8
1
  6
Continuous
100
AcDbLine
 10
33.51358499999999
 20
145.6404599999999
 30
0.0
 11
36.073062
 21
145.6404599999999
 31
0.0
  0
ARC
  5
BF36
330
BE7B
100
AcDbEntity
  8
1
  6
Continuous
100
AcDbCircle
 10
36.073062
 20
145.94046
 30
0.0
 40
0.3
100
AcDbArc
 50
270.0
 51
90.0
  0
ARC
  5
BF37
330
BE7B
100
AcDbEntity
  8
1
  6
Continuous
100
AcDbCircle
 10
33.51358499999999
 20
147.1404599999999
 30
0.0
 40
1.5
100
AcDbArc
 50
258.6590749999999
 51
270.0
  0
LINE
  5
BF38
330
BE7B
100
AcDbEntity
  8
1
  6
Continuous
100
AcDbLine
 10
30.373062
 20
146.24046
 30
0.0
 11
33.218615
 21
145.6697489999999
 31
0.0
  0
ARC
  5
BF39
330
BE7B
100
AcDbEntity
  8
1
  6
Continuous
100
AcDbCircle
 10
30.373062
 20
146.54046
 30
0.0
 40
0.3
100
AcDbArc
 50
90.0
 51
270.0
  0
ARC
  5
BF3A
330
BE7B
100
AcDbEntity
  8
1
  6
Continuous
100
AcDbCircle
 10
36.073062
 20
143.54046
 30
0.0
 40
0.3
100
AcDbArc
 50
270.0
 51
90.0
  0
LINE
  5
BF3B
330
BE7B
100
AcDbEntity
  8
1
  6
Continuous
100
AcDbLine
 10
33.51358499999999
 20
143.24046
 30
0.0
 11
36.073062
 21
143.24046
 31
0.0
  0
LINE
  5
BF3C
330
BE7B
100
AcDbEntity
  8
1
  6
Continuous
100
AcDbLine
 10
36.073062
 20
143.84046
 30
0.0
 11
30.373062
 21
144.44046
 31
0.0
  0
ARC
  5
BF3D
330
BE7B
100
AcDbEntity
  8
1
  6
Continuous
100
AcDbCircle
 10
33.51358499999999
 20
144.74046
 30
0.0
 40
1.5
100
AcDbArc
 50
258.6590749999999
 51
270.0
  0
LINE
  5
BF3E
330
BE7B
100
AcDbEntity
  8
1
  6
Continuous
100
AcDbLine
 10
30.373062
 20
143.84046
 30
0.0
 11
33.218615
 21
143.2697489999999
 31
0.0
  0
ARC
  5
BF3F
330
BE7B
100
AcDbEntity
  8
1
  6
Continuous
100
AcDbCircle
 10
30.373062
 20
144.14046
 30
0.0
 40
0.3
100
AcDbArc
 50
90.0
 51
270.0
  0
LINE
  5
BF40
330
BE7B
100
AcDbEntity
  8
1
  6
Continuous
100
AcDbLine
 10
36.073062
 20
141.44046
 30
0.0
 11
30.373062
 21
142.0404599999999
 31
0.0
  0
LINE
  5
BF41
330
BE7B
100
AcDbEntity
  8
1
  6
Continuous
100
AcDbLine
 10
33.51358499999999
 20
140.84046
 30
0.0
 11
36.073062
 21
140.84046
 31
0.0
  0
ARC
  5
BF42
330
BE7B
100
AcDbEntity
  8
1
  6
Continuous
100
AcDbCircle
 10
36.073062
 20
141.14046
 30
0.0
 40
0.3
100
AcDbArc
 50
270.0
 51
90.0
  0
ARC
  5
BF43
330
BE7B
100
AcDbEntity
  8
1
  6
Continuous
100
AcDbCircle
 10
33.51358499999999
 20
142.34046
 30
0.0
 40
1.5
100
AcDbArc
 50
258.6590749999999
 51
270.0
  0
LINE
  5
BF44
330
BE7B
100
AcDbEntity
  8
1
  6
Continuous
100
AcDbLine
 10
30.373062
 20
141.44046
 30
0.0
 11
33.218615
 21
140.869749
 31
0.0
  0
ARC
  5
BF45
330
BE7B
100
AcDbEntity
  8
1
  6
Continuous
100
AcDbCircle
 10
30.373062
 20
141.74046
 30
0.0
 40
0.3
100
AcDbArc
 50
90.0
 51
270.0
  0
ARC
  5
BF46
330
BE7B
100
AcDbEntity
  8
1
  6
Continuous
100
AcDbCircle
 10
125.83483
 20
232.4941379999999
 30
0.0
 40
0.3
100
AcDbArc
 50
0.0
 51
180.0
  0
ARC
  5
BF47
330
BE7B
100
AcDbEntity
  8
1
  6
Continuous
100
AcDbCircle
 10
125.2348299999999
 20
226.7941379999999
 30
0.0
 40
0.3
100
AcDbArc
 50
180.0
 51
0.0
  0
ARC
  5
BF48
330
BE7B
100
AcDbEntity
  8
1
  6
Continuous
100
AcDbCircle
 10
127.6348299999999
 20
226.7941379999999
 30
0.0
 40
0.3
100
AcDbArc
 50
180.0
 51
0.0
  0
ARC
  5
BF49
330
BE7B
100
AcDbEntity
  8
1
  6
Continuous
100
AcDbCircle
 10
128.2348299999999
 20
232.4941379999999
 30
0.0
 40
0.3
100
AcDbArc
 50
0.0
 51
180.0
  0
LINE
  5
BF4A
330
BE7B
100
AcDbEntity
  8
1
  6
Continuous
100
AcDbLine
 10
36.073062
 20
139.0404599999999
 30
0.0
 11
30.373062
 21
139.6404599999999
 31
0.0
  0
LINE
  5
BF4B
330
BE7B
100
AcDbEntity
  8
1
  6
Continuous
100
AcDbLine
 10
30.373062
 20
139.0404599999999
 30
0.0
 11
33.218615
 21
138.469749
 31
0.0
  0
LINE
  5
BF4C
330
BE7B
100
AcDbEntity
  8
1
  6
Continuous
100
AcDbLine
 10
33.51358499999999
 20
138.44046
 30
0.0
 11
36.073062
 21
138.44046
 31
0.0
  0
ARC
  5
BF4D
330
BE7B
100
AcDbEntity
  8
1
  6
Continuous
100
AcDbCircle
 10
36.073062
 20
138.74046
 30
0.0
 40
0.3
100
AcDbArc
 50
270.0
 51
90.0
  0
ARC
  5
BF4E
330
BE7B
100
AcDbEntity
  8
1
  6
Continuous
100
AcDbCircle
 10
33.51358499999999
 20
139.9404599999998
 30
0.0
 40
1.5
100
AcDbArc
 50
258.6590749999999
 51
270.0
  0
ARC
  5
BF4F
330
BE7B
100
AcDbEntity
  8
1
  6
Continuous
100
AcDbCircle
 10
30.373062
 20
139.34046
 30
0.0
 40
0.3
100
AcDbArc
 50
90.0
 51
270.0
  0
ARC
  5
BF50
330
BE7B
100
AcDbEntity
  8
1
  6
Continuous
100
AcDbCircle
 10
33.51358499999999
 20
137.5404599999999
 30
0.0
 40
1.5
100
AcDbArc
 50
258.6590749999999
 51
270.0
  0
ARC
  5
BF51
330
BE7B
100
AcDbEntity
  8
1
  6
Continuous
100
AcDbCircle
 10
36.073062
 20
136.34046
 30
0.0
 40
0.3
100
AcDbArc
 50
270.0
 51
90.0
  0
LINE
  5
BF52
330
BE7B
100
AcDbEntity
  8
1
  6
Continuous
100
AcDbLine
 10
33.51358499999999
 20
136.04046
 30
0.0
 11
36.073062
 21
136.04046
 31
0.0
  0
LINE
  5
BF53
330
BE7B
100
AcDbEntity
  8
1
  6
Continuous
100
AcDbLine
 10
36.073062
 20
136.6404599999999
 30
0.0
 11
30.373062
 21
137.24046
 31
0.0
  0
LINE
  5
BF54
330
BE7B
100
AcDbEntity
  8
1
  6
Continuous
100
AcDbLine
 10
30.373062
 20
136.6404599999999
 30
0.0
 11
33.218615
 21
136.0697489999998
 31
0.0
  0
ARC
  5
BF55
330
BE7B
100
AcDbEntity
  8
1
  6
Continuous
100
AcDbCircle
 10
30.373062
 20
136.9404599999998
 30
0.0
 40
0.3
100
AcDbArc
 50
90.0
 51
270.0
  0
LINE
  5
BF56
330
BE7B
100
AcDbEntity
  8
1
  6
Continuous
100
AcDbLine
 10
36.073062
 20
134.24046
 30
0.0
 11
30.373062
 21
134.84046
 31
0.0
  0
LINE
  5
BF57
330
BE7B
100
AcDbEntity
  8
1
  6
Continuous
100
AcDbLine
 10
33.51358499999999
 20
133.6404599999999
 30
0.0
 11
36.073062
 21
133.6404599999999
 31
0.0
  0
ARC
  5
BF58
330
BE7B
100
AcDbEntity
  8
1
  6
Continuous
100
AcDbCircle
 10
36.073062
 20
133.9404599999998
 30
0.0
 40
0.3
100
AcDbArc
 50
270.0
 51
90.0
  0
ARC
  5
BF59
330
BE7B
100
AcDbEntity
  8
1
  6
Continuous
100
AcDbCircle
 10
33.51358499999999
 20
135.1404599999999
 30
0.0
 40
1.5
100
AcDbArc
 50
258.6590749999999
 51
270.0
  0
LINE
  5
BF5A
330
BE7B
100
AcDbEntity
  8
1
  6
Continuous
100
AcDbLine
 10
30.373062
 20
134.24046
 30
0.0
 11
33.218615
 21
133.6697489999999
 31
0.0
  0
ARC
  5
BF5B
330
BE7B
100
AcDbEntity
  8
1
  6
Continuous
100
AcDbCircle
 10
30.373062
 20
134.5404599999999
 30
0.0
 40
0.3
100
AcDbArc
 50
90.0
 51
270.0
  0
ARC
  5
BF5C
330
BE7B
100
AcDbEntity
  8
1
  6
Continuous
100
AcDbCircle
 10
123.43483
 20
232.4941379999999
 30
0.0
 40
0.3
100
AcDbArc
 50
0.0
 51
180.0
  0
ARC
  5
BF5D
330
BE7B
100
AcDbEntity
  8
1
  6
Continuous
100
AcDbCircle
 10
122.83483
 20
226.7941379999999
 30
0.0
 40
0.3
100
AcDbArc
 50
180.0
 51
0.0
  0
ARC
  5
BF5E
330
BE7B
100
AcDbEntity
  8
1
  6
Continuous
100
AcDbCircle
 10
121.0348299999999
 20
232.4941379999999
 30
0.0
 40
0.3
100
AcDbArc
 50
0.0
 51
180.0
  0
ARC
  5
BF5F
330
BE7B
100
AcDbEntity
  8
1
  6
Continuous
100
AcDbCircle
 10
120.43483
 20
226.7941379999999
 30
0.0
 40
0.3
100
AcDbArc
 50
180.0
 51
0.0
  0
ARC
  5
BF60
330
BE7B
100
AcDbEntity
  8
1
  6
Continuous
100
AcDbCircle
 10
118.978771
 20
232.4941379999999
 30
0.0
 40
0.3
100
AcDbArc
 50
0.0
 51
180.0
  0
ARC
  5
BF61
330
BE7B
100
AcDbEntity
  8
1
  6
Continuous
100
AcDbCircle
 10
118.378771
 20
226.7941379999999
 30
0.0
 40
0.3
100
AcDbArc
 50
180.0
 51
0.0
  0
ARC
  5
BF62
330
BE7B
100
AcDbEntity
  8
1
  6
Continuous
100
AcDbCircle
 10
33.51358499999999
 20
132.74046
 30
0.0
 40
1.5
100
AcDbArc
 50
258.6590749999999
 51
270.0
  0
ARC
  5
BF63
330
BE7B
100
AcDbEntity
  8
1
  6
Continuous
100
AcDbCircle
 10
36.073062
 20
131.5404599999999
 30
0.0
 40
0.3
100
AcDbArc
 50
270.0
 51
90.0
  0
LINE
  5
BF64
330
BE7B
100
AcDbEntity
  8
1
  6
Continuous
100
AcDbLine
 10
33.51358499999999
 20
131.24046
 30
0.0
 11
36.073062
 21
131.24046
 31
0.0
  0
LINE
  5
BF65
330
BE7B
100
AcDbEntity
  8
1
  6
Continuous
100
AcDbLine
 10
36.073062
 20
131.84046
 30
0.0
 11
30.373062
 21
132.44046
 31
0.0
  0
LINE
  5
BF66
330
BE7B
100
AcDbEntity
  8
1
  6
Continuous
100
AcDbLine
 10
30.373062
 20
131.84046
 30
0.0
 11
33.218615
 21
131.2697489999999
 31
0.0
  0
ARC
  5
BF67
330
BE7B
100
AcDbEntity
  8
1
  6
Continuous
100
AcDbCircle
 10
30.373062
 20
132.1404599999999
 30
0.0
 40
0.3
100
AcDbArc
 50
90.0
 51
270.0
  0
LINE
  5
BF68
330
BE7B
100
AcDbEntity
  8
1
  6
Continuous
100
AcDbLine
 10
36.073062
 20
129.44046
 30
0.0
 11
30.373062
 21
130.04046
 31
0.0
  0
LINE
  5
BF69
330
BE7B
100
AcDbEntity
  8
1
  6
Continuous
100
AcDbLine
 10
33.51358499999999
 20
128.84046
 30
0.0
 11
36.073062
 21
128.84046
 31
0.0
  0
ARC
  5
BF6A
330
BE7B
100
AcDbEntity
  8
1
  6
Continuous
100
AcDbCircle
 10
36.073062
 20
129.1404599999999
 30
0.0
 40
0.3
100
AcDbArc
 50
270.0
 51
90.0
  0
ARC
  5
BF6B
330
BE7B
100
AcDbEntity
  8
1
  6
Continuous
100
AcDbCircle
 10
33.51358499999999
 20
130.34046
 30
0.0
 40
1.5
100
AcDbArc
 50
258.6590749999999
 51
270.0
  0
LINE
  5
BF6C
330
BE7B
100
AcDbEntity
  8
1
  6
Continuous
100
AcDbLine
 10
30.373062
 20
129.44046
 30
0.0
 11
33.218615
 21
128.869749
 31
0.0
  0
ARC
  5
BF6D
330
BE7B
100
AcDbEntity
  8
1
  6
Continuous
100
AcDbCircle
 10
30.373062
 20
129.74046
 30
0.0
 40
0.3
100
AcDbArc
 50
90.0
 51
270.0
  0
LINE
  5
BF6E
330
BE7B
100
AcDbEntity
  8
1
  6
Continuous
100
AcDbLine
 10
144.9287469999999
 20
55.977938
 30
0.0
 11
144.9287469999999
 21
54.727938
 31
0.0
  0
LINE
  5
BF6F
330
BE7B
100
AcDbEntity
  8
1
  6
Continuous
100
AcDbLine
 10
133.3287469999999
 20
55.977938
 30
0.0
 11
133.3287469999999
 21
54.727938
 31
0.0
  0
LINE
  5
BF70
330
BE7B
100
AcDbEntity
  8
1
  6
Continuous
100
AcDbLine
 10
144.9287469999999
 20
41.72793799999999
 30
0.0
 11
144.9287469999999
 21
40.47793799999999
 31
0.0
  0
LINE
  5
BF71
330
BE7B
100
AcDbEntity
  8
1
  6
Continuous
100
AcDbLine
 10
133.3287469999999
 20
41.72793799999999
 30
0.0
 11
133.3287469999999
 21
40.47793799999999
 31
0.0
  0
ARC
  5
BF72
330
BE7B
100
AcDbEntity
  8
1
  6
Continuous
100
AcDbCircle
 10
117.0701219999999
 20
232.4941379999999
 30
0.0
 40
0.3
100
AcDbArc
 50
0.0
 51
180.0
  0
ARC
  5
BF73
330
BE7B
100
AcDbEntity
  8
1
  6
Continuous
100
AcDbCircle
 10
116.4701219999999
 20
226.7941379999999
 30
0.0
 40
0.3
100
AcDbArc
 50
180.0
 51
0.0
  0
LINE
  5
BF74
330
BE7B
100
AcDbEntity
  8
4
  6
CENTER
100
AcDbLine
 10
16.72306199999999
 20
134.0178139999999
 30
0.0
 11
49.723062
 21
134.0178139999999
 31
0.0
  0
LINE
  5
BF75
330
BE7B
100
AcDbEntity
  8
4
  6
CENTER
100
AcDbLine
 10
228.478747
 20
134.0178139999999
 30
0.0
 11
261.478747
 21
134.0178139999999
 31
0.0
  0
LINE
  5
BF76
330
BE7B
100
AcDbEntity
  8
1
  6
Continuous
100
AcDbLine
 10
101.0341319999999
 20
223.144138
 30
0.0
 11
101.0341319999999
 21
236.144138
 31
0.0
  0
LINE
  5
BF77
330
BE7B
100
AcDbEntity
  8
1
  6
Continuous
100
AcDbLine
 10
177.228747
 20
223.144138
 30
0.0
 11
177.228747
 21
236.144138
 31
0.0
  0
LINE
  5
BF78
330
BE7B
100
AcDbEntity
  8
1
  6
Continuous
100
AcDbLine
 10
128.53483
 20
232.4941379999999
 30
0.0
 11
128.5161679999999
 21
232.316848
 31
0.0
  0
LINE
  5
BF79
330
BE7B
100
AcDbEntity
  8
1
  6
Continuous
100
AcDbLine
 10
126.1348299999999
 20
232.4941379999999
 30
0.0
 11
125.53483
 21
226.7941379999999
 31
0.0
  0
LINE
  5
BF7A
330
BE7B
100
AcDbEntity
  8
1
  6
Continuous
100
AcDbLine
 10
123.73483
 20
232.4941379999999
 30
0.0
 11
123.13483
 21
226.7941379999999
 31
0.0
  0
LINE
  5
BF7B
330
BE7B
100
AcDbEntity
  8
1
  6
Continuous
100
AcDbLine
 10
121.33483
 20
232.4941379999999
 30
0.0
 11
120.73483
 21
226.7941379999999
 31
0.0
  0
LINE
  5
BF7C
330
BE7B
100
AcDbEntity
  8
1
  6
Continuous
100
AcDbLine
 10
119.2787709999999
 20
232.4941379999999
 30
0.0
 11
118.6787709999999
 21
226.7941379999999
 31
0.0
  0
LINE
  5
BF7D
330
BE7B
100
AcDbEntity
  8
1
  6
Continuous
100
AcDbLine
 10
117.3701219999999
 20
232.4941379999999
 30
0.0
 11
116.770122
 21
226.7941379999999
 31
0.0
  0
LINE
  5
BF7E
330
BE7B
100
AcDbEntity
  8
1
  6
Continuous
100
AcDbLine
 10
127.33483
 20
226.7941379999999
 30
0.0
 11
127.33483
 21
228.054017
 31
0.0
  0
LINE
  5
BF7F
330
BE7B
100
AcDbEntity
  8
1
  6
Continuous
100
AcDbLine
 10
124.93483
 20
226.7941379999999
 30
0.0
 11
124.93483
 21
229.644138
 31
0.0
  0
LINE
  5
BF80
330
BE7B
100
AcDbEntity
  8
1
  6
Continuous
100
AcDbLine
 10
122.53483
 20
226.7941379999999
 30
0.0
 11
122.53483
 21
229.644138
 31
0.0
  0
LINE
  5
BF81
330
BE7B
100
AcDbEntity
  8
1
  6
Continuous
100
AcDbLine
 10
120.13483
 20
226.7941379999999
 30
0.0
 11
120.13483
 21
229.644138
 31
0.0
  0
LINE
  5
BF82
330
BE7B
100
AcDbEntity
  8
1
  6
Continuous
100
AcDbLine
 10
118.078771
 20
226.7941379999999
 30
0.0
 11
118.078771
 21
229.644138
 31
0.0
  0
LINE
  5
BF83
330
BE7B
100
AcDbEntity
  8
1
  6
Continuous
100
AcDbLine
 10
116.1701219999999
 20
226.7941379999999
 30
0.0
 11
116.1701219999999
 21
229.644138
 31
0.0
  0
LINE
  5
BF84
330
BE7B
100
AcDbEntity
  8
1
  6
Continuous
100
AcDbLine
 10
127.93483
 20
232.4941379999999
 30
0.0
 11
127.787709
 21
231.7953139999999
 31
0.0
  0
LINE
  5
BF85
330
BE7B
100
AcDbEntity
  8
1
  6
Continuous
100
AcDbLine
 10
125.53483
 20
232.4941379999999
 30
0.0
 11
124.93483
 21
229.644138
 31
0.0
  0
LINE
  5
BF86
330
BE7B
100
AcDbEntity
  8
1
  6
Continuous
100
AcDbLine
 10
123.13483
 20
232.4941379999999
 30
0.0
 11
122.53483
 21
229.644138
 31
0.0
  0
LINE
  5
BF87
330
BE7B
100
AcDbEntity
  8
1
  6
Continuous
100
AcDbLine
 10
120.73483
 20
232.4941379999999
 30
0.0
 11
120.13483
 21
229.644138
 31
0.0
  0
LINE
  5
BF88
330
BE7B
100
AcDbEntity
  8
1
  6
Continuous
100
AcDbLine
 10
118.6787709999999
 20
232.4941379999999
 30
0.0
 11
118.078771
 21
229.644138
 31
0.0
  0
LINE
  5
BF89
330
BE7B
100
AcDbEntity
  8
1
  6
Continuous
100
AcDbLine
 10
116.770122
 20
232.4941379999999
 30
0.0
 11
116.1701219999999
 21
229.644138
 31
0.0
  0
LINE
  5
BF8A
330
BE7B
100
AcDbEntity
  8
5
  6
PHANTOM
100
AcDbLine
 10
173.504783
 20
142.8022629999999
 30
0.0
 11
172.90967
 21
142.725653
 31
0.0
  0
LINE
  5
BF8B
330
BE7B
100
AcDbEntity
  8
1
  6
Continuous
100
AcDbLine
 10
33.51358499999999
 20
169.84046
 30
0.0
 11
36.35590399999999
 21
169.84046
 31
0.0
  0
LINE
  5
BF8C
330
BE7B
100
AcDbEntity
  8
1
  6
Continuous
100
AcDbLine
 10
30.075265
 20
170.5041699999999
 30
0.0
 11
33.257944
 21
169.8658439999999
 31
0.0
  0
LINE
  5
BF8D
330
BE7B
100
AcDbEntity
  8
1
  6
Continuous
100
AcDbLine
 10
33.22306199999999
 20
169.87284
 30
0.0
 11
33.51358499999999
 21
169.84046
 31
0.0
  0
ARC
  5
BF8E
330
BE7B
100
AcDbEntity
  8
1
  6
Continuous
100
AcDbCircle
 10
36.073062
 20
171.0199389999999
 30
0.0
 40
0.3
100
AcDbArc
 50
340.528779
 51
90.0
  0
LINE
  5
BF8F
330
BE7B
100
AcDbEntity
  8
1
  6
Continuous
100
AcDbLine
 10
33.51358499999999
 20
170.919939
 30
0.0
 11
36.35590399999999
 21
170.919939
 31
0.0
  0
LINE
  5
BF90
330
BE7B
100
AcDbEntity
  8
1
  6
Continuous
100
AcDbLine
 10
33.22306199999999
 20
170.9523179999998
 30
0.0
 11
33.51358499999999
 21
170.919939
 31
0.0
  0
LINE
  5
BF91
330
BE7B
100
AcDbEntity
  8
1
  6
Continuous
100
AcDbLine
 10
36.073062
 20
171.3199389999998
 30
0.0
 11
30.373062
 21
171.9199389999999
 31
0.0
  0
ARC
  5
BF92
330
BE7B
100
AcDbEntity
  8
1
  6
Continuous
100
AcDbCircle
 10
30.373062
 20
171.6199389999998
 30
0.0
 40
0.3
100
AcDbArc
 50
90.0
 51
186.947931
  0
LINE
  5
BF93
330
BE7B
100
AcDbEntity
  8
1
  6
Continuous
100
AcDbLine
 10
30.075265
 20
171.583648
 30
0.0
 11
33.257944
 21
170.945322
 31
0.0
  0
ARC
  5
BF94
330
BE7B
100
AcDbEntity
  8
1
  6
Continuous
100
AcDbCircle
 10
36.073062
 20
168.591112
 30
0.0
 40
0.3
100
AcDbArc
 50
340.528779
 51
90.0
  0
LINE
  5
BF95
330
BE7B
100
AcDbEntity
  8
1
  6
Continuous
100
AcDbLine
 10
33.51358499999999
 20
168.4911119999999
 30
0.0
 11
36.35590399999999
 21
168.4911119999999
 31
0.0
  0
LINE
  5
BF96
330
BE7B
100
AcDbEntity
  8
1
  6
Continuous
100
AcDbLine
 10
36.073062
 20
168.891112
 30
0.0
 11
30.373062
 21
169.4911119999999
 31
0.0
  0
LINE
  5
BF97
330
BE7B
100
AcDbEntity
  8
1
  6
Continuous
100
AcDbLine
 10
33.22306199999999
 20
168.523492
 30
0.0
 11
33.51358499999999
 21
168.4911119999999
 31
0.0
  0
ARC
  5
BF98
330
BE7B
100
AcDbEntity
  8
1
  6
Continuous
100
AcDbCircle
 10
30.373062
 20
169.191112
 30
0.0
 40
0.3
100
AcDbArc
 50
90.0
 51
186.947931
  0
LINE
  5
BF99
330
BE7B
100
AcDbEntity
  8
1
  6
Continuous
100
AcDbLine
 10
30.075265
 20
169.154822
 30
0.0
 11
33.257944
 21
168.5164959999999
 31
0.0
  0
LINE
  5
BF9A
330
BE7B
100
AcDbEntity
  8
1
  6
Continuous
100
AcDbLine
 10
33.51358499999999
 20
164.0081819999998
 30
0.0
 11
36.29666799999998
 21
164.0081819999998
 31
0.0
  0
LINE
  5
BF9B
330
BE7B
100
AcDbEntity
  8
1
  6
Continuous
100
AcDbLine
 10
30.11063899999999
 20
164.6628059999999
 30
0.0
 11
33.23827999999998
 21
164.035518
 31
0.0
  0
LINE
  5
BF9C
330
BE7B
100
AcDbEntity
  8
1
  6
Continuous
100
AcDbLine
 10
33.22306199999999
 20
164.0385699999999
 30
0.0
 11
33.51358499999999
 21
164.0081819999998
 31
0.0
  0
ARC
  5
BF9D
330
BE7B
100
AcDbEntity
  8
1
  6
Continuous
100
AcDbCircle
 10
36.073062
 20
167.32395
 30
0.0
 40
0.3
100
AcDbArc
 50
318.189685
 51
90.0
  0
LINE
  5
BF9E
330
BE7B
100
AcDbEntity
  8
1
  6
Continuous
100
AcDbLine
 10
33.51358499999999
 20
167.12395
 30
0.0
 11
36.29666799999998
 21
167.12395
 31
0.0
  0
LINE
  5
BF9F
330
BE7B
100
AcDbEntity
  8
1
  6
Continuous
100
AcDbLine
 10
33.22306199999999
 20
167.1543379999999
 30
0.0
 11
33.51358499999999
 21
167.12395
 31
0.0
  0
LINE
  5
BFA0
330
BE7B
100
AcDbEntity
  8
1
  6
Continuous
100
AcDbLine
 10
36.073062
 20
167.62395
 30
0.0
 11
30.373062
 21
168.22395
 31
0.0
  0
ARC
  5
BFA1
330
BE7B
100
AcDbEntity
  8
1
  6
Continuous
100
AcDbCircle
 10
30.373062
 20
167.9239499999999
 30
0.0
 40
0.3
100
AcDbArc
 50
90.0
 51
208.985474
  0
LINE
  5
BFA2
330
BE7B
100
AcDbEntity
  8
1
  6
Continuous
100
AcDbLine
 10
30.11063899999999
 20
167.778574
 30
0.0
 11
33.23827999999998
 21
167.1512859999999
 31
0.0
  0
ARC
  5
BFA3
330
BE7B
100
AcDbEntity
  8
1
  6
Continuous
100
AcDbCircle
 10
36.073062
 20
165.901002
 30
0.0
 40
0.3
100
AcDbArc
 50
318.189685
 51
90.0
  0
LINE
  5
BFA4
330
BE7B
100
AcDbEntity
  8
1
  6
Continuous
100
AcDbLine
 10
33.51358499999999
 20
165.7010019999999
 30
0.0
 11
36.29666799999998
 21
165.7010019999999
 31
0.0
  0
LINE
  5
BFA5
330
BE7B
100
AcDbEntity
  8
1
  6
Continuous
100
AcDbLine
 10
36.073062
 20
166.2010019999998
 30
0.0
 11
30.373062
 21
166.801002
 31
0.0
  0
ARC
  5
BFA6
330
BE7B
100
AcDbEntity
  8
1
  6
Continuous
100
AcDbCircle
 10
30.373062
 20
166.5010019999998
 30
0.0
 40
0.3
100
AcDbArc
 50
90.0
 51
208.985474
  0
LINE
  5
BFA7
330
BE7B
100
AcDbEntity
  8
1
  6
Continuous
100
AcDbLine
 10
30.11063899999999
 20
166.355626
 30
0.0
 11
33.23827999999998
 21
165.7283379999998
 31
0.0
  0
LINE
  5
BFA8
330
BE7B
100
AcDbEntity
  8
1
  6
Continuous
100
AcDbLine
 10
33.22306199999999
 20
165.73139
 30
0.0
 11
33.51358499999999
 21
165.7010019999999
 31
0.0
  0
LINE
  5
BFA9
330
BE7B
100
AcDbEntity
  8
1
  6
Continuous
100
AcDbLine
 10
36.073062
 20
162.839898
 30
0.0
 11
30.373062
 21
163.439898
 31
0.0
  0
LINE
  5
BFAA
330
BE7B
100
AcDbEntity
  8
1
  6
Continuous
100
AcDbLine
 10
33.51358499999999
 20
162.339898
 30
0.0
 11
36.29666799999998
 21
162.339898
 31
0.0
  0
ARC
  5
BFAB
330
BE7B
100
AcDbEntity
  8
1
  6
Continuous
100
AcDbCircle
 10
36.073062
 20
162.5398979999999
 30
0.0
 40
0.3
100
AcDbArc
 50
318.189685
 51
90.0
  0
LINE
  5
BFAC
330
BE7B
100
AcDbEntity
  8
1
  6
Continuous
100
AcDbLine
 10
33.22306199999999
 20
162.3702859999999
 30
0.0
 11
33.51358499999999
 21
162.339898
 31
0.0
  0
LINE
  5
BFAD
330
BE7B
100
AcDbEntity
  8
1
  6
Continuous
100
AcDbLine
 10
30.11063899999999
 20
162.9945219999999
 30
0.0
 11
33.23827999999998
 21
162.3672339999999
 31
0.0
  0
ARC
  5
BFAE
330
BE7B
100
AcDbEntity
  8
1
  6
Continuous
100
AcDbCircle
 10
30.373062
 20
163.1398979999999
 30
0.0
 40
0.3
100
AcDbArc
 50
90.0
 51
208.985474
  0
LINE
  5
BFAF
330
BE7B
100
AcDbEntity
  8
1
  6
Continuous
100
AcDbLine
 10
36.073062
 20
161.3924169999999
 30
0.0
 11
30.373062
 21
161.9924169999999
 31
0.0
  0
LINE
  5
BFB0
330
BE7B
100
AcDbEntity
  8
1
  6
Continuous
100
AcDbLine
 10
33.22306199999999
 20
157.2672969999999
 30
0.0
 11
33.51358499999999
 21
157.236909
 31
0.0
  0
ARC
  5
BFB1
330
BE7B
100
AcDbEntity
  8
1
  6
Continuous
100
AcDbCircle
 10
36.073062
 20
157.436909
 30
0.0
 40
0.3
100
AcDbArc
 50
318.189685
 51
90.0
  0
LINE
  5
BFB2
330
BE7B
100
AcDbEntity
  8
1
  6
Continuous
100
AcDbLine
 10
33.51358499999999
 20
157.236909
 30
0.0
 11
36.29666799999998
 21
157.236909
 31
0.0
  0
LINE
  5
BFB3
330
BE7B
100
AcDbEntity
  8
1
  6
Continuous
100
AcDbLine
 10
36.073062
 20
157.7369089999999
 30
0.0
 11
30.373062
 21
158.3369089999999
 31
0.0
  0
LINE
  5
BFB4
330
BE7B
100
AcDbEntity
  8
1
  6
Continuous
100
AcDbLine
 10
33.22306199999999
 20
159.229985
 30
0.0
 11
33.51358499999999
 21
159.199597
 31
0.0
  0
LINE
  5
BFB5
330
BE7B
100
AcDbEntity
  8
1
  6
Continuous
100
AcDbLine
 10
36.073062
 20
159.699597
 30
0.0
 11
30.373062
 21
160.299597
 31
0.0
  0
LINE
  5
BFB6
330
BE7B
100
AcDbEntity
  8
1
  6
Continuous
100
AcDbLine
 10
33.51358499999999
 20
159.199597
 30
0.0
 11
36.29666799999998
 21
159.199597
 31
0.0
  0
ARC
  5
BFB7
330
BE7B
100
AcDbEntity
  8
1
  6
Continuous
100
AcDbCircle
 10
36.073062
 20
159.3995969999998
 30
0.0
 40
0.3
100
AcDbArc
 50
318.189685
 51
90.0
  0
LINE
  5
BFB8
330
BE7B
100
AcDbEntity
  8
1
  6
Continuous
100
AcDbLine
 10
33.22306199999999
 20
160.922805
 30
0.0
 11
33.51358499999999
 21
160.8924169999999
 31
0.0
  0
LINE
  5
BFB9
330
BE7B
100
AcDbEntity
  8
1
  6
Continuous
100
AcDbLine
 10
33.51358499999999
 20
160.8924169999999
 30
0.0
 11
36.29666799999998
 21
160.8924169999999
 31
0.0
  0
ARC
  5
BFBA
330
BE7B
100
AcDbEntity
  8
1
  6
Continuous
100
AcDbCircle
 10
36.073062
 20
161.0924169999998
 30
0.0
 40
0.3
100
AcDbArc
 50
318.189685
 51
90.0
  0
LINE
  5
BFBB
330
BE7B
100
AcDbEntity
  8
1
  6
Continuous
100
AcDbLine
 10
30.11063899999999
 20
157.891533
 30
0.0
 11
33.23827999999998
 21
157.264245
 31
0.0
  0
LINE
  5
BFBC
330
BE7B
100
AcDbEntity
  8
1
  6
Continuous
100
AcDbLine
 10
30.11063899999999
 20
159.8542199999999
 30
0.0
 11
33.23827999999998
 21
159.2269319999998
 31
0.0
  0
ARC
  5
BFBD
330
BE7B
100
AcDbEntity
  8
1
  6
Continuous
100
AcDbCircle
 10
30.373062
 20
161.692417
 30
0.0
 40
0.3
100
AcDbArc
 50
90.0
 51
208.985474
  0
ARC
  5
BFBE
330
BE7B
100
AcDbEntity
  8
1
  6
Continuous
100
AcDbCircle
 10
30.373062
 20
158.036909
 30
0.0
 40
0.3
100
AcDbArc
 50
90.0
 51
208.985474
  0
ARC
  5
BFBF
330
BE7B
100
AcDbEntity
  8
1
  6
Continuous
100
AcDbCircle
 10
30.373062
 20
159.9995969999999
 30
0.0
 40
0.3
100
AcDbArc
 50
90.0
 51
208.985474
  0
LINE
  5
BFC0
330
BE7B
100
AcDbEntity
  8
1
  6
Continuous
100
AcDbLine
 10
30.11063899999999
 20
161.5470399999999
 30
0.0
 11
33.23827999999998
 21
160.9197519999999
 31
0.0
  0
ARC
  5
BFC1
330
BE7B
100
AcDbEntity
  8
1
  6
Continuous
100
AcDbCircle
 10
36.073062
 20
154.173944
 30
0.0
 40
0.3
100
AcDbArc
 50
318.189685
 51
90.0
  0
LINE
  5
BFC2
330
BE7B
100
AcDbEntity
  8
1
  6
Continuous
100
AcDbLine
 10
33.51358499999999
 20
153.9739439999999
 30
0.0
 11
36.29666799999998
 21
153.9739439999999
 31
0.0
  0
LINE
  5
BFC3
330
BE7B
100
AcDbEntity
  8
1
  6
Continuous
100
AcDbLine
 10
33.22306199999999
 20
154.004332
 30
0.0
 11
33.51358499999999
 21
153.9739439999999
 31
0.0
  0
ARC
  5
BFC4
330
BE7B
100
AcDbEntity
  8
1
  6
Continuous
100
AcDbCircle
 10
36.073062
 20
152.4320539999999
 30
0.0
 40
0.3
100
AcDbArc
 50
318.189685
 51
90.0
  0
LINE
  5
BFC5
330
BE7B
100
AcDbEntity
  8
1
  6
Continuous
100
AcDbLine
 10
33.51358499999999
 20
152.232054
 30
0.0
 11
36.29666799999998
 21
152.232054
 31
0.0
  0
LINE
  5
BFC6
330
BE7B
100
AcDbEntity
  8
1
  6
Continuous
100
AcDbLine
 10
36.073062
 20
152.732054
 30
0.0
 11
30.373062
 21
153.332054
 31
0.0
  0
LINE
  5
BFC7
330
BE7B
100
AcDbEntity
  8
1
  6
Continuous
100
AcDbLine
 10
33.22306199999999
 20
152.2624419999999
 30
0.0
 11
33.51358499999999
 21
152.232054
 31
0.0
  0
LINE
  5
BFC8
330
BE7B
100
AcDbEntity
  8
1
  6
Continuous
100
AcDbLine
 10
36.073062
 20
150.7693669999999
 30
0.0
 11
30.373062
 21
151.3693669999998
 31
0.0
  0
LINE
  5
BFC9
330
BE7B
100
AcDbEntity
  8
1
  6
Continuous
100
AcDbLine
 10
33.51358499999999
 20
150.269367
 30
0.0
 11
36.29666799999998
 21
150.269367
 31
0.0
  0
ARC
  5
BFCA
330
BE7B
100
AcDbEntity
  8
1
  6
Continuous
100
AcDbCircle
 10
36.073062
 20
150.4693669999998
 30
0.0
 40
0.3
100
AcDbArc
 50
318.189685
 51
90.0
  0
LINE
  5
BFCB
330
BE7B
100
AcDbEntity
  8
1
  6
Continuous
100
AcDbLine
 10
33.22306199999999
 20
150.299755
 30
0.0
 11
33.51358499999999
 21
150.269367
 31
0.0
  0
LINE
  5
BFCC
330
BE7B
100
AcDbEntity
  8
1
  6
Continuous
100
AcDbLine
 10
36.073062
 20
154.4739439999998
 30
0.0
 11
30.373062
 21
155.0739439999999
 31
0.0
  0
LINE
  5
BFCD
330
BE7B
100
AcDbEntity
  8
1
  6
Continuous
100
AcDbLine
 10
33.22306199999999
 20
155.5499469999998
 30
0.0
 11
33.51358499999999
 21
155.5195589999999
 31
0.0
  0
ARC
  5
BFCE
330
BE7B
100
AcDbEntity
  8
1
  6
Continuous
100
AcDbCircle
 10
36.073062
 20
155.719559
 30
0.0
 40
0.3
100
AcDbArc
 50
318.189685
 51
90.0
  0
LINE
  5
BFCF
330
BE7B
100
AcDbEntity
  8
1
  6
Continuous
100
AcDbLine
 10
33.51358499999999
 20
155.5195589999999
 30
0.0
 11
36.29666799999998
 21
155.5195589999999
 31
0.0
  0
LINE
  5
BFD0
330
BE7B
100
AcDbEntity
  8
1
  6
Continuous
100
AcDbLine
 10
36.073062
 20
156.019559
 30
0.0
 11
30.373062
 21
156.619559
 31
0.0
  0
LINE
  5
BFD1
330
BE7B
100
AcDbEntity
  8
1
  6
Continuous
100
AcDbLine
 10
30.11063899999999
 20
154.628567
 30
0.0
 11
33.23827999999998
 21
154.00128
 31
0.0
  0
LINE
  5
BFD2
330
BE7B
100
AcDbEntity
  8
1
  6
Continuous
100
AcDbLine
 10
30.11063899999999
 20
152.8866779999999
 30
0.0
 11
33.23827999999998
 21
152.2593899999999
 31
0.0
  0
LINE
  5
BFD3
330
BE7B
100
AcDbEntity
  8
1
  6
Continuous
100
AcDbLine
 10
30.11063899999999
 20
150.9239909999998
 30
0.0
 11
33.23827999999998
 21
150.296703
 31
0.0
  0
LINE
  5
BFD4
330
BE7B
100
AcDbEntity
  8
1
  6
Continuous
100
AcDbLine
 10
30.11063899999999
 20
156.1741819999998
 30
0.0
 11
33.23827999999998
 21
155.5468939999999
 31
0.0
  0
ARC
  5
BFD5
330
BE7B
100
AcDbEntity
  8
1
  6
Continuous
100
AcDbCircle
 10
30.373062
 20
156.319559
 30
0.0
 40
0.3
100
AcDbArc
 50
90.0
 51
208.985474
  0
ARC
  5
BFD6
330
BE7B
100
AcDbEntity
  8
1
  6
Continuous
100
AcDbCircle
 10
30.373062
 20
154.7739439999998
 30
0.0
 40
0.3
100
AcDbArc
 50
90.0
 51
208.985474
  0
ARC
  5
BFD7
330
BE7B
100
AcDbEntity
  8
1
  6
Continuous
100
AcDbCircle
 10
30.373062
 20
153.0320539999999
 30
0.0
 40
0.3
100
AcDbArc
 50
90.0
 51
208.985474
  0
ARC
  5
BFD8
330
BE7B
100
AcDbEntity
  8
1
  6
Continuous
100
AcDbCircle
 10
30.373062
 20
151.069367
 30
0.0
 40
0.3
100
AcDbArc
 50
90.0
 51
208.985474
  0
LINE
  5
BFD9
330
BE7B
100
AcDbEntity
  8
1
  6
Continuous
100
AcDbLine
 10
238.478747
 20
165.956929
 30
0.0
 11
240.1156879999998
 21
164.974764
 31
0.0
  0
LINE
  5
BFDA
330
BE7B
100
AcDbEntity
  8
1
  6
Continuous
100
AcDbLine
 10
240.8878469999999
 20
164.866022
 30
0.0
 11
244.978747
 21
165.956929
 31
0.0
  0
LINE
  5
BFDB
330
BE7B
100
AcDbEntity
  8
1
  6
Continuous
100
AcDbLine
 10
244.978747
 20
165.956929
 30
0.0
 11
249.0696479999999
 21
164.866022
 31
0.0
  0
LINE
  5
BFDC
330
BE7B
100
AcDbEntity
  8
1
  6
Continuous
100
AcDbLine
 10
249.841806
 20
164.974764
 30
0.0
 11
251.478747
 21
165.956929
 31
0.0
  0
LINE
  5
BFDD
330
BE7B
100
AcDbEntity
  8
1
  6
Continuous
100
AcDbLine
 10
251.478747
 20
165.483014
 30
0.0
 11
249.841806
 21
164.5008489999999
 31
0.0
  0
LINE
  5
BFDE
330
BE7B
100
AcDbEntity
  8
1
  6
Continuous
100
AcDbLine
 10
249.0696479999999
 20
164.392107
 30
0.0
 11
244.978747
 21
165.483014
 31
0.0
  0
LINE
  5
BFDF
330
BE7B
100
AcDbEntity
  8
1
  6
Continuous
100
AcDbLine
 10
244.978747
 20
165.483014
 30
0.0
 11
240.8878469999999
 21
164.392107
 31
0.0
  0
LINE
  5
BFE0
330
BE7B
100
AcDbEntity
  8
1
  6
Continuous
100
AcDbLine
 10
240.1156879999998
 20
164.5008489999999
 30
0.0
 11
238.478747
 21
165.483014
 31
0.0
  0
ARC
  5
BFE1
330
BE7B
100
AcDbEntity
  8
1
  6
Continuous
100
AcDbCircle
 10
249.32731
 20
165.8322569999999
 30
0.0
 40
1.0
100
AcDbArc
 50
255.0685829999999
 51
300.9637569999998
  0
ARC
  5
BFE2
330
BE7B
100
AcDbEntity
  8
1
  6
Continuous
100
AcDbCircle
 10
249.32731
 20
165.3583419999999
 30
0.0
 40
1.0
100
AcDbArc
 50
255.0685829999999
 51
300.9637569999998
  0
ARC
  5
BFE3
330
BE7B
100
AcDbEntity
  8
1
  6
Continuous
100
AcDbCircle
 10
240.6301839999999
 20
165.3583419999999
 30
0.0
 40
1.0
100
AcDbArc
 50
239.036243
 51
284.9314169999999
  0
ARC
  5
BFE4
330
BE7B
100
AcDbEntity
  8
1
  6
Continuous
100
AcDbCircle
 10
240.6301839999999
 20
165.8322569999999
 30
0.0
 40
1.0
100
AcDbArc
 50
239.036243
 51
284.9314169999999
  0
LINE
  5
BFE5
330
BE7B
100
AcDbEntity
  8
1
  6
Continuous
100
AcDbLine
 10
102.8029069999999
 20
226.963946
 30
0.0
 11
103.402907
 21
232.6639459999999
 31
0.0
  0
LINE
  5
BFE6
330
BE7B
100
AcDbEntity
  8
1
  6
Continuous
100
AcDbLine
 10
102.402907
 20
229.523423
 30
0.0
 11
102.402907
 21
226.6811029999999
 31
0.0
  0
ARC
  5
BFE7
330
BE7B
100
AcDbEntity
  8
1
  6
Continuous
100
AcDbCircle
 10
102.5029069999998
 20
226.963946
 30
0.0
 40
0.3
100
AcDbArc
 50
250.5287789999999
 51
0.0
  0
ARC
  5
BFE8
330
BE7B
100
AcDbEntity
  8
1
  6
Continuous
100
AcDbCircle
 10
101.423429
 20
226.963946
 30
0.0
 40
0.3
100
AcDbArc
 50
250.5287789999999
 51
0.0
  0
LINE
  5
BFE9
330
BE7B
100
AcDbEntity
  8
1
  6
Continuous
100
AcDbLine
 10
101.3234289999999
 20
229.523423
 30
0.0
 11
101.3234289999999
 21
226.6811029999999
 31
0.0
  0
LINE
  5
BFEA
330
BE7B
100
AcDbEntity
  8
1
  6
Continuous
100
AcDbLine
 10
101.723429
 20
226.963946
 30
0.0
 11
102.3234289999999
 21
232.6639459999999
 31
0.0
  0
LINE
  5
BFEB
330
BE7B
100
AcDbEntity
  8
1
  6
Continuous
100
AcDbLine
 10
103.0666169999999
 20
232.961743
 30
0.0
 11
102.4282899999999
 21
229.7790629999998
 31
0.0
  0
ARC
  5
BFEC
330
BE7B
100
AcDbEntity
  8
1
  6
Continuous
100
AcDbCircle
 10
102.0234289999999
 20
232.6639459999999
 30
0.0
 40
0.3
100
AcDbArc
 50
0.0
 51
96.94793100000005
  0
LINE
  5
BFED
330
BE7B
100
AcDbEntity
  8
1
  6
Continuous
100
AcDbLine
 10
101.987138
 20
232.961743
 30
0.0
 11
101.3488119999999
 21
229.7790629999998
 31
0.0
  0
LINE
  5
BFEE
330
BE7B
100
AcDbEntity
  8
1
  6
Continuous
100
AcDbLine
 10
102.435286
 20
229.8139459999999
 30
0.0
 11
102.402907
 21
229.523423
 31
0.0
  0
LINE
  5
BFEF
330
BE7B
100
AcDbEntity
  8
1
  6
Continuous
100
AcDbLine
 10
101.3558079999999
 20
229.8139459999999
 30
0.0
 11
101.3234289999999
 21
229.523423
 31
0.0
  0
LINE
  5
BFF0
330
BE7B
100
AcDbEntity
  8
1
  6
Continuous
100
AcDbLine
 10
103.0666169999999
 20
232.961743
 30
0.0
 11
103.402907
 21
232.6639459999999
 31
0.0
  0
LINE
  5
BFF1
330
BE7B
100
AcDbEntity
  8
1
  6
Continuous
100
AcDbLine
 10
105.916429
 20
232.961743
 30
0.0
 11
105.278102
 21
229.7790629999998
 31
0.0
  0
LINE
  5
BFF2
330
BE7B
100
AcDbEntity
  8
1
  6
Continuous
100
AcDbLine
 10
104.394735
 20
232.961743
 30
0.0
 11
103.7564079999998
 21
229.7790629999998
 31
0.0
  0
LINE
  5
BFF3
330
BE7B
100
AcDbEntity
  8
1
  6
Continuous
100
AcDbLine
 10
104.1310249999998
 20
226.963946
 30
0.0
 11
104.7310249999999
 21
232.6639459999999
 31
0.0
  0
ARC
  5
BFF4
330
BE7B
100
AcDbEntity
  8
1
  6
Continuous
100
AcDbCircle
 10
104.431025
 20
232.6639459999999
 30
0.0
 40
0.3
100
AcDbArc
 50
0.0
 51
96.94793100000005
  0
LINE
  5
BFF5
330
BE7B
100
AcDbEntity
  8
1
  6
Continuous
100
AcDbLine
 10
105.6527189999999
 20
226.963946
 30
0.0
 11
106.2527189999999
 21
232.6639459999999
 31
0.0
  0
LINE
  5
BFF6
330
BE7B
100
AcDbEntity
  8
1
  6
Continuous
100
AcDbLine
 10
105.916429
 20
232.961743
 30
0.0
 11
106.2527189999999
 21
232.6639459999999
 31
0.0
  0
ARC
  5
BFF7
330
BE7B
100
AcDbEntity
  8
1
  6
Continuous
100
AcDbCircle
 10
105.352719
 20
226.963946
 30
0.0
 40
0.3
100
AcDbArc
 50
250.5287789999999
 51
0.0
  0
LINE
  5
BFF8
330
BE7B
100
AcDbEntity
  8
1
  6
Continuous
100
AcDbLine
 10
103.7310249999999
 20
229.523423
 30
0.0
 11
103.7310249999999
 21
226.6811029999999
 31
0.0
  0
ARC
  5
BFF9
330
BE7B
100
AcDbEntity
  8
1
  6
Continuous
100
AcDbCircle
 10
103.8310249999999
 20
226.963946
 30
0.0
 40
0.3
100
AcDbArc
 50
250.5287789999999
 51
0.0
  0
LINE
  5
BFFA
330
BE7B
100
AcDbEntity
  8
1
  6
Continuous
100
AcDbLine
 10
105.2527189999999
 20
229.523423
 30
0.0
 11
105.2527189999999
 21
226.6811029999999
 31
0.0
  0
LINE
  5
BFFB
330
BE7B
100
AcDbEntity
  8
1
  6
Continuous
100
AcDbLine
 10
103.7634039999999
 20
229.8139459999999
 30
0.0
 11
103.7310249999999
 21
229.523423
 31
0.0
  0
LINE
  5
BFFC
330
BE7B
100
AcDbEntity
  8
1
  6
Continuous
100
AcDbLine
 10
105.285099
 20
229.8139459999999
 30
0.0
 11
105.2527189999999
 21
229.523423
 31
0.0
  0
LINE
  5
BFFD
330
BE7B
100
AcDbEntity
  8
1
  6
Continuous
100
AcDbLine
 10
107.46238
 20
226.867895
 30
0.0
 11
108.06238
 21
232.5678949999999
 31
0.0
  0
LINE
  5
BFFE
330
BE7B
100
AcDbEntity
  8
1
  6
Continuous
100
AcDbLine
 10
109.2784039999999
 20
226.867895
 30
0.0
 11
109.8784039999999
 21
232.5678949999999
 31
0.0
  0
ARC
  5
BFFF
330
BE7B
100
AcDbEntity
  8
1
  6
Continuous
100
AcDbCircle
 10
107.76238
 20
232.5678949999999
 30
0.0
 40
0.3
100
AcDbArc
 50
0.0
 51
118.9854739999999
  0
LINE
  5
C000
330
BE7B
100
AcDbEntity
  8
1
  6
Continuous
100
AcDbLine
 10
107.617004
 20
232.830318
 30
0.0
 11
106.9897159999999
 21
229.7026769999999
 31
0.0
  0
LINE
  5
C001
330
BE7B
100
AcDbEntity
  8
1
  6
Continuous
100
AcDbLine
 10
109.4330279999999
 20
232.830318
 30
0.0
 11
108.8057399999998
 21
229.7026769999999
 31
0.0
  0
ARC
  5
C002
330
BE7B
100
AcDbEntity
  8
1
  6
Continuous
100
AcDbCircle
 10
109.578404
 20
232.5678949999999
 30
0.0
 40
0.3
100
AcDbArc
 50
0.0
 51
118.9854739999999
  0
LINE
  5
C003
330
BE7B
100
AcDbEntity
  8
1
  6
Continuous
100
AcDbLine
 10
106.96238
 20
229.427372
 30
0.0
 11
106.96238
 21
226.644288
 31
0.0
  0
ARC
  5
C004
330
BE7B
100
AcDbEntity
  8
1
  6
Continuous
100
AcDbCircle
 10
107.16238
 20
226.867895
 30
0.0
 40
0.3
100
AcDbArc
 50
228.1896849999998
 51
0.0
  0
LINE
  5
C005
330
BE7B
100
AcDbEntity
  8
1
  6
Continuous
100
AcDbLine
 10
108.778404
 20
229.427372
 30
0.0
 11
108.778404
 21
226.644288
 31
0.0
  0
ARC
  5
C006
330
BE7B
100
AcDbEntity
  8
1
  6
Continuous
100
AcDbCircle
 10
108.978404
 20
226.867895
 30
0.0
 40
0.3
100
AcDbArc
 50
228.1896849999998
 51
0.0
  0
LINE
  5
C007
330
BE7B
100
AcDbEntity
  8
1
  6
Continuous
100
AcDbLine
 10
108.8057399999998
 20
229.7026769999999
 30
0.0
 11
108.778404
 21
229.427372
 31
0.0
  0
LINE
  5
C008
330
BE7B
100
AcDbEntity
  8
1
  6
Continuous
100
AcDbLine
 10
106.9897159999999
 20
229.7026769999999
 30
0.0
 11
106.96238
 21
229.427372
 31
0.0
  0
LINE
  5
C009
330
BE7B
100
AcDbEntity
  8
1
  6
Continuous
100
AcDbLine
 10
112.9215889999999
 20
232.830318
 30
0.0
 11
112.2943009999999
 21
229.7026769999999
 31
0.0
  0
LINE
  5
C00A
330
BE7B
100
AcDbEntity
  8
1
  6
Continuous
100
AcDbLine
 10
111.3020969999999
 20
232.830318
 30
0.0
 11
110.6748099999999
 21
229.7026769999999
 31
0.0
  0
LINE
  5
C00B
330
BE7B
100
AcDbEntity
  8
1
  6
Continuous
100
AcDbLine
 10
112.7669649999998
 20
226.867895
 30
0.0
 11
113.3669649999998
 21
232.5678949999999
 31
0.0
  0
LINE
  5
C00C
330
BE7B
100
AcDbEntity
  8
1
  6
Continuous
100
AcDbLine
 10
111.147474
 20
226.867895
 30
0.0
 11
111.747474
 21
232.5678949999999
 31
0.0
  0
ARC
  5
C00D
330
BE7B
100
AcDbEntity
  8
1
  6
Continuous
100
AcDbCircle
 10
113.0669649999999
 20
232.5678949999999
 30
0.0
 40
0.3
100
AcDbArc
 50
0.0
 51
118.9854739999999
  0
ARC
  5
C00E
330
BE7B
100
AcDbEntity
  8
1
  6
Continuous
100
AcDbCircle
 10
111.447474
 20
232.5678949999999
 30
0.0
 40
0.3
100
AcDbArc
 50
0.0
 51
118.9854739999999
  0
LINE
  5
C00F
330
BE7B
100
AcDbEntity
  8
1
  6
Continuous
100
AcDbLine
 10
110.6748099999999
 20
229.7026769999999
 30
0.0
 11
110.647474
 21
229.427372
 31
0.0
  0
ARC
  5
C010
330
BE7B
100
AcDbEntity
  8
1
  6
Continuous
100
AcDbCircle
 10
112.4669649999999
 20
226.867895
 30
0.0
 40
0.3
100
AcDbArc
 50
228.1896849999998
 51
0.0
  0
LINE
  5
C011
330
BE7B
100
AcDbEntity
  8
1
  6
Continuous
100
AcDbLine
 10
112.2669649999999
 20
229.427372
 30
0.0
 11
112.2669649999999
 21
226.644288
 31
0.0
  0
ARC
  5
C012
330
BE7B
100
AcDbEntity
  8
1
  6
Continuous
100
AcDbCircle
 10
110.847474
 20
226.867895
 30
0.0
 40
0.3
100
AcDbArc
 50
228.1896849999998
 51
0.0
  0
LINE
  5
C013
330
BE7B
100
AcDbEntity
  8
1
  6
Continuous
100
AcDbLine
 10
110.647474
 20
229.427372
 30
0.0
 11
110.647474
 21
226.644288
 31
0.0
  0
LINE
  5
C014
330
BE7B
100
AcDbEntity
  8
1
  6
Continuous
100
AcDbLine
 10
114.7323399999998
 20
226.867895
 30
0.0
 11
115.3323399999998
 21
232.5678949999999
 31
0.0
  0
LINE
  5
C015
330
BE7B
100
AcDbEntity
  8
1
  6
Continuous
100
AcDbLine
 10
114.886964
 20
232.830318
 30
0.0
 11
114.2596759999999
 21
229.7026769999999
 31
0.0
  0
ARC
  5
C016
330
BE7B
100
AcDbEntity
  8
1
  6
Continuous
100
AcDbCircle
 10
115.0323399999999
 20
232.5678949999999
 30
0.0
 40
0.3
100
AcDbArc
 50
0.0
 51
118.9854739999999
  0
LINE
  5
C017
330
BE7B
100
AcDbEntity
  8
1
  6
Continuous
100
AcDbLine
 10
114.2323399999998
 20
229.427372
 30
0.0
 11
114.2323399999998
 21
226.644288
 31
0.0
  0
ARC
  5
C018
330
BE7B
100
AcDbEntity
  8
1
  6
Continuous
100
AcDbCircle
 10
114.4323399999999
 20
226.867895
 30
0.0
 40
0.3
100
AcDbArc
 50
228.1896849999998
 51
0.0
  0
LINE
  5
C019
330
BE7B
100
AcDbEntity
  8
1
  6
Continuous
100
AcDbLine
 10
114.2596759999999
 20
229.7026769999999
 30
0.0
 11
114.2323399999998
 21
229.427372
 31
0.0
  0
LINE
  5
C01A
330
BE7B
100
AcDbEntity
  8
1
  6
Continuous
100
AcDbLine
 10
112.2943009999999
 20
229.7026769999999
 30
0.0
 11
112.2669649999999
 21
229.427372
 31
0.0
  0
LINE
  5
C01B
330
BE7B
100
AcDbEntity
  8
1
  6
Continuous
100
AcDbLine
 10
248.1991509999998
 20
169.562736
 30
0.0
 11
245.409104
 21
170.1223149999998
 31
0.0
  0
LINE
  5
C01C
330
BE7B
100
AcDbEntity
  8
1
  6
Continuous
100
AcDbLine
 10
248.1991509999998
 20
170.6422139999999
 30
0.0
 11
246.8013589999999
 21
170.922559
 31
0.0
  0
LINE
  5
C01D
330
BE7B
100
AcDbEntity
  8
1
  6
Continuous
100
AcDbLine
 10
242.201354
 20
170.905924
 30
0.0
 11
243.404264
 21
170.7793019999998
 31
0.0
  0
ARC
  5
C01E
330
BE7B
100
AcDbEntity
  8
1
  6
Continuous
100
AcDbCircle
 10
247.9013539999999
 20
170.6059239999999
 30
0.0
 40
0.3
100
AcDbArc
 50
270.0
 51
6.947930999999997
  0
LINE
  5
C01F
330
BE7B
100
AcDbEntity
  8
1
  6
Continuous
100
AcDbLine
 10
248.1991509999998
 20
166.712923
 30
0.0
 11
245.016472
 21
167.35125
 31
0.0
  0
LINE
  5
C020
330
BE7B
100
AcDbEntity
  8
1
  6
Continuous
100
AcDbLine
 10
242.201354
 20
166.9766329999999
 30
0.0
 11
247.9013539999999
 21
166.376633
 31
0.0
  0
LINE
  5
C021
330
BE7B
100
AcDbEntity
  8
1
  6
Continuous
100
AcDbLine
 10
242.201354
 20
168.498327
 30
0.0
 11
247.9013539999999
 21
167.8983269999999
 31
0.0
  0
LINE
  5
C022
330
BE7B
100
AcDbEntity
  8
1
  6
Continuous
100
AcDbLine
 10
248.1991509999998
 20
168.2346179999998
 30
0.0
 11
245.016472
 21
168.8729439999999
 31
0.0
  0
LINE
  5
C023
330
BE7B
100
AcDbEntity
  8
1
  6
Continuous
100
AcDbLine
 10
242.201354
 20
169.826445
 30
0.0
 11
247.9013539999999
 21
169.2264449999998
 31
0.0
  0
LINE
  5
C024
330
BE7B
100
AcDbEntity
  8
1
  6
Continuous
100
AcDbLine
 10
248.1991509999998
 20
166.712923
 30
0.0
 11
247.9013539999999
 21
166.376633
 31
0.0
  0
ARC
  5
C025
330
BE7B
100
AcDbEntity
  8
1
  6
Continuous
100
AcDbCircle
 10
247.9013539999999
 20
168.198327
 30
0.0
 40
0.3
100
AcDbArc
 50
270.0
 51
6.947930999999997
  0
LINE
  5
C026
330
BE7B
100
AcDbEntity
  8
1
  6
Continuous
100
AcDbLine
 10
248.1991509999998
 20
169.562736
 30
0.0
 11
247.9013539999999
 21
169.2264449999998
 31
0.0
  0
ARC
  5
C027
330
BE7B
100
AcDbEntity
  8
1
  6
Continuous
100
AcDbCircle
 10
242.201354
 20
170.126445
 30
0.0
 40
0.3
100
AcDbArc
 50
160.528779
 51
270.0
  0
LINE
  5
C028
330
BE7B
100
AcDbEntity
  8
1
  6
Continuous
100
AcDbLine
 10
242.4921279999999
 20
171.3059239999998
 30
0.0
 11
241.9185119999999
 21
171.3059239999998
 31
0.0
  0
ARC
  5
C029
330
BE7B
100
AcDbEntity
  8
1
  6
Continuous
100
AcDbCircle
 10
242.201354
 20
171.205924
 30
0.0
 40
0.3
100
AcDbArc
 50
160.528779
 51
270.0
  0
LINE
  5
C02A
330
BE7B
100
AcDbEntity
  8
1
  6
Continuous
100
AcDbLine
 10
244.361839
 20
170.2264449999999
 30
0.0
 11
241.9185119999999
 21
170.2264449999999
 31
0.0
  0
LINE
  5
C02B
330
BE7B
100
AcDbEntity
  8
1
  6
Continuous
100
AcDbLine
 10
245.051354
 20
167.344254
 30
0.0
 11
244.760831
 21
167.376633
 31
0.0
  0
ARC
  5
C02C
330
BE7B
100
AcDbEntity
  8
1
  6
Continuous
100
AcDbCircle
 10
242.201354
 20
167.2766329999998
 30
0.0
 40
0.3
100
AcDbArc
 50
160.528779
 51
270.0
  0
LINE
  5
C02D
330
BE7B
100
AcDbEntity
  8
1
  6
Continuous
100
AcDbLine
 10
244.760831
 20
167.376633
 30
0.0
 11
241.9185119999999
 21
167.376633
 31
0.0
  0
LINE
  5
C02E
330
BE7B
100
AcDbEntity
  8
1
  6
Continuous
100
AcDbLine
 10
245.051354
 20
168.865948
 30
0.0
 11
244.760831
 21
168.898327
 31
0.0
  0
ARC
  5
C02F
330
BE7B
100
AcDbEntity
  8
1
  6
Continuous
100
AcDbCircle
 10
242.201354
 20
168.798327
 30
0.0
 40
0.3
100
AcDbArc
 50
160.528779
 51
270.0
  0
LINE
  5
C030
330
BE7B
100
AcDbEntity
  8
1
  6
Continuous
100
AcDbLine
 10
244.760831
 20
168.898327
 30
0.0
 11
241.9185119999999
 21
168.898327
 31
0.0
  0
LINE
  5
C031
330
BE7B
100
AcDbEntity
  8
1
  6
Continuous
100
AcDbLine
 10
246.067641
 20
170.498946
 30
0.0
 11
247.9013539999999
 21
170.3059239999998
 31
0.0
  0
LINE
  5
C032
330
BE7B
100
AcDbEntity
  8
1
  6
Continuous
100
AcDbLine
 10
159.382257
 20
223.144138
 30
0.0
 11
160.3644219999999
 21
224.7810789999999
 31
0.0
  0
LINE
  5
C033
330
BE7B
100
AcDbEntity
  8
1
  6
Continuous
100
AcDbLine
 10
160.4731639999999
 20
225.553238
 30
0.0
 11
159.382257
 21
229.644138
 31
0.0
  0
LINE
  5
C034
330
BE7B
100
AcDbEntity
  8
1
  6
Continuous
100
AcDbLine
 10
159.382257
 20
229.644138
 30
0.0
 11
160.4731639999999
 21
233.735038
 31
0.0
  0
LINE
  5
C035
330
BE7B
100
AcDbEntity
  8
1
  6
Continuous
100
AcDbLine
 10
160.3644219999999
 20
234.5071969999999
 30
0.0
 11
159.382257
 21
236.144138
 31
0.0
  0
ARC
  5
C036
330
BE7B
100
AcDbEntity
  8
1
  6
Continuous
100
AcDbCircle
 10
159.506929
 20
233.9927009999999
 30
0.0
 40
1.0
100
AcDbArc
 50
345.0685829999998
 51
30.96375700000001
  0
ARC
  5
C037
330
BE7B
100
AcDbEntity
  8
1
  6
Continuous
100
AcDbCircle
 10
159.506929
 20
225.295575
 30
0.0
 40
1.0
100
AcDbArc
 50
329.036243
 51
14.931417
  0
LINE
  5
C038
330
BE7B
100
AcDbEntity
  8
1
  6
Continuous
100
AcDbLine
 10
157.995561
 20
232.4941379999999
 30
0.0
 11
157.3955609999999
 21
226.7941379999999
 31
0.0
  0
LINE
  5
C039
330
BE7B
100
AcDbEntity
  8
1
  6
Continuous
100
AcDbLine
 10
156.795561
 20
226.7941379999999
 30
0.0
 11
156.795561
 21
229.644138
 31
0.0
  0
ARC
  5
C03A
330
BE7B
100
AcDbEntity
  8
1
  6
Continuous
100
AcDbCircle
 10
157.095561
 20
226.7941379999999
 30
0.0
 40
0.3
100
AcDbArc
 50
180.0
 51
0.0
  0
LINE
  5
C03B
330
BE7B
100
AcDbEntity
  8
1
  6
Continuous
100
AcDbLine
 10
157.3955609999999
 20
232.4941379999999
 30
0.0
 11
156.795561
 21
229.644138
 31
0.0
  0
ARC
  5
C03C
330
BE7B
100
AcDbEntity
  8
1
  6
Continuous
100
AcDbCircle
 10
157.6955609999999
 20
232.4941379999999
 30
0.0
 40
0.3
100
AcDbArc
 50
0.0
 51
180.0
  0
ARC
  5
C03D
330
BE7B
100
AcDbEntity
  8
1
  6
Continuous
100
AcDbCircle
 10
101.292048
 20
51.077938
 30
0.0
 40
0.3
100
AcDbArc
 50
70.528779
 51
151.362559
  0
LINE
  5
C03E
330
BE7B
100
AcDbEntity
  8
1
  6
Continuous
100
AcDbLine
 10
101.392048
 20
48.384121
 30
0.0
 11
101.392048
 21
51.360781
 31
0.0
  0
LINE
  5
C03F
330
BE7B
100
AcDbEntity
  8
1
  6
Continuous
100
AcDbLine
 10
101.3641629999999
 20
48.116307
 30
0.0
 11
101.0287469999999
 21
46.523083
 31
0.0
  0
LINE
  5
C040
330
BE7B
100
AcDbEntity
  8
1
  6
Continuous
100
AcDbLine
 10
101.392048
 20
48.384121
 30
0.0
 11
101.3641629999999
 21
48.116307
 31
0.0
  0
LINE
  5
C041
330
BE7B
100
AcDbEntity
  8
1
  6
Continuous
100
AcDbLine
 10
144.628747
 20
55.977938
 30
0.0
 11
144.628747
 21
54.727938
 31
0.0
  0
LINE
  5
C042
330
BE7B
100
AcDbEntity
  8
1
  6
Continuous
100
AcDbLine
 10
133.628747
 20
55.977938
 30
0.0
 11
133.628747
 21
54.727938
 31
0.0
  0
LINE
  5
C043
330
BE7B
100
AcDbEntity
  8
1
  6
Continuous
100
AcDbLine
 10
133.628747
 20
41.72793799999999
 30
0.0
 11
133.628747
 21
40.47793799999999
 31
0.0
  0
LINE
  5
C044
330
BE7B
100
AcDbEntity
  8
1
  6
Continuous
100
AcDbLine
 10
144.628747
 20
41.72793799999999
 30
0.0
 11
144.628747
 21
40.47793799999999
 31
0.0
  0
LINE
  5
C045
330
BE7B
100
AcDbEntity
  8
1
  6
Continuous
100
AcDbLine
 10
133.3287469999999
 20
55.977938
 30
0.0
 11
132.3287469999999
 21
54.727938
 31
0.0
  0
LINE
  5
C046
330
BE7B
100
AcDbEntity
  8
1
  6
Continuous
100
AcDbLine
 10
144.9287469999999
 20
55.977938
 30
0.0
 11
145.9287469999999
 21
54.727938
 31
0.0
  0
LINE
  5
C047
330
BE7B
100
AcDbEntity
  8
1
  6
Continuous
100
AcDbLine
 10
145.9287469999999
 20
41.72793799999999
 30
0.0
 11
144.9287469999999
 21
40.47793799999999
 31
0.0
  0
LINE
  5
C048
330
BE7B
100
AcDbEntity
  8
1
  6
Continuous
100
AcDbLine
 10
132.3287469999999
 20
41.72793799999999
 30
0.0
 11
133.3287469999999
 21
40.47793799999999
 31
0.0
  0
ARC
  5
C049
330
BE7B
100
AcDbEntity
  8
1
  6
Continuous
100
AcDbCircle
 10
139.1287469999997
 20
170.4937379999998
 30
0.0
 40
7.4
100
AcDbArc
 50
18.924644
 51
161.075356
  0
LINE
  5
C04A
330
BE7B
100
AcDbEntity
  8
1
  6
Continuous
100
AcDbLine
 10
132.128747
 20
223.394138
 30
0.0
 11
133.3287469999999
 21
221.8941379999999
 31
0.0
  0
LINE
  5
C04B
330
BE7B
100
AcDbEntity
  8
1
  6
Continuous
100
AcDbLine
 10
146.128747
 20
223.394138
 30
0.0
 11
144.9287469999999
 21
221.8941379999999
 31
0.0
  0
ARC
  5
C04C
330
BE7B
100
AcDbEntity
  8
1
  6
Continuous
100
AcDbCircle
 10
139.1287469999997
 20
199.394138
 30
0.0
 40
25.0
100
AcDbArc
 50
73.739795
 51
106.2602049999999
  0
ARC
  5
C04D
330
BE7B
100
AcDbEntity
  8
1
  6
Continuous
100
AcDbCircle
 10
139.1287469999997
 20
259.8941379999998
 30
0.0
 40
25.0
100
AcDbArc
 50
253.7397949999999
 51
286.2602049999999
  0
LINE
  5
C04E
330
BE7B
100
AcDbEntity
  8
1
  6
Continuous
100
AcDbLine
 10
133.3287469999999
 20
237.394138
 30
0.0
 11
132.128747
 21
235.894138
 31
0.0
  0
LINE
  5
C04F
330
BE7B
100
AcDbEntity
  8
1
  6
Continuous
100
AcDbLine
 10
144.9287469999999
 20
237.394138
 30
0.0
 11
146.128747
 21
235.894138
 31
0.0
  0
LINE
  5
C050
330
BE7B
100
AcDbEntity
  8
4
  6
CENTER
100
AcDbLine
 10
91.02874699999999
 20
134.0178139999999
 30
0.0
 11
187.228747
 21
134.0178139999999
 31
0.0
  0
ARC
  5
C051
330
BE7B
100
AcDbEntity
  8
1
  6
Continuous
100
AcDbCircle
 10
139.1287469999997
 20
134.0717069999997
 30
0.0
 40
37.5
100
AcDbArc
 50
98.62748899999999
 51
54.87109199999999
  0
ARC
  5
C052
330
BE7B
100
AcDbEntity
  8
1
  6
Continuous
100
AcDbCircle
 10
139.1287469999997
 20
134.0717069999997
 30
0.0
 40
38.1
100
AcDbArc
 50
98.58151499999999
 51
54.90981
  0
ARC
  5
C053
330
BE7B
100
AcDbEntity
  8
5
  6
PHANTOM
100
AcDbCircle
 10
139.1287469999997
 20
138.0717069999997
 30
0.0
 40
33.5
100
AcDbArc
 50
99.658221
 51
52.76035499999998
  0
ARC
  5
C054
330
BE7B
100
AcDbEntity
  8
5
  6
PHANTOM
100
AcDbCircle
 10
139.1274479999998
 20
138.071754
 30
0.0
 40
34.099736
100
AcDbArc
 50
99.58651500000001
 51
52.722628
  0
ARC
  5
C055
330
BE7B
100
AcDbEntity
  8
5
  6
PHANTOM
100
AcDbCircle
 10
139.1405829999999
 20
138.0757999999999
 30
0.0
 40
34.687717
100
AcDbArc
 50
7.831342999999998
 51
52.700975
  0
ARC
  5
C056
330
BE7B
100
AcDbEntity
  8
1
  6
Continuous
100
AcDbCircle
 10
113.351799
 20
79.40505300000002
 30
0.0
 40
98.143363
100
AcDbArc
 50
67.419703
 51
71.26525200000002
  0
ARC
  5
C057
330
BE7B
100
AcDbEntity
  8
1
  6
Continuous
100
AcDbCircle
 10
113.351799
 20
79.40505300000002
 30
0.0
 40
97.54336300000002
100
AcDbArc
 50
67.395368
 51
71.183717
  0
ARC
  5
C058
330
BE7B
100
AcDbEntity
  8
1
  6
Continuous
100
AcDbCircle
 10
113.351799
 20
79.40505300000002
 30
0.0
 40
96.94336300000001
100
AcDbArc
 50
67.37062299999999
 51
71.10114399999997
  0
ARC
  5
C059
330
BE7B
100
AcDbEntity
  8
1
  6
Continuous
100
AcDbCircle
 10
140.5911099999999
 20
130.2010439999999
 30
0.0
 40
41.17104799999999
100
AcDbArc
 50
61.070466
 51
75.302757
  0
ARC
  5
C05A
330
BE7B
100
AcDbEntity
  8
1
  6
Continuous
100
AcDbCircle
 10
140.5911099999999
 20
130.2010439999999
 30
0.0
 40
40.571048
100
AcDbArc
 50
59.74777299999998
 51
75.36101600000002
  0
ARC
  5
C05B
330
BE7B
100
AcDbEntity
  8
1
  6
Continuous
100
AcDbCircle
 10
140.5911099999999
 20
130.2010439999999
 30
0.0
 40
39.97104799999998
100
AcDbArc
 50
59.78411499999999
 51
75.42076899999996
  0
ARC
  5
C05C
330
BE7B
100
AcDbEntity
  8
5
  6
PHANTOM
100
AcDbCircle
 10
113.349249
 20
79.37955599999998
 30
0.0
 40
96.94336300000001
100
AcDbArc
 50
67.37062299999999
 51
71.10114399999997
  0
ARC
  5
C05D
330
BE7B
100
AcDbEntity
  8
5
  6
PHANTOM
100
AcDbCircle
 10
113.347782
 20
79.36488199999998
 30
0.0
 40
97.54336300000002
100
AcDbArc
 50
67.395368
 51
71.183717
  0
ARC
  5
C05E
330
BE7B
100
AcDbEntity
  8
5
  6
PHANTOM
100
AcDbCircle
 10
113.34633
 20
79.350363
 30
0.0
 40
98.143363
100
AcDbArc
 50
67.419703
 51
71.26525200000002
  0
ARC
  5
C05F
330
BE7B
100
AcDbEntity
  8
5
  6
PHANTOM
100
AcDbCircle
 10
142.614001
 20
140.424898
 30
0.0
 40
29.54837899999999
100
AcDbArc
 50
55.38018
 51
74.21899599999997
  0
ARC
  5
C060
330
BE7B
100
AcDbEntity
  8
5
  6
PHANTOM
100
AcDbCircle
 10
142.641331
 20
140.402848
 30
0.0
 40
30.14837899999999
100
AcDbArc
 50
55.35409099999998
 51
74.21899599999997
  0
ARC
  5
C061
330
BE7B
100
AcDbEntity
  8
5
  6
PHANTOM
100
AcDbCircle
 10
142.6688389999999
 20
140.3808659999999
 30
0.0
 40
30.74837899999999
100
AcDbArc
 50
55.328991
 51
74.21899599999997
  0
LINE
  5
C062
330
BE7B
100
AcDbEntity
  8
1
  6
Continuous
100
AcDbLine
 10
251.478747
 20
95.97170699999999
 30
0.0
 11
238.478747
 21
95.97170699999999
 31
0.0
  0
LINE
  5
C063
330
BE7B
100
AcDbEntity
  8
1
  6
Continuous
100
AcDbLine
 10
39.723062
 20
95.97170699999999
 30
0.0
 11
26.72306199999999
 21
95.97170699999999
 31
0.0
  0
LINE
  5
C064
330
BE7B
100
AcDbEntity
  8
1
  6
Continuous
100
AcDbLine
 10
101.0287469999999
 20
54.727938
 30
0.0
 11
101.0287469999999
 21
41.72793799999999
 31
0.0
  0
LINE
  5
C065
330
BE7B
100
AcDbEntity
  8
1
  6
Continuous
100
AcDbLine
 10
177.228747
 20
54.727938
 30
0.0
 11
177.228747
 21
41.72793799999999
 31
0.0
  0
LINE
  5
C066
330
BE7B
100
AcDbEntity
  8
1
  6
Continuous
100
AcDbLine
 10
127.9895229999999
 20
227.313723
 30
0.0
 11
127.93483
 21
226.7941379999999
 31
0.0
  0
LINE
  5
C067
330
BE7B
100
AcDbEntity
  8
1
  6
Continuous
100
AcDbLine
 10
160.506929
 20
166.234575
 30
0.0
 11
160.2069119999999
 21
165.714931
 31
0.0
  0
LINE
  5
C068
330
BE7B
100
AcDbEntity
  8
1
  6
Continuous
100
AcDbLine
 10
240.478747
 20
172.4683489999999
 30
0.0
 11
244.478747
 21
170.158948
 31
0.0
  0
ARC
  5
C069
330
BE7B
100
AcDbEntity
  8
1
  6
Continuous
100
AcDbCircle
 10
244.978747
 20
171.0249739999999
 30
0.0
 40
1.0
100
AcDbArc
 50
239.9999999999999
 51
300.0
  0
LINE
  5
C06A
330
BE7B
100
AcDbEntity
  8
1
  6
Continuous
100
AcDbLine
 10
245.478747
 20
170.158948
 30
0.0
 11
249.478747
 21
172.4683489999999
 31
0.0
  0
ARC
  5
C06B
330
BE7B
100
AcDbEntity
  8
1
  6
Continuous
100
AcDbCircle
 10
248.978747
 20
173.3343749999999
 30
0.0
 40
1.0
100
AcDbArc
 50
300.0
 51
0.0
  0
LINE
  5
C06C
330
BE7B
100
AcDbEntity
  8
1
  6
Continuous
100
AcDbLine
 10
249.978747
 20
173.3343749999999
 30
0.0
 11
249.978747
 21
177.953177
 31
0.0
  0
ARC
  5
C06D
330
BE7B
100
AcDbEntity
  8
1
  6
Continuous
100
AcDbCircle
 10
248.978747
 20
177.953177
 30
0.0
 40
1.0
100
AcDbArc
 50
0.0
 51
60.0
  0
LINE
  5
C06E
330
BE7B
100
AcDbEntity
  8
1
  6
Continuous
100
AcDbLine
 10
249.478747
 20
178.8192019999999
 30
0.0
 11
245.478747
 21
181.1286029999999
 31
0.0
  0
ARC
  5
C06F
330
BE7B
100
AcDbEntity
  8
1
  6
Continuous
100
AcDbCircle
 10
244.978747
 20
180.2625779999999
 30
0.0
 40
1.0
100
AcDbArc
 50
60.0
 51
119.9999999999999
  0
LINE
  5
C070
330
BE7B
100
AcDbEntity
  8
1
  6
Continuous
100
AcDbLine
 10
244.478747
 20
181.1286029999999
 30
0.0
 11
240.478747
 21
178.8192019999999
 31
0.0
  0
ARC
  5
C071
330
BE7B
100
AcDbEntity
  8
1
  6
Continuous
100
AcDbCircle
 10
240.978747
 20
177.953177
 30
0.0
 40
1.0
100
AcDbArc
 50
119.9999999999999
 51
180.0
  0
LINE
  5
C072
330
BE7B
100
AcDbEntity
  8
1
  6
Continuous
100
AcDbLine
 10
239.978747
 20
177.953177
 30
0.0
 11
239.978747
 21
173.3343749999999
 31
0.0
  0
ARC
  5
C073
330
BE7B
100
AcDbEntity
  8
1
  6
Continuous
100
AcDbCircle
 10
240.978747
 20
173.3343749999999
 30
0.0
 40
1.0
100
AcDbArc
 50
180.0
 51
239.9999999999999
  0
ENDSEC
  0
SECTION
  2
OBJECTS
  0
DICTIONARY
  5
BE69
330
0
100
AcDbDictionary
281
     1
  3
ACAD_CIP_PREVIOUS_PRODUCT_INFO
350
C0D3
  3
ACAD_COLOR
350
C0B5
  3
ACAD_DETAILVIEWSTYLE
350
C0CE
  3
ACAD_GROUP
350
BE6A
  3
ACAD_LAYOUT
350
BE76
  3
ACAD_MATERIAL
350
C083
  3
ACAD_MLEADERSTYLE
350
C0CA
  3
ACAD_MLINESTYLE
350
BE73
  3
ACAD_PLOTSETTINGS
350
BE75
  3
ACAD_PLOTSTYLENAME
350
C081
  3
ACAD_SCALELIST
350
C0B8
  3
ACAD_SECTIONVIEWSTYLE
350
C0CC
  3
ACAD_TABLESTYLE
350
C0B6
  3
ACAD_VISUALSTYLE
350
C09C
  3
ACDB_RECOMPOSE_DATA
350
C0F1
  3
AcDbVariableDictionary
350
C0E4
  3
DWGPROPS
350
C0F2
  0
DICTIONARY
  5
C0D4
330
BE6D
100
AcDbDictionary
280
     1
281
     1
  3
ADSK_XREC_LAYER_RECONCILED
360
C0D5
  0
DICTIONARY
  5
C0D6
330
BE83
100
AcDbDictionary
280
     1
281
     1
  3
ADSK_XREC_LAYER_RECONCILED
360
C0D7
  0
DICTIONARY
  5
C0D8
330
BE84
100
AcDbDictionary
280
     1
281
     1
  3
ADSK_XREC_LAYER_RECONCILED
360
C0D9
  0
DICTIONARY
  5
C0DA
330
BE85
100
AcDbDictionary
280
     1
281
     1
  3
ADSK_XREC_LAYER_RECONCILED
360
C0DB
  0
DICTIONARY
  5
C0DC
330
BE86
100
AcDbDictionary
280
     1
281
     1
  3
ADSK_XREC_LAYER_RECONCILED
360
C0DD
  0
DICTIONARY
  5
C0DE
330
BE87
100
AcDbDictionary
280
     1
281
     1
  3
ADSK_XREC_LAYER_RECONCILED
360
C0DF
  0
DICTIONARY
  5
C0E0
330
BE88
100
AcDbDictionary
280
     1
281
     1
  3
ADSK_XREC_LAYER_RECONCILED
360
C0E1
  0
DICTIONARY
  5
C0E2
330
BE89
100
AcDbDictionary
280
     1
281
     1
  3
ADSK_XREC_LAYER_RECONCILED
360
C0E3
  0
DICTIONARY
  5
C07C
330
BE7B
100
AcDbDictionary
281
     1
  3
ACAD_LAYOUTSELFREF
350
C07D
  0
DICTIONARY
  5
C07A
330
BE77
100
AcDbDictionary
281
     1
  3
ACAD_LAYOUTSELFREF
350
C07B
  0
XRECORD
  5
C0D3
102
{ACAD_REACTORS
330
BE69
102
}
330
BE69
100
AcDbXrecord
280
     1
300
ACDLT
300
2014
300
ACDLT_F_S
  0
DICTIONARY
  5
C0B5
102
{ACAD_REACTORS
330
BE69
102
}
330
BE69
100
AcDbDictionary
281
     1
  0
DICTIONARY
  5
C0CE
102
{ACAD_REACTORS
330
BE69
102
}
330
BE69
100
AcDbDictionary
281
     1
  3
Imperial24
350
C0CF
  0
DICTIONARY
  5
BE6A
102
{ACAD_REACTORS
330
BE69
102
}
330
BE69
100
AcDbDictionary
281
     1
  0
DICTIONARY
  5
BE76
102
{ACAD_REACTORS
330
BE69
102
}
330
BE69
100
AcDbDictionary
281
     1
  3
Model
350
C0D0
  3
レイアウト1
350
C0D1
  0
DICTIONARY
  5
C083
102
{ACAD_REACTORS
330
BE69
102
}
330
BE69
100
AcDbDictionary
281
     1
  3
ByBlock
350
C08C
  3
ByLayer
350
C084
  3
Global
350
C094
  0
DICTIONARY
  5
C0CA
102
{ACAD_REACTORS
330
BE69
102
}
330
BE69
100
AcDbDictionary
281
     1
  3
Standard
350
C0CB
  0
DICTIONARY
  5
BE73
102
{ACAD_REACTORS
330
BE69
102
}
330
BE69
100
AcDbDictionary
281
     1
  3
STANDARD
350
BE74
  0
DICTIONARY
  5
BE75
102
{ACAD_REACTORS
330
BE69
102
}
330
BE69
100
AcDbDictionary
281
     1
  0
ACDBDICTIONARYWDFLT
  5
C081
102
{ACAD_REACTORS
330
BE69
102
}
330
BE69
100
AcDbDictionary
281
     1
  3
Normal
350
C082
100
AcDbDictionaryWithDefault
340
C082
  0
DICTIONARY
  5
C0B8
102
{ACAD_REACTORS
330
BE69
102
}
330
BE69
100
AcDbDictionary
281
     1
  3
A0
350
C0B9
  3
A1
350
C0BA
  3
A2
350
C0BB
  3
A3
350
C0BC
  3
A4
350
C0BD
  3
A5
350
C0BE
  3
A6
350
C0BF
  3
A7
350
C0C0
  3
A8
350
C0C1
  3
A9
350
C0C2
  3
B0
350
C0C3
  3
B1
350
C0C4
  3
B2
350
C0C5
  3
B3
350
C0C6
  3
B4
350
C0C7
  3
B5
350
C0C8
  3
B6
350
C0C9
  0
DICTIONARY
  5
C0CC
102
{ACAD_REACTORS
330
BE69
102
}
330
BE69
100
AcDbDictionary
281
     1
  3
Imperial24
350
C0CD
  0
DICTIONARY
  5
C0B6
102
{ACAD_REACTORS
330
BE69
102
}
330
BE69
100
AcDbDictionary
281
     1
  3
Standard
350
C0B7
  0
DICTIONARY
  5
C09C
102
{ACAD_REACTORS
330
BE69
102
}
330
BE69
100
AcDbDictionary
281
     1
  3
2dWireframe
350
C0A2
  3
Basic
350
C0A1
  3
Brighten
350
C0A8
  3
ColorChange
350
C0AC
  3
Conceptual
350
C0A5
  3
Dim
350
C0A7
  3
EdgeColorOff
350
C0B4
  3
Facepattern
350
C0AB
  3
Flat
350
C09D
  3
FlatWithEdges
350
C09E
  3
Gouraud
350
C09F
  3
GouraudWithEdges
350
C0A0
  3
Hidden
350
C0A4
  3
JitterOff
350
C0B2
  3
Linepattern
350
C0AA
  3
OverhangOff
350
C0B3
  3
Realistic
350
C0A6
  3
Shaded
350
C0B1
  3
Shaded with edges
350
C0B0
  3
Shades of Gray
350
C0AD
  3
Sketchy
350
C0AE
  3
Thicken
350
C0A9
  3
Wireframe
350
C0A3
  3
X-Ray
350
C0AF
  0
XRECORD
  5
C0F1
102
{ACAD_REACTORS
330
BE69
102
}
330
BE69
100
AcDbXrecord
280
     1
 90
        1
330
C0B7
  0
DICTIONARY
  5
C0E4
102
{ACAD_REACTORS
330
BE69
102
}
330
BE69
100
AcDbDictionary
281
     1
  3
CANNOSCALE
350
C0E9
  3
CMLEADERSTYLE
350
C0E6
  3
CTABLESTYLE
350
C0E5
  3
CVIEWDETAILSTYLE
350
C0E7
  3
CVIEWSECTIONSTYLE
350
C0E8
  3
DIMASSOC
350
C0EC
  3
INDEXCTL
350
C0EB
  3
SORTENTS
350
C0EA
  3
XCLIPFRAME
350
C0ED
  0
XRECORD
  5
C0F2
102
{ACAD_REACTORS
330
BE69
102
}
330
BE69
100
AcDbXrecord
280
     1
  1
DWGPROPS COOKIE
  2

  3

  4

  6

  7

  8
Yoshitsune
  9

300
=
301
=
302
=
303
=
304
=
305
=
306
=
307
=
308
=
309
=
 40
0.0000110416666667
 41
2451296.796906598
 42
2457192.658399943
  1

 90
        0
  0
XRECORD
  5
C0D5
102
{ACAD_REACTORS
330
C0D4
102
}
330
C0D4
100
AcDbXrecord
280
     1
290
     1
  0
XRECORD
  5
C0D7
102
{ACAD_REACTORS
330
C0D6
102
}
330
C0D6
100
AcDbXrecord
280
     1
290
     1
  0
XRECORD
  5
C0D9
102
{ACAD_REACTORS
330
C0D8
102
}
330
C0D8
100
AcDbXrecord
280
     1
290
     1
  0
XRECORD
  5
C0DB
102
{ACAD_REACTORS
330
C0DA
102
}
330
C0DA
100
AcDbXrecord
280
     1
290
     1
  0
XRECORD
  5
C0DD
102
{ACAD_REACTORS
330
C0DC
102
}
330
C0DC
100
AcDbXrecord
280
     1
290
     1
  0
XRECORD
  5
C0DF
102
{ACAD_REACTORS
330
C0DE
102
}
330
C0DE
100
AcDbXrecord
280
     1
290
     1
  0
XRECORD
  5
C0E1
102
{ACAD_REACTORS
330
C0E0
102
}
330
C0E0
100
AcDbXrecord
280
     1
290
     1
  0
XRECORD
  5
C0E3
102
{ACAD_REACTORS
330
C0E2
102
}
330
C0E2
100
AcDbXrecord
280
     1
290
     1
  0
XRECORD
  5
C07D
102
{ACAD_REACTORS
330
C07C
102
}
330
C07C
100
AcDbXrecord
280
     1
340
BE7B
  0
XRECORD
  5
C07B
102
{ACAD_REACTORS
330
C07A
102
}
330
C07A
100
AcDbXrecord
280
     1
340
BE77
  0
ACDBDETAILVIEWSTYLE
  5
C0CF
102
{ACAD_XDICTIONARY
360
C12A
102
}
102
{ACAD_REACTORS
330
C0CE
102
}
330
C0CE
100
AcDbModelDocViewStyle
 70
     0
  3
Imperial24
290
     0
100
AcDbDetailViewStyle
 70
     0
 71
     0
 90
        3
 71
     1
340
BE6E
 40
0.24
340
0
 40
0.24
300

 40
0.36
280
     3
 71
     2
340
BE72
 90
       25
 71
     3
340
BE6E
 40
0.24
 90
        1
 40
0.75
 90
        1
300
%<\AcVar ViewType \f "%tc1">% %<\AcVar ViewDetailId>%\PSCALE %<\AcVar ViewScale \f "%sn">%
 71
     4
340
BE72
 90
       25
340
BE72
 90
       25
280
     0
  0
LAYOUT
  5
C0D0
102
{ACAD_XDICTIONARY
360
C12C
102
}
102
{ACAD_REACTORS
330
BE76
102
}
330
BE76
100
AcDbPlotSettings
  1

  2
Canon LBP9100C
  4

  6

 40
0.0
 41
0.0
 42
0.0
 43
0.0
 44
0.0
 45
0.0
 46
0.0
 47
0.0
 48
0.0
 49
0.0
140
0.0
141
0.0
142
1.0
143
1.0
 70
  1712
 72
     0
 73
     0
 74
     0
  7

 75
     0
147
1.0
148
0.0
149
0.0
100
AcDbLayout
  1
Model
 70
     1
 71
     0
 10
0.0
 20
0.0
 11
12.0
 21
9.0
 12
0.0
 22
0.0
 32
0.0
 14
0.0
 24
0.0
 34
0.0
 15
0.0
 25
0.0
 35
0.0
146
0.0
 13
0.0
 23
0.0
 33
0.0
 16
1.0
 26
0.0
 36
0.0
 17
0.0
 27
1.0
 37
0.0
 76
     0
330
BE7B
331
C079
  0
LAYOUT
  5
C0D1
102
{ACAD_XDICTIONARY
360
C12E
102
}
102
{ACAD_REACTORS
330
BE76
102
}
330
BE76
100
AcDbPlotSettings
  1

  2
Canon LBP9100C
  4

  6

 40
0.0
 41
0.0
 42
0.0
 43
0.0
 44
0.0
 45
0.0
 46
0.0
 47
0.0
 48
0.0
 49
0.0
140
0.0
141
0.0
142
1.0
143
1.0
 70
   688
 72
     0
 73
     0
 74
     5
  7

 75
    16
147
1.0
148
0.0
149
0.0
100
AcDbLayout
  1
レイアウト1
 70
     0
 71
     1
 10
0.0
 20
0.0
 11
420.0
 21
297.0
 12
0.0
 22
0.0
 32
0.0
 14
1.000000000000000E+20
 24
1.000000000000000E+20
 34
1.000000000000000E+20
 15
-1.000000000000000E+20
 25
-1.000000000000000E+20
 35
-1.000000000000000E+20
146
0.0
 13
0.0
 23
0.0
 33
0.0
 16
1.0
 26
0.0
 36
0.0
 17
0.0
 27
1.0
 37
0.0
 76
     0
330
BE77
  0
MATERIAL
  5
C08C
102
{ACAD_XDICTIONARY
360
C08D
102
}
102
{ACAD_REACTORS
330
C083
102
}
330
C083
100
AcDbMaterial
  1
ByBlock
 72
     0
 43
0.0208333333333333
 43
0.0
 43
0.0
 43
0.0
 43
0.0
 43
0.0208333333333333
 43
0.0
 43
0.0
 43
0.0
 43
0.0
 43
1.0
 43
0.0
 43
0.0
 43
0.0
 43
0.0
 43
1.0
 77
     0
 47
0.0208333333333333
 47
0.0
 47
0.0
 47
0.0
 47
0.0
 47
0.0208333333333333
 47
0.0
 47
0.0
 47
0.0
 47
0.0
 47
1.0
 47
0.0
 47
0.0
 47
0.0
 47
0.0
 47
1.0
171
     0
 49
0.0208333333333333
 49
0.0
 49
0.0
 49
0.0
 49
0.0
 49
0.0208333333333333
 49
0.0
 49
0.0
 49
0.0
 49
0.0
 49
1.0
 49
0.0
 49
0.0
 49
0.0
 49
0.0
 49
1.0
175
     0
142
0.0208333333333333
142
0.0
142
0.0
142
0.0
142
0.0
142
0.0208333333333333
142
0.0
142
0.0
142
0.0
142
0.0
142
1.0
142
0.0
142
0.0
142
0.0
142
0.0
142
1.0
179
     0
144
0.0208333333333333
144
0.0
144
0.0
144
0.0
144
0.0
144
0.0208333333333333
144
0.0
144
0.0
144
0.0
144
0.0
144
1.0
144
0.0
144
0.0
144
0.0
144
0.0
144
1.0
147
0.0208333333333333
147
0.0
147
0.0
147
0.0
147
0.0
147
0.0208333333333333
147
0.0
147
0.0
147
0.0
147
0.0
147
1.0
147
0.0
147
0.0
147
0.0
147
0.0
147
1.0
  0
MATERIAL
  5
C084
102
{ACAD_XDICTIONARY
360
C085
102
}
102
{ACAD_REACTORS
330
C083
102
}
330
C083
100
AcDbMaterial
  1
ByLayer
 72
     0
 43
0.0208333333333333
 43
0.0
 43
0.0
 43
0.0
 43
0.0
 43
0.0208333333333333
 43
0.0
 43
0.0
 43
0.0
 43
0.0
 43
1.0
 43
0.0
 43
0.0
 43
0.0
 43
0.0
 43
1.0
 77
     0
 47
0.0208333333333333
 47
0.0
 47
0.0
 47
0.0
 47
0.0
 47
0.0208333333333333
 47
0.0
 47
0.0
 47
0.0
 47
0.0
 47
1.0
 47
0.0
 47
0.0
 47
0.0
 47
0.0
 47
1.0
171
     0
 49
0.0208333333333333
 49
0.0
 49
0.0
 49
0.0
 49
0.0
 49
0.0208333333333333
 49
0.0
 49
0.0
 49
0.0
 49
0.0
 49
1.0
 49
0.0
 49
0.0
 49
0.0
 49
0.0
 49
1.0
175
     0
142
0.0208333333333333
142
0.0
142
0.0
142
0.0
142
0.0
142
0.0208333333333333
142
0.0
142
0.0
142
0.0
142
0.0
142
1.0
142
0.0
142
0.0
142
0.0
142
0.0
142
1.0
179
     0
144
0.0208333333333333
144
0.0
144
0.0
144
0.0
144
0.0
144
0.0208333333333333
144
0.0
144
0.0
144
0.0
144
0.0
144
1.0
144
0.0
144
0.0
144
0.0
144
0.0
144
1.0
147
0.0208333333333333
147
0.0
147
0.0
147
0.0
147
0.0
147
0.0208333333333333
147
0.0
147
0.0
147
0.0
147
0.0
147
1.0
147
0.0
147
0.0
147
0.0
147
0.0
147
1.0
  0
MATERIAL
  5
C094
102
{ACAD_XDICTIONARY
360
C095
102
}
102
{ACAD_REACTORS
330
C083
102
}
330
C083
100
AcDbMaterial
  1
Global
 72
     0
 43
0.0208333333333333
 43
0.0
 43
0.0
 43
0.0
 43
0.0
 43
0.0208333333333333
 43
0.0
 43
0.0
 43
0.0
 43
0.0
 43
1.0
 43
0.0
 43
0.0
 43
0.0
 43
0.0
 43
1.0
 77
     0
 47
0.0208333333333333
 47
0.0
 47
0.0
 47
0.0
 47
0.0
 47
0.0208333333333333
 47
0.0
 47
0.0
 47
0.0
 47
0.0
 47
1.0
 47
0.0
 47
0.0
 47
0.0
 47
0.0
 47
1.0
171
     0
 49
0.0208333333333333
 49
0.0
 49
0.0
 49
0.0
 49
0.0
 49
0.0208333333333333
 49
0.0
 49
0.0
 49
0.0
 49
0.0
 49
1.0
 49
0.0
 49
0.0
 49
0.0
 49
0.0
 49
1.0
175
     0
142
0.0208333333333333
142
0.0
142
0.0
142
0.0
142
0.0
142
0.0208333333333333
142
0.0
142
0.0
142
0.0
142
0.0
142
1.0
142
0.0
142
0.0
142
0.0
142
0.0
142
1.0
179
     0
144
0.0208333333333333
144
0.0
144
0.0
144
0.0
144
0.0
144
0.0208333333333333
144
0.0
144
0.0
144
0.0
144
0.0
144
1.0
144
0.0
144
0.0
144
0.0
144
0.0
144
1.0
147
0.0208333333333333
147
0.0
147
0.0
147
0.0
147
0.0
147
0.0208333333333333
147
0.0
147
0.0
147
0.0
147
0.0
147
1.0
147
0.0
147
0.0
147
0.0
147
0.0
147
1.0
  0
MLEADERSTYLE
  5
C0CB
102
{ACAD_REACTORS
330
C0CA
102
}
330
C0CA
100
AcDbMLeaderStyle
170
     2
171
     1
172
     0
 90
        2
 40
0.0
 41
0.0
173
     1
 91
-1056964608
340
BE70
 92
       -2
290
     1
 42
0.09
291
     1
 43
0.36
  3
Standard
 44
0.18
300

342
BE6E
174
     1
178
     6
175
     1
176
     0
 93
-1056964608
 45
0.18
292
     0
297
     0
 46
0.18
 94
-1056964608
 47
1.0
 49
1.0
140
1.0
293
     1
141
0.0
294
     1
177
     0
142
1.0
295
     0
296
     0
143
0.125
1001
ACAD_MLEADERVER
1070
     2
  0
MLINESTYLE
  5
BE74
102
{ACAD_REACTORS
330
BE73
102
}
330
BE73
100
AcDbMlineStyle
  2
STANDARD
 70
     0
  3

 62
   256
 51
90.0
 52
90.0
 71
     2
 49
0.5
 62
   256
  6
BYLAYER
 49
-0.5
 62
   256
  6
BYLAYER
  0
ACDBPLACEHOLDER
  5
C082
102
{ACAD_REACTORS
330
C081
102
}
330
C081
  0
SCALE
  5
C0B9
102
{ACAD_REACTORS
330
C0B8
102
}
330
C0B8
100
AcDbScale
 70
     0
300
1:1
140
1.0
141
1.0
290
     1
  0
SCALE
  5
C0BA
102
{ACAD_REACTORS
330
C0B8
102
}
330
C0B8
100
AcDbScale
 70
     0
300
1/128" = 1'-0"
140
0.0078125
141
12.0
290
     0
  0
SCALE
  5
C0BB
102
{ACAD_REACTORS
330
C0B8
102
}
330
C0B8
100
AcDbScale
 70
     0
300
1/64" = 1'-0"
140
0.015625
141
12.0
290
     0
  0
SCALE
  5
C0BC
102
{ACAD_REACTORS
330
C0B8
102
}
330
C0B8
100
AcDbScale
 70
     0
300
1/32" = 1'-0"
140
0.03125
141
12.0
290
     0
  0
SCALE
  5
C0BD
102
{ACAD_REACTORS
330
C0B8
102
}
330
C0B8
100
AcDbScale
 70
     0
300
1/16" = 1'-0"
140
0.0625
141
12.0
290
     0
  0
SCALE
  5
C0BE
102
{ACAD_REACTORS
330
C0B8
102
}
330
C0B8
100
AcDbScale
 70
     0
300
3/32" = 1'-0"
140
0.09375
141
12.0
290
     0
  0
SCALE
  5
C0BF
102
{ACAD_REACTORS
330
C0B8
102
}
330
C0B8
100
AcDbScale
 70
     0
300
1/8" = 1'-0"
140
0.125
141
12.0
290
     0
  0
SCALE
  5
C0C0
102
{ACAD_REACTORS
330
C0B8
102
}
330
C0B8
100
AcDbScale
 70
     0
300
3/16" = 1'-0"
140
0.1875
141
12.0
290
     0
  0
SCALE
  5
C0C1
102
{ACAD_REACTORS
330
C0B8
102
}
330
C0B8
100
AcDbScale
 70
     0
300
1/4" = 1'-0"
140
0.25
141
12.0
290
     0
  0
SCALE
  5
C0C2
102
{ACAD_REACTORS
330
C0B8
102
}
330
C0B8
100
AcDbScale
 70
     0
300
3/8" = 1'-0"
140
0.375
141
12.0
290
     0
  0
SCALE
  5
C0C3
102
{ACAD_REACTORS
330
C0B8
102
}
330
C0B8
100
AcDbScale
 70
     0
300
1/2" = 1'-0"
140
0.5
141
12.0
290
     0
  0
SCALE
  5
C0C4
102
{ACAD_REACTORS
330
C0B8
102
}
330
C0B8
100
AcDbScale
 70
     0
300
3/4" = 1'-0"
140
0.75
141
12.0
290
     0
  0
SCALE
  5
C0C5
102
{ACAD_REACTORS
330
C0B8
102
}
330
C0B8
100
AcDbScale
 70
     0
300
1" = 1'-0"
140
1.0
141
12.0
290
     0
  0
SCALE
  5
C0C6
102
{ACAD_REACTORS
330
C0B8
102
}
330
C0B8
100
AcDbScale
 70
     0
300
1-1/2" = 1'-0"
140
1.5
141
12.0
290
     0
  0
SCALE
  5
C0C7
102
{ACAD_REACTORS
330
C0B8
102
}
330
C0B8
100
AcDbScale
 70
     0
300
3" = 1'-0"
140
3.0
141
12.0
290
     0
  0
SCALE
  5
C0C8
102
{ACAD_REACTORS
330
C0B8
102
}
330
C0B8
100
AcDbScale
 70
     0
300
6" = 1'-0"
140
6.0
141
12.0
290
     0
  0
SCALE
  5
C0C9
102
{ACAD_REACTORS
330
C0B8
102
}
330
C0B8
100
AcDbScale
 70
     0
300
1'-0" = 1'-0"
140
12.0
141
12.0
290
     0
  0
ACDBSECTIONVIEWSTYLE
  5
C0CD
102
{ACAD_XDICTIONARY
360
C128
102
}
102
{ACAD_REACTORS
330
C0CC
102
}
330
C0CC
100
AcDbModelDocViewStyle
 70
     0
  3
Imperial24
290
     0
100
AcDbSectionViewStyle
 70
     0
 71
     0
 90
       78
 71
     1
340
BE6E
 40
0.24
340
0
340
0
 40
0.24
300
I, O, Q, S, X, Z
 40
0.48
 90
        3
 40
0.18
 90
        1
 71
     2
340
BE72
 90
       25
340
BE72
 90
       50
 40
0.24
 40
0.0
 40
0.24
 71
     3
340
BE6E
 40
0.24
 90
        1
 40
0.75
 90
        1
300
%<\AcVar ViewType \f "%tc1">% %<\AcVar ViewSectionStartId>%-%<\AcVar ViewSectionEndId>%\PSCALE %<\AcVar ViewScale \f "%sn">%
 71
     4
300
ANSI31
 40
1.0
 90
        0
290
     0
290
     0
 90
        6
 40
0.0
 40
1.570796326794896
 40
0.2617993877991494
 40
1.308996938995747
 40
-0.2617993877991494
 40
1.832595714594046
  0
TABLESTYLE
  5
C0B7
102
{ACAD_XDICTIONARY
360
C0EF
102
}
102
{ACAD_REACTORS
330
C0B6
102
}
330
C0B6
100
AcDbTableStyle
  3
Standard
 70
     0
 71
     0
 40
0.06
 41
0.06
280
     0
281
     0
  7
STANDARD
140
0.18
170
     2
 62
     0
 63
     7
283
     0
274
    -2
284
     1
 64
     0
275
    -2
285
     1
 65
     0
276
    -2
286
     1
 66
     0
277
    -2
287
     1
 67
     0
278
    -2
288
     1
 68
     0
279
    -2
289
     1
 69
     0
  7
STANDARD
140
0.25
170
     5
 62
     0
 63
     7
283
     0
274
    -2
284
     1
 64
     0
275
    -2
285
     1
 65
     0
276
    -2
286
     1
 66
     0
277
    -2
287
     1
 67
     0
278
    -2
288
     1
 68
     0
279
    -2
289
     1
 69
     0
  7
STANDARD
140
0.18
170
     5
 62
     0
 63
     7
283
     0
274
    -2
284
     1
 64
     0
275
    -2
285
     1
 65
     0
276
    -2
286
     1
 66
     0
277
    -2
287
     1
 67
     0
278
    -2
288
     1
 68
     0
279
    -2
289
     1
 69
     0
  0
VISUALSTYLE
  5
C0A2
102
{ACAD_XDICTIONARY
360
C100
102
}
102
{ACAD_REACTORS
330
C09C
102
}
330
C09C
100
AcDbVisualStyle
  2
2dWireframe
 70
     4
 71
     0
 72
     2
 73
     0
 90
        0
 40
-0.6
 41
-30.0
 62
     5
 63
     7
 74
     1
 91
        4
 64
     7
 65
   257
 75
     1
175
     1
 42
1.0
 92
        0
 66
   257
 43
1.0
 76
     1
 77
     6
 78
     2
 67
     7
 79
     5
170
     0
171
     0
290
     0
174
     0
 93
        1
 44
0.0
173
     0
291
     0
 45
0.0
1001
ACAD
1000
AcDbSavedByObjectVersion
1070
     0
  0
VISUALSTYLE
  5
C0A1
102
{ACAD_XDICTIONARY
360
C0FE
102
}
102
{ACAD_REACTORS
330
C09C
102
}
330
C09C
100
AcDbVisualStyle
  2
Basic
 70
     7
 71
     1
 72
     0
 73
     1
 90
        0
 40
-0.6
 41
-30.0
 62
     5
 63
     7
 74
     0
 91
        4
 64
     7
 65
   257
 75
     1
175
     1
 42
1.0
 92
        8
 66
     7
 43
1.0
 76
     1
 77
     6
 78
     2
 67
     7
 79
     5
170
     0
171
     0
290
     0
174
     0
 93
        1
 44
0.0
173
     0
291
     1
 45
0.0
1001
ACAD
1000
AcDbSavedByObjectVersion
1070
     0
  0
VISUALSTYLE
  5
C0A8
102
{ACAD_XDICTIONARY
360
C10C
102
}
102
{ACAD_REACTORS
330
C09C
102
}
330
C09C
100
AcDbVisualStyle
  2
Brighten
 70
    12
 71
     2
 72
     2
 73
     0
 90
        0
 40
-0.6
 41
-30.0
 62
     5
 63
     7
 74
     1
 91
        4
 64
     7
 65
   257
 75
     1
175
     1
 42
1.0
 92
        8
 66
     7
 43
1.0
 76
     1
 77
     6
 78
     2
 67
     7
 79
     5
170
     0
171
     0
290
     0
174
     0
 93
        1
 44
50.0
173
     0
291
     1
 45
0.0
1001
ACAD
1000
AcDbSavedByObjectVersion
1070
     0
  0
VISUALSTYLE
  5
C0AC
102
{ACAD_XDICTIONARY
360
C114
102
}
102
{ACAD_REACTORS
330
C09C
102
}
330
C09C
100
AcDbVisualStyle
  2
ColorChange
 70
    16
 71
     2
 72
     2
 73
     3
 90
        0
 40
-0.6
 41
-30.0
 62
     5
 63
     8
 74
     1
 91
        4
 64
     7
 65
   257
 75
     1
175
     1
 42
1.0
 92
        8
 66
     8
 43
1.0
 76
     1
 77
     6
 78
     2
 67
     7
 79
     5
170
     0
171
     0
290
     0
174
     0
 93
        1
 44
0.0
173
     0
291
     1
 45
0.0
1001
ACAD
1000
AcDbSavedByObjectVersion
1070
     0
  0
VISUALSTYLE
  5
C0A5
102
{ACAD_XDICTIONARY
360
C106
102
}
102
{ACAD_REACTORS
330
C09C
102
}
330
C09C
100
AcDbVisualStyle
  2
Conceptual
 70
     9
 71
     3
 72
     2
 73
     0
 90
        0
 40
-0.6
 41
-30.0
 62
     5
 63
     7
 74
     2
 91
        2
 64
     7
 65
   257
 75
     1
175
     1
 42
179.0
 92
        8
 66
     7
 43
1.0
 76
     1
 77
     6
 78
     2
 67
     7
 79
     3
170
     0
171
     0
290
     0
174
     0
 93
        1
 44
0.0
173
     0
291
     0
 45
0.0
1001
ACAD
1000
AcDbSavedByObjectVersion
1070
     0
  0
VISUALSTYLE
  5
C0A7
102
{ACAD_XDICTIONARY
360
C10A
102
}
102
{ACAD_REACTORS
330
C09C
102
}
330
C09C
100
AcDbVisualStyle
  2
Dim
 70
    11
 71
     2
 72
     2
 73
     0
 90
        0
 40
-0.6
 41
-30.0
 62
     5
 63
     7
 74
     1
 91
        4
 64
     7
 65
   257
 75
     1
175
     1
 42
1.0
 92
        8
 66
     7
 43
1.0
 76
     1
 77
     6
 78
     2
 67
     7
 79
     5
170
     0
171
     0
290
     0
174
     0
 93
        1
 44
-50.0
173
     0
291
     1
 45
0.0
1001
ACAD
1000
AcDbSavedByObjectVersion
1070
     0
  0
VISUALSTYLE
  5
C0B4
102
{ACAD_XDICTIONARY
360
C124
102
}
102
{ACAD_REACTORS
330
C09C
102
}
330
C09C
100
AcDbVisualStyle
  2
EdgeColorOff
 70
    22
 71
     2
 72
     2
 73
     0
 90
        0
 40
-0.6
 41
-30.0
 62
     5
 63
     7
 74
     1
 91
        4
 64
     7
 65
   257
 75
     1
175
     1
 42
1.0
 92
        8
 66
     7
 43
1.0
 76
     1
 77
     6
 78
     2
 67
     7
 79
     5
170
     0
171
     0
290
     0
174
     0
 93
        1
 44
0.0
173
     0
291
     1
 45
0.0
1001
ACAD
1000
AcDbSavedByObjectVersion
1070
     0
  0
VISUALSTYLE
  5
C0AB
102
{ACAD_XDICTIONARY
360
C112
102
}
102
{ACAD_REACTORS
330
C09C
102
}
330
C09C
100
AcDbVisualStyle
  2
Facepattern
 70
    15
 71
     2
 72
     2
 73
     0
 90
        0
 40
-0.6
 41
-30.0
 62
     5
 63
     7
 74
     1
 91
        4
 64
     7
 65
   257
 75
     1
175
     1
 42
1.0
 92
        8
 66
     7
 43
1.0
 76
     1
 77
     6
 78
     2
 67
     7
 79
     5
170
     0
171
     0
290
     0
174
     0
 93
        1
 44
0.0
173
     0
291
     1
 45
0.0
1001
ACAD
1000
AcDbSavedByObjectVersion
1070
     0
  0
VISUALSTYLE
  5
C09D
102
{ACAD_XDICTIONARY
360
C0F6
102
}
102
{ACAD_REACTORS
330
C09C
102
}
330
C09C
100
AcDbVisualStyle
  2
Flat
 70
     0
 71
     2
 72
     1
 73
     1
 90
        2
 40
-0.6
 41
30.0
 62
     5
 63
     7
 74
     0
 91
        0
 64
     7
 65
   257
 75
     1
175
     1
 42
1.0
 92
        8
 66
     7
 43
1.0
 76
     1
 77
     6
 78
     2
 67
     7
 79
     5
170
     0
171
     0
290
     0
174
     0
 93
       13
 44
0.0
173
     0
291
     1
 45
0.0
1001
ACAD
1000
AcDbSavedByObjectVersion
1070
     0
  0
VISUALSTYLE
  5
C09E
102
{ACAD_XDICTIONARY
360
C0F8
102
}
102
{ACAD_REACTORS
330
C09C
102
}
330
C09C
100
AcDbVisualStyle
  2
FlatWithEdges
 70
     1
 71
     2
 72
     1
 73
     1
 90
        2
 40
-0.6
 41
30.0
 62
     5
 63
     7
 74
     1
 91
        0
 64
     7
 65
   257
 75
     1
175
     1
 42
1.0
 92
        0
 66
   257
 43
1.0
 76
     1
 77
     6
 78
     2
 67
     7
 79
     5
170
     0
171
     0
290
     0
174
     0
 93
       13
 44
0.0
173
     0
291
     1
 45
0.0
1001
ACAD
1000
AcDbSavedByObjectVersion
1070
     0
  0
VISUALSTYLE
  5
C09F
102
{ACAD_XDICTIONARY
360
C0FA
102
}
102
{ACAD_REACTORS
330
C09C
102
}
330
C09C
100
AcDbVisualStyle
  2
Gouraud
 70
     2
 71
     2
 72
     2
 73
     1
 90
        2
 40
-0.6
 41
30.0
 62
     5
 63
     7
 74
     0
 91
        0
 64
     7
 65
   257
 75
     1
175
     1
 42
1.0
 92
        0
 66
     7
 43
1.0
 76
     1
 77
     6
 78
     2
 67
     7
 79
     5
170
     0
171
     0
290
     0
174
     0
 93
       13
 44
0.0
173
     0
291
     1
 45
0.0
1001
ACAD
1000
AcDbSavedByObjectVersion
1070
     0
  0
VISUALSTYLE
  5
C0A0
102
{ACAD_XDICTIONARY
360
C0FC
102
}
102
{ACAD_REACTORS
330
C09C
102
}
330
C09C
100
AcDbVisualStyle
  2
GouraudWithEdges
 70
     3
 71
     2
 72
     2
 73
     1
 90
        2
 40
-0.6
 41
30.0
 62
     5
 63
     7
 74
     1
 91
        0
 64
     7
 65
   257
 75
     1
175
     1
 42
1.0
 92
        0
 66
   257
 43
1.0
 76
     1
 77
     6
 78
     2
 67
     7
 79
     5
170
     0
171
     0
290
     0
174
     0
 93
       13
 44
0.0
173
     0
291
     1
 45
0.0
1001
ACAD
1000
AcDbSavedByObjectVersion
1070
     0
  0
VISUALSTYLE
  5
C0A4
102
{ACAD_XDICTIONARY
360
C104
102
}
102
{ACAD_REACTORS
330
C09C
102
}
330
C09C
100
AcDbVisualStyle
  2
Hidden
 70
     6
 71
     1
 72
     2
 73
     2
 90
        0
 40
-0.6
 41
-30.0
 62
     5
 63
     7
 74
     2
 91
        2
 64
     7
 65
   257
 75
     2
175
     1
 42
40.0
 92
        0
 66
   257
 43
1.0
 76
     1
 77
     6
 78
     2
 67
     7
 79
     3
170
     0
171
     0
290
     0
174
     0
 93
        1
 44
0.0
173
     0
291
     0
 45
0.0
1001
ACAD
1000
AcDbSavedByObjectVersion
1070
     0
  0
VISUALSTYLE
  5
C0B2
102
{ACAD_XDICTIONARY
360
C120
102
}
102
{ACAD_REACTORS
330
C09C
102
}
330
C09C
100
AcDbVisualStyle
  2
JitterOff
 70
    20
 71
     2
 72
     2
 73
     0
 90
        0
 40
-0.6
 41
-30.0
 62
     5
 63
     7
 74
     1
 91
        4
 64
     7
 65
   257
 75
     1
175
     1
 42
1.0
 92
       10
 66
     7
 43
1.0
 76
     1
 77
     6
 78
     2
 67
     7
 79
     5
170
     0
171
     0
290
     0
174
     0
 93
        1
 44
0.0
173
     0
291
     1
 45
0.0
1001
ACAD
1000
AcDbSavedByObjectVersion
1070
     0
  0
VISUALSTYLE
  5
C0AA
102
{ACAD_XDICTIONARY
360
C110
102
}
102
{ACAD_REACTORS
330
C09C
102
}
330
C09C
100
AcDbVisualStyle
  2
Linepattern
 70
    14
 71
     2
 72
     2
 73
     0
 90
        0
 40
-0.6
 41
-30.0
 62
     5
 63
     7
 74
     1
 91
        4
 64
     7
 65
   257
 75
     7
175
     7
 42
1.0
 92
        8
 66
     7
 43
1.0
 76
     1
 77
     6
 78
     2
 67
     7
 79
     5
170
     0
171
     0
290
     0
174
     0
 93
        1
 44
0.0
173
     0
291
     1
 45
0.0
1001
ACAD
1000
AcDbSavedByObjectVersion
1070
     0
  0
VISUALSTYLE
  5
C0B3
102
{ACAD_XDICTIONARY
360
C122
102
}
102
{ACAD_REACTORS
330
C09C
102
}
330
C09C
100
AcDbVisualStyle
  2
OverhangOff
 70
    21
 71
     2
 72
     2
 73
     0
 90
        0
 40
-0.6
 41
-30.0
 62
     5
 63
     7
 74
     1
 91
        4
 64
     7
 65
   257
 75
     1
175
     1
 42
1.0
 92
        9
 66
     7
 43
1.0
 76
     1
 77
     6
 78
     2
 67
     7
 79
     5
170
     0
171
     0
290
     0
174
     0
 93
        1
 44
0.0
173
     0
291
     1
 45
0.0
1001
ACAD
1000
AcDbSavedByObjectVersion
1070
     0
  0
VISUALSTYLE
  5
C0A6
102
{ACAD_XDICTIONARY
360
C108
102
}
102
{ACAD_REACTORS
330
C09C
102
}
330
C09C
100
AcDbVisualStyle
  2
Realistic
 70
     8
 71
     2
 72
     3
 73
     0
 90
        2
 40
-0.6
 41
30.0
 62
     5
 63
     7
 74
     0
 91
        0
 64
     7
 65
   257
 75
     1
175
     1
 42
1.0
 92
        8
 66
   257
 43
1.0
 76
     1
 77
     6
 78
     2
 67
     7
 79
     3
170
     0
171
     0
290
     0
174
     0
 93
       13
 44
0.0
173
     0
291
     0
 45
0.0
1001
ACAD
1000
AcDbSavedByObjectVersion
1070
     0
  0
VISUALSTYLE
  5
C0B1
102
{ACAD_XDICTIONARY
360
C11E
102
}
102
{ACAD_REACTORS
330
C09C
102
}
330
C09C
100
AcDbVisualStyle
  2
Shaded
 70
    27
 71
     2
 72
     2
 73
     1
 90
        2
 40
-0.6
 41
30.0
 62
     5
 63
     7
 74
     0
 91
        4
 64
     7
 65
   257
 75
     1
175
     1
 42
1.0
 92
        8
 66
   257
 43
1.0
 76
     1
 77
     6
 78
     2
 67
     8
 79
     3
170
     0
171
     0
290
     0
174
     0
 93
        5
 44
0.0
173
     0
291
     0
 45
0.0
1001
ACAD
1000
AcDbSavedByObjectVersion
1070
     0
  0
VISUALSTYLE
  5
C0B0
102
{ACAD_XDICTIONARY
360
C11C
102
}
102
{ACAD_REACTORS
330
C09C
102
}
330
C09C
100
AcDbVisualStyle
  2
Shaded with edges
 70
    26
 71
     2
 72
     2
 73
     1
 90
        2
 40
-0.6
 41
30.0
 62
     5
 63
     7
 74
     1
 91
       10
 64
     7
 65
   257
 75
     2
175
     1
 42
1.0
 92
        8
 66
   257
 43
1.0
 76
     1
 77
     6
 78
     2
 67
     7
 79
     3
170
     0
171
     0
290
     0
174
     0
 93
        5
 44
0.0
173
     0
291
     0
 45
0.0
1001
ACAD
1000
AcDbSavedByObjectVersion
1070
     0
  0
VISUALSTYLE
  5
C0AD
102
{ACAD_XDICTIONARY
360
C116
102
}
102
{ACAD_REACTORS
330
C09C
102
}
330
C09C
100
AcDbVisualStyle
  2
Shades of Gray
 70
    23
 71
     2
 72
     2
 73
     3
 90
        0
 40
-0.6
 41
-30.0
 62
     5
 63
     7
 74
     2
 91
        2
 64
     7
 65
     7
 75
     1
175
     1
 42
40.0
 92
        8
 66
     7
 43
1.0
 76
     1
 77
     6
 78
     2
 67
     7
 79
     3
170
     0
171
     0
290
     0
174
     0
 93
        1
 44
0.0
173
     0
291
     0
 45
0.0
1001
ACAD
1000
AcDbSavedByObjectVersion
1070
     0
  0
VISUALSTYLE
  5
C0AE
102
{ACAD_XDICTIONARY
360
C118
102
}
102
{ACAD_REACTORS
330
C09C
102
}
330
C09C
100
AcDbVisualStyle
  2
Sketchy
 70
    24
 71
     1
 72
     2
 73
     2
 90
        0
 40
-0.6
 41
-30.0
 62
     5
 63
     7
 74
     2
 91
        2
 64
     7
 65
     7
 75
     1
175
     1
 42
40.0
 92
       11
 66
     7
 43
1.0
 76
     1
 77
     6
 78
     2
 67
     7
 79
     6
170
     0
171
     0
290
     0
174
     0
 93
        1
 44
0.0
173
     0
291
     0
 45
0.0
1001
ACAD
1000
AcDbSavedByObjectVersion
1070
     0
  0
VISUALSTYLE
  5
C0A9
102
{ACAD_XDICTIONARY
360
C10E
102
}
102
{ACAD_REACTORS
330
C09C
102
}
330
C09C
100
AcDbVisualStyle
  2
Thicken
 70
    13
 71
     2
 72
     2
 73
     0
 90
        0
 40
-0.6
 41
-30.0
 62
     5
 63
     7
 74
     1
 91
        4
 64
     7
 65
   257
 75
     1
175
     1
 42
1.0
 92
       12
 66
     7
 43
1.0
 76
     1
 77
     6
 78
     2
 67
     7
 79
     5
170
     0
171
     0
290
     0
174
     0
 93
        1
 44
0.0
173
     0
291
     1
 45
0.0
1001
ACAD
1000
AcDbSavedByObjectVersion
1070
     0
  0
VISUALSTYLE
  5
C0A3
102
{ACAD_XDICTIONARY
360
C102
102
}
102
{ACAD_REACTORS
330
C09C
102
}
330
C09C
100
AcDbVisualStyle
  2
Wireframe
 70
     5
 71
     0
 72
     2
 73
     0
 90
        0
 40
-0.6
 41
-30.0
 62
     5
 63
     7
 74
     1
 91
        4
 64
     7
 65
   257
 75
     1
175
     1
 42
1.0
 92
        0
 66
   257
 43
1.0
 76
     1
 77
     6
 78
     2
 67
     7
 79
     3
170
     0
171
     0
290
     0
174
     0
 93
        1
 44
0.0
173
     0
291
     0
 45
0.0
1001
ACAD
1000
AcDbSavedByObjectVersion
1070
     0
  0
VISUALSTYLE
  5
C0AF
102
{ACAD_XDICTIONARY
360
C11A
102
}
102
{ACAD_REACTORS
330
C09C
102
}
330
C09C
100
AcDbVisualStyle
  2
X-Ray
 70
    25
 71
     2
 72
     2
 73
     1
 90
        1
 40
0.5
 41
-30.0
 62
     5
 63
     7
 74
     1
 91
        0
 64
     7
 65
   257
 75
     1
175
     1
 42
1.0
 92
        8
 66
     7
 43
1.0
 76
     1
 77
     6
 78
     2
 67
     7
 79
     3
170
     0
171
     0
290
     0
174
     0
 93
       13
 44
0.0
173
     0
291
     0
 45
0.0
1001
ACAD
1000
AcDbSavedByObjectVersion
1070
     0
  0
DICTIONARYVAR
  5
C0E9
102
{ACAD_REACTORS
330
C0E4
102
}
330
C0E4
100
DictionaryVariables
280
     0
  1
1:1
  0
DICTIONARYVAR
  5
C0E6
102
{ACAD_REACTORS
330
C0E4
102
}
330
C0E4
100
DictionaryVariables
280
     0
  1
STANDARD
  0
DICTIONARYVAR
  5
C0E5
102
{ACAD_REACTORS
330
C0E4
102
}
330
C0E4
100
DictionaryVariables
280
     0
  1
STANDARD
  0
DICTIONARYVAR
  5
C0E7
102
{ACAD_REACTORS
330
C0E4
102
}
330
C0E4
100
DictionaryVariables
280
     0
  1
Imperial24
  0
DICTIONARYVAR
  5
C0E8
102
{ACAD_REACTORS
330
C0E4
102
}
330
C0E4
100
DictionaryVariables
280
     0
  1
Imperial24
  0
DICTIONARYVAR
  5
C0EC
102
{ACAD_REACTORS
330
C0E4
102
}
330
C0E4
100
DictionaryVariables
280
     0
  1
1
  0
DICTIONARYVAR
  5
C0EB
102
{ACAD_REACTORS
330
C0E4
102
}
330
C0E4
100
DictionaryVariables
280
     0
  1
0
  0
DICTIONARYVAR
  5
C0EA
102
{ACAD_REACTORS
330
C0E4
102
}
330
C0E4
100
DictionaryVariables
280
     0
  1
127
  0
DICTIONARYVAR
  5
C0ED
102
{ACAD_REACTORS
330
C0E4
102
}
330
C0E4
100
DictionaryVariables
280
     0
  1
2
  0
DICTIONARY
  5
C12A
330
C0CF
100
AcDbDictionary
280
     1
281
     1
  3
ACAD_XREC_ROUNDTRIP
360
C12B
  0
DICTIONARY
  5
C12C
330
C0D0
100
AcDbDictionary
280
     1
281
     1
  3
ACAD_XREC_ROUNDTRIP
360
C12D
  0
DICTIONARY
  5
C12E
330
C0D1
100
AcDbDictionary
280
     1
281
     1
  3
ACAD_XREC_ROUNDTRIP
360
C12F
  0
DICTIONARY
  5
C08D
330
C08C
100
AcDbDictionary
280
     1
281
     1
  3
ACAD_XREC_ROUNDTRIP
360
C0F4
  3
BUMPTILE
360
C08F
  3
DIFFUSETILE
360
C08E
  3
OPACITYTILE
360
C092
  3
REFLECTIONTILE
360
C091
  3
REFRACTIONTILE
360
C093
  3
SPECULARTILE
360
C090
  0
DICTIONARY
  5
C085
330
C084
100
AcDbDictionary
280
     1
281
     1
  3
ACAD_XREC_ROUNDTRIP
360
C0F3
  3
BUMPTILE
360
C087
  3
DIFFUSETILE
360
C086
  3
OPACITYTILE
360
C08A
  3
REFLECTIONTILE
360
C089
  3
REFRACTIONTILE
360
C08B
  3
SPECULARTILE
360
C088
  0
DICTIONARY
  5
C095
330
C094
100
AcDbDictionary
280
     1
281
     1
  3
ACAD_XREC_ROUNDTRIP
360
C0F5
  3
BUMPTILE
360
C097
  3
DIFFUSETILE
360
C096
  3
OPACITYTILE
360
C09A
  3
REFLECTIONTILE
360
C099
  3
REFRACTIONTILE
360
C09B
  3
SPECULARTILE
360
C098
  0
DICTIONARY
  5
C128
330
C0CD
100
AcDbDictionary
280
     1
281
     1
  3
ACAD_XREC_ROUNDTRIP
360
C129
  0
DICTIONARY
  5
C0EF
330
C0B7
100
AcDbDictionary
280
     1
281
     1
  3
ACAD_ROUNDTRIP_2008_TABLESTYLE_CELLSTYLEMAP
360
C0F0
  3
ACAD_XREC_ROUNDTRIP
360
C126
  0
DICTIONARY
  5
C100
330
C0A2
100
AcDbDictionary
280
     1
281
     1
  3
ACAD_XREC_ROUNDTRIP
360
C101
  0
DICTIONARY
  5
C0FE
330
C0A1
100
AcDbDictionary
280
     1
281
     1
  3
ACAD_XREC_ROUNDTRIP
360
C0FF
  0
DICTIONARY
  5
C10C
330
C0A8
100
AcDbDictionary
280
     1
281
     1
  3
ACAD_XREC_ROUNDTRIP
360
C10D
  0
DICTIONARY
  5
C114
330
C0AC
100
AcDbDictionary
280
     1
281
     1
  3
ACAD_XREC_ROUNDTRIP
360
C115
  0
DICTIONARY
  5
C106
330
C0A5
100
AcDbDictionary
280
     1
281
     1
  3
ACAD_XREC_ROUNDTRIP
360
C107
  0
DICTIONARY
  5
C10A
330
C0A7
100
AcDbDictionary
280
     1
281
     1
  3
ACAD_XREC_ROUNDTRIP
360
C10B
  0
DICTIONARY
  5
C124
330
C0B4
100
AcDbDictionary
280
     1
281
     1
  3
ACAD_XREC_ROUNDTRIP
360
C125
  0
DICTIONARY
  5
C112
330
C0AB
100
AcDbDictionary
280
     1
281
     1
  3
ACAD_XREC_ROUNDTRIP
360
C113
  0
DICTIONARY
  5
C0F6
330
C09D
100
AcDbDictionary
280
     1
281
     1
  3
ACAD_XREC_ROUNDTRIP
360
C0F7
  0
DICTIONARY
  5
C0F8
330
C09E
100
AcDbDictionary
280
     1
281
     1
  3
ACAD_XREC_ROUNDTRIP
360
C0F9
  0
DICTIONARY
  5
C0FA
330
C09F
100
AcDbDictionary
280
     1
281
     1
  3
ACAD_XREC_ROUNDTRIP
360
C0FB
  0
DICTIONARY
  5
C0FC
330
C0A0
100
AcDbDictionary
280
     1
281
     1
  3
ACAD_XREC_ROUNDTRIP
360
C0FD
  0
DICTIONARY
  5
C104
330
C0A4
100
AcDbDictionary
280
     1
281
     1
  3
ACAD_XREC_ROUNDTRIP
360
C105
  0
DICTIONARY
  5
C120
330
C0B2
100
AcDbDictionary
280
     1
281
     1
  3
ACAD_XREC_ROUNDTRIP
360
C121
  0
DICTIONARY
  5
C110
330
C0AA
100
AcDbDictionary
280
     1
281
     1
  3
ACAD_XREC_ROUNDTRIP
360
C111
  0
DICTIONARY
  5
C122
330
C0B3
100
AcDbDictionary
280
     1
281
     1
  3
ACAD_XREC_ROUNDTRIP
360
C123
  0
DICTIONARY
  5
C108
330
C0A6
100
AcDbDictionary
280
     1
281
     1
  3
ACAD_XREC_ROUNDTRIP
360
C109
  0
DICTIONARY
  5
C11E
330
C0B1
100
AcDbDictionary
280
     1
281
     1
  3
ACAD_XREC_ROUNDTRIP
360
C11F
  0
DICTIONARY
  5
C11C
330
C0B0
100
AcDbDictionary
280
     1
281
     1
  3
ACAD_XREC_ROUNDTRIP
360
C11D
  0
DICTIONARY
  5
C116
330
C0AD
100
AcDbDictionary
280
     1
281
     1
  3
ACAD_XREC_ROUNDTRIP
360
C117
  0
DICTIONARY
  5
C118
330
C0AE
100
AcDbDictionary
280
     1
281
     1
  3
ACAD_XREC_ROUNDTRIP
360
C119
  0
DICTIONARY
  5
C10E
330
C0A9
100
AcDbDictionary
280
     1
281
     1
  3
ACAD_XREC_ROUNDTRIP
360
C10F
  0
DICTIONARY
  5
C102
330
C0A3
100
AcDbDictionary
280
     1
281
     1
  3
ACAD_XREC_ROUNDTRIP
360
C103
  0
DICTIONARY
  5
C11A
330
C0AF
100
AcDbDictionary
280
     1
281
     1
  3
ACAD_XREC_ROUNDTRIP
360
C11B
  0
XRECORD
  5
C12B
102
{ACAD_REACTORS
330
C12A
102
}
330
C12A
100
AcDbXrecord
280
     1
102
DISPLAYNAME
  1
Imperial24
102
FLAGS
 90
        0
  0
XRECORD
  5
C12D
102
{ACAD_REACTORS
330
C12C
102
}
330
C12C
100
AcDbXrecord
280
     1
102
SHADEPLOT
 70
     0
102
SHADEPLOTRESLEVEL
 70
     2
102
SHADEPLOTCUSTOMDPI
 70
   300
  0
XRECORD
  5
C12F
102
{ACAD_REACTORS
330
C12E
102
}
330
C12E
100
AcDbXrecord
280
     1
102
SHADEPLOT
 70
     0
102
SHADEPLOTRESLEVEL
 70
     2
102
SHADEPLOTCUSTOMDPI
 70
   300
  0
XRECORD
  5
C0F4
102
{ACAD_REACTORS
330
C08D
102
}
330
C08D
100
AcDbXrecord
280
     1
102
MATERIAL
148
0.0
149
0.0
149
0.0
 93
        0
 94
      127
282
     0
 72
     0
 77
     0
171
     0
175
     0
179
     0
273
     0
  0
XRECORD
  5
C08F
102
{ACAD_REACTORS
330
C08D
102
}
330
C08D
100
AcDbXrecord
280
     1
270
     1
271
     1
  0
XRECORD
  5
C08E
102
{ACAD_REACTORS
330
C08D
102
}
330
C08D
100
AcDbXrecord
280
     1
270
     1
271
     1
  0
XRECORD
  5
C092
102
{ACAD_REACTORS
330
C08D
102
}
330
C08D
100
AcDbXrecord
280
     1
270
     1
271
     1
  0
XRECORD
  5
C091
102
{ACAD_REACTORS
330
C08D
102
}
330
C08D
100
AcDbXrecord
280
     1
270
     1
271
     1
  0
XRECORD
  5
C093
102
{ACAD_REACTORS
330
C08D
102
}
330
C08D
100
AcDbXrecord
280
     1
270
     1
271
     1
  0
XRECORD
  5
C090
102
{ACAD_REACTORS
330
C08D
102
}
330
C08D
100
AcDbXrecord
280
     1
270
     1
271
     1
  0
XRECORD
  5
C0F3
102
{ACAD_REACTORS
330
C085
102
}
330
C085
100
AcDbXrecord
280
     1
102
MATERIAL
148
0.0
149
0.0
149
0.0
 93
        0
 94
      127
282
     0
 72
     0
 77
     0
171
     0
175
     0
179
     0
273
     0
  0
XRECORD
  5
C087
102
{ACAD_REACTORS
330
C085
102
}
330
C085
100
AcDbXrecord
280
     1
270
     1
271
     1
  0
XRECORD
  5
C086
102
{ACAD_REACTORS
330
C085
102
}
330
C085
100
AcDbXrecord
280
     1
270
     1
271
     1
  0
XRECORD
  5
C08A
102
{ACAD_REACTORS
330
C085
102
}
330
C085
100
AcDbXrecord
280
     1
270
     1
271
     1
  0
XRECORD
  5
C089
102
{ACAD_REACTORS
330
C085
102
}
330
C085
100
AcDbXrecord
280
     1
270
     1
271
     1
  0
XRECORD
  5
C08B
102
{ACAD_REACTORS
330
C085
102
}
330
C085
100
AcDbXrecord
280
     1
270
     1
271
     1
  0
XRECORD
  5
C088
102
{ACAD_REACTORS
330
C085
102
}
330
C085
100
AcDbXrecord
280
     1
270
     1
271
     1
  0
XRECORD
  5
C0F5
102
{ACAD_REACTORS
330
C095
102
}
330
C095
100
AcDbXrecord
280
     1
102
MATERIAL
148
0.0
149
0.0
149
0.0
 93
        0
 94
      127
282
     0
 72
     0
 77
     0
171
     0
175
     0
179
     0
273
     0
  0
XRECORD
  5
C097
102
{ACAD_REACTORS
330
C095
102
}
330
C095
100
AcDbXrecord
280
     1
270
     1
271
     1
  0
XRECORD
  5
C096
102
{ACAD_REACTORS
330
C095
102
}
330
C095
100
AcDbXrecord
280
     1
270
     1
271
     1
  0
XRECORD
  5
C09A
102
{ACAD_REACTORS
330
C095
102
}
330
C095
100
AcDbXrecord
280
     1
270
     1
271
     1
  0
XRECORD
  5
C099
102
{ACAD_REACTORS
330
C095
102
}
330
C095
100
AcDbXrecord
280
     1
270
     1
271
     1
  0
XRECORD
  5
C09B
102
{ACAD_REACTORS
330
C095
102
}
330
C095
100
AcDbXrecord
280
     1
270
     1
271
     1
  0
XRECORD
  5
C098
102
{ACAD_REACTORS
330
C095
102
}
330
C095
100
AcDbXrecord
280
     1
270
     1
271
     1
  0
XRECORD
  5
C129
102
{ACAD_REACTORS
330
C128
102
}
330
C128
100
AcDbXrecord
280
     1
102
DISPLAYNAME
  1
Imperial24
102
FLAGS
 90
        0
  0
CELLSTYLEMAP
  5
C0F0
102
{ACAD_REACTORS
330
C0EF
102
}
330
C0EF
100
AcDbCellStyleMap
 90
        3
300
CELLSTYLE
  1
TABLEFORMAT_BEGIN
 90
        5
170
     1
 91
        0
 92
    32768
 62
   257
 93
        1
300
CONTENTFORMAT
  1
CONTENTFORMAT_BEGIN
 90
        0
 91
        0
 92
      512
 93
        0
300

 40
0.0
140
1.0
 94
        5
 62
     0
340
BE6E
144
0.25
309
CONTENTFORMAT_END
171
     0
 94
        0
309
TABLEFORMAT_END
  1
CELLSTYLE_BEGIN
 90
        1
 91
        1
300
_TITLE
309
CELLSTYLE_END
300
CELLSTYLE
  1
TABLEFORMAT_BEGIN
 90
        5
170
     1
 91
        0
 92
        0
 62
   257
 93
        1
300
CONTENTFORMAT
  1
CONTENTFORMAT_BEGIN
 90
        0
 91
        0
 92
      512
 93
        0
300

 40
0.0
140
1.0
 94
        5
 62
     0
340
BE6E
144
0.18
309
CONTENTFORMAT_END
171
     0
 94
        0
309
TABLEFORMAT_END
  1
CELLSTYLE_BEGIN
 90
        2
 91
        1
300
_HEADER
309
CELLSTYLE_END
300
CELLSTYLE
  1
TABLEFORMAT_BEGIN
 90
        5
170
     1
 91
        0
 92
        0
 62
   257
 93
        1
300
CONTENTFORMAT
  1
CONTENTFORMAT_BEGIN
 90
        0
 91
        0
 92
      512
 93
        0
300

 40
0.0
140
1.0
 94
        2
 62
     0
340
BE6E
144
0.18
309
CONTENTFORMAT_END
171
     0
 94
        0
309
TABLEFORMAT_END
  1
CELLSTYLE_BEGIN
 90
        3
 91
        2
300
_DATA
309
CELLSTYLE_END
  0
XRECORD
  5
C126
102
{ACAD_REACTORS
330
C0EF
102
}
330
C0EF
100
AcDbXrecord
280
     1
102
ACAD_ROUNDTRIP_PRE2007_TABLESTYLE
 90
      512
 91
        0
  1

 92
      512
 93
        0
  2

 94
      512
 95
        0
  3

  0
XRECORD
  5
C101
102
{ACAD_REACTORS
330
C100
102
}
330
C100
100
AcDbXrecord
280
     1
102
RTVSPost2010Prop28
280
     1
102
RTVSPost2010PropOp28
 70
     1
102
RTVSPost2010Prop29
280
     1
102
RTVSPost2010PropOp29
 70
     1
102
RTVSPost2010Prop30
280
     0
102
RTVSPost2010PropOp30
 70
     1
102
RTVSPost2010Prop31
280
     0
102
RTVSPost2010PropOp31
 70
     1
102
RTVSPost2010Prop32
280
     0
102
RTVSPost2010PropOp32
 70
     1
102
RTVSPost2010Prop33
280
     0
102
RTVSPost2010PropOp33
 70
     1
102
RTVSPost2010Prop34
280
     0
102
RTVSPost2010PropOp34
 70
     1
102
RTVSPost2010Prop35
280
     0
102
RTVSPost2010PropOp35
 70
     1
102
RTVSPost2010Prop36
280
     0
102
RTVSPost2010PropOp36
 70
     1
102
RTVSPost2010Prop37
 90
       50
102
RTVSPost2010PropOp37
 70
     1
102
RTVSPost2010Prop38
140
0.0
102
RTVSPost2010PropOp38
 70
     1
102
RTVSPost2010Prop39
140
1.0
102
RTVSPost2010PropOp39
 70
     1
102
RTVSPost2010Prop40
 90
        0
102
RTVSPost2010PropOp40
 70
     1
102
RTVSPost2010Prop41ColorIndex
 90
       18
102
RTVSPost2010Prop41ColorRGB
 90
        0
102
RTVSPost2010PropOp41
 70
     1
102
RTVSPost2010Prop42
 90
       50
102
RTVSPost2010PropOp42
 70
     1
102
RTVSPost2010Prop43
 90
        3
102
RTVSPost2010PropOp43
 70
     1
102
RTVSPost2010Prop44ColorIndex
 90
        5
102
RTVSPost2010Prop44ColorRGB
 90
      255
102
RTVSPost2010PropOp44
 70
     1
102
RTVSPost2010Prop45
280
     0
102
RTVSPost2010PropOp45
 70
     1
102
RTVSPost2010Prop46
 90
       50
102
RTVSPost2010PropOp46
 70
     1
102
RTVSPost2010Prop47
 90
       50
102
RTVSPost2010PropOp47
 70
     1
102
RTVSPost2010Prop48
 90
       50
102
RTVSPost2010PropOp48
 70
     1
102
RTVSPost2010Prop49
280
     0
102
RTVSPost2010PropOp49
 70
     1
102
RTVSPost2010Prop50
 90
       50
102
RTVSPost2010PropOp50
 70
     1
102
RTVSPost2010Prop51ColorIndex
 90
      256
102
RTVSPost2010Prop51ColorRGB
 90
-16777216
102
RTVSPost2010PropOp51
 70
     0
102
RTVSPost2010Prop52
140
1.0
102
RTVSPost2010PropOp52
 70
     0
102
RTVSPost2010Prop53
 90
        2
102
RTVSPost2010PropOp53
 70
     1
102
RTVSPost2010Prop54
  1
strokes_ogs.tif
102
RTVSPost2010PropOp54
 70
     1
102
RTVSPost2010Prop55
280
     0
102
RTVSPost2010PropOp55
 70
     1
102
RTVSPost2010Prop56
140
1.0
102
RTVSPost2010PropOp56
 70
     1
102
RTVSPost2010Prop57
140
1.0
102
RTVSPost2010PropOp57
 70
     1
102
RTVSPropertyOp0
 70
     1
102
RTVSPropertyOp1
 70
     1
102
RTVSPropertyOp2
 70
     1
102
RTVSPropertyOp3
 70
     1
102
RTVSPropertyOp4
 70
     1
102
RTVSPropertyOp5
 70
     1
102
RTVSPropertyOp6
 70
     1
102
RTVSPropertyOp7
 70
     1
102
RTVSPropertyOp8
 70
     1
102
RTVSPropertyOp9
 70
     1
102
RTVSPropertyOp10
 70
     1
102
RTVSPropertyOp11
 70
     1
102
RTVSPropertyOp12
 70
     1
102
RTVSPropertyOp13
 70
     1
102
RTVSPropertyOp14
 70
     1
102
RTVSPropertyOp15
 70
     1
102
RTVSPropertyOp16
 70
     1
102
RTVSPropertyOp17
 70
     1
102
RTVSPropertyOp18
 70
     1
102
RTVSPropertyOp19
 70
     1
102
RTVSPropertyOp20
 70
     1
102
RTVSPropertyOp21
 70
     1
102
RTVSPropertyOp22
 70
     1
102
RTVSPropertyOp23
 70
     1
102
RTVSPropertyOp24
 70
     1
102
RTVSPropertyOp25
 70
     1
102
RTVSPropertyOp26
 70
     1
102
RTVSPropertyOp27
 70
     1
102
RTVSPropertyOp28
 70
     1
102
RTVSPropertyOp29
 70
     1
102
RTVSPropertyOp30
 70
     1
102
RTVSPropertyOp31
 70
     1
102
RTVSPropertyOp32
 70
     1
102
RTVSPropertyOp33
 70
     1
102
RTVSPropertyOp34
 70
     1
102
RTVSPropertyOp35
 70
     1
102
RTVSPropertyOp36
 70
     1
102
RTVSPropertyOp37
 70
     1
102
RTVSPropertyOp38
 70
     1
102
RTVSPropertyOp39
 70
     1
102
RTVSPropertyOp40
 70
     1
102
RTVSPropertyOp41
 70
     1
102
RTVSPropertyOp42
 70
     1
102
RTVSPropertyOp43
 70
     1
102
RTVSPropertyOp44
 70
     1
102
RTVSPropertyOp45
 70
     1
102
RTVSPropertyOp46
 70
     1
102
RTVSPropertyOp47
 70
     1
102
RTVSPropertyOp48
 70
     1
102
RTVSPropertyOp49
 70
     1
102
RTVSPropertyOp50
 70
     1
102
RTVSPropertyOp51
 70
     0
102
RTVSPropertyOp52
 70
     0
102
RTVSPropertyOp53
 70
     1
102
RTVSPropertyOp54
 70
     1
102
RTVSPropertyOp55
 70
     1
102
RTVSPropertyOp56
 70
     1
102
RTVSPropertyOp57
 70
     1
102
RTVSPropertyOp58
 70
     1
102
RTVSPropertyOp59
 70
     1
102
RTVSPropertyOp60
 70
     1
102
RTVSPropertyOp61
 70
     1
102
RTVSPropertyOp62
 70
     1
  0
XRECORD
  5
C0FF
102
{ACAD_REACTORS
330
C0FE
102
}
330
C0FE
100
AcDbXrecord
280
     1
102
RTVSPost2010Prop28
280
     0
102
RTVSPost2010PropOp28
 70
     1
102
RTVSPost2010Prop29
280
     1
102
RTVSPost2010PropOp29
 70
     1
102
RTVSPost2010Prop30
280
     1
102
RTVSPost2010PropOp30
 70
     1
102
RTVSPost2010Prop31
280
     0
102
RTVSPost2010PropOp31
 70
     1
102
RTVSPost2010Prop32
280
     0
102
RTVSPost2010PropOp32
 70
     1
102
RTVSPost2010Prop33
280
     0
102
RTVSPost2010PropOp33
 70
     1
102
RTVSPost2010Prop34
280
     0
102
RTVSPost2010PropOp34
 70
     1
102
RTVSPost2010Prop35
280
     0
102
RTVSPost2010PropOp35
 70
     1
102
RTVSPost2010Prop36
280
     0
102
RTVSPost2010PropOp36
 70
     1
102
RTVSPost2010Prop37
 90
       50
102
RTVSPost2010PropOp37
 70
     1
102
RTVSPost2010Prop38
140
0.0
102
RTVSPost2010PropOp38
 70
     1
102
RTVSPost2010Prop39
140
1.0
102
RTVSPost2010PropOp39
 70
     1
102
RTVSPost2010Prop40
 90
        0
102
RTVSPost2010PropOp40
 70
     1
102
RTVSPost2010Prop41ColorIndex
 90
       18
102
RTVSPost2010Prop41ColorRGB
 90
        0
102
RTVSPost2010PropOp41
 70
     1
102
RTVSPost2010Prop42
 90
       50
102
RTVSPost2010PropOp42
 70
     1
102
RTVSPost2010Prop43
 90
        3
102
RTVSPost2010PropOp43
 70
     1
102
RTVSPost2010Prop44ColorIndex
 90
        5
102
RTVSPost2010Prop44ColorRGB
 90
      255
102
RTVSPost2010PropOp44
 70
     1
102
RTVSPost2010Prop45
280
     0
102
RTVSPost2010PropOp45
 70
     1
102
RTVSPost2010Prop46
 90
       50
102
RTVSPost2010PropOp46
 70
     1
102
RTVSPost2010Prop47
 90
       50
102
RTVSPost2010PropOp47
 70
     1
102
RTVSPost2010Prop48
 90
       50
102
RTVSPost2010PropOp48
 70
     1
102
RTVSPost2010Prop49
280
     0
102
RTVSPost2010PropOp49
 70
     1
102
RTVSPost2010Prop50
 90
       50
102
RTVSPost2010PropOp50
 70
     1
102
RTVSPost2010Prop51ColorIndex
 90
      256
102
RTVSPost2010Prop51ColorRGB
 90
-16777216
102
RTVSPost2010PropOp51
 70
     0
102
RTVSPost2010Prop52
140
1.0
102
RTVSPost2010PropOp52
 70
     0
102
RTVSPost2010Prop53
 90
        2
102
RTVSPost2010PropOp53
 70
     1
102
RTVSPost2010Prop54
  1
strokes_ogs.tif
102
RTVSPost2010PropOp54
 70
     1
102
RTVSPost2010Prop55
280
     0
102
RTVSPost2010PropOp55
 70
     1
102
RTVSPost2010Prop56
140
1.0
102
RTVSPost2010PropOp56
 70
     1
102
RTVSPost2010Prop57
140
1.0
102
RTVSPost2010PropOp57
 70
     1
102
RTVSPropertyOp0
 70
     1
102
RTVSPropertyOp1
 70
     1
102
RTVSPropertyOp2
 70
     1
102
RTVSPropertyOp3
 70
     1
102
RTVSPropertyOp4
 70
     1
102
RTVSPropertyOp5
 70
     1
102
RTVSPropertyOp6
 70
     1
102
RTVSPropertyOp7
 70
     1
102
RTVSPropertyOp8
 70
     1
102
RTVSPropertyOp9
 70
     1
102
RTVSPropertyOp10
 70
     1
102
RTVSPropertyOp11
 70
     1
102
RTVSPropertyOp12
 70
     1
102
RTVSPropertyOp13
 70
     1
102
RTVSPropertyOp14
 70
     1
102
RTVSPropertyOp15
 70
     1
102
RTVSPropertyOp16
 70
     1
102
RTVSPropertyOp17
 70
     1
102
RTVSPropertyOp18
 70
     1
102
RTVSPropertyOp19
 70
     1
102
RTVSPropertyOp20
 70
     1
102
RTVSPropertyOp21
 70
     1
102
RTVSPropertyOp22
 70
     1
102
RTVSPropertyOp23
 70
     1
102
RTVSPropertyOp24
 70
     1
102
RTVSPropertyOp25
 70
     1
102
RTVSPropertyOp26
 70
     1
102
RTVSPropertyOp27
 70
     1
102
RTVSPropertyOp28
 70
     1
102
RTVSPropertyOp29
 70
     1
102
RTVSPropertyOp30
 70
     1
102
RTVSPropertyOp31
 70
     1
102
RTVSPropertyOp32
 70
     1
102
RTVSPropertyOp33
 70
     1
102
RTVSPropertyOp34
 70
     1
102
RTVSPropertyOp35
 70
     1
102
RTVSPropertyOp36
 70
     1
102
RTVSPropertyOp37
 70
     1
102
RTVSPropertyOp38
 70
     1
102
RTVSPropertyOp39
 70
     1
102
RTVSPropertyOp40
 70
     1
102
RTVSPropertyOp41
 70
     1
102
RTVSPropertyOp42
 70
     1
102
RTVSPropertyOp43
 70
     1
102
RTVSPropertyOp44
 70
     1
102
RTVSPropertyOp45
 70
     1
102
RTVSPropertyOp46
 70
     1
102
RTVSPropertyOp47
 70
     1
102
RTVSPropertyOp48
 70
     1
102
RTVSPropertyOp49
 70
     1
102
RTVSPropertyOp50
 70
     1
102
RTVSPropertyOp51
 70
     0
102
RTVSPropertyOp52
 70
     0
102
RTVSPropertyOp53
 70
     1
102
RTVSPropertyOp54
 70
     1
102
RTVSPropertyOp55
 70
     1
102
RTVSPropertyOp56
 70
     1
102
RTVSPropertyOp57
 70
     1
102
RTVSPropertyOp58
 70
     1
102
RTVSPropertyOp59
 70
     1
102
RTVSPropertyOp60
 70
     1
102
RTVSPropertyOp61
 70
     1
102
RTVSPropertyOp62
 70
     1
  0
XRECORD
  5
C10D
102
{ACAD_REACTORS
330
C10C
102
}
330
C10C
100
AcDbXrecord
280
     1
102
RTVSPost2010Prop28
280
     0
102
RTVSPost2010PropOp28
 70
     1
102
RTVSPost2010Prop29
280
     1
102
RTVSPost2010PropOp29
 70
     1
102
RTVSPost2010Prop30
280
     1
102
RTVSPost2010PropOp30
 70
     1
102
RTVSPost2010Prop31
280
     0
102
RTVSPost2010PropOp31
 70
     1
102
RTVSPost2010Prop32
280
     0
102
RTVSPost2010PropOp32
 70
     1
102
RTVSPost2010Prop33
280
     0
102
RTVSPost2010PropOp33
 70
     1
102
RTVSPost2010Prop34
280
     0
102
RTVSPost2010PropOp34
 70
     1
102
RTVSPost2010Prop35
280
     0
102
RTVSPost2010PropOp35
 70
     1
102
RTVSPost2010Prop36
280
     0
102
RTVSPost2010PropOp36
 70
     1
102
RTVSPost2010Prop37
 90
       50
102
RTVSPost2010PropOp37
 70
     1
102
RTVSPost2010Prop38
140
0.0
102
RTVSPost2010PropOp38
 70
     1
102
RTVSPost2010Prop39
140
1.0
102
RTVSPost2010PropOp39
 70
     1
102
RTVSPost2010Prop40
 90
        0
102
RTVSPost2010PropOp40
 70
     1
102
RTVSPost2010Prop41ColorIndex
 90
       18
102
RTVSPost2010Prop41ColorRGB
 90
        0
102
RTVSPost2010PropOp41
 70
     1
102
RTVSPost2010Prop42
 90
       50
102
RTVSPost2010PropOp42
 70
     1
102
RTVSPost2010Prop43
 90
        3
102
RTVSPost2010PropOp43
 70
     1
102
RTVSPost2010Prop44ColorIndex
 90
        5
102
RTVSPost2010Prop44ColorRGB
 90
      255
102
RTVSPost2010PropOp44
 70
     1
102
RTVSPost2010Prop45
280
     0
102
RTVSPost2010PropOp45
 70
     1
102
RTVSPost2010Prop46
 90
       50
102
RTVSPost2010PropOp46
 70
     1
102
RTVSPost2010Prop47
 90
       50
102
RTVSPost2010PropOp47
 70
     1
102
RTVSPost2010Prop48
 90
       50
102
RTVSPost2010PropOp48
 70
     1
102
RTVSPost2010Prop49
280
     0
102
RTVSPost2010PropOp49
 70
     1
102
RTVSPost2010Prop50
 90
       50
102
RTVSPost2010PropOp50
 70
     1
102
RTVSPost2010Prop51ColorIndex
 90
      256
102
RTVSPost2010Prop51ColorRGB
 90
-16777216
102
RTVSPost2010PropOp51
 70
     0
102
RTVSPost2010Prop52
140
1.0
102
RTVSPost2010PropOp52
 70
     0
102
RTVSPost2010Prop53
 90
        2
102
RTVSPost2010PropOp53
 70
     1
102
RTVSPost2010Prop54
  1
strokes_ogs.tif
102
RTVSPost2010PropOp54
 70
     1
102
RTVSPost2010Prop55
280
     0
102
RTVSPost2010PropOp55
 70
     1
102
RTVSPost2010Prop56
140
1.0
102
RTVSPost2010PropOp56
 70
     1
102
RTVSPost2010Prop57
140
1.0
102
RTVSPost2010PropOp57
 70
     1
102
RTVSPropertyOp0
 70
     1
102
RTVSPropertyOp1
 70
     1
102
RTVSPropertyOp2
 70
     1
102
RTVSPropertyOp3
 70
     1
102
RTVSPropertyOp4
 70
     1
102
RTVSPropertyOp5
 70
     1
102
RTVSPropertyOp6
 70
     1
102
RTVSPropertyOp7
 70
     1
102
RTVSPropertyOp8
 70
     1
102
RTVSPropertyOp9
 70
     1
102
RTVSPropertyOp10
 70
     1
102
RTVSPropertyOp11
 70
     1
102
RTVSPropertyOp12
 70
     1
102
RTVSPropertyOp13
 70
     1
102
RTVSPropertyOp14
 70
     1
102
RTVSPropertyOp15
 70
     1
102
RTVSPropertyOp16
 70
     1
102
RTVSPropertyOp17
 70
     1
102
RTVSPropertyOp18
 70
     1
102
RTVSPropertyOp19
 70
     1
102
RTVSPropertyOp20
 70
     1
102
RTVSPropertyOp21
 70
     1
102
RTVSPropertyOp22
 70
     1
102
RTVSPropertyOp23
 70
     1
102
RTVSPropertyOp24
 70
     1
102
RTVSPropertyOp25
 70
     1
102
RTVSPropertyOp26
 70
     1
102
RTVSPropertyOp27
 70
     1
102
RTVSPropertyOp28
 70
     1
102
RTVSPropertyOp29
 70
     1
102
RTVSPropertyOp30
 70
     1
102
RTVSPropertyOp31
 70
     1
102
RTVSPropertyOp32
 70
     1
102
RTVSPropertyOp33
 70
     1
102
RTVSPropertyOp34
 70
     1
102
RTVSPropertyOp35
 70
     1
102
RTVSPropertyOp36
 70
     1
102
RTVSPropertyOp37
 70
     1
102
RTVSPropertyOp38
 70
     1
102
RTVSPropertyOp39
 70
     1
102
RTVSPropertyOp40
 70
     1
102
RTVSPropertyOp41
 70
     1
102
RTVSPropertyOp42
 70
     1
102
RTVSPropertyOp43
 70
     1
102
RTVSPropertyOp44
 70
     1
102
RTVSPropertyOp45
 70
     1
102
RTVSPropertyOp46
 70
     1
102
RTVSPropertyOp47
 70
     1
102
RTVSPropertyOp48
 70
     1
102
RTVSPropertyOp49
 70
     1
102
RTVSPropertyOp50
 70
     1
102
RTVSPropertyOp51
 70
     0
102
RTVSPropertyOp52
 70
     0
102
RTVSPropertyOp53
 70
     1
102
RTVSPropertyOp54
 70
     1
102
RTVSPropertyOp55
 70
     1
102
RTVSPropertyOp56
 70
     1
102
RTVSPropertyOp57
 70
     1
102
RTVSPropertyOp58
 70
     1
102
RTVSPropertyOp59
 70
     1
102
RTVSPropertyOp60
 70
     1
102
RTVSPropertyOp61
 70
     1
102
RTVSPropertyOp62
 70
     1
  0
XRECORD
  5
C115
102
{ACAD_REACTORS
330
C114
102
}
330
C114
100
AcDbXrecord
280
     1
102
RTVSPost2010Prop28
280
     0
102
RTVSPost2010PropOp28
 70
     1
102
RTVSPost2010Prop29
280
     1
102
RTVSPost2010PropOp29
 70
     1
102
RTVSPost2010Prop30
280
     1
102
RTVSPost2010PropOp30
 70
     1
102
RTVSPost2010Prop31
280
     0
102
RTVSPost2010PropOp31
 70
     1
102
RTVSPost2010Prop32
280
     0
102
RTVSPost2010PropOp32
 70
     1
102
RTVSPost2010Prop33
280
     0
102
RTVSPost2010PropOp33
 70
     1
102
RTVSPost2010Prop34
280
     0
102
RTVSPost2010PropOp34
 70
     1
102
RTVSPost2010Prop35
280
     0
102
RTVSPost2010PropOp35
 70
     1
102
RTVSPost2010Prop36
280
     0
102
RTVSPost2010PropOp36
 70
     1
102
RTVSPost2010Prop37
 90
       50
102
RTVSPost2010PropOp37
 70
     1
102
RTVSPost2010Prop38
140
0.0
102
RTVSPost2010PropOp38
 70
     1
102
RTVSPost2010Prop39
140
1.0
102
RTVSPost2010PropOp39
 70
     1
102
RTVSPost2010Prop40
 90
        0
102
RTVSPost2010PropOp40
 70
     1
102
RTVSPost2010Prop41ColorIndex
 90
       18
102
RTVSPost2010Prop41ColorRGB
 90
        0
102
RTVSPost2010PropOp41
 70
     1
102
RTVSPost2010Prop42
 90
       50
102
RTVSPost2010PropOp42
 70
     1
102
RTVSPost2010Prop43
 90
        3
102
RTVSPost2010PropOp43
 70
     1
102
RTVSPost2010Prop44ColorIndex
 90
        5
102
RTVSPost2010Prop44ColorRGB
 90
      255
102
RTVSPost2010PropOp44
 70
     1
102
RTVSPost2010Prop45
280
     0
102
RTVSPost2010PropOp45
 70
     1
102
RTVSPost2010Prop46
 90
       50
102
RTVSPost2010PropOp46
 70
     1
102
RTVSPost2010Prop47
 90
       50
102
RTVSPost2010PropOp47
 70
     1
102
RTVSPost2010Prop48
 90
       50
102
RTVSPost2010PropOp48
 70
     1
102
RTVSPost2010Prop49
280
     0
102
RTVSPost2010PropOp49
 70
     1
102
RTVSPost2010Prop50
 90
       50
102
RTVSPost2010PropOp50
 70
     1
102
RTVSPost2010Prop51ColorIndex
 90
      256
102
RTVSPost2010Prop51ColorRGB
 90
-16777216
102
RTVSPost2010PropOp51
 70
     0
102
RTVSPost2010Prop52
140
1.0
102
RTVSPost2010PropOp52
 70
     0
102
RTVSPost2010Prop53
 90
        2
102
RTVSPost2010PropOp53
 70
     1
102
RTVSPost2010Prop54
  1
strokes_ogs.tif
102
RTVSPost2010PropOp54
 70
     1
102
RTVSPost2010Prop55
280
     0
102
RTVSPost2010PropOp55
 70
     1
102
RTVSPost2010Prop56
140
1.0
102
RTVSPost2010PropOp56
 70
     1
102
RTVSPost2010Prop57
140
1.0
102
RTVSPost2010PropOp57
 70
     1
102
RTVSPropertyOp0
 70
     1
102
RTVSPropertyOp1
 70
     1
102
RTVSPropertyOp2
 70
     1
102
RTVSPropertyOp3
 70
     1
102
RTVSPropertyOp4
 70
     1
102
RTVSPropertyOp5
 70
     1
102
RTVSPropertyOp6
 70
     1
102
RTVSPropertyOp7
 70
     1
102
RTVSPropertyOp8
 70
     1
102
RTVSPropertyOp9
 70
     1
102
RTVSPropertyOp10
 70
     1
102
RTVSPropertyOp11
 70
     1
102
RTVSPropertyOp12
 70
     1
102
RTVSPropertyOp13
 70
     1
102
RTVSPropertyOp14
 70
     1
102
RTVSPropertyOp15
 70
     1
102
RTVSPropertyOp16
 70
     1
102
RTVSPropertyOp17
 70
     1
102
RTVSPropertyOp18
 70
     1
102
RTVSPropertyOp19
 70
     1
102
RTVSPropertyOp20
 70
     1
102
RTVSPropertyOp21
 70
     1
102
RTVSPropertyOp22
 70
     1
102
RTVSPropertyOp23
 70
     1
102
RTVSPropertyOp24
 70
     1
102
RTVSPropertyOp25
 70
     1
102
RTVSPropertyOp26
 70
     1
102
RTVSPropertyOp27
 70
     1
102
RTVSPropertyOp28
 70
     1
102
RTVSPropertyOp29
 70
     1
102
RTVSPropertyOp30
 70
     1
102
RTVSPropertyOp31
 70
     1
102
RTVSPropertyOp32
 70
     1
102
RTVSPropertyOp33
 70
     1
102
RTVSPropertyOp34
 70
     1
102
RTVSPropertyOp35
 70
     1
102
RTVSPropertyOp36
 70
     1
102
RTVSPropertyOp37
 70
     1
102
RTVSPropertyOp38
 70
     1
102
RTVSPropertyOp39
 70
     1
102
RTVSPropertyOp40
 70
     1
102
RTVSPropertyOp41
 70
     1
102
RTVSPropertyOp42
 70
     1
102
RTVSPropertyOp43
 70
     1
102
RTVSPropertyOp44
 70
     1
102
RTVSPropertyOp45
 70
     1
102
RTVSPropertyOp46
 70
     1
102
RTVSPropertyOp47
 70
     1
102
RTVSPropertyOp48
 70
     1
102
RTVSPropertyOp49
 70
     1
102
RTVSPropertyOp50
 70
     1
102
RTVSPropertyOp51
 70
     0
102
RTVSPropertyOp52
 70
     0
102
RTVSPropertyOp53
 70
     1
102
RTVSPropertyOp54
 70
     1
102
RTVSPropertyOp55
 70
     1
102
RTVSPropertyOp56
 70
     1
102
RTVSPropertyOp57
 70
     1
102
RTVSPropertyOp58
 70
     1
102
RTVSPropertyOp59
 70
     1
102
RTVSPropertyOp60
 70
     1
102
RTVSPropertyOp61
 70
     1
102
RTVSPropertyOp62
 70
     1
  0
XRECORD
  5
C107
102
{ACAD_REACTORS
330
C106
102
}
330
C106
100
AcDbXrecord
280
     1
102
RTVSPost2010Prop28
280
     0
102
RTVSPost2010PropOp28
 70
     1
102
RTVSPost2010Prop29
280
     1
102
RTVSPost2010PropOp29
 70
     1
102
RTVSPost2010Prop30
280
     1
102
RTVSPost2010PropOp30
 70
     1
102
RTVSPost2010Prop31
280
     0
102
RTVSPost2010PropOp31
 70
     1
102
RTVSPost2010Prop32
280
     0
102
RTVSPost2010PropOp32
 70
     1
102
RTVSPost2010Prop33
280
     0
102
RTVSPost2010PropOp33
 70
     1
102
RTVSPost2010Prop34
280
     0
102
RTVSPost2010PropOp34
 70
     1
102
RTVSPost2010Prop35
280
     0
102
RTVSPost2010PropOp35
 70
     1
102
RTVSPost2010Prop36
280
     0
102
RTVSPost2010PropOp36
 70
     1
102
RTVSPost2010Prop37
 90
       50
102
RTVSPost2010PropOp37
 70
     1
102
RTVSPost2010Prop38
140
0.0
102
RTVSPost2010PropOp38
 70
     1
102
RTVSPost2010Prop39
140
1.0
102
RTVSPost2010PropOp39
 70
     1
102
RTVSPost2010Prop40
 90
        0
102
RTVSPost2010PropOp40
 70
     1
102
RTVSPost2010Prop41ColorIndex
 90
       18
102
RTVSPost2010Prop41ColorRGB
 90
        0
102
RTVSPost2010PropOp41
 70
     1
102
RTVSPost2010Prop42
 90
       50
102
RTVSPost2010PropOp42
 70
     1
102
RTVSPost2010Prop43
 90
        3
102
RTVSPost2010PropOp43
 70
     1
102
RTVSPost2010Prop44ColorIndex
 90
        5
102
RTVSPost2010Prop44ColorRGB
 90
      255
102
RTVSPost2010PropOp44
 70
     1
102
RTVSPost2010Prop45
280
     0
102
RTVSPost2010PropOp45
 70
     1
102
RTVSPost2010Prop46
 90
       50
102
RTVSPost2010PropOp46
 70
     1
102
RTVSPost2010Prop47
 90
       50
102
RTVSPost2010PropOp47
 70
     1
102
RTVSPost2010Prop48
 90
       50
102
RTVSPost2010PropOp48
 70
     1
102
RTVSPost2010Prop49
280
     0
102
RTVSPost2010PropOp49
 70
     1
102
RTVSPost2010Prop50
 90
       50
102
RTVSPost2010PropOp50
 70
     1
102
RTVSPost2010Prop51ColorIndex
 90
      256
102
RTVSPost2010Prop51ColorRGB
 90
-16777216
102
RTVSPost2010PropOp51
 70
     0
102
RTVSPost2010Prop52
140
1.0
102
RTVSPost2010PropOp52
 70
     0
102
RTVSPost2010Prop53
 90
        2
102
RTVSPost2010PropOp53
 70
     1
102
RTVSPost2010Prop54
  1
strokes_ogs.tif
102
RTVSPost2010PropOp54
 70
     1
102
RTVSPost2010Prop55
280
     0
102
RTVSPost2010PropOp55
 70
     1
102
RTVSPost2010Prop56
140
1.0
102
RTVSPost2010PropOp56
 70
     1
102
RTVSPost2010Prop57
140
1.0
102
RTVSPost2010PropOp57
 70
     1
102
RTVSPropertyOp0
 70
     1
102
RTVSPropertyOp1
 70
     1
102
RTVSPropertyOp2
 70
     1
102
RTVSPropertyOp3
 70
     1
102
RTVSPropertyOp4
 70
     1
102
RTVSPropertyOp5
 70
     1
102
RTVSPropertyOp6
 70
     1
102
RTVSPropertyOp7
 70
     1
102
RTVSPropertyOp8
 70
     1
102
RTVSPropertyOp9
 70
     1
102
RTVSPropertyOp10
 70
     1
102
RTVSPropertyOp11
 70
     1
102
RTVSPropertyOp12
 70
     1
102
RTVSPropertyOp13
 70
     1
102
RTVSPropertyOp14
 70
     1
102
RTVSPropertyOp15
 70
     1
102
RTVSPropertyOp16
 70
     1
102
RTVSPropertyOp17
 70
     1
102
RTVSPropertyOp18
 70
     1
102
RTVSPropertyOp19
 70
     1
102
RTVSPropertyOp20
 70
     1
102
RTVSPropertyOp21
 70
     1
102
RTVSPropertyOp22
 70
     1
102
RTVSPropertyOp23
 70
     1
102
RTVSPropertyOp24
 70
     1
102
RTVSPropertyOp25
 70
     1
102
RTVSPropertyOp26
 70
     1
102
RTVSPropertyOp27
 70
     1
102
RTVSPropertyOp28
 70
     1
102
RTVSPropertyOp29
 70
     1
102
RTVSPropertyOp30
 70
     1
102
RTVSPropertyOp31
 70
     1
102
RTVSPropertyOp32
 70
     1
102
RTVSPropertyOp33
 70
     1
102
RTVSPropertyOp34
 70
     1
102
RTVSPropertyOp35
 70
     1
102
RTVSPropertyOp36
 70
     1
102
RTVSPropertyOp37
 70
     1
102
RTVSPropertyOp38
 70
     1
102
RTVSPropertyOp39
 70
     1
102
RTVSPropertyOp40
 70
     1
102
RTVSPropertyOp41
 70
     1
102
RTVSPropertyOp42
 70
     1
102
RTVSPropertyOp43
 70
     1
102
RTVSPropertyOp44
 70
     1
102
RTVSPropertyOp45
 70
     1
102
RTVSPropertyOp46
 70
     1
102
RTVSPropertyOp47
 70
     1
102
RTVSPropertyOp48
 70
     1
102
RTVSPropertyOp49
 70
     1
102
RTVSPropertyOp50
 70
     1
102
RTVSPropertyOp51
 70
     0
102
RTVSPropertyOp52
 70
     0
102
RTVSPropertyOp53
 70
     1
102
RTVSPropertyOp54
 70
     1
102
RTVSPropertyOp55
 70
     1
102
RTVSPropertyOp56
 70
     1
102
RTVSPropertyOp57
 70
     1
102
RTVSPropertyOp58
 70
     1
102
RTVSPropertyOp59
 70
     1
102
RTVSPropertyOp60
 70
     1
102
RTVSPropertyOp61
 70
     1
102
RTVSPropertyOp62
 70
     1
  0
XRECORD
  5
C10B
102
{ACAD_REACTORS
330
C10A
102
}
330
C10A
100
AcDbXrecord
280
     1
102
RTVSPost2010Prop28
280
     0
102
RTVSPost2010PropOp28
 70
     1
102
RTVSPost2010Prop29
280
     1
102
RTVSPost2010PropOp29
 70
     1
102
RTVSPost2010Prop30
280
     1
102
RTVSPost2010PropOp30
 70
     1
102
RTVSPost2010Prop31
280
     0
102
RTVSPost2010PropOp31
 70
     1
102
RTVSPost2010Prop32
280
     0
102
RTVSPost2010PropOp32
 70
     1
102
RTVSPost2010Prop33
280
     0
102
RTVSPost2010PropOp33
 70
     1
102
RTVSPost2010Prop34
280
     0
102
RTVSPost2010PropOp34
 70
     1
102
RTVSPost2010Prop35
280
     0
102
RTVSPost2010PropOp35
 70
     1
102
RTVSPost2010Prop36
280
     0
102
RTVSPost2010PropOp36
 70
     1
102
RTVSPost2010Prop37
 90
       50
102
RTVSPost2010PropOp37
 70
     1
102
RTVSPost2010Prop38
140
0.0
102
RTVSPost2010PropOp38
 70
     1
102
RTVSPost2010Prop39
140
1.0
102
RTVSPost2010PropOp39
 70
     1
102
RTVSPost2010Prop40
 90
        0
102
RTVSPost2010PropOp40
 70
     1
102
RTVSPost2010Prop41ColorIndex
 90
       18
102
RTVSPost2010Prop41ColorRGB
 90
        0
102
RTVSPost2010PropOp41
 70
     1
102
RTVSPost2010Prop42
 90
       50
102
RTVSPost2010PropOp42
 70
     1
102
RTVSPost2010Prop43
 90
        3
102
RTVSPost2010PropOp43
 70
     1
102
RTVSPost2010Prop44ColorIndex
 90
        5
102
RTVSPost2010Prop44ColorRGB
 90
      255
102
RTVSPost2010PropOp44
 70
     1
102
RTVSPost2010Prop45
280
     0
102
RTVSPost2010PropOp45
 70
     1
102
RTVSPost2010Prop46
 90
       50
102
RTVSPost2010PropOp46
 70
     1
102
RTVSPost2010Prop47
 90
       50
102
RTVSPost2010PropOp47
 70
     1
102
RTVSPost2010Prop48
 90
       50
102
RTVSPost2010PropOp48
 70
     1
102
RTVSPost2010Prop49
280
     0
102
RTVSPost2010PropOp49
 70
     1
102
RTVSPost2010Prop50
 90
       50
102
RTVSPost2010PropOp50
 70
     1
102
RTVSPost2010Prop51ColorIndex
 90
      256
102
RTVSPost2010Prop51ColorRGB
 90
-16777216
102
RTVSPost2010PropOp51
 70
     0
102
RTVSPost2010Prop52
140
1.0
102
RTVSPost2010PropOp52
 70
     0
102
RTVSPost2010Prop53
 90
        2
102
RTVSPost2010PropOp53
 70
     1
102
RTVSPost2010Prop54
  1
strokes_ogs.tif
102
RTVSPost2010PropOp54
 70
     1
102
RTVSPost2010Prop55
280
     0
102
RTVSPost2010PropOp55
 70
     1
102
RTVSPost2010Prop56
140
1.0
102
RTVSPost2010PropOp56
 70
     1
102
RTVSPost2010Prop57
140
1.0
102
RTVSPost2010PropOp57
 70
     1
102
RTVSPropertyOp0
 70
     1
102
RTVSPropertyOp1
 70
     1
102
RTVSPropertyOp2
 70
     1
102
RTVSPropertyOp3
 70
     1
102
RTVSPropertyOp4
 70
     1
102
RTVSPropertyOp5
 70
     1
102
RTVSPropertyOp6
 70
     1
102
RTVSPropertyOp7
 70
     1
102
RTVSPropertyOp8
 70
     1
102
RTVSPropertyOp9
 70
     1
102
RTVSPropertyOp10
 70
     1
102
RTVSPropertyOp11
 70
     1
102
RTVSPropertyOp12
 70
     1
102
RTVSPropertyOp13
 70
     1
102
RTVSPropertyOp14
 70
     1
102
RTVSPropertyOp15
 70
     1
102
RTVSPropertyOp16
 70
     1
102
RTVSPropertyOp17
 70
     1
102
RTVSPropertyOp18
 70
     1
102
RTVSPropertyOp19
 70
     1
102
RTVSPropertyOp20
 70
     1
102
RTVSPropertyOp21
 70
     1
102
RTVSPropertyOp22
 70
     1
102
RTVSPropertyOp23
 70
     1
102
RTVSPropertyOp24
 70
     1
102
RTVSPropertyOp25
 70
     1
102
RTVSPropertyOp26
 70
     1
102
RTVSPropertyOp27
 70
     1
102
RTVSPropertyOp28
 70
     1
102
RTVSPropertyOp29
 70
     1
102
RTVSPropertyOp30
 70
     1
102
RTVSPropertyOp31
 70
     1
102
RTVSPropertyOp32
 70
     1
102
RTVSPropertyOp33
 70
     1
102
RTVSPropertyOp34
 70
     1
102
RTVSPropertyOp35
 70
     1
102
RTVSPropertyOp36
 70
     1
102
RTVSPropertyOp37
 70
     1
102
RTVSPropertyOp38
 70
     1
102
RTVSPropertyOp39
 70
     1
102
RTVSPropertyOp40
 70
     1
102
RTVSPropertyOp41
 70
     1
102
RTVSPropertyOp42
 70
     1
102
RTVSPropertyOp43
 70
     1
102
RTVSPropertyOp44
 70
     1
102
RTVSPropertyOp45
 70
     1
102
RTVSPropertyOp46
 70
     1
102
RTVSPropertyOp47
 70
     1
102
RTVSPropertyOp48
 70
     1
102
RTVSPropertyOp49
 70
     1
102
RTVSPropertyOp50
 70
     1
102
RTVSPropertyOp51
 70
     0
102
RTVSPropertyOp52
 70
     0
102
RTVSPropertyOp53
 70
     1
102
RTVSPropertyOp54
 70
     1
102
RTVSPropertyOp55
 70
     1
102
RTVSPropertyOp56
 70
     1
102
RTVSPropertyOp57
 70
     1
102
RTVSPropertyOp58
 70
     1
102
RTVSPropertyOp59
 70
     1
102
RTVSPropertyOp60
 70
     1
102
RTVSPropertyOp61
 70
     1
102
RTVSPropertyOp62
 70
     1
  0
XRECORD
  5
C125
102
{ACAD_REACTORS
330
C124
102
}
330
C124
100
AcDbXrecord
280
     1
102
RTVSPost2010Prop28
280
     0
102
RTVSPost2010PropOp28
 70
     1
102
RTVSPost2010Prop29
280
     1
102
RTVSPost2010PropOp29
 70
     1
102
RTVSPost2010Prop30
280
     1
102
RTVSPost2010PropOp30
 70
     1
102
RTVSPost2010Prop31
280
     0
102
RTVSPost2010PropOp31
 70
     1
102
RTVSPost2010Prop32
280
     0
102
RTVSPost2010PropOp32
 70
     1
102
RTVSPost2010Prop33
280
     0
102
RTVSPost2010PropOp33
 70
     1
102
RTVSPost2010Prop34
280
     0
102
RTVSPost2010PropOp34
 70
     1
102
RTVSPost2010Prop35
280
     0
102
RTVSPost2010PropOp35
 70
     1
102
RTVSPost2010Prop36
280
     0
102
RTVSPost2010PropOp36
 70
     1
102
RTVSPost2010Prop37
 90
       50
102
RTVSPost2010PropOp37
 70
     0
102
RTVSPost2010Prop38
140
0.0
102
RTVSPost2010PropOp38
 70
     0
102
RTVSPost2010Prop39
140
1.0
102
RTVSPost2010PropOp39
 70
     0
102
RTVSPost2010Prop40
 90
        0
102
RTVSPost2010PropOp40
 70
     0
102
RTVSPost2010Prop41ColorIndex
 90
       18
102
RTVSPost2010Prop41ColorRGB
 90
        0
102
RTVSPost2010PropOp41
 70
     0
102
RTVSPost2010Prop42
 90
       50
102
RTVSPost2010PropOp42
 70
     0
102
RTVSPost2010Prop43
 90
        3
102
RTVSPost2010PropOp43
 70
     0
102
RTVSPost2010Prop44ColorIndex
 90
        5
102
RTVSPost2010Prop44ColorRGB
 90
      255
102
RTVSPost2010PropOp44
 70
     0
102
RTVSPost2010Prop45
280
     0
102
RTVSPost2010PropOp45
 70
     1
102
RTVSPost2010Prop46
 90
       50
102
RTVSPost2010PropOp46
 70
     0
102
RTVSPost2010Prop47
 90
       50
102
RTVSPost2010PropOp47
 70
     0
102
RTVSPost2010Prop48
 90
       50
102
RTVSPost2010PropOp48
 70
     0
102
RTVSPost2010Prop49
280
     0
102
RTVSPost2010PropOp49
 70
     1
102
RTVSPost2010Prop50
 90
       50
102
RTVSPost2010PropOp50
 70
     0
102
RTVSPost2010Prop51ColorIndex
 90
      256
102
RTVSPost2010Prop51ColorRGB
 90
-16777216
102
RTVSPost2010PropOp51
 70
     0
102
RTVSPost2010Prop52
140
1.0
102
RTVSPost2010PropOp52
 70
     0
102
RTVSPost2010Prop53
 90
        2
102
RTVSPost2010PropOp53
 70
     0
102
RTVSPost2010Prop54
  1
strokes_ogs.tif
102
RTVSPost2010PropOp54
 70
     0
102
RTVSPost2010Prop55
280
     0
102
RTVSPost2010PropOp55
 70
     1
102
RTVSPost2010Prop56
140
1.0
102
RTVSPost2010PropOp56
 70
     0
102
RTVSPost2010Prop57
140
1.0
102
RTVSPost2010PropOp57
 70
     0
102
RTVSPropertyOp0
 70
     0
102
RTVSPropertyOp1
 70
     0
102
RTVSPropertyOp2
 70
     0
102
RTVSPropertyOp3
 70
     0
102
RTVSPropertyOp4
 70
     0
102
RTVSPropertyOp5
 70
     0
102
RTVSPropertyOp6
 70
     0
102
RTVSPropertyOp7
 70
     0
102
RTVSPropertyOp8
 70
     0
102
RTVSPropertyOp9
 70
     0
102
RTVSPropertyOp10
 70
     0
102
RTVSPropertyOp11
 70
     0
102
RTVSPropertyOp12
 70
     0
102
RTVSPropertyOp13
 70
     0
102
RTVSPropertyOp14
 70
     2
102
RTVSPropertyOp15
 70
     0
102
RTVSPropertyOp16
 70
     0
102
RTVSPropertyOp17
 70
     0
102
RTVSPropertyOp18
 70
     0
102
RTVSPropertyOp19
 70
     0
102
RTVSPropertyOp20
 70
     0
102
RTVSPropertyOp21
 70
     0
102
RTVSPropertyOp22
 70
     0
102
RTVSPropertyOp23
 70
     0
102
RTVSPropertyOp24
 70
     0
102
RTVSPropertyOp25
 70
     0
102
RTVSPropertyOp26
 70
     0
102
RTVSPropertyOp27
 70
     0
102
RTVSPropertyOp28
 70
     1
102
RTVSPropertyOp29
 70
     1
102
RTVSPropertyOp30
 70
     1
102
RTVSPropertyOp31
 70
     1
102
RTVSPropertyOp32
 70
     1
102
RTVSPropertyOp33
 70
     1
102
RTVSPropertyOp34
 70
     1
102
RTVSPropertyOp35
 70
     1
102
RTVSPropertyOp36
 70
     1
102
RTVSPropertyOp37
 70
     0
102
RTVSPropertyOp38
 70
     0
102
RTVSPropertyOp39
 70
     0
102
RTVSPropertyOp40
 70
     0
102
RTVSPropertyOp41
 70
     0
102
RTVSPropertyOp42
 70
     0
102
RTVSPropertyOp43
 70
     0
102
RTVSPropertyOp44
 70
     0
102
RTVSPropertyOp45
 70
     1
102
RTVSPropertyOp46
 70
     0
102
RTVSPropertyOp47
 70
     0
102
RTVSPropertyOp48
 70
     0
102
RTVSPropertyOp49
 70
     1
102
RTVSPropertyOp50
 70
     0
102
RTVSPropertyOp51
 70
     0
102
RTVSPropertyOp52
 70
     0
102
RTVSPropertyOp53
 70
     0
102
RTVSPropertyOp54
 70
     0
102
RTVSPropertyOp55
 70
     1
102
RTVSPropertyOp56
 70
     0
102
RTVSPropertyOp57
 70
     0
102
RTVSPropertyOp58
 70
     0
102
RTVSPropertyOp59
 70
     0
102
RTVSPropertyOp60
 70
     0
102
RTVSPropertyOp61
 70
     0
102
RTVSPropertyOp62
 70
     0
  0
XRECORD
  5
C113
102
{ACAD_REACTORS
330
C112
102
}
330
C112
100
AcDbXrecord
280
     1
102
RTVSPost2010Prop28
280
     0
102
RTVSPost2010PropOp28
 70
     1
102
RTVSPost2010Prop29
280
     1
102
RTVSPost2010PropOp29
 70
     1
102
RTVSPost2010Prop30
280
     1
102
RTVSPost2010PropOp30
 70
     1
102
RTVSPost2010Prop31
280
     0
102
RTVSPost2010PropOp31
 70
     1
102
RTVSPost2010Prop32
280
     0
102
RTVSPost2010PropOp32
 70
     1
102
RTVSPost2010Prop33
280
     0
102
RTVSPost2010PropOp33
 70
     1
102
RTVSPost2010Prop34
280
     0
102
RTVSPost2010PropOp34
 70
     1
102
RTVSPost2010Prop35
280
     0
102
RTVSPost2010PropOp35
 70
     1
102
RTVSPost2010Prop36
280
     0
102
RTVSPost2010PropOp36
 70
     1
102
RTVSPost2010Prop37
 90
       50
102
RTVSPost2010PropOp37
 70
     1
102
RTVSPost2010Prop38
140
0.0
102
RTVSPost2010PropOp38
 70
     1
102
RTVSPost2010Prop39
140
1.0
102
RTVSPost2010PropOp39
 70
     1
102
RTVSPost2010Prop40
 90
        0
102
RTVSPost2010PropOp40
 70
     1
102
RTVSPost2010Prop41ColorIndex
 90
       18
102
RTVSPost2010Prop41ColorRGB
 90
        0
102
RTVSPost2010PropOp41
 70
     1
102
RTVSPost2010Prop42
 90
       50
102
RTVSPost2010PropOp42
 70
     1
102
RTVSPost2010Prop43
 90
        3
102
RTVSPost2010PropOp43
 70
     1
102
RTVSPost2010Prop44ColorIndex
 90
        5
102
RTVSPost2010Prop44ColorRGB
 90
      255
102
RTVSPost2010PropOp44
 70
     1
102
RTVSPost2010Prop45
280
     0
102
RTVSPost2010PropOp45
 70
     1
102
RTVSPost2010Prop46
 90
       50
102
RTVSPost2010PropOp46
 70
     1
102
RTVSPost2010Prop47
 90
       50
102
RTVSPost2010PropOp47
 70
     1
102
RTVSPost2010Prop48
 90
       50
102
RTVSPost2010PropOp48
 70
     1
102
RTVSPost2010Prop49
280
     0
102
RTVSPost2010PropOp49
 70
     1
102
RTVSPost2010Prop50
 90
       50
102
RTVSPost2010PropOp50
 70
     1
102
RTVSPost2010Prop51ColorIndex
 90
      256
102
RTVSPost2010Prop51ColorRGB
 90
-16777216
102
RTVSPost2010PropOp51
 70
     0
102
RTVSPost2010Prop52
140
1.0
102
RTVSPost2010PropOp52
 70
     0
102
RTVSPost2010Prop53
 90
        2
102
RTVSPost2010PropOp53
 70
     1
102
RTVSPost2010Prop54
  1
strokes_ogs.tif
102
RTVSPost2010PropOp54
 70
     1
102
RTVSPost2010Prop55
280
     0
102
RTVSPost2010PropOp55
 70
     1
102
RTVSPost2010Prop56
140
1.0
102
RTVSPost2010PropOp56
 70
     1
102
RTVSPost2010Prop57
140
1.0
102
RTVSPost2010PropOp57
 70
     1
102
RTVSPropertyOp0
 70
     1
102
RTVSPropertyOp1
 70
     1
102
RTVSPropertyOp2
 70
     1
102
RTVSPropertyOp3
 70
     1
102
RTVSPropertyOp4
 70
     1
102
RTVSPropertyOp5
 70
     1
102
RTVSPropertyOp6
 70
     1
102
RTVSPropertyOp7
 70
     1
102
RTVSPropertyOp8
 70
     1
102
RTVSPropertyOp9
 70
     1
102
RTVSPropertyOp10
 70
     1
102
RTVSPropertyOp11
 70
     1
102
RTVSPropertyOp12
 70
     1
102
RTVSPropertyOp13
 70
     1
102
RTVSPropertyOp14
 70
     1
102
RTVSPropertyOp15
 70
     1
102
RTVSPropertyOp16
 70
     1
102
RTVSPropertyOp17
 70
     1
102
RTVSPropertyOp18
 70
     1
102
RTVSPropertyOp19
 70
     1
102
RTVSPropertyOp20
 70
     1
102
RTVSPropertyOp21
 70
     1
102
RTVSPropertyOp22
 70
     1
102
RTVSPropertyOp23
 70
     1
102
RTVSPropertyOp24
 70
     1
102
RTVSPropertyOp25
 70
     1
102
RTVSPropertyOp26
 70
     1
102
RTVSPropertyOp27
 70
     1
102
RTVSPropertyOp28
 70
     1
102
RTVSPropertyOp29
 70
     1
102
RTVSPropertyOp30
 70
     1
102
RTVSPropertyOp31
 70
     1
102
RTVSPropertyOp32
 70
     1
102
RTVSPropertyOp33
 70
     1
102
RTVSPropertyOp34
 70
     1
102
RTVSPropertyOp35
 70
     1
102
RTVSPropertyOp36
 70
     1
102
RTVSPropertyOp37
 70
     1
102
RTVSPropertyOp38
 70
     1
102
RTVSPropertyOp39
 70
     1
102
RTVSPropertyOp40
 70
     1
102
RTVSPropertyOp41
 70
     1
102
RTVSPropertyOp42
 70
     1
102
RTVSPropertyOp43
 70
     1
102
RTVSPropertyOp44
 70
     1
102
RTVSPropertyOp45
 70
     1
102
RTVSPropertyOp46
 70
     1
102
RTVSPropertyOp47
 70
     1
102
RTVSPropertyOp48
 70
     1
102
RTVSPropertyOp49
 70
     1
102
RTVSPropertyOp50
 70
     1
102
RTVSPropertyOp51
 70
     0
102
RTVSPropertyOp52
 70
     0
102
RTVSPropertyOp53
 70
     1
102
RTVSPropertyOp54
 70
     1
102
RTVSPropertyOp55
 70
     1
102
RTVSPropertyOp56
 70
     1
102
RTVSPropertyOp57
 70
     1
102
RTVSPropertyOp58
 70
     1
102
RTVSPropertyOp59
 70
     1
102
RTVSPropertyOp60
 70
     1
102
RTVSPropertyOp61
 70
     1
102
RTVSPropertyOp62
 70
     1
  0
XRECORD
  5
C0F7
102
{ACAD_REACTORS
330
C0F6
102
}
330
C0F6
100
AcDbXrecord
280
     1
102
RTVSPost2010Prop28
280
     0
102
RTVSPost2010PropOp28
 70
     1
102
RTVSPost2010Prop29
280
     1
102
RTVSPost2010PropOp29
 70
     1
102
RTVSPost2010Prop30
280
     1
102
RTVSPost2010PropOp30
 70
     1
102
RTVSPost2010Prop31
280
     0
102
RTVSPost2010PropOp31
 70
     1
102
RTVSPost2010Prop32
280
     0
102
RTVSPost2010PropOp32
 70
     1
102
RTVSPost2010Prop33
280
     0
102
RTVSPost2010PropOp33
 70
     1
102
RTVSPost2010Prop34
280
     0
102
RTVSPost2010PropOp34
 70
     1
102
RTVSPost2010Prop35
280
     0
102
RTVSPost2010PropOp35
 70
     1
102
RTVSPost2010Prop36
280
     0
102
RTVSPost2010PropOp36
 70
     1
102
RTVSPost2010Prop37
 90
       50
102
RTVSPost2010PropOp37
 70
     1
102
RTVSPost2010Prop38
140
0.0
102
RTVSPost2010PropOp38
 70
     1
102
RTVSPost2010Prop39
140
1.0
102
RTVSPost2010PropOp39
 70
     1
102
RTVSPost2010Prop40
 90
        0
102
RTVSPost2010PropOp40
 70
     1
102
RTVSPost2010Prop41ColorIndex
 90
       18
102
RTVSPost2010Prop41ColorRGB
 90
        0
102
RTVSPost2010PropOp41
 70
     1
102
RTVSPost2010Prop42
 90
       50
102
RTVSPost2010PropOp42
 70
     1
102
RTVSPost2010Prop43
 90
        3
102
RTVSPost2010PropOp43
 70
     1
102
RTVSPost2010Prop44ColorIndex
 90
        5
102
RTVSPost2010Prop44ColorRGB
 90
      255
102
RTVSPost2010PropOp44
 70
     1
102
RTVSPost2010Prop45
280
     0
102
RTVSPost2010PropOp45
 70
     1
102
RTVSPost2010Prop46
 90
       50
102
RTVSPost2010PropOp46
 70
     1
102
RTVSPost2010Prop47
 90
       50
102
RTVSPost2010PropOp47
 70
     1
102
RTVSPost2010Prop48
 90
       50
102
RTVSPost2010PropOp48
 70
     1
102
RTVSPost2010Prop49
280
     0
102
RTVSPost2010PropOp49
 70
     1
102
RTVSPost2010Prop50
 90
       50
102
RTVSPost2010PropOp50
 70
     1
102
RTVSPost2010Prop51ColorIndex
 90
      256
102
RTVSPost2010Prop51ColorRGB
 90
-16777216
102
RTVSPost2010PropOp51
 70
     0
102
RTVSPost2010Prop52
140
1.0
102
RTVSPost2010PropOp52
 70
     0
102
RTVSPost2010Prop53
 90
        2
102
RTVSPost2010PropOp53
 70
     1
102
RTVSPost2010Prop54
  1
strokes_ogs.tif
102
RTVSPost2010PropOp54
 70
     1
102
RTVSPost2010Prop55
280
     0
102
RTVSPost2010PropOp55
 70
     1
102
RTVSPost2010Prop56
140
1.0
102
RTVSPost2010PropOp56
 70
     1
102
RTVSPost2010Prop57
140
1.0
102
RTVSPost2010PropOp57
 70
     1
102
RTVSPropertyOp0
 70
     1
102
RTVSPropertyOp1
 70
     1
102
RTVSPropertyOp2
 70
     1
102
RTVSPropertyOp3
 70
     1
102
RTVSPropertyOp4
 70
     1
102
RTVSPropertyOp5
 70
     1
102
RTVSPropertyOp6
 70
     1
102
RTVSPropertyOp7
 70
     1
102
RTVSPropertyOp8
 70
     1
102
RTVSPropertyOp9
 70
     1
102
RTVSPropertyOp10
 70
     1
102
RTVSPropertyOp11
 70
     1
102
RTVSPropertyOp12
 70
     1
102
RTVSPropertyOp13
 70
     1
102
RTVSPropertyOp14
 70
     1
102
RTVSPropertyOp15
 70
     1
102
RTVSPropertyOp16
 70
     1
102
RTVSPropertyOp17
 70
     1
102
RTVSPropertyOp18
 70
     1
102
RTVSPropertyOp19
 70
     1
102
RTVSPropertyOp20
 70
     1
102
RTVSPropertyOp21
 70
     1
102
RTVSPropertyOp22
 70
     1
102
RTVSPropertyOp23
 70
     1
102
RTVSPropertyOp24
 70
     1
102
RTVSPropertyOp25
 70
     1
102
RTVSPropertyOp26
 70
     1
102
RTVSPropertyOp27
 70
     1
102
RTVSPropertyOp28
 70
     1
102
RTVSPropertyOp29
 70
     1
102
RTVSPropertyOp30
 70
     1
102
RTVSPropertyOp31
 70
     1
102
RTVSPropertyOp32
 70
     1
102
RTVSPropertyOp33
 70
     1
102
RTVSPropertyOp34
 70
     1
102
RTVSPropertyOp35
 70
     1
102
RTVSPropertyOp36
 70
     1
102
RTVSPropertyOp37
 70
     1
102
RTVSPropertyOp38
 70
     1
102
RTVSPropertyOp39
 70
     1
102
RTVSPropertyOp40
 70
     1
102
RTVSPropertyOp41
 70
     1
102
RTVSPropertyOp42
 70
     1
102
RTVSPropertyOp43
 70
     1
102
RTVSPropertyOp44
 70
     1
102
RTVSPropertyOp45
 70
     1
102
RTVSPropertyOp46
 70
     1
102
RTVSPropertyOp47
 70
     1
102
RTVSPropertyOp48
 70
     1
102
RTVSPropertyOp49
 70
     1
102
RTVSPropertyOp50
 70
     1
102
RTVSPropertyOp51
 70
     0
102
RTVSPropertyOp52
 70
     0
102
RTVSPropertyOp53
 70
     1
102
RTVSPropertyOp54
 70
     1
102
RTVSPropertyOp55
 70
     1
102
RTVSPropertyOp56
 70
     1
102
RTVSPropertyOp57
 70
     1
102
RTVSPropertyOp58
 70
     1
102
RTVSPropertyOp59
 70
     1
102
RTVSPropertyOp60
 70
     1
102
RTVSPropertyOp61
 70
     1
102
RTVSPropertyOp62
 70
     1
  0
XRECORD
  5
C0F9
102
{ACAD_REACTORS
330
C0F8
102
}
330
C0F8
100
AcDbXrecord
280
     1
102
RTVSPost2010Prop28
280
     0
102
RTVSPost2010PropOp28
 70
     1
102
RTVSPost2010Prop29
280
     1
102
RTVSPost2010PropOp29
 70
     1
102
RTVSPost2010Prop30
280
     1
102
RTVSPost2010PropOp30
 70
     1
102
RTVSPost2010Prop31
280
     0
102
RTVSPost2010PropOp31
 70
     1
102
RTVSPost2010Prop32
280
     0
102
RTVSPost2010PropOp32
 70
     1
102
RTVSPost2010Prop33
280
     0
102
RTVSPost2010PropOp33
 70
     1
102
RTVSPost2010Prop34
280
     0
102
RTVSPost2010PropOp34
 70
     1
102
RTVSPost2010Prop35
280
     0
102
RTVSPost2010PropOp35
 70
     1
102
RTVSPost2010Prop36
280
     0
102
RTVSPost2010PropOp36
 70
     1
102
RTVSPost2010Prop37
 90
       50
102
RTVSPost2010PropOp37
 70
     1
102
RTVSPost2010Prop38
140
0.0
102
RTVSPost2010PropOp38
 70
     1
102
RTVSPost2010Prop39
140
1.0
102
RTVSPost2010PropOp39
 70
     1
102
RTVSPost2010Prop40
 90
        0
102
RTVSPost2010PropOp40
 70
     1
102
RTVSPost2010Prop41ColorIndex
 90
       18
102
RTVSPost2010Prop41ColorRGB
 90
        0
102
RTVSPost2010PropOp41
 70
     1
102
RTVSPost2010Prop42
 90
       50
102
RTVSPost2010PropOp42
 70
     1
102
RTVSPost2010Prop43
 90
        3
102
RTVSPost2010PropOp43
 70
     1
102
RTVSPost2010Prop44ColorIndex
 90
        5
102
RTVSPost2010Prop44ColorRGB
 90
      255
102
RTVSPost2010PropOp44
 70
     1
102
RTVSPost2010Prop45
280
     0
102
RTVSPost2010PropOp45
 70
     1
102
RTVSPost2010Prop46
 90
       50
102
RTVSPost2010PropOp46
 70
     1
102
RTVSPost2010Prop47
 90
       50
102
RTVSPost2010PropOp47
 70
     1
102
RTVSPost2010Prop48
 90
       50
102
RTVSPost2010PropOp48
 70
     1
102
RTVSPost2010Prop49
280
     0
102
RTVSPost2010PropOp49
 70
     1
102
RTVSPost2010Prop50
 90
       50
102
RTVSPost2010PropOp50
 70
     1
102
RTVSPost2010Prop51ColorIndex
 90
      256
102
RTVSPost2010Prop51ColorRGB
 90
-16777216
102
RTVSPost2010PropOp51
 70
     0
102
RTVSPost2010Prop52
140
1.0
102
RTVSPost2010PropOp52
 70
     0
102
RTVSPost2010Prop53
 90
        2
102
RTVSPost2010PropOp53
 70
     1
102
RTVSPost2010Prop54
  1
strokes_ogs.tif
102
RTVSPost2010PropOp54
 70
     1
102
RTVSPost2010Prop55
280
     0
102
RTVSPost2010PropOp55
 70
     1
102
RTVSPost2010Prop56
140
1.0
102
RTVSPost2010PropOp56
 70
     1
102
RTVSPost2010Prop57
140
1.0
102
RTVSPost2010PropOp57
 70
     1
102
RTVSPropertyOp0
 70
     1
102
RTVSPropertyOp1
 70
     1
102
RTVSPropertyOp2
 70
     1
102
RTVSPropertyOp3
 70
     1
102
RTVSPropertyOp4
 70
     1
102
RTVSPropertyOp5
 70
     1
102
RTVSPropertyOp6
 70
     1
102
RTVSPropertyOp7
 70
     1
102
RTVSPropertyOp8
 70
     1
102
RTVSPropertyOp9
 70
     1
102
RTVSPropertyOp10
 70
     1
102
RTVSPropertyOp11
 70
     1
102
RTVSPropertyOp12
 70
     1
102
RTVSPropertyOp13
 70
     1
102
RTVSPropertyOp14
 70
     1
102
RTVSPropertyOp15
 70
     1
102
RTVSPropertyOp16
 70
     1
102
RTVSPropertyOp17
 70
     1
102
RTVSPropertyOp18
 70
     1
102
RTVSPropertyOp19
 70
     1
102
RTVSPropertyOp20
 70
     1
102
RTVSPropertyOp21
 70
     1
102
RTVSPropertyOp22
 70
     1
102
RTVSPropertyOp23
 70
     1
102
RTVSPropertyOp24
 70
     1
102
RTVSPropertyOp25
 70
     1
102
RTVSPropertyOp26
 70
     1
102
RTVSPropertyOp27
 70
     1
102
RTVSPropertyOp28
 70
     1
102
RTVSPropertyOp29
 70
     1
102
RTVSPropertyOp30
 70
     1
102
RTVSPropertyOp31
 70
     1
102
RTVSPropertyOp32
 70
     1
102
RTVSPropertyOp33
 70
     1
102
RTVSPropertyOp34
 70
     1
102
RTVSPropertyOp35
 70
     1
102
RTVSPropertyOp36
 70
     1
102
RTVSPropertyOp37
 70
     1
102
RTVSPropertyOp38
 70
     1
102
RTVSPropertyOp39
 70
     1
102
RTVSPropertyOp40
 70
     1
102
RTVSPropertyOp41
 70
     1
102
RTVSPropertyOp42
 70
     1
102
RTVSPropertyOp43
 70
     1
102
RTVSPropertyOp44
 70
     1
102
RTVSPropertyOp45
 70
     1
102
RTVSPropertyOp46
 70
     1
102
RTVSPropertyOp47
 70
     1
102
RTVSPropertyOp48
 70
     1
102
RTVSPropertyOp49
 70
     1
102
RTVSPropertyOp50
 70
     1
102
RTVSPropertyOp51
 70
     0
102
RTVSPropertyOp52
 70
     0
102
RTVSPropertyOp53
 70
     1
102
RTVSPropertyOp54
 70
     1
102
RTVSPropertyOp55
 70
     1
102
RTVSPropertyOp56
 70
     1
102
RTVSPropertyOp57
 70
     1
102
RTVSPropertyOp58
 70
     1
102
RTVSPropertyOp59
 70
     1
102
RTVSPropertyOp60
 70
     1
102
RTVSPropertyOp61
 70
     1
102
RTVSPropertyOp62
 70
     1
  0
XRECORD
  5
C0FB
102
{ACAD_REACTORS
330
C0FA
102
}
330
C0FA
100
AcDbXrecord
280
     1
102
RTVSPost2010Prop28
280
     0
102
RTVSPost2010PropOp28
 70
     1
102
RTVSPost2010Prop29
280
     1
102
RTVSPost2010PropOp29
 70
     1
102
RTVSPost2010Prop30
280
     1
102
RTVSPost2010PropOp30
 70
     1
102
RTVSPost2010Prop31
280
     0
102
RTVSPost2010PropOp31
 70
     1
102
RTVSPost2010Prop32
280
     0
102
RTVSPost2010PropOp32
 70
     1
102
RTVSPost2010Prop33
280
     0
102
RTVSPost2010PropOp33
 70
     1
102
RTVSPost2010Prop34
280
     0
102
RTVSPost2010PropOp34
 70
     1
102
RTVSPost2010Prop35
280
     0
102
RTVSPost2010PropOp35
 70
     1
102
RTVSPost2010Prop36
280
     0
102
RTVSPost2010PropOp36
 70
     1
102
RTVSPost2010Prop37
 90
       50
102
RTVSPost2010PropOp37
 70
     1
102
RTVSPost2010Prop38
140
0.0
102
RTVSPost2010PropOp38
 70
     1
102
RTVSPost2010Prop39
140
1.0
102
RTVSPost2010PropOp39
 70
     1
102
RTVSPost2010Prop40
 90
        0
102
RTVSPost2010PropOp40
 70
     1
102
RTVSPost2010Prop41ColorIndex
 90
       18
102
RTVSPost2010Prop41ColorRGB
 90
        0
102
RTVSPost2010PropOp41
 70
     1
102
RTVSPost2010Prop42
 90
       50
102
RTVSPost2010PropOp42
 70
     1
102
RTVSPost2010Prop43
 90
        3
102
RTVSPost2010PropOp43
 70
     1
102
RTVSPost2010Prop44ColorIndex
 90
        5
102
RTVSPost2010Prop44ColorRGB
 90
      255
102
RTVSPost2010PropOp44
 70
     1
102
RTVSPost2010Prop45
280
     0
102
RTVSPost2010PropOp45
 70
     1
102
RTVSPost2010Prop46
 90
       50
102
RTVSPost2010PropOp46
 70
     1
102
RTVSPost2010Prop47
 90
       50
102
RTVSPost2010PropOp47
 70
     1
102
RTVSPost2010Prop48
 90
       50
102
RTVSPost2010PropOp48
 70
     1
102
RTVSPost2010Prop49
280
     0
102
RTVSPost2010PropOp49
 70
     1
102
RTVSPost2010Prop50
 90
       50
102
RTVSPost2010PropOp50
 70
     1
102
RTVSPost2010Prop51ColorIndex
 90
      256
102
RTVSPost2010Prop51ColorRGB
 90
-16777216
102
RTVSPost2010PropOp51
 70
     0
102
RTVSPost2010Prop52
140
1.0
102
RTVSPost2010PropOp52
 70
     0
102
RTVSPost2010Prop53
 90
        2
102
RTVSPost2010PropOp53
 70
     1
102
RTVSPost2010Prop54
  1
strokes_ogs.tif
102
RTVSPost2010PropOp54
 70
     1
102
RTVSPost2010Prop55
280
     0
102
RTVSPost2010PropOp55
 70
     1
102
RTVSPost2010Prop56
140
1.0
102
RTVSPost2010PropOp56
 70
     1
102
RTVSPost2010Prop57
140
1.0
102
RTVSPost2010PropOp57
 70
     1
102
RTVSPropertyOp0
 70
     1
102
RTVSPropertyOp1
 70
     1
102
RTVSPropertyOp2
 70
     1
102
RTVSPropertyOp3
 70
     1
102
RTVSPropertyOp4
 70
     1
102
RTVSPropertyOp5
 70
     1
102
RTVSPropertyOp6
 70
     1
102
RTVSPropertyOp7
 70
     1
102
RTVSPropertyOp8
 70
     1
102
RTVSPropertyOp9
 70
     1
102
RTVSPropertyOp10
 70
     1
102
RTVSPropertyOp11
 70
     1
102
RTVSPropertyOp12
 70
     1
102
RTVSPropertyOp13
 70
     1
102
RTVSPropertyOp14
 70
     1
102
RTVSPropertyOp15
 70
     1
102
RTVSPropertyOp16
 70
     1
102
RTVSPropertyOp17
 70
     1
102
RTVSPropertyOp18
 70
     1
102
RTVSPropertyOp19
 70
     1
102
RTVSPropertyOp20
 70
     1
102
RTVSPropertyOp21
 70
     1
102
RTVSPropertyOp22
 70
     1
102
RTVSPropertyOp23
 70
     1
102
RTVSPropertyOp24
 70
     1
102
RTVSPropertyOp25
 70
     1
102
RTVSPropertyOp26
 70
     1
102
RTVSPropertyOp27
 70
     1
102
RTVSPropertyOp28
 70
     1
102
RTVSPropertyOp29
 70
     1
102
RTVSPropertyOp30
 70
     1
102
RTVSPropertyOp31
 70
     1
102
RTVSPropertyOp32
 70
     1
102
RTVSPropertyOp33
 70
     1
102
RTVSPropertyOp34
 70
     1
102
RTVSPropertyOp35
 70
     1
102
RTVSPropertyOp36
 70
     1
102
RTVSPropertyOp37
 70
     1
102
RTVSPropertyOp38
 70
     1
102
RTVSPropertyOp39
 70
     1
102
RTVSPropertyOp40
 70
     1
102
RTVSPropertyOp41
 70
     1
102
RTVSPropertyOp42
 70
     1
102
RTVSPropertyOp43
 70
     1
102
RTVSPropertyOp44
 70
     1
102
RTVSPropertyOp45
 70
     1
102
RTVSPropertyOp46
 70
     1
102
RTVSPropertyOp47
 70
     1
102
RTVSPropertyOp48
 70
     1
102
RTVSPropertyOp49
 70
     1
102
RTVSPropertyOp50
 70
     1
102
RTVSPropertyOp51
 70
     0
102
RTVSPropertyOp52
 70
     0
102
RTVSPropertyOp53
 70
     1
102
RTVSPropertyOp54
 70
     1
102
RTVSPropertyOp55
 70
     1
102
RTVSPropertyOp56
 70
     1
102
RTVSPropertyOp57
 70
     1
102
RTVSPropertyOp58
 70
     1
102
RTVSPropertyOp59
 70
     1
102
RTVSPropertyOp60
 70
     1
102
RTVSPropertyOp61
 70
     1
102
RTVSPropertyOp62
 70
     1
  0
XRECORD
  5
C0FD
102
{ACAD_REACTORS
330
C0FC
102
}
330
C0FC
100
AcDbXrecord
280
     1
102
RTVSPost2010Prop28
280
     0
102
RTVSPost2010PropOp28
 70
     1
102
RTVSPost2010Prop29
280
     1
102
RTVSPost2010PropOp29
 70
     1
102
RTVSPost2010Prop30
280
     1
102
RTVSPost2010PropOp30
 70
     1
102
RTVSPost2010Prop31
280
     0
102
RTVSPost2010PropOp31
 70
     1
102
RTVSPost2010Prop32
280
     0
102
RTVSPost2010PropOp32
 70
     1
102
RTVSPost2010Prop33
280
     0
102
RTVSPost2010PropOp33
 70
     1
102
RTVSPost2010Prop34
280
     0
102
RTVSPost2010PropOp34
 70
     1
102
RTVSPost2010Prop35
280
     0
102
RTVSPost2010PropOp35
 70
     1
102
RTVSPost2010Prop36
280
     0
102
RTVSPost2010PropOp36
 70
     1
102
RTVSPost2010Prop37
 90
       50
102
RTVSPost2010PropOp37
 70
     1
102
RTVSPost2010Prop38
140
0.0
102
RTVSPost2010PropOp38
 70
     1
102
RTVSPost2010Prop39
140
1.0
102
RTVSPost2010PropOp39
 70
     1
102
RTVSPost2010Prop40
 90
        0
102
RTVSPost2010PropOp40
 70
     1
102
RTVSPost2010Prop41ColorIndex
 90
       18
102
RTVSPost2010Prop41ColorRGB
 90
        0
102
RTVSPost2010PropOp41
 70
     1
102
RTVSPost2010Prop42
 90
       50
102
RTVSPost2010PropOp42
 70
     1
102
RTVSPost2010Prop43
 90
        3
102
RTVSPost2010PropOp43
 70
     1
102
RTVSPost2010Prop44ColorIndex
 90
        5
102
RTVSPost2010Prop44ColorRGB
 90
      255
102
RTVSPost2010PropOp44
 70
     1
102
RTVSPost2010Prop45
280
     0
102
RTVSPost2010PropOp45
 70
     1
102
RTVSPost2010Prop46
 90
       50
102
RTVSPost2010PropOp46
 70
     1
102
RTVSPost2010Prop47
 90
       50
102
RTVSPost2010PropOp47
 70
     1
102
RTVSPost2010Prop48
 90
       50
102
RTVSPost2010PropOp48
 70
     1
102
RTVSPost2010Prop49
280
     0
102
RTVSPost2010PropOp49
 70
     1
102
RTVSPost2010Prop50
 90
       50
102
RTVSPost2010PropOp50
 70
     1
102
RTVSPost2010Prop51ColorIndex
 90
      256
102
RTVSPost2010Prop51ColorRGB
 90
-16777216
102
RTVSPost2010PropOp51
 70
     0
102
RTVSPost2010Prop52
140
1.0
102
RTVSPost2010PropOp52
 70
     0
102
RTVSPost2010Prop53
 90
        2
102
RTVSPost2010PropOp53
 70
     1
102
RTVSPost2010Prop54
  1
strokes_ogs.tif
102
RTVSPost2010PropOp54
 70
     1
102
RTVSPost2010Prop55
280
     0
102
RTVSPost2010PropOp55
 70
     1
102
RTVSPost2010Prop56
140
1.0
102
RTVSPost2010PropOp56
 70
     1
102
RTVSPost2010Prop57
140
1.0
102
RTVSPost2010PropOp57
 70
     1
102
RTVSPropertyOp0
 70
     1
102
RTVSPropertyOp1
 70
     1
102
RTVSPropertyOp2
 70
     1
102
RTVSPropertyOp3
 70
     1
102
RTVSPropertyOp4
 70
     1
102
RTVSPropertyOp5
 70
     1
102
RTVSPropertyOp6
 70
     1
102
RTVSPropertyOp7
 70
     1
102
RTVSPropertyOp8
 70
     1
102
RTVSPropertyOp9
 70
     1
102
RTVSPropertyOp10
 70
     1
102
RTVSPropertyOp11
 70
     1
102
RTVSPropertyOp12
 70
     1
102
RTVSPropertyOp13
 70
     1
102
RTVSPropertyOp14
 70
     1
102
RTVSPropertyOp15
 70
     1
102
RTVSPropertyOp16
 70
     1
102
RTVSPropertyOp17
 70
     1
102
RTVSPropertyOp18
 70
     1
102
RTVSPropertyOp19
 70
     1
102
RTVSPropertyOp20
 70
     1
102
RTVSPropertyOp21
 70
     1
102
RTVSPropertyOp22
 70
     1
102
RTVSPropertyOp23
 70
     1
102
RTVSPropertyOp24
 70
     1
102
RTVSPropertyOp25
 70
     1
102
RTVSPropertyOp26
 70
     1
102
RTVSPropertyOp27
 70
     1
102
RTVSPropertyOp28
 70
     1
102
RTVSPropertyOp29
 70
     1
102
RTVSPropertyOp30
 70
     1
102
RTVSPropertyOp31
 70
     1
102
RTVSPropertyOp32
 70
     1
102
RTVSPropertyOp33
 70
     1
102
RTVSPropertyOp34
 70
     1
102
RTVSPropertyOp35
 70
     1
102
RTVSPropertyOp36
 70
     1
102
RTVSPropertyOp37
 70
     1
102
RTVSPropertyOp38
 70
     1
102
RTVSPropertyOp39
 70
     1
102
RTVSPropertyOp40
 70
     1
102
RTVSPropertyOp41
 70
     1
102
RTVSPropertyOp42
 70
     1
102
RTVSPropertyOp43
 70
     1
102
RTVSPropertyOp44
 70
     1
102
RTVSPropertyOp45
 70
     1
102
RTVSPropertyOp46
 70
     1
102
RTVSPropertyOp47
 70
     1
102
RTVSPropertyOp48
 70
     1
102
RTVSPropertyOp49
 70
     1
102
RTVSPropertyOp50
 70
     1
102
RTVSPropertyOp51
 70
     0
102
RTVSPropertyOp52
 70
     0
102
RTVSPropertyOp53
 70
     1
102
RTVSPropertyOp54
 70
     1
102
RTVSPropertyOp55
 70
     1
102
RTVSPropertyOp56
 70
     1
102
RTVSPropertyOp57
 70
     1
102
RTVSPropertyOp58
 70
     1
102
RTVSPropertyOp59
 70
     1
102
RTVSPropertyOp60
 70
     1
102
RTVSPropertyOp61
 70
     1
102
RTVSPropertyOp62
 70
     1
  0
XRECORD
  5
C105
102
{ACAD_REACTORS
330
C104
102
}
330
C104
100
AcDbXrecord
280
     1
102
RTVSPost2010Prop28
280
     0
102
RTVSPost2010PropOp28
 70
     1
102
RTVSPost2010Prop29
280
     1
102
RTVSPost2010PropOp29
 70
     1
102
RTVSPost2010Prop30
280
     1
102
RTVSPost2010PropOp30
 70
     1
102
RTVSPost2010Prop31
280
     0
102
RTVSPost2010PropOp31
 70
     1
102
RTVSPost2010Prop32
280
     0
102
RTVSPost2010PropOp32
 70
     1
102
RTVSPost2010Prop33
280
     0
102
RTVSPost2010PropOp33
 70
     1
102
RTVSPost2010Prop34
280
     0
102
RTVSPost2010PropOp34
 70
     1
102
RTVSPost2010Prop35
280
     0
102
RTVSPost2010PropOp35
 70
     1
102
RTVSPost2010Prop36
280
     0
102
RTVSPost2010PropOp36
 70
     1
102
RTVSPost2010Prop37
 90
       50
102
RTVSPost2010PropOp37
 70
     1
102
RTVSPost2010Prop38
140
0.0
102
RTVSPost2010PropOp38
 70
     1
102
RTVSPost2010Prop39
140
1.0
102
RTVSPost2010PropOp39
 70
     1
102
RTVSPost2010Prop40
 90
        0
102
RTVSPost2010PropOp40
 70
     1
102
RTVSPost2010Prop41ColorIndex
 90
       18
102
RTVSPost2010Prop41ColorRGB
 90
        0
102
RTVSPost2010PropOp41
 70
     1
102
RTVSPost2010Prop42
 90
       50
102
RTVSPost2010PropOp42
 70
     1
102
RTVSPost2010Prop43
 90
        3
102
RTVSPost2010PropOp43
 70
     1
102
RTVSPost2010Prop44ColorIndex
 90
        5
102
RTVSPost2010Prop44ColorRGB
 90
      255
102
RTVSPost2010PropOp44
 70
     1
102
RTVSPost2010Prop45
280
     0
102
RTVSPost2010PropOp45
 70
     1
102
RTVSPost2010Prop46
 90
       50
102
RTVSPost2010PropOp46
 70
     1
102
RTVSPost2010Prop47
 90
       50
102
RTVSPost2010PropOp47
 70
     1
102
RTVSPost2010Prop48
 90
       50
102
RTVSPost2010PropOp48
 70
     1
102
RTVSPost2010Prop49
280
     0
102
RTVSPost2010PropOp49
 70
     1
102
RTVSPost2010Prop50
 90
       50
102
RTVSPost2010PropOp50
 70
     1
102
RTVSPost2010Prop51ColorIndex
 90
      256
102
RTVSPost2010Prop51ColorRGB
 90
-16777216
102
RTVSPost2010PropOp51
 70
     0
102
RTVSPost2010Prop52
140
1.0
102
RTVSPost2010PropOp52
 70
     0
102
RTVSPost2010Prop53
 90
        2
102
RTVSPost2010PropOp53
 70
     1
102
RTVSPost2010Prop54
  1
strokes_ogs.tif
102
RTVSPost2010PropOp54
 70
     1
102
RTVSPost2010Prop55
280
     0
102
RTVSPost2010PropOp55
 70
     1
102
RTVSPost2010Prop56
140
1.0
102
RTVSPost2010PropOp56
 70
     1
102
RTVSPost2010Prop57
140
1.0
102
RTVSPost2010PropOp57
 70
     1
102
RTVSPropertyOp0
 70
     1
102
RTVSPropertyOp1
 70
     1
102
RTVSPropertyOp2
 70
     1
102
RTVSPropertyOp3
 70
     1
102
RTVSPropertyOp4
 70
     1
102
RTVSPropertyOp5
 70
     1
102
RTVSPropertyOp6
 70
     1
102
RTVSPropertyOp7
 70
     1
102
RTVSPropertyOp8
 70
     1
102
RTVSPropertyOp9
 70
     1
102
RTVSPropertyOp10
 70
     1
102
RTVSPropertyOp11
 70
     1
102
RTVSPropertyOp12
 70
     1
102
RTVSPropertyOp13
 70
     1
102
RTVSPropertyOp14
 70
     1
102
RTVSPropertyOp15
 70
     1
102
RTVSPropertyOp16
 70
     1
102
RTVSPropertyOp17
 70
     1
102
RTVSPropertyOp18
 70
     1
102
RTVSPropertyOp19
 70
     1
102
RTVSPropertyOp20
 70
     1
102
RTVSPropertyOp21
 70
     1
102
RTVSPropertyOp22
 70
     1
102
RTVSPropertyOp23
 70
     1
102
RTVSPropertyOp24
 70
     1
102
RTVSPropertyOp25
 70
     1
102
RTVSPropertyOp26
 70
     1
102
RTVSPropertyOp27
 70
     1
102
RTVSPropertyOp28
 70
     1
102
RTVSPropertyOp29
 70
     1
102
RTVSPropertyOp30
 70
     1
102
RTVSPropertyOp31
 70
     1
102
RTVSPropertyOp32
 70
     1
102
RTVSPropertyOp33
 70
     1
102
RTVSPropertyOp34
 70
     1
102
RTVSPropertyOp35
 70
     1
102
RTVSPropertyOp36
 70
     1
102
RTVSPropertyOp37
 70
     1
102
RTVSPropertyOp38
 70
     1
102
RTVSPropertyOp39
 70
     1
102
RTVSPropertyOp40
 70
     1
102
RTVSPropertyOp41
 70
     1
102
RTVSPropertyOp42
 70
     1
102
RTVSPropertyOp43
 70
     1
102
RTVSPropertyOp44
 70
     1
102
RTVSPropertyOp45
 70
     1
102
RTVSPropertyOp46
 70
     1
102
RTVSPropertyOp47
 70
     1
102
RTVSPropertyOp48
 70
     1
102
RTVSPropertyOp49
 70
     1
102
RTVSPropertyOp50
 70
     1
102
RTVSPropertyOp51
 70
     0
102
RTVSPropertyOp52
 70
     0
102
RTVSPropertyOp53
 70
     1
102
RTVSPropertyOp54
 70
     1
102
RTVSPropertyOp55
 70
     1
102
RTVSPropertyOp56
 70
     1
102
RTVSPropertyOp57
 70
     1
102
RTVSPropertyOp58
 70
     1
102
RTVSPropertyOp59
 70
     1
102
RTVSPropertyOp60
 70
     1
102
RTVSPropertyOp61
 70
     1
102
RTVSPropertyOp62
 70
     1
  0
XRECORD
  5
C121
102
{ACAD_REACTORS
330
C120
102
}
330
C120
100
AcDbXrecord
280
     1
102
RTVSPost2010Prop28
280
     0
102
RTVSPost2010PropOp28
 70
     1
102
RTVSPost2010Prop29
280
     1
102
RTVSPost2010PropOp29
 70
     1
102
RTVSPost2010Prop30
280
     1
102
RTVSPost2010PropOp30
 70
     1
102
RTVSPost2010Prop31
280
     0
102
RTVSPost2010PropOp31
 70
     1
102
RTVSPost2010Prop32
280
     0
102
RTVSPost2010PropOp32
 70
     1
102
RTVSPost2010Prop33
280
     0
102
RTVSPost2010PropOp33
 70
     1
102
RTVSPost2010Prop34
280
     0
102
RTVSPost2010PropOp34
 70
     1
102
RTVSPost2010Prop35
280
     0
102
RTVSPost2010PropOp35
 70
     1
102
RTVSPost2010Prop36
280
     0
102
RTVSPost2010PropOp36
 70
     1
102
RTVSPost2010Prop37
 90
       50
102
RTVSPost2010PropOp37
 70
     0
102
RTVSPost2010Prop38
140
0.0
102
RTVSPost2010PropOp38
 70
     0
102
RTVSPost2010Prop39
140
1.0
102
RTVSPost2010PropOp39
 70
     0
102
RTVSPost2010Prop40
 90
        0
102
RTVSPost2010PropOp40
 70
     0
102
RTVSPost2010Prop41ColorIndex
 90
       18
102
RTVSPost2010Prop41ColorRGB
 90
        0
102
RTVSPost2010PropOp41
 70
     0
102
RTVSPost2010Prop42
 90
       50
102
RTVSPost2010PropOp42
 70
     0
102
RTVSPost2010Prop43
 90
        3
102
RTVSPost2010PropOp43
 70
     0
102
RTVSPost2010Prop44ColorIndex
 90
        5
102
RTVSPost2010Prop44ColorRGB
 90
      255
102
RTVSPost2010PropOp44
 70
     0
102
RTVSPost2010Prop45
280
     0
102
RTVSPost2010PropOp45
 70
     1
102
RTVSPost2010Prop46
 90
       50
102
RTVSPost2010PropOp46
 70
     0
102
RTVSPost2010Prop47
 90
       50
102
RTVSPost2010PropOp47
 70
     0
102
RTVSPost2010Prop48
 90
       50
102
RTVSPost2010PropOp48
 70
     0
102
RTVSPost2010Prop49
280
     0
102
RTVSPost2010PropOp49
 70
     1
102
RTVSPost2010Prop50
 90
       50
102
RTVSPost2010PropOp50
 70
     0
102
RTVSPost2010Prop51ColorIndex
 90
      256
102
RTVSPost2010Prop51ColorRGB
 90
-16777216
102
RTVSPost2010PropOp51
 70
     0
102
RTVSPost2010Prop52
140
1.0
102
RTVSPost2010PropOp52
 70
     0
102
RTVSPost2010Prop53
 90
        2
102
RTVSPost2010PropOp53
 70
     0
102
RTVSPost2010Prop54
  1
strokes_ogs.tif
102
RTVSPost2010PropOp54
 70
     0
102
RTVSPost2010Prop55
280
     0
102
RTVSPost2010PropOp55
 70
     1
102
RTVSPost2010Prop56
140
1.0
102
RTVSPost2010PropOp56
 70
     0
102
RTVSPost2010Prop57
140
1.0
102
RTVSPost2010PropOp57
 70
     0
102
RTVSPropertyOp0
 70
     0
102
RTVSPropertyOp1
 70
     0
102
RTVSPropertyOp2
 70
     0
102
RTVSPropertyOp3
 70
     0
102
RTVSPropertyOp4
 70
     0
102
RTVSPropertyOp5
 70
     0
102
RTVSPropertyOp6
 70
     0
102
RTVSPropertyOp7
 70
     0
102
RTVSPropertyOp8
 70
     0
102
RTVSPropertyOp9
 70
     0
102
RTVSPropertyOp10
 70
     0
102
RTVSPropertyOp11
 70
     0
102
RTVSPropertyOp12
 70
     0
102
RTVSPropertyOp13
 70
     0
102
RTVSPropertyOp14
 70
     2
102
RTVSPropertyOp15
 70
     0
102
RTVSPropertyOp16
 70
     0
102
RTVSPropertyOp17
 70
     0
102
RTVSPropertyOp18
 70
     0
102
RTVSPropertyOp19
 70
     0
102
RTVSPropertyOp20
 70
     0
102
RTVSPropertyOp21
 70
     0
102
RTVSPropertyOp22
 70
     0
102
RTVSPropertyOp23
 70
     0
102
RTVSPropertyOp24
 70
     0
102
RTVSPropertyOp25
 70
     0
102
RTVSPropertyOp26
 70
     0
102
RTVSPropertyOp27
 70
     0
102
RTVSPropertyOp28
 70
     1
102
RTVSPropertyOp29
 70
     1
102
RTVSPropertyOp30
 70
     1
102
RTVSPropertyOp31
 70
     1
102
RTVSPropertyOp32
 70
     1
102
RTVSPropertyOp33
 70
     1
102
RTVSPropertyOp34
 70
     1
102
RTVSPropertyOp35
 70
     1
102
RTVSPropertyOp36
 70
     1
102
RTVSPropertyOp37
 70
     0
102
RTVSPropertyOp38
 70
     0
102
RTVSPropertyOp39
 70
     0
102
RTVSPropertyOp40
 70
     0
102
RTVSPropertyOp41
 70
     0
102
RTVSPropertyOp42
 70
     0
102
RTVSPropertyOp43
 70
     0
102
RTVSPropertyOp44
 70
     0
102
RTVSPropertyOp45
 70
     1
102
RTVSPropertyOp46
 70
     0
102
RTVSPropertyOp47
 70
     0
102
RTVSPropertyOp48
 70
     0
102
RTVSPropertyOp49
 70
     1
102
RTVSPropertyOp50
 70
     0
102
RTVSPropertyOp51
 70
     0
102
RTVSPropertyOp52
 70
     0
102
RTVSPropertyOp53
 70
     0
102
RTVSPropertyOp54
 70
     0
102
RTVSPropertyOp55
 70
     1
102
RTVSPropertyOp56
 70
     0
102
RTVSPropertyOp57
 70
     0
102
RTVSPropertyOp58
 70
     0
102
RTVSPropertyOp59
 70
     0
102
RTVSPropertyOp60
 70
     0
102
RTVSPropertyOp61
 70
     0
102
RTVSPropertyOp62
 70
     0
  0
XRECORD
  5
C111
102
{ACAD_REACTORS
330
C110
102
}
330
C110
100
AcDbXrecord
280
     1
102
RTVSPost2010Prop28
280
     0
102
RTVSPost2010PropOp28
 70
     1
102
RTVSPost2010Prop29
280
     1
102
RTVSPost2010PropOp29
 70
     1
102
RTVSPost2010Prop30
280
     1
102
RTVSPost2010PropOp30
 70
     1
102
RTVSPost2010Prop31
280
     0
102
RTVSPost2010PropOp31
 70
     1
102
RTVSPost2010Prop32
280
     0
102
RTVSPost2010PropOp32
 70
     1
102
RTVSPost2010Prop33
280
     0
102
RTVSPost2010PropOp33
 70
     1
102
RTVSPost2010Prop34
280
     0
102
RTVSPost2010PropOp34
 70
     1
102
RTVSPost2010Prop35
280
     0
102
RTVSPost2010PropOp35
 70
     1
102
RTVSPost2010Prop36
280
     0
102
RTVSPost2010PropOp36
 70
     1
102
RTVSPost2010Prop37
 90
       50
102
RTVSPost2010PropOp37
 70
     1
102
RTVSPost2010Prop38
140
0.0
102
RTVSPost2010PropOp38
 70
     1
102
RTVSPost2010Prop39
140
1.0
102
RTVSPost2010PropOp39
 70
     1
102
RTVSPost2010Prop40
 90
        0
102
RTVSPost2010PropOp40
 70
     1
102
RTVSPost2010Prop41ColorIndex
 90
       18
102
RTVSPost2010Prop41ColorRGB
 90
        0
102
RTVSPost2010PropOp41
 70
     1
102
RTVSPost2010Prop42
 90
       50
102
RTVSPost2010PropOp42
 70
     1
102
RTVSPost2010Prop43
 90
        3
102
RTVSPost2010PropOp43
 70
     1
102
RTVSPost2010Prop44ColorIndex
 90
        5
102
RTVSPost2010Prop44ColorRGB
 90
      255
102
RTVSPost2010PropOp44
 70
     1
102
RTVSPost2010Prop45
280
     0
102
RTVSPost2010PropOp45
 70
     1
102
RTVSPost2010Prop46
 90
       50
102
RTVSPost2010PropOp46
 70
     1
102
RTVSPost2010Prop47
 90
       50
102
RTVSPost2010PropOp47
 70
     1
102
RTVSPost2010Prop48
 90
       50
102
RTVSPost2010PropOp48
 70
     1
102
RTVSPost2010Prop49
280
     0
102
RTVSPost2010PropOp49
 70
     1
102
RTVSPost2010Prop50
 90
       50
102
RTVSPost2010PropOp50
 70
     1
102
RTVSPost2010Prop51ColorIndex
 90
      256
102
RTVSPost2010Prop51ColorRGB
 90
-16777216
102
RTVSPost2010PropOp51
 70
     0
102
RTVSPost2010Prop52
140
1.0
102
RTVSPost2010PropOp52
 70
     0
102
RTVSPost2010Prop53
 90
        2
102
RTVSPost2010PropOp53
 70
     1
102
RTVSPost2010Prop54
  1
strokes_ogs.tif
102
RTVSPost2010PropOp54
 70
     1
102
RTVSPost2010Prop55
280
     0
102
RTVSPost2010PropOp55
 70
     1
102
RTVSPost2010Prop56
140
1.0
102
RTVSPost2010PropOp56
 70
     1
102
RTVSPost2010Prop57
140
1.0
102
RTVSPost2010PropOp57
 70
     1
102
RTVSPropertyOp0
 70
     1
102
RTVSPropertyOp1
 70
     1
102
RTVSPropertyOp2
 70
     1
102
RTVSPropertyOp3
 70
     1
102
RTVSPropertyOp4
 70
     1
102
RTVSPropertyOp5
 70
     1
102
RTVSPropertyOp6
 70
     1
102
RTVSPropertyOp7
 70
     1
102
RTVSPropertyOp8
 70
     1
102
RTVSPropertyOp9
 70
     1
102
RTVSPropertyOp10
 70
     1
102
RTVSPropertyOp11
 70
     1
102
RTVSPropertyOp12
 70
     1
102
RTVSPropertyOp13
 70
     1
102
RTVSPropertyOp14
 70
     1
102
RTVSPropertyOp15
 70
     1
102
RTVSPropertyOp16
 70
     1
102
RTVSPropertyOp17
 70
     1
102
RTVSPropertyOp18
 70
     1
102
RTVSPropertyOp19
 70
     1
102
RTVSPropertyOp20
 70
     1
102
RTVSPropertyOp21
 70
     1
102
RTVSPropertyOp22
 70
     1
102
RTVSPropertyOp23
 70
     1
102
RTVSPropertyOp24
 70
     1
102
RTVSPropertyOp25
 70
     1
102
RTVSPropertyOp26
 70
     1
102
RTVSPropertyOp27
 70
     1
102
RTVSPropertyOp28
 70
     1
102
RTVSPropertyOp29
 70
     1
102
RTVSPropertyOp30
 70
     1
102
RTVSPropertyOp31
 70
     1
102
RTVSPropertyOp32
 70
     1
102
RTVSPropertyOp33
 70
     1
102
RTVSPropertyOp34
 70
     1
102
RTVSPropertyOp35
 70
     1
102
RTVSPropertyOp36
 70
     1
102
RTVSPropertyOp37
 70
     1
102
RTVSPropertyOp38
 70
     1
102
RTVSPropertyOp39
 70
     1
102
RTVSPropertyOp40
 70
     1
102
RTVSPropertyOp41
 70
     1
102
RTVSPropertyOp42
 70
     1
102
RTVSPropertyOp43
 70
     1
102
RTVSPropertyOp44
 70
     1
102
RTVSPropertyOp45
 70
     1
102
RTVSPropertyOp46
 70
     1
102
RTVSPropertyOp47
 70
     1
102
RTVSPropertyOp48
 70
     1
102
RTVSPropertyOp49
 70
     1
102
RTVSPropertyOp50
 70
     1
102
RTVSPropertyOp51
 70
     0
102
RTVSPropertyOp52
 70
     0
102
RTVSPropertyOp53
 70
     1
102
RTVSPropertyOp54
 70
     1
102
RTVSPropertyOp55
 70
     1
102
RTVSPropertyOp56
 70
     1
102
RTVSPropertyOp57
 70
     1
102
RTVSPropertyOp58
 70
     1
102
RTVSPropertyOp59
 70
     1
102
RTVSPropertyOp60
 70
     1
102
RTVSPropertyOp61
 70
     1
102
RTVSPropertyOp62
 70
     1
  0
XRECORD
  5
C123
102
{ACAD_REACTORS
330
C122
102
}
330
C122
100
AcDbXrecord
280
     1
102
RTVSPost2010Prop28
280
     0
102
RTVSPost2010PropOp28
 70
     1
102
RTVSPost2010Prop29
280
     1
102
RTVSPost2010PropOp29
 70
     1
102
RTVSPost2010Prop30
280
     1
102
RTVSPost2010PropOp30
 70
     1
102
RTVSPost2010Prop31
280
     0
102
RTVSPost2010PropOp31
 70
     1
102
RTVSPost2010Prop32
280
     0
102
RTVSPost2010PropOp32
 70
     1
102
RTVSPost2010Prop33
280
     0
102
RTVSPost2010PropOp33
 70
     1
102
RTVSPost2010Prop34
280
     0
102
RTVSPost2010PropOp34
 70
     1
102
RTVSPost2010Prop35
280
     0
102
RTVSPost2010PropOp35
 70
     1
102
RTVSPost2010Prop36
280
     0
102
RTVSPost2010PropOp36
 70
     1
102
RTVSPost2010Prop37
 90
       50
102
RTVSPost2010PropOp37
 70
     0
102
RTVSPost2010Prop38
140
0.0
102
RTVSPost2010PropOp38
 70
     0
102
RTVSPost2010Prop39
140
1.0
102
RTVSPost2010PropOp39
 70
     0
102
RTVSPost2010Prop40
 90
        0
102
RTVSPost2010PropOp40
 70
     0
102
RTVSPost2010Prop41ColorIndex
 90
       18
102
RTVSPost2010Prop41ColorRGB
 90
        0
102
RTVSPost2010PropOp41
 70
     0
102
RTVSPost2010Prop42
 90
       50
102
RTVSPost2010PropOp42
 70
     0
102
RTVSPost2010Prop43
 90
        3
102
RTVSPost2010PropOp43
 70
     0
102
RTVSPost2010Prop44ColorIndex
 90
        5
102
RTVSPost2010Prop44ColorRGB
 90
      255
102
RTVSPost2010PropOp44
 70
     0
102
RTVSPost2010Prop45
280
     0
102
RTVSPost2010PropOp45
 70
     1
102
RTVSPost2010Prop46
 90
       50
102
RTVSPost2010PropOp46
 70
     0
102
RTVSPost2010Prop47
 90
       50
102
RTVSPost2010PropOp47
 70
     0
102
RTVSPost2010Prop48
 90
       50
102
RTVSPost2010PropOp48
 70
     0
102
RTVSPost2010Prop49
280
     0
102
RTVSPost2010PropOp49
 70
     1
102
RTVSPost2010Prop50
 90
       50
102
RTVSPost2010PropOp50
 70
     0
102
RTVSPost2010Prop51ColorIndex
 90
      256
102
RTVSPost2010Prop51ColorRGB
 90
-16777216
102
RTVSPost2010PropOp51
 70
     0
102
RTVSPost2010Prop52
140
1.0
102
RTVSPost2010PropOp52
 70
     0
102
RTVSPost2010Prop53
 90
        2
102
RTVSPost2010PropOp53
 70
     0
102
RTVSPost2010Prop54
  1
strokes_ogs.tif
102
RTVSPost2010PropOp54
 70
     0
102
RTVSPost2010Prop55
280
     0
102
RTVSPost2010PropOp55
 70
     1
102
RTVSPost2010Prop56
140
1.0
102
RTVSPost2010PropOp56
 70
     0
102
RTVSPost2010Prop57
140
1.0
102
RTVSPost2010PropOp57
 70
     0
102
RTVSPropertyOp0
 70
     0
102
RTVSPropertyOp1
 70
     0
102
RTVSPropertyOp2
 70
     0
102
RTVSPropertyOp3
 70
     0
102
RTVSPropertyOp4
 70
     0
102
RTVSPropertyOp5
 70
     0
102
RTVSPropertyOp6
 70
     0
102
RTVSPropertyOp7
 70
     0
102
RTVSPropertyOp8
 70
     0
102
RTVSPropertyOp9
 70
     0
102
RTVSPropertyOp10
 70
     0
102
RTVSPropertyOp11
 70
     0
102
RTVSPropertyOp12
 70
     0
102
RTVSPropertyOp13
 70
     0
102
RTVSPropertyOp14
 70
     2
102
RTVSPropertyOp15
 70
     0
102
RTVSPropertyOp16
 70
     0
102
RTVSPropertyOp17
 70
     0
102
RTVSPropertyOp18
 70
     0
102
RTVSPropertyOp19
 70
     0
102
RTVSPropertyOp20
 70
     0
102
RTVSPropertyOp21
 70
     0
102
RTVSPropertyOp22
 70
     0
102
RTVSPropertyOp23
 70
     0
102
RTVSPropertyOp24
 70
     0
102
RTVSPropertyOp25
 70
     0
102
RTVSPropertyOp26
 70
     0
102
RTVSPropertyOp27
 70
     0
102
RTVSPropertyOp28
 70
     1
102
RTVSPropertyOp29
 70
     1
102
RTVSPropertyOp30
 70
     1
102
RTVSPropertyOp31
 70
     1
102
RTVSPropertyOp32
 70
     1
102
RTVSPropertyOp33
 70
     1
102
RTVSPropertyOp34
 70
     1
102
RTVSPropertyOp35
 70
     1
102
RTVSPropertyOp36
 70
     1
102
RTVSPropertyOp37
 70
     0
102
RTVSPropertyOp38
 70
     0
102
RTVSPropertyOp39
 70
     0
102
RTVSPropertyOp40
 70
     0
102
RTVSPropertyOp41
 70
     0
102
RTVSPropertyOp42
 70
     0
102
RTVSPropertyOp43
 70
     0
102
RTVSPropertyOp44
 70
     0
102
RTVSPropertyOp45
 70
     1
102
RTVSPropertyOp46
 70
     0
102
RTVSPropertyOp47
 70
     0
102
RTVSPropertyOp48
 70
     0
102
RTVSPropertyOp49
 70
     1
102
RTVSPropertyOp50
 70
     0
102
RTVSPropertyOp51
 70
     0
102
RTVSPropertyOp52
 70
     0
102
RTVSPropertyOp53
 70
     0
102
RTVSPropertyOp54
 70
     0
102
RTVSPropertyOp55
 70
     1
102
RTVSPropertyOp56
 70
     0
102
RTVSPropertyOp57
 70
     0
102
RTVSPropertyOp58
 70
     0
102
RTVSPropertyOp59
 70
     0
102
RTVSPropertyOp60
 70
     0
102
RTVSPropertyOp61
 70
     0
102
RTVSPropertyOp62
 70
     0
  0
XRECORD
  5
C109
102
{ACAD_REACTORS
330
C108
102
}
330
C108
100
AcDbXrecord
280
     1
102
RTVSPost2010Prop28
280
     0
102
RTVSPost2010PropOp28
 70
     1
102
RTVSPost2010Prop29
280
     1
102
RTVSPost2010PropOp29
 70
     1
102
RTVSPost2010Prop30
280
     1
102
RTVSPost2010PropOp30
 70
     1
102
RTVSPost2010Prop31
280
     0
102
RTVSPost2010PropOp31
 70
     1
102
RTVSPost2010Prop32
280
     0
102
RTVSPost2010PropOp32
 70
     1
102
RTVSPost2010Prop33
280
     0
102
RTVSPost2010PropOp33
 70
     1
102
RTVSPost2010Prop34
280
     0
102
RTVSPost2010PropOp34
 70
     1
102
RTVSPost2010Prop35
280
     0
102
RTVSPost2010PropOp35
 70
     1
102
RTVSPost2010Prop36
280
     0
102
RTVSPost2010PropOp36
 70
     1
102
RTVSPost2010Prop37
 90
       50
102
RTVSPost2010PropOp37
 70
     1
102
RTVSPost2010Prop38
140
0.0
102
RTVSPost2010PropOp38
 70
     1
102
RTVSPost2010Prop39
140
1.0
102
RTVSPost2010PropOp39
 70
     1
102
RTVSPost2010Prop40
 90
        0
102
RTVSPost2010PropOp40
 70
     1
102
RTVSPost2010Prop41ColorIndex
 90
       18
102
RTVSPost2010Prop41ColorRGB
 90
        0
102
RTVSPost2010PropOp41
 70
     1
102
RTVSPost2010Prop42
 90
       50
102
RTVSPost2010PropOp42
 70
     1
102
RTVSPost2010Prop43
 90
        3
102
RTVSPost2010PropOp43
 70
     1
102
RTVSPost2010Prop44ColorIndex
 90
        5
102
RTVSPost2010Prop44ColorRGB
 90
      255
102
RTVSPost2010PropOp44
 70
     1
102
RTVSPost2010Prop45
280
     0
102
RTVSPost2010PropOp45
 70
     1
102
RTVSPost2010Prop46
 90
       50
102
RTVSPost2010PropOp46
 70
     1
102
RTVSPost2010Prop47
 90
       50
102
RTVSPost2010PropOp47
 70
     1
102
RTVSPost2010Prop48
 90
       50
102
RTVSPost2010PropOp48
 70
     1
102
RTVSPost2010Prop49
280
     0
102
RTVSPost2010PropOp49
 70
     1
102
RTVSPost2010Prop50
 90
       50
102
RTVSPost2010PropOp50
 70
     1
102
RTVSPost2010Prop51ColorIndex
 90
      256
102
RTVSPost2010Prop51ColorRGB
 90
-16777216
102
RTVSPost2010PropOp51
 70
     0
102
RTVSPost2010Prop52
140
1.0
102
RTVSPost2010PropOp52
 70
     0
102
RTVSPost2010Prop53
 90
        2
102
RTVSPost2010PropOp53
 70
     1
102
RTVSPost2010Prop54
  1
strokes_ogs.tif
102
RTVSPost2010PropOp54
 70
     1
102
RTVSPost2010Prop55
280
     0
102
RTVSPost2010PropOp55
 70
     1
102
RTVSPost2010Prop56
140
1.0
102
RTVSPost2010PropOp56
 70
     1
102
RTVSPost2010Prop57
140
1.0
102
RTVSPost2010PropOp57
 70
     1
102
RTVSPropertyOp0
 70
     1
102
RTVSPropertyOp1
 70
     1
102
RTVSPropertyOp2
 70
     1
102
RTVSPropertyOp3
 70
     1
102
RTVSPropertyOp4
 70
     1
102
RTVSPropertyOp5
 70
     1
102
RTVSPropertyOp6
 70
     1
102
RTVSPropertyOp7
 70
     1
102
RTVSPropertyOp8
 70
     1
102
RTVSPropertyOp9
 70
     1
102
RTVSPropertyOp10
 70
     1
102
RTVSPropertyOp11
 70
     1
102
RTVSPropertyOp12
 70
     1
102
RTVSPropertyOp13
 70
     1
102
RTVSPropertyOp14
 70
     1
102
RTVSPropertyOp15
 70
     1
102
RTVSPropertyOp16
 70
     1
102
RTVSPropertyOp17
 70
     1
102
RTVSPropertyOp18
 70
     1
102
RTVSPropertyOp19
 70
     1
102
RTVSPropertyOp20
 70
     1
102
RTVSPropertyOp21
 70
     1
102
RTVSPropertyOp22
 70
     1
102
RTVSPropertyOp23
 70
     1
102
RTVSPropertyOp24
 70
     1
102
RTVSPropertyOp25
 70
     1
102
RTVSPropertyOp26
 70
     1
102
RTVSPropertyOp27
 70
     1
102
RTVSPropertyOp28
 70
     1
102
RTVSPropertyOp29
 70
     1
102
RTVSPropertyOp30
 70
     1
102
RTVSPropertyOp31
 70
     1
102
RTVSPropertyOp32
 70
     1
102
RTVSPropertyOp33
 70
     1
102
RTVSPropertyOp34
 70
     1
102
RTVSPropertyOp35
 70
     1
102
RTVSPropertyOp36
 70
     1
102
RTVSPropertyOp37
 70
     1
102
RTVSPropertyOp38
 70
     1
102
RTVSPropertyOp39
 70
     1
102
RTVSPropertyOp40
 70
     1
102
RTVSPropertyOp41
 70
     1
102
RTVSPropertyOp42
 70
     1
102
RTVSPropertyOp43
 70
     1
102
RTVSPropertyOp44
 70
     1
102
RTVSPropertyOp45
 70
     1
102
RTVSPropertyOp46
 70
     1
102
RTVSPropertyOp47
 70
     1
102
RTVSPropertyOp48
 70
     1
102
RTVSPropertyOp49
 70
     1
102
RTVSPropertyOp50
 70
     1
102
RTVSPropertyOp51
 70
     0
102
RTVSPropertyOp52
 70
     0
102
RTVSPropertyOp53
 70
     1
102
RTVSPropertyOp54
 70
     1
102
RTVSPropertyOp55
 70
     1
102
RTVSPropertyOp56
 70
     1
102
RTVSPropertyOp57
 70
     1
102
RTVSPropertyOp58
 70
     1
102
RTVSPropertyOp59
 70
     1
102
RTVSPropertyOp60
 70
     1
102
RTVSPropertyOp61
 70
     1
102
RTVSPropertyOp62
 70
     1
  0
XRECORD
  5
C11F
102
{ACAD_REACTORS
330
C11E
102
}
330
C11E
100
AcDbXrecord
280
     1
102
RTVSPost2010Prop28
280
     0
102
RTVSPost2010PropOp28
 70
     1
102
RTVSPost2010Prop29
280
     1
102
RTVSPost2010PropOp29
 70
     1
102
RTVSPost2010Prop30
280
     1
102
RTVSPost2010PropOp30
 70
     1
102
RTVSPost2010Prop31
280
     0
102
RTVSPost2010PropOp31
 70
     1
102
RTVSPost2010Prop32
280
     0
102
RTVSPost2010PropOp32
 70
     1
102
RTVSPost2010Prop33
280
     0
102
RTVSPost2010PropOp33
 70
     1
102
RTVSPost2010Prop34
280
     0
102
RTVSPost2010PropOp34
 70
     1
102
RTVSPost2010Prop35
280
     0
102
RTVSPost2010PropOp35
 70
     1
102
RTVSPost2010Prop36
280
     0
102
RTVSPost2010PropOp36
 70
     1
102
RTVSPost2010Prop37
 90
       50
102
RTVSPost2010PropOp37
 70
     1
102
RTVSPost2010Prop38
140
0.0
102
RTVSPost2010PropOp38
 70
     1
102
RTVSPost2010Prop39
140
1.0
102
RTVSPost2010PropOp39
 70
     1
102
RTVSPost2010Prop40
 90
        0
102
RTVSPost2010PropOp40
 70
     1
102
RTVSPost2010Prop41ColorIndex
 90
       18
102
RTVSPost2010Prop41ColorRGB
 90
        0
102
RTVSPost2010PropOp41
 70
     1
102
RTVSPost2010Prop42
 90
       50
102
RTVSPost2010PropOp42
 70
     1
102
RTVSPost2010Prop43
 90
        3
102
RTVSPost2010PropOp43
 70
     1
102
RTVSPost2010Prop44ColorIndex
 90
        5
102
RTVSPost2010Prop44ColorRGB
 90
      255
102
RTVSPost2010PropOp44
 70
     1
102
RTVSPost2010Prop45
280
     0
102
RTVSPost2010PropOp45
 70
     1
102
RTVSPost2010Prop46
 90
       50
102
RTVSPost2010PropOp46
 70
     1
102
RTVSPost2010Prop47
 90
       50
102
RTVSPost2010PropOp47
 70
     1
102
RTVSPost2010Prop48
 90
       50
102
RTVSPost2010PropOp48
 70
     1
102
RTVSPost2010Prop49
280
     0
102
RTVSPost2010PropOp49
 70
     1
102
RTVSPost2010Prop50
 90
       50
102
RTVSPost2010PropOp50
 70
     1
102
RTVSPost2010Prop51ColorIndex
 90
      256
102
RTVSPost2010Prop51ColorRGB
 90
-16777216
102
RTVSPost2010PropOp51
 70
     0
102
RTVSPost2010Prop52
140
1.0
102
RTVSPost2010PropOp52
 70
     0
102
RTVSPost2010Prop53
 90
        2
102
RTVSPost2010PropOp53
 70
     1
102
RTVSPost2010Prop54
  1
strokes_ogs.tif
102
RTVSPost2010PropOp54
 70
     1
102
RTVSPost2010Prop55
280
     0
102
RTVSPost2010PropOp55
 70
     1
102
RTVSPost2010Prop56
140
1.0
102
RTVSPost2010PropOp56
 70
     1
102
RTVSPost2010Prop57
140
1.0
102
RTVSPost2010PropOp57
 70
     1
102
RTVSPropertyOp0
 70
     1
102
RTVSPropertyOp1
 70
     1
102
RTVSPropertyOp2
 70
     1
102
RTVSPropertyOp3
 70
     1
102
RTVSPropertyOp4
 70
     1
102
RTVSPropertyOp5
 70
     1
102
RTVSPropertyOp6
 70
     1
102
RTVSPropertyOp7
 70
     1
102
RTVSPropertyOp8
 70
     1
102
RTVSPropertyOp9
 70
     1
102
RTVSPropertyOp10
 70
     1
102
RTVSPropertyOp11
 70
     1
102
RTVSPropertyOp12
 70
     1
102
RTVSPropertyOp13
 70
     1
102
RTVSPropertyOp14
 70
     1
102
RTVSPropertyOp15
 70
     1
102
RTVSPropertyOp16
 70
     1
102
RTVSPropertyOp17
 70
     1
102
RTVSPropertyOp18
 70
     1
102
RTVSPropertyOp19
 70
     1
102
RTVSPropertyOp20
 70
     1
102
RTVSPropertyOp21
 70
     1
102
RTVSPropertyOp22
 70
     1
102
RTVSPropertyOp23
 70
     1
102
RTVSPropertyOp24
 70
     1
102
RTVSPropertyOp25
 70
     1
102
RTVSPropertyOp26
 70
     1
102
RTVSPropertyOp27
 70
     1
102
RTVSPropertyOp28
 70
     1
102
RTVSPropertyOp29
 70
     1
102
RTVSPropertyOp30
 70
     1
102
RTVSPropertyOp31
 70
     1
102
RTVSPropertyOp32
 70
     1
102
RTVSPropertyOp33
 70
     1
102
RTVSPropertyOp34
 70
     1
102
RTVSPropertyOp35
 70
     1
102
RTVSPropertyOp36
 70
     1
102
RTVSPropertyOp37
 70
     1
102
RTVSPropertyOp38
 70
     1
102
RTVSPropertyOp39
 70
     1
102
RTVSPropertyOp40
 70
     1
102
RTVSPropertyOp41
 70
     1
102
RTVSPropertyOp42
 70
     1
102
RTVSPropertyOp43
 70
     1
102
RTVSPropertyOp44
 70
     1
102
RTVSPropertyOp45
 70
     1
102
RTVSPropertyOp46
 70
     1
102
RTVSPropertyOp47
 70
     1
102
RTVSPropertyOp48
 70
     1
102
RTVSPropertyOp49
 70
     1
102
RTVSPropertyOp50
 70
     1
102
RTVSPropertyOp51
 70
     0
102
RTVSPropertyOp52
 70
     0
102
RTVSPropertyOp53
 70
     1
102
RTVSPropertyOp54
 70
     1
102
RTVSPropertyOp55
 70
     1
102
RTVSPropertyOp56
 70
     1
102
RTVSPropertyOp57
 70
     1
102
RTVSPropertyOp58
 70
     1
102
RTVSPropertyOp59
 70
     1
102
RTVSPropertyOp60
 70
     1
102
RTVSPropertyOp61
 70
     1
102
RTVSPropertyOp62
 70
     1
  0
XRECORD
  5
C11D
102
{ACAD_REACTORS
330
C11C
102
}
330
C11C
100
AcDbXrecord
280
     1
102
RTVSPost2010Prop28
280
     0
102
RTVSPost2010PropOp28
 70
     1
102
RTVSPost2010Prop29
280
     1
102
RTVSPost2010PropOp29
 70
     1
102
RTVSPost2010Prop30
280
     1
102
RTVSPost2010PropOp30
 70
     1
102
RTVSPost2010Prop31
280
     0
102
RTVSPost2010PropOp31
 70
     1
102
RTVSPost2010Prop32
280
     0
102
RTVSPost2010PropOp32
 70
     1
102
RTVSPost2010Prop33
280
     0
102
RTVSPost2010PropOp33
 70
     1
102
RTVSPost2010Prop34
280
     0
102
RTVSPost2010PropOp34
 70
     1
102
RTVSPost2010Prop35
280
     0
102
RTVSPost2010PropOp35
 70
     1
102
RTVSPost2010Prop36
280
     0
102
RTVSPost2010PropOp36
 70
     1
102
RTVSPost2010Prop37
 90
       50
102
RTVSPost2010PropOp37
 70
     1
102
RTVSPost2010Prop38
140
0.0
102
RTVSPost2010PropOp38
 70
     1
102
RTVSPost2010Prop39
140
1.0
102
RTVSPost2010PropOp39
 70
     1
102
RTVSPost2010Prop40
 90
        0
102
RTVSPost2010PropOp40
 70
     1
102
RTVSPost2010Prop41ColorIndex
 90
       18
102
RTVSPost2010Prop41ColorRGB
 90
        0
102
RTVSPost2010PropOp41
 70
     1
102
RTVSPost2010Prop42
 90
       50
102
RTVSPost2010PropOp42
 70
     1
102
RTVSPost2010Prop43
 90
        3
102
RTVSPost2010PropOp43
 70
     1
102
RTVSPost2010Prop44ColorIndex
 90
        5
102
RTVSPost2010Prop44ColorRGB
 90
      255
102
RTVSPost2010PropOp44
 70
     1
102
RTVSPost2010Prop45
280
     0
102
RTVSPost2010PropOp45
 70
     1
102
RTVSPost2010Prop46
 90
       50
102
RTVSPost2010PropOp46
 70
     1
102
RTVSPost2010Prop47
 90
       50
102
RTVSPost2010PropOp47
 70
     1
102
RTVSPost2010Prop48
 90
       50
102
RTVSPost2010PropOp48
 70
     1
102
RTVSPost2010Prop49
280
     0
102
RTVSPost2010PropOp49
 70
     1
102
RTVSPost2010Prop50
 90
       50
102
RTVSPost2010PropOp50
 70
     1
102
RTVSPost2010Prop51ColorIndex
 90
      256
102
RTVSPost2010Prop51ColorRGB
 90
-16777216
102
RTVSPost2010PropOp51
 70
     0
102
RTVSPost2010Prop52
140
1.0
102
RTVSPost2010PropOp52
 70
     0
102
RTVSPost2010Prop53
 90
        2
102
RTVSPost2010PropOp53
 70
     1
102
RTVSPost2010Prop54
  1
strokes_ogs.tif
102
RTVSPost2010PropOp54
 70
     1
102
RTVSPost2010Prop55
280
     0
102
RTVSPost2010PropOp55
 70
     1
102
RTVSPost2010Prop56
140
1.0
102
RTVSPost2010PropOp56
 70
     1
102
RTVSPost2010Prop57
140
1.0
102
RTVSPost2010PropOp57
 70
     1
102
RTVSPropertyOp0
 70
     1
102
RTVSPropertyOp1
 70
     1
102
RTVSPropertyOp2
 70
     1
102
RTVSPropertyOp3
 70
     1
102
RTVSPropertyOp4
 70
     1
102
RTVSPropertyOp5
 70
     1
102
RTVSPropertyOp6
 70
     1
102
RTVSPropertyOp7
 70
     1
102
RTVSPropertyOp8
 70
     1
102
RTVSPropertyOp9
 70
     1
102
RTVSPropertyOp10
 70
     1
102
RTVSPropertyOp11
 70
     1
102
RTVSPropertyOp12
 70
     1
102
RTVSPropertyOp13
 70
     1
102
RTVSPropertyOp14
 70
     1
102
RTVSPropertyOp15
 70
     1
102
RTVSPropertyOp16
 70
     1
102
RTVSPropertyOp17
 70
     1
102
RTVSPropertyOp18
 70
     1
102
RTVSPropertyOp19
 70
     1
102
RTVSPropertyOp20
 70
     1
102
RTVSPropertyOp21
 70
     1
102
RTVSPropertyOp22
 70
     1
102
RTVSPropertyOp23
 70
     1
102
RTVSPropertyOp24
 70
     1
102
RTVSPropertyOp25
 70
     1
102
RTVSPropertyOp26
 70
     1
102
RTVSPropertyOp27
 70
     1
102
RTVSPropertyOp28
 70
     1
102
RTVSPropertyOp29
 70
     1
102
RTVSPropertyOp30
 70
     1
102
RTVSPropertyOp31
 70
     1
102
RTVSPropertyOp32
 70
     1
102
RTVSPropertyOp33
 70
     1
102
RTVSPropertyOp34
 70
     1
102
RTVSPropertyOp35
 70
     1
102
RTVSPropertyOp36
 70
     1
102
RTVSPropertyOp37
 70
     1
102
RTVSPropertyOp38
 70
     1
102
RTVSPropertyOp39
 70
     1
102
RTVSPropertyOp40
 70
     1
102
RTVSPropertyOp41
 70
     1
102
RTVSPropertyOp42
 70
     1
102
RTVSPropertyOp43
 70
     1
102
RTVSPropertyOp44
 70
     1
102
RTVSPropertyOp45
 70
     1
102
RTVSPropertyOp46
 70
     1
102
RTVSPropertyOp47
 70
     1
102
RTVSPropertyOp48
 70
     1
102
RTVSPropertyOp49
 70
     1
102
RTVSPropertyOp50
 70
     1
102
RTVSPropertyOp51
 70
     0
102
RTVSPropertyOp52
 70
     0
102
RTVSPropertyOp53
 70
     1
102
RTVSPropertyOp54
 70
     1
102
RTVSPropertyOp55
 70
     1
102
RTVSPropertyOp56
 70
     1
102
RTVSPropertyOp57
 70
     1
102
RTVSPropertyOp58
 70
     1
102
RTVSPropertyOp59
 70
     1
102
RTVSPropertyOp60
 70
     1
102
RTVSPropertyOp61
 70
     1
102
RTVSPropertyOp62
 70
     1
  0
XRECORD
  5
C117
102
{ACAD_REACTORS
330
C116
102
}
330
C116
100
AcDbXrecord
280
     1
102
RTVSPost2010Prop28
280
     0
102
RTVSPost2010PropOp28
 70
     1
102
RTVSPost2010Prop29
280
     1
102
RTVSPost2010PropOp29
 70
     1
102
RTVSPost2010Prop30
280
     1
102
RTVSPost2010PropOp30
 70
     1
102
RTVSPost2010Prop31
280
     0
102
RTVSPost2010PropOp31
 70
     1
102
RTVSPost2010Prop32
280
     0
102
RTVSPost2010PropOp32
 70
     1
102
RTVSPost2010Prop33
280
     0
102
RTVSPost2010PropOp33
 70
     1
102
RTVSPost2010Prop34
280
     0
102
RTVSPost2010PropOp34
 70
     1
102
RTVSPost2010Prop35
280
     0
102
RTVSPost2010PropOp35
 70
     1
102
RTVSPost2010Prop36
280
     0
102
RTVSPost2010PropOp36
 70
     1
102
RTVSPost2010Prop37
 90
       50
102
RTVSPost2010PropOp37
 70
     1
102
RTVSPost2010Prop38
140
0.0
102
RTVSPost2010PropOp38
 70
     1
102
RTVSPost2010Prop39
140
1.0
102
RTVSPost2010PropOp39
 70
     1
102
RTVSPost2010Prop40
 90
        0
102
RTVSPost2010PropOp40
 70
     1
102
RTVSPost2010Prop41ColorIndex
 90
       18
102
RTVSPost2010Prop41ColorRGB
 90
        0
102
RTVSPost2010PropOp41
 70
     1
102
RTVSPost2010Prop42
 90
       50
102
RTVSPost2010PropOp42
 70
     1
102
RTVSPost2010Prop43
 90
        3
102
RTVSPost2010PropOp43
 70
     1
102
RTVSPost2010Prop44ColorIndex
 90
        5
102
RTVSPost2010Prop44ColorRGB
 90
      255
102
RTVSPost2010PropOp44
 70
     1
102
RTVSPost2010Prop45
280
     0
102
RTVSPost2010PropOp45
 70
     1
102
RTVSPost2010Prop46
 90
       50
102
RTVSPost2010PropOp46
 70
     1
102
RTVSPost2010Prop47
 90
       50
102
RTVSPost2010PropOp47
 70
     1
102
RTVSPost2010Prop48
 90
       50
102
RTVSPost2010PropOp48
 70
     1
102
RTVSPost2010Prop49
280
     0
102
RTVSPost2010PropOp49
 70
     1
102
RTVSPost2010Prop50
 90
       50
102
RTVSPost2010PropOp50
 70
     1
102
RTVSPost2010Prop51ColorIndex
 90
      256
102
RTVSPost2010Prop51ColorRGB
 90
-16777216
102
RTVSPost2010PropOp51
 70
     0
102
RTVSPost2010Prop52
140
1.0
102
RTVSPost2010PropOp52
 70
     0
102
RTVSPost2010Prop53
 90
        2
102
RTVSPost2010PropOp53
 70
     1
102
RTVSPost2010Prop54
  1
strokes_ogs.tif
102
RTVSPost2010PropOp54
 70
     1
102
RTVSPost2010Prop55
280
     0
102
RTVSPost2010PropOp55
 70
     1
102
RTVSPost2010Prop56
140
1.0
102
RTVSPost2010PropOp56
 70
     1
102
RTVSPost2010Prop57
140
1.0
102
RTVSPost2010PropOp57
 70
     1
102
RTVSPropertyOp0
 70
     1
102
RTVSPropertyOp1
 70
     1
102
RTVSPropertyOp2
 70
     1
102
RTVSPropertyOp3
 70
     1
102
RTVSPropertyOp4
 70
     1
102
RTVSPropertyOp5
 70
     1
102
RTVSPropertyOp6
 70
     1
102
RTVSPropertyOp7
 70
     1
102
RTVSPropertyOp8
 70
     1
102
RTVSPropertyOp9
 70
     1
102
RTVSPropertyOp10
 70
     1
102
RTVSPropertyOp11
 70
     1
102
RTVSPropertyOp12
 70
     1
102
RTVSPropertyOp13
 70
     1
102
RTVSPropertyOp14
 70
     1
102
RTVSPropertyOp15
 70
     1
102
RTVSPropertyOp16
 70
     1
102
RTVSPropertyOp17
 70
     1
102
RTVSPropertyOp18
 70
     1
102
RTVSPropertyOp19
 70
     1
102
RTVSPropertyOp20
 70
     1
102
RTVSPropertyOp21
 70
     1
102
RTVSPropertyOp22
 70
     1
102
RTVSPropertyOp23
 70
     1
102
RTVSPropertyOp24
 70
     1
102
RTVSPropertyOp25
 70
     1
102
RTVSPropertyOp26
 70
     1
102
RTVSPropertyOp27
 70
     1
102
RTVSPropertyOp28
 70
     1
102
RTVSPropertyOp29
 70
     1
102
RTVSPropertyOp30
 70
     1
102
RTVSPropertyOp31
 70
     1
102
RTVSPropertyOp32
 70
     1
102
RTVSPropertyOp33
 70
     1
102
RTVSPropertyOp34
 70
     1
102
RTVSPropertyOp35
 70
     1
102
RTVSPropertyOp36
 70
     1
102
RTVSPropertyOp37
 70
     1
102
RTVSPropertyOp38
 70
     1
102
RTVSPropertyOp39
 70
     1
102
RTVSPropertyOp40
 70
     1
102
RTVSPropertyOp41
 70
     1
102
RTVSPropertyOp42
 70
     1
102
RTVSPropertyOp43
 70
     1
102
RTVSPropertyOp44
 70
     1
102
RTVSPropertyOp45
 70
     1
102
RTVSPropertyOp46
 70
     1
102
RTVSPropertyOp47
 70
     1
102
RTVSPropertyOp48
 70
     1
102
RTVSPropertyOp49
 70
     1
102
RTVSPropertyOp50
 70
     1
102
RTVSPropertyOp51
 70
     0
102
RTVSPropertyOp52
 70
     0
102
RTVSPropertyOp53
 70
     1
102
RTVSPropertyOp54
 70
     1
102
RTVSPropertyOp55
 70
     1
102
RTVSPropertyOp56
 70
     1
102
RTVSPropertyOp57
 70
     1
102
RTVSPropertyOp58
 70
     1
102
RTVSPropertyOp59
 70
     1
102
RTVSPropertyOp60
 70
     1
102
RTVSPropertyOp61
 70
     1
102
RTVSPropertyOp62
 70
     1
  0
XRECORD
  5
C119
102
{ACAD_REACTORS
330
C118
102
}
330
C118
100
AcDbXrecord
280
     1
102
RTVSPost2010Prop28
280
     0
102
RTVSPost2010PropOp28
 70
     1
102
RTVSPost2010Prop29
280
     1
102
RTVSPost2010PropOp29
 70
     1
102
RTVSPost2010Prop30
280
     1
102
RTVSPost2010PropOp30
 70
     1
102
RTVSPost2010Prop31
280
     0
102
RTVSPost2010PropOp31
 70
     1
102
RTVSPost2010Prop32
280
     0
102
RTVSPost2010PropOp32
 70
     1
102
RTVSPost2010Prop33
280
     0
102
RTVSPost2010PropOp33
 70
     1
102
RTVSPost2010Prop34
280
     0
102
RTVSPost2010PropOp34
 70
     1
102
RTVSPost2010Prop35
280
     0
102
RTVSPost2010PropOp35
 70
     1
102
RTVSPost2010Prop36
280
     0
102
RTVSPost2010PropOp36
 70
     1
102
RTVSPost2010Prop37
 90
       50
102
RTVSPost2010PropOp37
 70
     1
102
RTVSPost2010Prop38
140
0.0
102
RTVSPost2010PropOp38
 70
     1
102
RTVSPost2010Prop39
140
1.0
102
RTVSPost2010PropOp39
 70
     1
102
RTVSPost2010Prop40
 90
        0
102
RTVSPost2010PropOp40
 70
     1
102
RTVSPost2010Prop41ColorIndex
 90
       18
102
RTVSPost2010Prop41ColorRGB
 90
        0
102
RTVSPost2010PropOp41
 70
     1
102
RTVSPost2010Prop42
 90
       50
102
RTVSPost2010PropOp42
 70
     1
102
RTVSPost2010Prop43
 90
        3
102
RTVSPost2010PropOp43
 70
     1
102
RTVSPost2010Prop44ColorIndex
 90
        5
102
RTVSPost2010Prop44ColorRGB
 90
      255
102
RTVSPost2010PropOp44
 70
     1
102
RTVSPost2010Prop45
280
     0
102
RTVSPost2010PropOp45
 70
     1
102
RTVSPost2010Prop46
 90
       50
102
RTVSPost2010PropOp46
 70
     1
102
RTVSPost2010Prop47
 90
       50
102
RTVSPost2010PropOp47
 70
     1
102
RTVSPost2010Prop48
 90
       50
102
RTVSPost2010PropOp48
 70
     1
102
RTVSPost2010Prop49
280
     0
102
RTVSPost2010PropOp49
 70
     1
102
RTVSPost2010Prop50
 90
       50
102
RTVSPost2010PropOp50
 70
     1
102
RTVSPost2010Prop51ColorIndex
 90
      256
102
RTVSPost2010Prop51ColorRGB
 90
-16777216
102
RTVSPost2010PropOp51
 70
     0
102
RTVSPost2010Prop52
140
1.0
102
RTVSPost2010PropOp52
 70
     0
102
RTVSPost2010Prop53
 90
        2
102
RTVSPost2010PropOp53
 70
     1
102
RTVSPost2010Prop54
  1
strokes_ogs.tif
102
RTVSPost2010PropOp54
 70
     1
102
RTVSPost2010Prop55
280
     0
102
RTVSPost2010PropOp55
 70
     1
102
RTVSPost2010Prop56
140
1.0
102
RTVSPost2010PropOp56
 70
     1
102
RTVSPost2010Prop57
140
1.0
102
RTVSPost2010PropOp57
 70
     1
102
RTVSPropertyOp0
 70
     1
102
RTVSPropertyOp1
 70
     1
102
RTVSPropertyOp2
 70
     1
102
RTVSPropertyOp3
 70
     1
102
RTVSPropertyOp4
 70
     1
102
RTVSPropertyOp5
 70
     1
102
RTVSPropertyOp6
 70
     1
102
RTVSPropertyOp7
 70
     1
102
RTVSPropertyOp8
 70
     1
102
RTVSPropertyOp9
 70
     1
102
RTVSPropertyOp10
 70
     1
102
RTVSPropertyOp11
 70
     1
102
RTVSPropertyOp12
 70
     1
102
RTVSPropertyOp13
 70
     1
102
RTVSPropertyOp14
 70
     1
102
RTVSPropertyOp15
 70
     1
102
RTVSPropertyOp16
 70
     1
102
RTVSPropertyOp17
 70
     1
102
RTVSPropertyOp18
 70
     1
102
RTVSPropertyOp19
 70
     1
102
RTVSPropertyOp20
 70
     1
102
RTVSPropertyOp21
 70
     1
102
RTVSPropertyOp22
 70
     1
102
RTVSPropertyOp23
 70
     1
102
RTVSPropertyOp24
 70
     1
102
RTVSPropertyOp25
 70
     1
102
RTVSPropertyOp26
 70
     1
102
RTVSPropertyOp27
 70
     1
102
RTVSPropertyOp28
 70
     1
102
RTVSPropertyOp29
 70
     1
102
RTVSPropertyOp30
 70
     1
102
RTVSPropertyOp31
 70
     1
102
RTVSPropertyOp32
 70
     1
102
RTVSPropertyOp33
 70
     1
102
RTVSPropertyOp34
 70
     1
102
RTVSPropertyOp35
 70
     1
102
RTVSPropertyOp36
 70
     1
102
RTVSPropertyOp37
 70
     1
102
RTVSPropertyOp38
 70
     1
102
RTVSPropertyOp39
 70
     1
102
RTVSPropertyOp40
 70
     1
102
RTVSPropertyOp41
 70
     1
102
RTVSPropertyOp42
 70
     1
102
RTVSPropertyOp43
 70
     1
102
RTVSPropertyOp44
 70
     1
102
RTVSPropertyOp45
 70
     1
102
RTVSPropertyOp46
 70
     1
102
RTVSPropertyOp47
 70
     1
102
RTVSPropertyOp48
 70
     1
102
RTVSPropertyOp49
 70
     1
102
RTVSPropertyOp50
 70
     1
102
RTVSPropertyOp51
 70
     0
102
RTVSPropertyOp52
 70
     0
102
RTVSPropertyOp53
 70
     1
102
RTVSPropertyOp54
 70
     1
102
RTVSPropertyOp55
 70
     1
102
RTVSPropertyOp56
 70
     1
102
RTVSPropertyOp57
 70
     1
102
RTVSPropertyOp58
 70
     1
102
RTVSPropertyOp59
 70
     1
102
RTVSPropertyOp60
 70
     1
102
RTVSPropertyOp61
 70
     1
102
RTVSPropertyOp62
 70
     1
  0
XRECORD
  5
C10F
102
{ACAD_REACTORS
330
C10E
102
}
330
C10E
100
AcDbXrecord
280
     1
102
RTVSPost2010Prop28
280
     0
102
RTVSPost2010PropOp28
 70
     1
102
RTVSPost2010Prop29
280
     1
102
RTVSPost2010PropOp29
 70
     1
102
RTVSPost2010Prop30
280
     1
102
RTVSPost2010PropOp30
 70
     1
102
RTVSPost2010Prop31
280
     0
102
RTVSPost2010PropOp31
 70
     1
102
RTVSPost2010Prop32
280
     0
102
RTVSPost2010PropOp32
 70
     1
102
RTVSPost2010Prop33
280
     0
102
RTVSPost2010PropOp33
 70
     1
102
RTVSPost2010Prop34
280
     0
102
RTVSPost2010PropOp34
 70
     1
102
RTVSPost2010Prop35
280
     0
102
RTVSPost2010PropOp35
 70
     1
102
RTVSPost2010Prop36
280
     0
102
RTVSPost2010PropOp36
 70
     1
102
RTVSPost2010Prop37
 90
       50
102
RTVSPost2010PropOp37
 70
     1
102
RTVSPost2010Prop38
140
0.0
102
RTVSPost2010PropOp38
 70
     1
102
RTVSPost2010Prop39
140
1.0
102
RTVSPost2010PropOp39
 70
     1
102
RTVSPost2010Prop40
 90
        0
102
RTVSPost2010PropOp40
 70
     1
102
RTVSPost2010Prop41ColorIndex
 90
       18
102
RTVSPost2010Prop41ColorRGB
 90
        0
102
RTVSPost2010PropOp41
 70
     1
102
RTVSPost2010Prop42
 90
       50
102
RTVSPost2010PropOp42
 70
     1
102
RTVSPost2010Prop43
 90
        3
102
RTVSPost2010PropOp43
 70
     1
102
RTVSPost2010Prop44ColorIndex
 90
        5
102
RTVSPost2010Prop44ColorRGB
 90
      255
102
RTVSPost2010PropOp44
 70
     1
102
RTVSPost2010Prop45
280
     0
102
RTVSPost2010PropOp45
 70
     1
102
RTVSPost2010Prop46
 90
       50
102
RTVSPost2010PropOp46
 70
     1
102
RTVSPost2010Prop47
 90
       50
102
RTVSPost2010PropOp47
 70
     1
102
RTVSPost2010Prop48
 90
       50
102
RTVSPost2010PropOp48
 70
     1
102
RTVSPost2010Prop49
280
     0
102
RTVSPost2010PropOp49
 70
     1
102
RTVSPost2010Prop50
 90
       50
102
RTVSPost2010PropOp50
 70
     1
102
RTVSPost2010Prop51ColorIndex
 90
      256
102
RTVSPost2010Prop51ColorRGB
 90
-16777216
102
RTVSPost2010PropOp51
 70
     0
102
RTVSPost2010Prop52
140
1.0
102
RTVSPost2010PropOp52
 70
     0
102
RTVSPost2010Prop53
 90
        2
102
RTVSPost2010PropOp53
 70
     1
102
RTVSPost2010Prop54
  1
strokes_ogs.tif
102
RTVSPost2010PropOp54
 70
     1
102
RTVSPost2010Prop55
280
     0
102
RTVSPost2010PropOp55
 70
     1
102
RTVSPost2010Prop56
140
1.0
102
RTVSPost2010PropOp56
 70
     1
102
RTVSPost2010Prop57
140
1.0
102
RTVSPost2010PropOp57
 70
     1
102
RTVSPropertyOp0
 70
     1
102
RTVSPropertyOp1
 70
     1
102
RTVSPropertyOp2
 70
     1
102
RTVSPropertyOp3
 70
     1
102
RTVSPropertyOp4
 70
     1
102
RTVSPropertyOp5
 70
     1
102
RTVSPropertyOp6
 70
     1
102
RTVSPropertyOp7
 70
     1
102
RTVSPropertyOp8
 70
     1
102
RTVSPropertyOp9
 70
     1
102
RTVSPropertyOp10
 70
     1
102
RTVSPropertyOp11
 70
     1
102
RTVSPropertyOp12
 70
     1
102
RTVSPropertyOp13
 70
     1
102
RTVSPropertyOp14
 70
     1
102
RTVSPropertyOp15
 70
     1
102
RTVSPropertyOp16
 70
     1
102
RTVSPropertyOp17
 70
     1
102
RTVSPropertyOp18
 70
     1
102
RTVSPropertyOp19
 70
     1
102
RTVSPropertyOp20
 70
     1
102
RTVSPropertyOp21
 70
     1
102
RTVSPropertyOp22
 70
     1
102
RTVSPropertyOp23
 70
     1
102
RTVSPropertyOp24
 70
     1
102
RTVSPropertyOp25
 70
     1
102
RTVSPropertyOp26
 70
     1
102
RTVSPropertyOp27
 70
     1
102
RTVSPropertyOp28
 70
     1
102
RTVSPropertyOp29
 70
     1
102
RTVSPropertyOp30
 70
     1
102
RTVSPropertyOp31
 70
     1
102
RTVSPropertyOp32
 70
     1
102
RTVSPropertyOp33
 70
     1
102
RTVSPropertyOp34
 70
     1
102
RTVSPropertyOp35
 70
     1
102
RTVSPropertyOp36
 70
     1
102
RTVSPropertyOp37
 70
     1
102
RTVSPropertyOp38
 70
     1
102
RTVSPropertyOp39
 70
     1
102
RTVSPropertyOp40
 70
     1
102
RTVSPropertyOp41
 70
     1
102
RTVSPropertyOp42
 70
     1
102
RTVSPropertyOp43
 70
     1
102
RTVSPropertyOp44
 70
     1
102
RTVSPropertyOp45
 70
     1
102
RTVSPropertyOp46
 70
     1
102
RTVSPropertyOp47
 70
     1
102
RTVSPropertyOp48
 70
     1
102
RTVSPropertyOp49
 70
     1
102
RTVSPropertyOp50
 70
     1
102
RTVSPropertyOp51
 70
     0
102
RTVSPropertyOp52
 70
     0
102
RTVSPropertyOp53
 70
     1
102
RTVSPropertyOp54
 70
     1
102
RTVSPropertyOp55
 70
     1
102
RTVSPropertyOp56
 70
     1
102
RTVSPropertyOp57
 70
     1
102
RTVSPropertyOp58
 70
     1
102
RTVSPropertyOp59
 70
     1
102
RTVSPropertyOp60
 70
     1
102
RTVSPropertyOp61
 70
     1
102
RTVSPropertyOp62
 70
     1
  0
XRECORD
  5
C103
102
{ACAD_REACTORS
330
C102
102
}
330
C102
100
AcDbXrecord
280
     1
102
RTVSPost2010Prop28
280
     0
102
RTVSPost2010PropOp28
 70
     1
102
RTVSPost2010Prop29
280
     1
102
RTVSPost2010PropOp29
 70
     1
102
RTVSPost2010Prop30
280
     1
102
RTVSPost2010PropOp30
 70
     1
102
RTVSPost2010Prop31
280
     0
102
RTVSPost2010PropOp31
 70
     1
102
RTVSPost2010Prop32
280
     0
102
RTVSPost2010PropOp32
 70
     1
102
RTVSPost2010Prop33
280
     0
102
RTVSPost2010PropOp33
 70
     1
102
RTVSPost2010Prop34
280
     0
102
RTVSPost2010PropOp34
 70
     1
102
RTVSPost2010Prop35
280
     0
102
RTVSPost2010PropOp35
 70
     1
102
RTVSPost2010Prop36
280
     0
102
RTVSPost2010PropOp36
 70
     1
102
RTVSPost2010Prop37
 90
       50
102
RTVSPost2010PropOp37
 70
     1
102
RTVSPost2010Prop38
140
0.0
102
RTVSPost2010PropOp38
 70
     1
102
RTVSPost2010Prop39
140
1.0
102
RTVSPost2010PropOp39
 70
     1
102
RTVSPost2010Prop40
 90
        0
102
RTVSPost2010PropOp40
 70
     1
102
RTVSPost2010Prop41ColorIndex
 90
       18
102
RTVSPost2010Prop41ColorRGB
 90
        0
102
RTVSPost2010PropOp41
 70
     1
102
RTVSPost2010Prop42
 90
       50
102
RTVSPost2010PropOp42
 70
     1
102
RTVSPost2010Prop43
 90
        3
102
RTVSPost2010PropOp43
 70
     1
102
RTVSPost2010Prop44ColorIndex
 90
        5
102
RTVSPost2010Prop44ColorRGB
 90
      255
102
RTVSPost2010PropOp44
 70
     1
102
RTVSPost2010Prop45
280
     0
102
RTVSPost2010PropOp45
 70
     1
102
RTVSPost2010Prop46
 90
       50
102
RTVSPost2010PropOp46
 70
     1
102
RTVSPost2010Prop47
 90
       50
102
RTVSPost2010PropOp47
 70
     1
102
RTVSPost2010Prop48
 90
       50
102
RTVSPost2010PropOp48
 70
     1
102
RTVSPost2010Prop49
280
     0
102
RTVSPost2010PropOp49
 70
     1
102
RTVSPost2010Prop50
 90
       50
102
RTVSPost2010PropOp50
 70
     1
102
RTVSPost2010Prop51ColorIndex
 90
      256
102
RTVSPost2010Prop51ColorRGB
 90
-16777216
102
RTVSPost2010PropOp51
 70
     0
102
RTVSPost2010Prop52
140
1.0
102
RTVSPost2010PropOp52
 70
     0
102
RTVSPost2010Prop53
 90
        2
102
RTVSPost2010PropOp53
 70
     1
102
RTVSPost2010Prop54
  1
strokes_ogs.tif
102
RTVSPost2010PropOp54
 70
     1
102
RTVSPost2010Prop55
280
     0
102
RTVSPost2010PropOp55
 70
     1
102
RTVSPost2010Prop56
140
1.0
102
RTVSPost2010PropOp56
 70
     1
102
RTVSPost2010Prop57
140
1.0
102
RTVSPost2010PropOp57
 70
     1
102
RTVSPropertyOp0
 70
     1
102
RTVSPropertyOp1
 70
     1
102
RTVSPropertyOp2
 70
     1
102
RTVSPropertyOp3
 70
     1
102
RTVSPropertyOp4
 70
     1
102
RTVSPropertyOp5
 70
     1
102
RTVSPropertyOp6
 70
     1
102
RTVSPropertyOp7
 70
     1
102
RTVSPropertyOp8
 70
     1
102
RTVSPropertyOp9
 70
     1
102
RTVSPropertyOp10
 70
     1
102
RTVSPropertyOp11
 70
     1
102
RTVSPropertyOp12
 70
     1
102
RTVSPropertyOp13
 70
     1
102
RTVSPropertyOp14
 70
     1
102
RTVSPropertyOp15
 70
     1
102
RTVSPropertyOp16
 70
     1
102
RTVSPropertyOp17
 70
     1
102
RTVSPropertyOp18
 70
     1
102
RTVSPropertyOp19
 70
     1
102
RTVSPropertyOp20
 70
     1
102
RTVSPropertyOp21
 70
     1
102
RTVSPropertyOp22
 70
     1
102
RTVSPropertyOp23
 70
     1
102
RTVSPropertyOp24
 70
     1
102
RTVSPropertyOp25
 70
     1
102
RTVSPropertyOp26
 70
     1
102
RTVSPropertyOp27
 70
     1
102
RTVSPropertyOp28
 70
     1
102
RTVSPropertyOp29
 70
     1
102
RTVSPropertyOp30
 70
     1
102
RTVSPropertyOp31
 70
     1
102
RTVSPropertyOp32
 70
     1
102
RTVSPropertyOp33
 70
     1
102
RTVSPropertyOp34
 70
     1
102
RTVSPropertyOp35
 70
     1
102
RTVSPropertyOp36
 70
     1
102
RTVSPropertyOp37
 70
     1
102
RTVSPropertyOp38
 70
     1
102
RTVSPropertyOp39
 70
     1
102
RTVSPropertyOp40
 70
     1
102
RTVSPropertyOp41
 70
     1
102
RTVSPropertyOp42
 70
     1
102
RTVSPropertyOp43
 70
     1
102
RTVSPropertyOp44
 70
     1
102
RTVSPropertyOp45
 70
     1
102
RTVSPropertyOp46
 70
     1
102
RTVSPropertyOp47
 70
     1
102
RTVSPropertyOp48
 70
     1
102
RTVSPropertyOp49
 70
     1
102
RTVSPropertyOp50
 70
     1
102
RTVSPropertyOp51
 70
     0
102
RTVSPropertyOp52
 70
     0
102
RTVSPropertyOp53
 70
     1
102
RTVSPropertyOp54
 70
     1
102
RTVSPropertyOp55
 70
     1
102
RTVSPropertyOp56
 70
     1
102
RTVSPropertyOp57
 70
     1
102
RTVSPropertyOp58
 70
     1
102
RTVSPropertyOp59
 70
     1
102
RTVSPropertyOp60
 70
     1
102
RTVSPropertyOp61
 70
     1
102
RTVSPropertyOp62
 70
     1
  0
XRECORD
  5
C11B
102
{ACAD_REACTORS
330
C11A
102
}
330
C11A
100
AcDbXrecord
280
     1
102
RTVSPost2010Prop28
280
     0
102
RTVSPost2010PropOp28
 70
     1
102
RTVSPost2010Prop29
280
     1
102
RTVSPost2010PropOp29
 70
     1
102
RTVSPost2010Prop30
280
     1
102
RTVSPost2010PropOp30
 70
     1
102
RTVSPost2010Prop31
280
     0
102
RTVSPost2010PropOp31
 70
     1
102
RTVSPost2010Prop32
280
     0
102
RTVSPost2010PropOp32
 70
     1
102
RTVSPost2010Prop33
280
     0
102
RTVSPost2010PropOp33
 70
     1
102
RTVSPost2010Prop34
280
     0
102
RTVSPost2010PropOp34
 70
     1
102
RTVSPost2010Prop35
280
     0
102
RTVSPost2010PropOp35
 70
     1
102
RTVSPost2010Prop36
280
     0
102
RTVSPost2010PropOp36
 70
     1
102
RTVSPost2010Prop37
 90
       50
102
RTVSPost2010PropOp37
 70
     1
102
RTVSPost2010Prop38
140
0.0
102
RTVSPost2010PropOp38
 70
     1
102
RTVSPost2010Prop39
140
1.0
102
RTVSPost2010PropOp39
 70
     1
102
RTVSPost2010Prop40
 90
        0
102
RTVSPost2010PropOp40
 70
     1
102
RTVSPost2010Prop41ColorIndex
 90
       18
102
RTVSPost2010Prop41ColorRGB
 90
        0
102
RTVSPost2010PropOp41
 70
     1
102
RTVSPost2010Prop42
 90
       50
102
RTVSPost2010PropOp42
 70
     1
102
RTVSPost2010Prop43
 90
        3
102
RTVSPost2010PropOp43
 70
     1
102
RTVSPost2010Prop44ColorIndex
 90
        5
102
RTVSPost2010Prop44ColorRGB
 90
      255
102
RTVSPost2010PropOp44
 70
     1
102
RTVSPost2010Prop45
280
     0
102
RTVSPost2010PropOp45
 70
     1
102
RTVSPost2010Prop46
 90
       50
102
RTVSPost2010PropOp46
 70
     1
102
RTVSPost2010Prop47
 90
       50
102
RTVSPost2010PropOp47
 70
     1
102
RTVSPost2010Prop48
 90
       50
102
RTVSPost2010PropOp48
 70
     1
102
RTVSPost2010Prop49
280
     0
102
RTVSPost2010PropOp49
 70
     1
102
RTVSPost2010Prop50
 90
       50
102
RTVSPost2010PropOp50
 70
     1
102
RTVSPost2010Prop51ColorIndex
 90
      256
102
RTVSPost2010Prop51ColorRGB
 90
-16777216
102
RTVSPost2010PropOp51
 70
     0
102
RTVSPost2010Prop52
140
1.0
102
RTVSPost2010PropOp52
 70
     0
102
RTVSPost2010Prop53
 90
        2
102
RTVSPost2010PropOp53
 70
     1
102
RTVSPost2010Prop54
  1
strokes_ogs.tif
102
RTVSPost2010PropOp54
 70
     1
102
RTVSPost2010Prop55
280
     0
102
RTVSPost2010PropOp55
 70
     1
102
RTVSPost2010Prop56
140
1.0
102
RTVSPost2010PropOp56
 70
     1
102
RTVSPost2010Prop57
140
1.0
102
RTVSPost2010PropOp57
 70
     1
102
RTVSPropertyOp0
 70
     1
102
RTVSPropertyOp1
 70
     1
102
RTVSPropertyOp2
 70
     1
102
RTVSPropertyOp3
 70
     1
102
RTVSPropertyOp4
 70
     1
102
RTVSPropertyOp5
 70
     1
102
RTVSPropertyOp6
 70
     1
102
RTVSPropertyOp7
 70
     1
102
RTVSPropertyOp8
 70
     1
102
RTVSPropertyOp9
 70
     1
102
RTVSPropertyOp10
 70
     1
102
RTVSPropertyOp11
 70
     1
102
RTVSPropertyOp12
 70
     1
102
RTVSPropertyOp13
 70
     1
102
RTVSPropertyOp14
 70
     1
102
RTVSPropertyOp15
 70
     1
102
RTVSPropertyOp16
 70
     1
102
RTVSPropertyOp17
 70
     1
102
RTVSPropertyOp18
 70
     1
102
RTVSPropertyOp19
 70
     1
102
RTVSPropertyOp20
 70
     1
102
RTVSPropertyOp21
 70
     1
102
RTVSPropertyOp22
 70
     1
102
RTVSPropertyOp23
 70
     1
102
RTVSPropertyOp24
 70
     1
102
RTVSPropertyOp25
 70
     1
102
RTVSPropertyOp26
 70
     1
102
RTVSPropertyOp27
 70
     1
102
RTVSPropertyOp28
 70
     1
102
RTVSPropertyOp29
 70
     1
102
RTVSPropertyOp30
 70
     1
102
RTVSPropertyOp31
 70
     1
102
RTVSPropertyOp32
 70
     1
102
RTVSPropertyOp33
 70
     1
102
RTVSPropertyOp34
 70
     1
102
RTVSPropertyOp35
 70
     1
102
RTVSPropertyOp36
 70
     1
102
RTVSPropertyOp37
 70
     1
102
RTVSPropertyOp38
 70
     1
102
RTVSPropertyOp39
 70
     1
102
RTVSPropertyOp40
 70
     1
102
RTVSPropertyOp41
 70
     1
102
RTVSPropertyOp42
 70
     1
102
RTVSPropertyOp43
 70
     1
102
RTVSPropertyOp44
 70
     1
102
RTVSPropertyOp45
 70
     1
102
RTVSPropertyOp46
 70
     1
102
RTVSPropertyOp47
 70
     1
102
RTVSPropertyOp48
 70
     1
102
RTVSPropertyOp49
 70
     1
102
RTVSPropertyOp50
 70
     1
102
RTVSPropertyOp51
 70
     0
102
RTVSPropertyOp52
 70
     0
102
RTVSPropertyOp53
 70
     1
102
RTVSPropertyOp54
 70
     1
102
RTVSPropertyOp55
 70
     1
102
RTVSPropertyOp56
 70
     1
102
RTVSPropertyOp57
 70
     1
102
RTVSPropertyOp58
 70
     1
102
RTVSPropertyOp59
 70
     1
102
RTVSPropertyOp60
 70
     1
102
RTVSPropertyOp61
 70
     1
102
RTVSPropertyOp62
 70
     1
  0
ENDSEC
  0
EOF
