  0
SECTION
  2
HEADER
  9
$ACADVER
  1
AC1015
  9
$ACADMAINTVER
 70
    20
  9
$DWGCODEPAGE
  3
ANSI_932
  9
$INSBASE
 10
0.0
 20
0.0
 30
0.0
  9
$EXTMIN
 10
10.0
 20
9.999999999999998
 30
0.0
  9
$EXTMAX
 10
950.6
 20
464.8
 30
0.0
  9
$LIMMIN
 10
0.0
 20
0.0
  9
$LIMMAX
 10
990.0
 20
682.5
  9
$ORTHOMODE
 70
     1
  9
$REGENMODE
 70
     1
  9
$FILLMODE
 70
     1
  9
$QTEXTMODE
 70
     0
  9
$MIRRTEXT
 70
     1
  9
$LTSCALE
 40
20.0
  9
$ATTMODE
 70
     1
  9
$TEXTSIZE
 40
5.0
  9
$TRACEWID
 40
1.0
  9
$TEXTSTYLE
  7
STANDARD
  9
$CLAYER
  8
0
  9
$CELTYPE
  6
BYLAYER
  9
$CECOLOR
 62
   256
  9
$CELTSCALE
 40
1.0
  9
$DISPSILH
 70
     0
  9
$DIMSCALE
 40
1.0
  9
$DIMASZ
 40
3.0
  9
$DIMEXO
 40
1.0
  9
$DIMDLI
 40
10.0
  9
$DIMRND
 40
0.0
  9
$DIMDLE
 40
0.0
  9
$DIMEXE
 40
1.0
  9
$DIMTP
 40
0.0
  9
$DIMTM
 40
0.0
  9
$DIMTXT
 40
2.5
  9
$DIMCEN
 40
0.0
  9
$DIMTSZ
 40
0.0
  9
$DIMTOL
 70
     0
  9
$DIMLIM
 70
     0
  9
$DIMTIH
 70
     0
  9
$DIMTOH
 70
     0
  9
$DIMSE1
 70
     1
  9
$DIMSE2
 70
     1
  9
$DIMTAD
 70
     3
  9
$DIMZIN
 70
     8
  9
$DIMBLK
  1

  9
$DIMASO
 70
     1
  9
$DIMSHO
 70
     1
  9
$DIMPOST
  1

  9
$DIMAPOST
  1

  9
$DIMALT
 70
     0
  9
$DIMALTD
 70
     2
  9
$DIMALTF
 40
25.4
  9
$DIMLFAC
 40
1.0
  9
$DIMTOFL
 70
     1
  9
$DIMTVP
 40
0.0
  9
$DIMTIX
 70
     0
  9
$DIMSOXD
 70
     0
  9
$DIMSAH
 70
     1
  9
$DIMBLK1
  1

  9
$DIMBLK2
  1

  9
$DIMSTYLE
  2
STANDARD
  9
$DIMCLRD
 70
     0
  9
$DIMCLRE
 70
     0
  9
$DIMCLRT
 70
     0
  9
$DIMTFAC
 40
1.0
  9
$DIMGAP
 40
1.0
  9
$DIMJUST
 70
     0
  9
$DIMSD1
 70
     0
  9
$DIMSD2
 70
     0
  9
$DIMTOLJ
 70
     1
  9
$DIMTZIN
 70
     0
  9
$DIMALTZ
 70
     0
  9
$DIMALTTZ
 70
     0
  9
$DIMUPT
 70
     0
  9
$DIMDEC
 70
     4
  9
$DIMTDEC
 70
     4
  9
$DIMALTU
 70
     2
  9
$DIMALTTD
 70
     2
  9
$DIMTXSTY
  7
STANDARD
  9
$DIMAUNIT
 70
     0
  9
$DIMADEC
 70
     0
  9
$DIMALTRND
 40
0.0
  9
$DIMAZIN
 70
     0
  9
$DIMDSEP
 70
    46
  9
$DIMATFIT
 70
     3
  9
$DIMFRAC
 70
     0
  9
$DIMLDRBLK
  1

  9
$DIMLUNIT
 70
     2
  9
$DIMLWD
 70
    -2
  9
$DIMLWE
 70
    -2
  9
$DIMTMOVE
 70
     0
  9
$LUNITS
 70
     2
  9
$LUPREC
 70
     4
  9
$SKETCHINC
 40
1.0
  9
$FILLETRAD
 40
0.0
  9
$AUNITS
 70
     0
  9
$AUPREC
 70
     2
  9
$MENU
  1
.
  9
$ELEVATION
 40
0.0
  9
$PELEVATION
 40
0.0
  9
$THICKNESS
 40
0.0
  9
$LIMCHECK
 70
     0
  9
$CHAMFERA
 40
10.0
  9
$CHAMFERB
 40
10.0
  9
$CHAMFERC
 40
0.0
  9
$CHAMFERD
 40
0.0
  9
$SKPOLY
 70
     0
  9
$TDCREATE
 40
2451233.360665278
  9
$TDUCREATE
 40
2451232.985665278
  9
$TDUPDATE
 40
2457192.659523322
  9
$TDUUPDATE
 40
2457192.284523322
  9
$TDINDWG
 40
0.0000131481
  9
$TDUSRTIMER
 40
0.0000128356
  9
$USRTIMER
 70
     1
  9
$ANGBASE
 50
0.0
  9
$ANGDIR
 70
     0
  9
$PDMODE
 70
     0
  9
$PDSIZE
 40
0.0
  9
$PLINEWID
 40
0.0
  9
$SPLFRAME
 70
     0
  9
$SPLINETYPE
 70
     6
  9
$SPLINESEGS
 70
     8
  9
$HANDSEED
  5
D22D
  9
$SURFTAB1
 70
     6
  9
$SURFTAB2
 70
     6
  9
$SURFTYPE
 70
     6
  9
$SURFU
 70
     6
  9
$SURFV
 70
     6
  9
$UCSBASE
  2

  9
$UCSNAME
  2

  9
$UCSORG
 10
0.0
 20
0.0
 30
0.0
  9
$UCSXDIR
 10
1.0
 20
0.0
 30
0.0
  9
$UCSYDIR
 10
0.0
 20
1.0
 30
0.0
  9
$UCSORTHOREF
  2

  9
$UCSORTHOVIEW
 70
     0
  9
$UCSORGTOP
 10
0.0
 20
0.0
 30
0.0
  9
$UCSORGBOTTOM
 10
0.0
 20
0.0
 30
0.0
  9
$UCSORGLEFT
 10
0.0
 20
0.0
 30
0.0
  9
$UCSORGRIGHT
 10
0.0
 20
0.0
 30
0.0
  9
$UCSORGFRONT
 10
0.0
 20
0.0
 30
0.0
  9
$UCSORGBACK
 10
0.0
 20
0.0
 30
0.0
  9
$PUCSBASE
  2

  9
$PUCSNAME
  2

  9
$PUCSORG
 10
0.0
 20
0.0
 30
0.0
  9
$PUCSXDIR
 10
1.0
 20
0.0
 30
0.0
  9
$PUCSYDIR
 10
0.0
 20
1.0
 30
0.0
  9
$PUCSORTHOREF
  2

  9
$PUCSORTHOVIEW
 70
     0
  9
$PUCSORGTOP
 10
0.0
 20
0.0
 30
0.0
  9
$PUCSORGBOTTOM
 10
0.0
 20
0.0
 30
0.0
  9
$PUCSORGLEFT
 10
0.0
 20
0.0
 30
0.0
  9
$PUCSORGRIGHT
 10
0.0
 20
0.0
 30
0.0
  9
$PUCSORGFRONT
 10
0.0
 20
0.0
 30
0.0
  9
$PUCSORGBACK
 10
0.0
 20
0.0
 30
0.0
  9
$USERI1
 70
     0
  9
$USERI2
 70
     0
  9
$USERI3
 70
     0
  9
$USERI4
 70
     0
  9
$USERI5
 70
     0
  9
$USERR1
 40
0.0
  9
$USERR2
 40
0.0
  9
$USERR3
 40
0.0
  9
$USERR4
 40
0.0
  9
$USERR5
 40
0.0
  9
$WORLDVIEW
 70
     1
  9
$SHADEDGE
 70
     3
  9
$SHADEDIF
 70
    70
  9
$TILEMODE
 70
     1
  9
$MAXACTVP
 70
    16
  9
$PINSBASE
 10
0.0
 20
0.0
 30
0.0
  9
$PLIMCHECK
 70
     0
  9
$PEXTMIN
 10
1.000000000000000E+20
 20
1.000000000000000E+20
 30
1.000000000000000E+20
  9
$PEXTMAX
 10
-1.000000000000000E+20
 20
-1.000000000000000E+20
 30
-1.000000000000000E+20
  9
$PLIMMIN
 10
0.0
 20
0.0
  9
$PLIMMAX
 10
420.0
 20
297.0
  9
$UNITMODE
 70
     0
  9
$VISRETAIN
 70
     0
  9
$PLINEGEN
 70
     0
  9
$PSLTSCALE
 70
     0
  9
$TREEDEPTH
 70
  3020
  9
$CMLSTYLE
  2
STANDARD
  9
$CMLJUST
 70
     0
  9
$CMLSCALE
 40
1.0
  9
$PROXYGRAPHICS
 70
     1
  9
$MEASUREMENT
 70
     0
  9
$CELWEIGHT
370
    -1
  9
$ENDCAPS
280
     0
  9
$JOINSTYLE
280
     0
  9
$LWDISPLAY
290
     0
  9
$INSUNITS
 70
     0
  9
$HYPERLINKBASE
  1

  9
$STYLESHEET
  1

  9
$XEDIT
290
     1
  9
$CEPSNTYPE
380
     0
  9
$PSTYLEMODE
290
     1
  9
$FINGERPRINTGUID
  2
{ECFE0BBE-4913-4E27-9D88-5E9F88AF577E}
  9
$VERSIONGUID
  2
{9C0D7365-6D09-4E71-AEDA-BAE75A5EAEFE}
  9
$EXTNAMES
290
     1
  9
$PSVPSCALE
 40
0.0
  9
$OLESTARTUP
290
     0
  0
ENDSEC
  0
SECTION
  2
CLASSES
  0
CLASS
  1
ACDBDICTIONARYWDFLT
  2
AcDbDictionaryWithDefault
  3
ObjectDBX Classes
 90
        0
280
     0
281
     0
  0
CLASS
  1
ACDBPLACEHOLDER
  2
AcDbPlaceHolder
  3
ObjectDBX Classes
 90
        0
280
     0
281
     0
  0
CLASS
  1
LAYOUT
  2
AcDbLayout
  3
ObjectDBX Classes
 90
        0
280
     0
281
     0
  0
CLASS
  1
DICTIONARYVAR
  2
AcDbDictionaryVar
  3
ObjectDBX Classes
 90
        0
280
     0
281
     0
  0
CLASS
  1
MATERIAL
  2
AcDbMaterial
  3
ObjectDBX Classes
 90
     1153
280
     0
281
     0
  0
CLASS
  1
VISUALSTYLE
  2
AcDbVisualStyle
  3
ObjectDBX Classes
 90
     4095
280
     0
281
     0
  0
CLASS
  1
TABLESTYLE
  2
AcDbTableStyle
  3
ObjectDBX Classes
 90
     4095
280
     0
281
     0
  0
CLASS
  1
SCALE
  2
AcDbScale
  3
ObjectDBX Classes
 90
     1153
280
     0
281
     0
  0
CLASS
  1
MLEADERSTYLE
  2
AcDbMLeaderStyle
  3
ACDB_MLEADERSTYLE_CLASS
 90
     4095
280
     0
281
     0
  0
CLASS
  1
ACDBSECTIONVIEWSTYLE
  2
AcDbSectionViewStyle
  3
ObjectDBX Classes
 90
     1025
280
     0
281
     0
  0
CLASS
  1
ACDBDETAILVIEWSTYLE
  2
AcDbDetailViewStyle
  3
ObjectDBX Classes
 90
     1025
280
     0
281
     0
  0
CLASS
  1
CELLSTYLEMAP
  2
AcDbCellStyleMap
  3
ObjectDBX Classes
 90
     1152
280
     0
281
     0
  0
ENDSEC
  0
SECTION
  2
TABLES
  0
TABLE
  2
VPORT
  5
CD5E
330
0
100
AcDbSymbolTable
 70
     1
  0
VPORT
  5
D176
330
CD5E
100
AcDbSymbolTableRecord
100
AcDbViewportTableRecord
  2
*ACTIVE
 70
     0
 10
0.0
 20
0.0
 11
1.0
 21
1.0
 12
642.2286428054158
 22
237.3951545138203
 13
0.0
 23
0.0
 14
10.0
 24
10.0
 15
10.0
 25
10.0
 16
0.0
 26
0.0
 36
1.0
 17
0.0
 27
0.0
 37
0.0
 40
540.7010234461932
 41
1.899603698811096
 42
50.0
 43
0.0
 44
0.0
 50
0.0
 51
0.0
 71
     0
 72
   100
 73
     1
 74
     0
 75
     0
 76
     0
 77
     0
 78
     0
281
     0
 65
     1
110
0.0
120
0.0
130
0.0
111
1.0
121
0.0
131
0.0
112
0.0
122
1.0
132
0.0
 79
     0
146
0.0
1001
ACAD_NAV_VCDISPLAY
1070
     3
  0
ENDTAB
  0
TABLE
  2
LTYPE
  5
CD5B
330
0
100
AcDbSymbolTable
 70
     4
  0
LTYPE
  5
CD69
330
CD5B
100
AcDbSymbolTableRecord
100
AcDbLinetypeTableRecord
  2
BYBLOCK
 70
     0
  3

 72
    65
 73
     0
 40
0.0
  0
LTYPE
  5
CD6A
330
CD5B
100
AcDbSymbolTableRecord
100
AcDbLinetypeTableRecord
  2
BYLAYER
 70
     0
  3

 72
    65
 73
     0
 40
0.0
  0
LTYPE
  5
CD6B
330
CD5B
100
AcDbSymbolTableRecord
100
AcDbLinetypeTableRecord
  2
CONTINUOUS
 70
     0
  3
Solid line
 72
    65
 73
     0
 40
0.0
  0
LTYPE
  5
CD79
330
CD5B
100
AcDbSymbolTableRecord
100
AcDbLinetypeTableRecord
  2
DASHED
 70
     0
  3
__ __ __ __ __ __ __ __ __ __ __ __ __ __ __ __
 72
    65
 73
     2
 40
0.75
 49
0.5
 74
     0
 49
-0.25
 74
     0
  0
LTYPE
  5
CD7A
330
CD5B
100
AcDbSymbolTableRecord
100
AcDbLinetypeTableRecord
  2
CENTER
 70
     0
  3
____ _ ____ _ ____ _ ____ _ ____ _ ____ _ ____ 
 72
    65
 73
     4
 40
2.0
 49
1.25
 74
     0
 49
-0.25
 74
     0
 49
0.25
 74
     0
 49
-0.25
 74
     0
  0
LTYPE
  5
CD7B
330
CD5B
100
AcDbSymbolTableRecord
100
AcDbLinetypeTableRecord
  2
PHANTOM
 70
     0
  3
______  __  __  ______  __  __  ______  __  __ 
 72
    65
 73
     6
 40
2.5
 49
1.25
 74
     0
 49
-0.25
 74
     0
 49
0.25
 74
     0
 49
-0.25
 74
     0
 49
0.25
 74
     0
 49
-0.25
 74
     0
  0
ENDTAB
  0
TABLE
  2
LAYER
  5
CD58
330
0
100
AcDbSymbolTable
 70
     8
  0
LAYER
  5
CD66
102
{ACAD_XDICTIONARY
360
D1D1
102
}
330
CD58
100
AcDbSymbolTableRecord
100
AcDbLayerTableRecord
  2
0
 70
     0
 62
     7
  6
CONTINUOUS
370
    -3
390
D17F
  0
LAYER
  5
CD7C
102
{ACAD_XDICTIONARY
360
D1D3
102
}
330
CD58
100
AcDbSymbolTableRecord
100
AcDbLayerTableRecord
  2
4
 70
     0
 62
     1
  6
CENTER
370
    -3
390
D17F
  0
LAYER
  5
CD7D
102
{ACAD_XDICTIONARY
360
D1D5
102
}
330
CD58
100
AcDbSymbolTableRecord
100
AcDbLayerTableRecord
  2
5
 70
     0
 62
     6
  6
PHANTOM
370
    -3
390
D17F
  0
LAYER
  5
CD7E
102
{ACAD_XDICTIONARY
360
D1D7
102
}
330
CD58
100
AcDbSymbolTableRecord
100
AcDbLayerTableRecord
  2
1
 70
     0
 62
     7
  6
CONTINUOUS
370
    -3
390
D17F
  0
LAYER
  5
CD7F
102
{ACAD_XDICTIONARY
360
D1D9
102
}
330
CD58
100
AcDbSymbolTableRecord
100
AcDbLayerTableRecord
  2
2
 70
     0
 62
     4
  6
CONTINUOUS
370
    -3
390
D17F
  0
LAYER
  5
CD80
102
{ACAD_XDICTIONARY
360
D1DB
102
}
330
CD58
100
AcDbSymbolTableRecord
100
AcDbLayerTableRecord
  2
3
 70
     0
 62
     2
  6
DASHED
370
    -3
390
D17F
  0
LAYER
  5
CD81
102
{ACAD_XDICTIONARY
360
D1DD
102
}
330
CD58
100
AcDbSymbolTableRecord
100
AcDbLayerTableRecord
  2
6
 70
     0
 62
     5
  6
CONTINUOUS
370
    -3
390
D17F
  0
LAYER
  5
CD82
102
{ACAD_XDICTIONARY
360
D1DF
102
}
330
CD58
100
AcDbSymbolTableRecord
100
AcDbLayerTableRecord
  2
7
 70
     0
 62
     3
  6
CONTINUOUS
370
    -3
390
D17F
  0
ENDTAB
  0
TABLE
  2
STYLE
  5
CD59
330
0
100
AcDbSymbolTable
 70
     1
  0
STYLE
  5
CD67
330
CD59
100
AcDbSymbolTableRecord
100
AcDbTextStyleTableRecord
  2
STANDARD
 70
     0
 40
0.0
 41
1.0
 50
0.0
 71
     0
 42
5.0
  3
txt
  4

  0
ENDTAB
  0
TABLE
  2
VIEW
  5
CD5C
330
0
100
AcDbSymbolTable
 70
     0
  0
ENDTAB
  0
TABLE
  2
UCS
  5
CD5D
330
0
100
AcDbSymbolTable
 70
     0
  0
ENDTAB
  0
TABLE
  2
APPID
  5
CD5F
330
0
100
AcDbSymbolTable
 70
     3
  0
APPID
  5
CD68
330
CD5F
100
AcDbSymbolTableRecord
100
AcDbRegAppTableRecord
  2
ACAD
 70
     0
  0
APPID
  5
D1EB
330
CD5F
100
AcDbSymbolTableRecord
100
AcDbRegAppTableRecord
  2
ACAD_NAV_VCDISPLAY
 70
     0
  0
APPID
  5
D224
330
CD5F
100
AcDbSymbolTableRecord
100
AcDbRegAppTableRecord
  2
ACAD_MLEADERVER
 70
     0
  0
ENDTAB
  0
TABLE
  2
DIMSTYLE
  5
CD60
330
0
100
AcDbSymbolTable
 70
     1
100
AcDbDimStyleTable
 71
     0
  0
DIMSTYLE
105
CD84
330
CD60
100
AcDbSymbolTableRecord
100
AcDbDimStyleTableRecord
  2
STANDARD
 70
     0
 41
3.0
 42
1.0
 43
10.0
 44
1.0
 73
     0
 74
     0
 77
     3
 78
     8
140
2.5
141
0.0
147
1.0
172
     1
173
     1
284
     8
285
     8
286
     8
340
CD67
  0
ENDTAB
  0
TABLE
  2
BLOCK_RECORD
  5
CD57
330
0
100
AcDbSymbolTable
 70
     0
  0
BLOCK_RECORD
  5
CD74
102
{ACAD_XDICTIONARY
360
D179
102
}
330
CD57
100
AcDbSymbolTableRecord
100
AcDbBlockTableRecord
  2
*MODEL_SPACE
340
D1CD
  0
BLOCK_RECORD
  5
CD70
102
{ACAD_XDICTIONARY
360
D177
102
}
330
CD57
100
AcDbSymbolTableRecord
100
AcDbBlockTableRecord
  2
*PAPER_SPACE
340
D1CE
  0
ENDTAB
  0
ENDSEC
  0
SECTION
  2
BLOCKS
  0
BLOCK
  5
CD75
330
CD74
100
AcDbEntity
  8
0
100
AcDbBlockBegin
  2
*MODEL_SPACE
 70
     0
 10
0.0
 20
0.0
 30
0.0
  3
*MODEL_SPACE
  1

  0
ENDBLK
  5
CD76
330
CD74
100
AcDbEntity
  8
0
100
AcDbBlockEnd
  0
BLOCK
  5
CD71
330
CD70
100
AcDbEntity
 67
     1
  8
0
100
AcDbBlockBegin
  2
*PAPER_SPACE
 70
     0
 10
0.0
 20
0.0
 30
0.0
  3
*PAPER_SPACE
  1

  0
ENDBLK
  5
CD72
330
CD70
100
AcDbEntity
 67
     1
  8
0
100
AcDbBlockEnd
  0
ENDSEC
  0
SECTION
  2
ENTITIES
  0
TEXT
  5
CD8C
330
CD74
100
AcDbEntity
  8
7
  6
Continuous
100
AcDbText
 10
10.0
 20
18.0
 30
0.0
 40
3.0
  1
TYPE No.TM-167-14
100
AcDbText
  0
TEXT
  5
CD8D
330
CD74
100
AcDbEntity
  8
7
  6
Continuous
100
AcDbText
 10
10.0
 20
26.0
 30
0.0
 40
3.0
  1
CODE No.5842
100
AcDbText
  0
TEXT
  5
CD8E
330
CD74
100
AcDbEntity
  8
1
  6
Continuous
100
AcDbText
 10
10.0
 20
10.0
 30
0.0
 40
1.399999999999999
  1
LAYER
100
AcDbText
  0
TEXT
  5
CD8F
330
CD74
100
AcDbEntity
  8
1
  6
Continuous
100
AcDbText
 10
17.97951099999998
 20
10.04873699999998
 30
0.0
 40
1.399999999999999
  1
1
100
AcDbText
  0
TEXT
  5
CD90
330
CD74
100
AcDbEntity
  8
7
  6
Continuous
100
AcDbText
 10
29.97951099999999
 20
10.04873699999998
 30
0.0
 40
1.399999999999999
  1
7
100
AcDbText
  0
TEXT
  5
CD91
330
CD74
100
AcDbEntity
  8
4
  6
CENTER
100
AcDbText
 10
23.97951099999999
 20
10.04873699999998
 30
0.0
 40
1.399999999999999
  1
4
100
AcDbText
  0
TEXT
  5
CD92
330
CD74
100
AcDbEntity
  8
3
  6
DASHED
100
AcDbText
 10
21.979511
 20
10.04873699999998
 30
0.0
 40
1.399999999999999
  1
3
100
AcDbText
  0
TEXT
  5
CD93
330
CD74
100
AcDbEntity
  8
2
  6
Continuous
100
AcDbText
 10
19.97951099999999
 20
10.04873699999998
 30
0.0
 40
1.399999999999999
  1
2
100
AcDbText
  0
TEXT
  5
CD94
330
CD74
100
AcDbEntity
  8
6
  6
Continuous
100
AcDbText
 10
27.979511
 20
10.04873699999998
 30
0.0
 40
1.399999999999999
  1
6
100
AcDbText
  0
TEXT
  5
CD95
330
CD74
100
AcDbEntity
  8
5
  6
PHANTOM
100
AcDbText
 10
25.97951099999999
 20
10.04873699999998
 30
0.0
 40
1.399999999999999
  1
5
100
AcDbText
  0
LINE
  5
CD96
330
CD74
100
AcDbEntity
  8
1
  6
Continuous
100
AcDbLine
 10
117.5
 20
165.0999999999999
 30
0.0
 11
117.5
 21
166.602131
 31
0.0
  0
LINE
  5
CD97
330
CD74
100
AcDbEntity
  8
1
  6
Continuous
100
AcDbLine
 10
117.5
 20
165.0999999999999
 30
0.0
 11
473.5
 21
165.0999999999999
 31
0.0
  0
LINE
  5
CD98
330
CD74
100
AcDbEntity
  8
1
  6
Continuous
100
AcDbLine
 10
473.5
 20
165.0999999999999
 30
0.0
 11
473.5
 21
175.2499999999998
 31
0.0
  0
LINE
  5
CD99
330
CD74
100
AcDbEntity
  8
1
  6
Continuous
100
AcDbLine
 10
117.5
 20
200.4
 30
0.0
 11
473.5
 21
200.4
 31
0.0
  0
LINE
  5
CD9A
330
CD74
100
AcDbEntity
  8
4
  6
CENTER
100
AcDbLine
 10
112.5
 20
182.75
 30
0.0
 11
856.4999999999999
 21
182.75
 31
0.0
  0
LINE
  5
CD9B
330
CD74
100
AcDbEntity
  8
1
  6
Continuous
100
AcDbLine
 10
495.5
 20
165.0999999999999
 30
0.0
 11
495.5
 21
170.5
 31
0.0
  0
LINE
  5
CD9C
330
CD74
100
AcDbEntity
  8
1
  6
Continuous
100
AcDbLine
 10
851.5
 20
165.0999999999999
 30
0.0
 11
851.5
 21
166.602131
 31
0.0
  0
LINE
  5
CD9D
330
CD74
100
AcDbEntity
  8
1
  6
Continuous
100
AcDbLine
 10
495.5
 20
200.4
 30
0.0
 11
851.5
 21
200.4
 31
0.0
  0
LINE
  5
CD9E
330
CD74
100
AcDbEntity
  8
1
  6
Continuous
100
AcDbLine
 10
495.5
 20
165.0999999999999
 30
0.0
 11
851.5
 21
165.0999999999999
 31
0.0
  0
ARC
  5
CD9F
330
CD74
100
AcDbEntity
  8
1
  6
Continuous
100
AcDbCircle
 10
457.6
 20
182.3499999999999
 30
0.0
 40
2.25
100
AcDbArc
 50
180.0
 51
0.0
  0
LINE
  5
CDA0
330
CD74
100
AcDbEntity
  8
1
  6
Continuous
100
AcDbLine
 10
459.85
 20
183.15
 30
0.0
 11
459.85
 21
182.3499999999999
 31
0.0
  0
LINE
  5
CDA1
330
CD74
100
AcDbEntity
  8
1
  6
Continuous
100
AcDbLine
 10
455.35
 20
183.15
 30
0.0
 11
455.35
 21
182.3499999999999
 31
0.0
  0
LINE
  5
CDA2
330
CD74
100
AcDbEntity
  8
4
  6
CENTER
100
AcDbLine
 10
457.6
 20
188.0
 30
0.0
 11
457.6
 21
177.5
 31
0.0
  0
ARC
  5
CDA3
330
CD74
100
AcDbEntity
  8
1
  6
Continuous
100
AcDbCircle
 10
457.6
 20
183.15
 30
0.0
 40
2.25
100
AcDbArc
 50
0.0
 51
180.0
  0
ARC
  5
CDA4
330
CD74
100
AcDbEntity
  8
1
  6
Continuous
100
AcDbCircle
 10
444.8999999999998
 20
183.15
 30
0.0
 40
2.25
100
AcDbArc
 50
0.0
 51
180.0
  0
ARC
  5
CDA5
330
CD74
100
AcDbEntity
  8
1
  6
Continuous
100
AcDbCircle
 10
444.8999999999998
 20
182.3499999999999
 30
0.0
 40
2.25
100
AcDbArc
 50
180.0
 51
0.0
  0
LINE
  5
CDA6
330
CD74
100
AcDbEntity
  8
4
  6
CENTER
100
AcDbLine
 10
444.8999999999998
 20
188.0
 30
0.0
 11
444.8999999999998
 21
177.5
 31
0.0
  0
LINE
  5
CDA7
330
CD74
100
AcDbEntity
  8
1
  6
Continuous
100
AcDbLine
 10
442.6499999999998
 20
183.15
 30
0.0
 11
442.6499999999998
 21
182.3499999999999
 31
0.0
  0
LINE
  5
CDA8
330
CD74
100
AcDbEntity
  8
1
  6
Continuous
100
AcDbLine
 10
447.1499999999998
 20
183.15
 30
0.0
 11
447.1499999999998
 21
182.3499999999999
 31
0.0
  0
ARC
  5
CDA9
330
CD74
100
AcDbEntity
  8
1
  6
Continuous
100
AcDbCircle
 10
432.6
 20
182.75
 30
0.0
 40
2.25
100
AcDbArc
 50
270.0
 51
90.0
  0
LINE
  5
CDAA
330
CD74
100
AcDbEntity
  8
4
  6
CENTER
100
AcDbLine
 10
432.2
 20
188.0
 30
0.0
 11
432.2
 21
177.5
 31
0.0
  0
ARC
  5
CDAB
330
CD74
100
AcDbEntity
  8
1
  6
Continuous
100
AcDbCircle
 10
431.8
 20
182.75
 30
0.0
 40
2.25
100
AcDbArc
 50
90.0
 51
270.0
  0
LINE
  5
CDAC
330
CD74
100
AcDbEntity
  8
1
  6
Continuous
100
AcDbLine
 10
432.6
 20
185.0
 30
0.0
 11
431.8
 21
185.0
 31
0.0
  0
LINE
  5
CDAD
330
CD74
100
AcDbEntity
  8
1
  6
Continuous
100
AcDbLine
 10
432.6
 20
180.4999999999998
 30
0.0
 11
431.8
 21
180.4999999999998
 31
0.0
  0
ARC
  5
CDAE
330
CD74
100
AcDbEntity
  8
1
  6
Continuous
100
AcDbCircle
 10
346.8999999999998
 20
182.75
 30
0.0
 40
2.25
100
AcDbArc
 50
270.0
 51
90.0
  0
ARC
  5
CDAF
330
CD74
100
AcDbEntity
  8
1
  6
Continuous
100
AcDbCircle
 10
346.1
 20
182.75
 30
0.0
 40
2.25
100
AcDbArc
 50
90.0
 51
270.0
  0
LINE
  5
CDB0
330
CD74
100
AcDbEntity
  8
1
  6
Continuous
100
AcDbLine
 10
346.8999999999998
 20
185.0
 30
0.0
 11
346.1
 21
185.0
 31
0.0
  0
LINE
  5
CDB1
330
CD74
100
AcDbEntity
  8
4
  6
CENTER
100
AcDbLine
 10
346.4999999999998
 20
188.0
 30
0.0
 11
346.4999999999998
 21
177.5
 31
0.0
  0
LINE
  5
CDB2
330
CD74
100
AcDbEntity
  8
1
  6
Continuous
100
AcDbLine
 10
346.8999999999998
 20
180.4999999999998
 30
0.0
 11
346.1
 21
180.4999999999998
 31
0.0
  0
LINE
  5
CDB3
330
CD74
100
AcDbEntity
  8
1
  6
Continuous
100
AcDbLine
 10
258.0
 20
180.4999999999998
 30
0.0
 11
257.2
 21
180.4999999999998
 31
0.0
  0
LINE
  5
CDB4
330
CD74
100
AcDbEntity
  8
4
  6
CENTER
100
AcDbLine
 10
257.6
 20
188.0
 30
0.0
 11
257.6
 21
177.5
 31
0.0
  0
LINE
  5
CDB5
330
CD74
100
AcDbEntity
  8
1
  6
Continuous
100
AcDbLine
 10
258.0
 20
185.0
 30
0.0
 11
257.2
 21
185.0
 31
0.0
  0
ARC
  5
CDB6
330
CD74
100
AcDbEntity
  8
1
  6
Continuous
100
AcDbCircle
 10
257.2
 20
182.75
 30
0.0
 40
2.25
100
AcDbArc
 50
90.0
 51
270.0
  0
ARC
  5
CDB7
330
CD74
100
AcDbEntity
  8
1
  6
Continuous
100
AcDbCircle
 10
258.0
 20
182.75
 30
0.0
 40
2.25
100
AcDbArc
 50
270.0
 51
90.0
  0
ARC
  5
CDB8
330
CD74
100
AcDbEntity
  8
1
  6
Continuous
100
AcDbCircle
 10
146.5
 20
183.15
 30
0.0
 40
2.25
100
AcDbArc
 50
0.0
 51
180.0
  0
ARC
  5
CDB9
330
CD74
100
AcDbEntity
  8
1
  6
Continuous
100
AcDbCircle
 10
146.5
 20
182.3499999999999
 30
0.0
 40
2.25
100
AcDbArc
 50
180.0
 51
0.0
  0
LINE
  5
CDBA
330
CD74
100
AcDbEntity
  8
4
  6
CENTER
100
AcDbLine
 10
146.5
 20
188.0
 30
0.0
 11
146.5
 21
177.5
 31
0.0
  0
LINE
  5
CDBB
330
CD74
100
AcDbEntity
  8
1
  6
Continuous
100
AcDbLine
 10
144.25
 20
183.15
 30
0.0
 11
144.25
 21
182.3499999999999
 31
0.0
  0
LINE
  5
CDBC
330
CD74
100
AcDbEntity
  8
1
  6
Continuous
100
AcDbLine
 10
148.75
 20
183.15
 30
0.0
 11
148.75
 21
182.3499999999999
 31
0.0
  0
ARC
  5
CDBD
330
CD74
100
AcDbEntity
  8
1
  6
Continuous
100
AcDbCircle
 10
133.8
 20
183.15
 30
0.0
 40
2.25
100
AcDbArc
 50
0.0
 51
180.0
  0
ARC
  5
CDBE
330
CD74
100
AcDbEntity
  8
1
  6
Continuous
100
AcDbCircle
 10
133.8
 20
182.3499999999999
 30
0.0
 40
2.25
100
AcDbArc
 50
180.0
 51
0.0
  0
LINE
  5
CDBF
330
CD74
100
AcDbEntity
  8
4
  6
CENTER
100
AcDbLine
 10
133.8
 20
188.0
 30
0.0
 11
133.8
 21
177.5
 31
0.0
  0
LINE
  5
CDC0
330
CD74
100
AcDbEntity
  8
1
  6
Continuous
100
AcDbLine
 10
131.55
 20
183.15
 30
0.0
 11
131.55
 21
182.3499999999999
 31
0.0
  0
LINE
  5
CDC1
330
CD74
100
AcDbEntity
  8
1
  6
Continuous
100
AcDbLine
 10
136.05
 20
183.15
 30
0.0
 11
136.05
 21
182.3499999999999
 31
0.0
  0
LINE
  5
CDC2
330
CD74
100
AcDbEntity
  8
1
  6
Continuous
100
AcDbLine
 10
832.9500000000001
 20
183.15
 30
0.0
 11
832.9500000000001
 21
182.3499999999999
 31
0.0
  0
LINE
  5
CDC3
330
CD74
100
AcDbEntity
  8
1
  6
Continuous
100
AcDbLine
 10
837.4500000000001
 20
183.15
 30
0.0
 11
837.4500000000001
 21
182.3499999999999
 31
0.0
  0
LINE
  5
CDC4
330
CD74
100
AcDbEntity
  8
4
  6
CENTER
100
AcDbLine
 10
835.2
 20
188.0
 30
0.0
 11
835.2
 21
177.5
 31
0.0
  0
ARC
  5
CDC5
330
CD74
100
AcDbEntity
  8
1
  6
Continuous
100
AcDbCircle
 10
835.2
 20
182.3499999999999
 30
0.0
 40
2.25
100
AcDbArc
 50
180.0
 51
0.0
  0
ARC
  5
CDC6
330
CD74
100
AcDbEntity
  8
1
  6
Continuous
100
AcDbCircle
 10
835.2
 20
183.15
 30
0.0
 40
2.25
100
AcDbArc
 50
0.0
 51
180.0
  0
LINE
  5
CDC7
330
CD74
100
AcDbEntity
  8
1
  6
Continuous
100
AcDbLine
 10
820.25
 20
183.15
 30
0.0
 11
820.25
 21
182.3499999999999
 31
0.0
  0
LINE
  5
CDC8
330
CD74
100
AcDbEntity
  8
1
  6
Continuous
100
AcDbLine
 10
824.75
 20
183.15
 30
0.0
 11
824.75
 21
182.3499999999999
 31
0.0
  0
LINE
  5
CDC9
330
CD74
100
AcDbEntity
  8
4
  6
CENTER
100
AcDbLine
 10
822.4999999999999
 20
188.0
 30
0.0
 11
822.4999999999999
 21
177.5
 31
0.0
  0
ARC
  5
CDCA
330
CD74
100
AcDbEntity
  8
1
  6
Continuous
100
AcDbCircle
 10
822.4999999999999
 20
182.3499999999999
 30
0.0
 40
2.25
100
AcDbArc
 50
180.0
 51
0.0
  0
ARC
  5
CDCB
330
CD74
100
AcDbEntity
  8
1
  6
Continuous
100
AcDbCircle
 10
822.4999999999999
 20
183.15
 30
0.0
 40
2.25
100
AcDbArc
 50
0.0
 51
180.0
  0
ARC
  5
CDCC
330
CD74
100
AcDbEntity
  8
1
  6
Continuous
100
AcDbCircle
 10
711.7999999999998
 20
182.75
 30
0.0
 40
2.25
100
AcDbArc
 50
270.0
 51
90.0
  0
ARC
  5
CDCD
330
CD74
100
AcDbEntity
  8
1
  6
Continuous
100
AcDbCircle
 10
711.0
 20
182.75
 30
0.0
 40
2.25
100
AcDbArc
 50
90.0
 51
270.0
  0
LINE
  5
CDCE
330
CD74
100
AcDbEntity
  8
1
  6
Continuous
100
AcDbLine
 10
711.0
 20
185.0
 30
0.0
 11
711.7999999999998
 21
185.0
 31
0.0
  0
LINE
  5
CDCF
330
CD74
100
AcDbEntity
  8
4
  6
CENTER
100
AcDbLine
 10
711.3999999999997
 20
188.0
 30
0.0
 11
711.3999999999997
 21
177.5
 31
0.0
  0
LINE
  5
CDD0
330
CD74
100
AcDbEntity
  8
1
  6
Continuous
100
AcDbLine
 10
711.0
 20
180.4999999999998
 30
0.0
 11
711.7999999999998
 21
180.4999999999998
 31
0.0
  0
LINE
  5
CDD1
330
CD74
100
AcDbEntity
  8
4
  6
CENTER
100
AcDbLine
 10
622.5
 20
188.0
 30
0.0
 11
622.5
 21
177.5
 31
0.0
  0
LINE
  5
CDD2
330
CD74
100
AcDbEntity
  8
4
  6
CENTER
100
AcDbLine
 10
536.7999999999998
 20
188.0
 30
0.0
 11
536.7999999999998
 21
177.5
 31
0.0
  0
ARC
  5
CDD3
330
CD74
100
AcDbEntity
  8
1
  6
Continuous
100
AcDbCircle
 10
511.3999999999998
 20
183.15
 30
0.0
 40
2.25
100
AcDbArc
 50
0.0
 51
180.0
  0
ARC
  5
CDD4
330
CD74
100
AcDbEntity
  8
1
  6
Continuous
100
AcDbCircle
 10
511.3999999999998
 20
182.3499999999999
 30
0.0
 40
2.25
100
AcDbArc
 50
180.0
 51
0.0
  0
LINE
  5
CDD5
330
CD74
100
AcDbEntity
  8
4
  6
CENTER
100
AcDbLine
 10
524.1
 20
188.0
 30
0.0
 11
524.1
 21
177.5
 31
0.0
  0
LINE
  5
CDD6
330
CD74
100
AcDbEntity
  8
4
  6
CENTER
100
AcDbLine
 10
511.3999999999998
 20
189.9566529999999
 30
0.0
 11
511.3999999999998
 21
175.14061
 31
0.0
  0
LINE
  5
CDD7
330
CD74
100
AcDbEntity
  8
1
  6
Continuous
100
AcDbLine
 10
513.6499999999998
 20
183.15
 30
0.0
 11
513.6499999999998
 21
182.3499999999999
 31
0.0
  0
LINE
  5
CDD8
330
CD74
100
AcDbEntity
  8
1
  6
Continuous
100
AcDbLine
 10
509.1499999999999
 20
183.15
 30
0.0
 11
509.1499999999999
 21
182.3499999999999
 31
0.0
  0
LINE
  5
CDD9
330
CD74
100
AcDbEntity
  8
1
  6
Continuous
100
AcDbLine
 10
25.0
 20
170.171084
 30
0.0
 11
25.0
 21
195.3289159999999
 31
0.0
  0
LINE
  5
CDDA
330
CD74
100
AcDbEntity
  8
1
  6
Continuous
100
AcDbLine
 10
26.6
 20
170.171084
 30
0.0
 11
26.6
 21
175.2499999999998
 31
0.0
  0
LINE
  5
CDDB
330
CD74
100
AcDbEntity
  8
1
  6
Continuous
100
AcDbLine
 10
28.3
 20
191.6375
 30
0.0
 11
28.3
 21
192.8375
 31
0.0
  0
LINE
  5
CDDC
330
CD74
100
AcDbEntity
  8
1
  6
Continuous
100
AcDbLine
 10
28.3
 20
192.8375
 30
0.0
 11
30.89999999999999
 21
192.8375
 31
0.0
  0
LINE
  5
CDDD
330
CD74
100
AcDbEntity
  8
1
  6
Continuous
100
AcDbLine
 10
28.3
 20
191.6375
 30
0.0
 11
30.89999999999999
 21
191.6375
 31
0.0
  0
LINE
  5
CDDE
330
CD74
100
AcDbEntity
  8
1
  6
Continuous
100
AcDbLine
 10
32.1
 20
175.0625
 30
0.0
 11
32.1
 21
190.4374999999998
 31
0.0
  0
ARC
  5
CDDF
330
CD74
100
AcDbEntity
  8
1
  6
Continuous
100
AcDbCircle
 10
30.89999999999999
 20
190.4374999999998
 30
0.0
 40
1.199999999999999
100
AcDbArc
 50
0.0
 51
90.0
  0
ARC
  5
CDE0
330
CD74
100
AcDbEntity
  8
1
  6
Continuous
100
AcDbCircle
 10
30.89999999999999
 20
190.4374999999998
 30
0.0
 40
2.399999999999999
100
AcDbArc
 50
0.0
 51
90.0
  0
LINE
  5
CDE1
330
CD74
100
AcDbEntity
  8
1
  6
Continuous
100
AcDbLine
 10
473.5
 20
195.0
 30
0.0
 11
662.8999999999997
 21
195.0
 31
0.0
  0
LINE
  5
CDE2
330
CD74
100
AcDbEntity
  8
1
  6
Continuous
100
AcDbLine
 10
473.5
 20
170.5
 30
0.0
 11
662.8999999999997
 21
170.5
 31
0.0
  0
LINE
  5
CDE3
330
CD74
100
AcDbEntity
  8
1
  6
Continuous
100
AcDbLine
 10
495.5
 20
195.0
 30
0.0
 11
495.5
 21
200.4
 31
0.0
  0
LINE
  5
CDE4
330
CD74
100
AcDbEntity
  8
3
  6
DASHED
100
AcDbLine
 10
495.5
 20
170.5
 30
0.0
 11
495.5
 21
175.2499999999998
 31
0.0
  0
LINE
  5
CDE5
330
CD74
100
AcDbEntity
  8
1
  6
Continuous
100
AcDbLine
 10
509.9
 20
187.7499999999998
 30
0.0
 11
512.8999999999998
 21
187.7499999999998
 31
0.0
  0
LINE
  5
CDE6
330
CD74
100
AcDbEntity
  8
1
  6
Continuous
100
AcDbLine
 10
509.9
 20
177.75
 30
0.0
 11
512.8999999999998
 21
177.75
 31
0.0
  0
ARC
  5
CDE7
330
CD74
100
AcDbEntity
  8
1
  6
Continuous
100
AcDbCircle
 10
512.8999999999998
 20
182.75
 30
0.0
 40
5.0
100
AcDbArc
 50
270.0
 51
90.0
  0
ARC
  5
CDE8
330
CD74
100
AcDbEntity
  8
1
  6
Continuous
100
AcDbCircle
 10
509.9
 20
182.75
 30
0.0
 40
5.0
100
AcDbArc
 50
90.0
 51
270.0
  0
LINE
  5
CDE9
330
CD74
100
AcDbEntity
  8
1
  6
Continuous
100
AcDbLine
 10
624.8999999999997
 20
192.8375
 30
0.0
 11
624.8999999999997
 21
172.6625
 31
0.0
  0
LINE
  5
CDEA
330
CD74
100
AcDbEntity
  8
1
  6
Continuous
100
AcDbLine
 10
662.8999999999997
 20
195.0
 30
0.0
 11
662.8999999999997
 21
170.5
 31
0.0
  0
LINE
  5
CDEB
330
CD74
100
AcDbEntity
  8
4
  6
CENTER
100
AcDbLine
 10
637.8999999999997
 20
189.25
 30
0.0
 11
637.8999999999997
 21
176.25
 31
0.0
  0
CIRCLE
  5
CDEC
330
CD74
100
AcDbEntity
  8
1
  6
Continuous
100
AcDbCircle
 10
637.8999999999997
 20
182.75
 30
0.0
 40
3.5
  0
LINE
  5
CDED
330
CD74
100
AcDbEntity
  8
4
  6
CENTER
100
AcDbLine
 10
20.0
 20
182.75
 30
0.0
 11
49.1
 21
182.75
 31
0.0
  0
ARC
  5
CDEE
330
CD74
100
AcDbEntity
  8
1
  6
Continuous
100
AcDbCircle
 10
30.0
 20
196.4187499999999
 30
0.0
 40
2.38125
100
AcDbArc
 50
204.844815
 51
343.87833
  0
ARC
  5
CDEF
330
CD74
100
AcDbEntity
  8
1
  6
Continuous
100
AcDbCircle
 10
30.0
 20
196.4187499999999
 30
0.0
 40
3.98125
100
AcDbArc
 50
21.665296
 51
142.987809
  0
LINE
  5
CDF0
330
CD74
100
AcDbEntity
  8
1
  6
Continuous
100
AcDbLine
 10
33.7
 20
197.8885629999999
 30
0.0
 11
32.21302999999998
 21
197.2978689999999
 31
0.0
  0
LINE
  5
CDF1
330
CD74
100
AcDbEntity
  8
1
  6
Continuous
100
AcDbLine
 10
25.644776
 20
197.2552679999998
 30
0.0
 11
26.82094199999999
 21
198.815403
 31
0.0
  0
LINE
  5
CDF2
330
CD74
100
AcDbEntity
  8
1
  6
Continuous
100
AcDbLine
 10
26.922388
 20
196.292092
 30
0.0
 11
28.098554
 21
197.852227
 31
0.0
  0
ARC
  5
CDF3
330
CD74
100
AcDbEntity
  8
1
  6
Continuous
100
AcDbCircle
 10
28.2
 20
195.3289159999999
 30
0.0
 40
1.6
100
AcDbArc
 50
142.987809
 51
180.0
  0
ARC
  5
CDF4
330
CD74
100
AcDbEntity
  8
1
  6
Continuous
100
AcDbCircle
 10
28.2
 20
195.3289159999999
 30
0.0
 40
3.2
100
AcDbArc
 50
142.987809
 51
180.0
  0
ARC
  5
CDF5
330
CD74
100
AcDbEntity
  8
1
  6
Continuous
100
AcDbCircle
 10
30.0
 20
196.4187499999999
 30
0.0
 40
3.581249999999998
100
AcDbArc
 50
236.0503449999999
 51
309.5506789999999
  0
LINE
  5
CDF6
330
CD74
100
AcDbEntity
  8
1
  6
Continuous
100
AcDbLine
 10
34.5
 20
172.322939
 30
0.0
 11
34.5
 21
193.177061
 31
0.0
  0
LINE
  5
CDF7
330
CD74
100
AcDbEntity
  8
1
  6
Continuous
100
AcDbLine
 10
33.3
 20
172.322939
 30
0.0
 11
33.3
 21
193.177061
 31
0.0
  0
ARC
  5
CDF8
330
CD74
100
AcDbEntity
  8
1
  6
Continuous
100
AcDbCircle
 10
32.677061
 20
193.177061
 30
0.0
 40
1.822938999999999
100
AcDbArc
 50
0.0
 51
129.550679
  0
ARC
  5
CDF9
330
CD74
100
AcDbEntity
  8
1
  6
Continuous
100
AcDbCircle
 10
32.677061
 20
193.177061
 30
0.0
 40
0.6229390000000003
100
AcDbArc
 50
0.0
 51
129.550679
  0
LINE
  5
CDFA
330
CD74
100
AcDbEntity
  8
1
  6
Continuous
100
AcDbLine
 10
28.0
 20
193.448001
 30
0.0
 11
28.67015699999999
 21
194.443435
 31
0.0
  0
ARC
  5
CDFB
330
CD74
100
AcDbEntity
  8
1
  6
Continuous
100
AcDbCircle
 10
28.2
 20
170.171084
 30
0.0
 40
3.2
100
AcDbArc
 50
180.0
 51
217.012191
  0
ARC
  5
CDFC
330
CD74
100
AcDbEntity
  8
1
  6
Continuous
100
AcDbCircle
 10
28.2
 20
170.171084
 30
0.0
 40
1.6
100
AcDbArc
 50
180.0
 51
217.012191
  0
LINE
  5
CDFD
330
CD74
100
AcDbEntity
  8
1
  6
Continuous
100
AcDbLine
 10
28.3
 20
173.8625
 30
0.0
 11
28.3
 21
172.6625
 31
0.0
  0
LINE
  5
CDFE
330
CD74
100
AcDbEntity
  8
1
  6
Continuous
100
AcDbLine
 10
28.3
 20
173.8625
 30
0.0
 11
30.89999999999999
 21
173.8625
 31
0.0
  0
LINE
  5
CDFF
330
CD74
100
AcDbEntity
  8
1
  6
Continuous
100
AcDbLine
 10
28.3
 20
172.6625
 30
0.0
 11
30.89999999999999
 21
172.6625
 31
0.0
  0
ARC
  5
CE00
330
CD74
100
AcDbEntity
  8
1
  6
Continuous
100
AcDbCircle
 10
30.89999999999999
 20
175.0625
 30
0.0
 40
2.399999999999999
100
AcDbArc
 50
270.0
 51
0.0
  0
ARC
  5
CE01
330
CD74
100
AcDbEntity
  8
1
  6
Continuous
100
AcDbCircle
 10
30.89999999999999
 20
175.0625
 30
0.0
 40
1.199999999999999
100
AcDbArc
 50
270.0
 51
0.0
  0
ARC
  5
CE02
330
CD74
100
AcDbEntity
  8
1
  6
Continuous
100
AcDbCircle
 10
30.0
 20
169.08125
 30
0.0
 40
3.581249999999998
100
AcDbArc
 50
50.449321
 51
123.949655
  0
LINE
  5
CE03
330
CD74
100
AcDbEntity
  8
1
  6
Continuous
100
AcDbLine
 10
28.0
 20
172.0519989999999
 30
0.0
 11
28.67015699999999
 21
171.0565649999998
 31
0.0
  0
ARC
  5
CE04
330
CD74
100
AcDbEntity
  8
1
  6
Continuous
100
AcDbCircle
 10
32.677061
 20
172.322939
 30
0.0
 40
0.6229390000000003
100
AcDbArc
 50
230.4493209999999
 51
0.0
  0
ARC
  5
CE05
330
CD74
100
AcDbEntity
  8
1
  6
Continuous
100
AcDbCircle
 10
32.677061
 20
172.322939
 30
0.0
 40
1.822938999999999
100
AcDbArc
 50
230.4493209999999
 51
0.0
  0
ARC
  5
CE06
330
CD74
100
AcDbEntity
  8
1
  6
Continuous
100
AcDbCircle
 10
30.0
 20
169.08125
 30
0.0
 40
3.98125
100
AcDbArc
 50
217.012191
 51
338.3347039999998
  0
LINE
  5
CE07
330
CD74
100
AcDbEntity
  8
1
  6
Continuous
100
AcDbLine
 10
25.644776
 20
168.244732
 30
0.0
 11
26.82094199999999
 21
166.6845969999999
 31
0.0
  0
LINE
  5
CE08
330
CD74
100
AcDbEntity
  8
1
  6
Continuous
100
AcDbLine
 10
26.922388
 20
169.207908
 30
0.0
 11
28.098554
 21
167.647773
 31
0.0
  0
LINE
  5
CE09
330
CD74
100
AcDbEntity
  8
1
  6
Continuous
100
AcDbLine
 10
33.7
 20
167.611437
 30
0.0
 11
32.21302999999998
 21
168.202131
 31
0.0
  0
LINE
  5
CE0A
330
CD74
100
AcDbEntity
  8
1
  6
Continuous
100
AcDbLine
 10
27.1
 20
190.25
 30
0.0
 11
27.1
 21
195.398548
 31
0.0
  0
LINE
  5
CE0B
330
CD74
100
AcDbEntity
  8
1
  6
Continuous
100
AcDbLine
 10
27.6
 20
190.25
 30
0.0
 11
27.6
 21
195.4
 31
0.0
  0
LINE
  5
CE0C
330
CD74
100
AcDbEntity
  8
1
  6
Continuous
100
AcDbLine
 10
30.1
 20
177.5
 30
0.0
 11
30.1
 21
188.0
 31
0.0
  0
ARC
  5
CE0D
330
CD74
100
AcDbEntity
  8
1
  6
Continuous
100
AcDbCircle
 10
29.6
 20
188.0
 30
0.0
 40
0.5
100
AcDbArc
 50
0.0
 51
36.869898
  0
LINE
  5
CE0E
330
CD74
100
AcDbEntity
  8
1
  6
Continuous
100
AcDbLine
 10
33.5
 20
195.8499999999999
 30
0.0
 11
33.5
 21
196.3499999999999
 31
0.0
  0
LINE
  5
CE0F
330
CD74
100
AcDbEntity
  8
1
  6
Continuous
100
AcDbLine
 10
33.5
 20
195.8499999999999
 30
0.0
 11
27.6
 21
195.4
 31
0.0
  0
ARC
  5
CE10
330
CD74
100
AcDbEntity
  8
1
  6
Continuous
100
AcDbCircle
 10
30.0
 20
196.4187499999999
 30
0.0
 40
2.38125
100
AcDbArc
 50
356.280872
 51
192.4422739999998
  0
LINE
  5
CE11
330
CD74
100
AcDbEntity
  8
1
  6
Continuous
100
AcDbLine
 10
33.5
 20
169.65
 30
0.0
 11
27.6
 21
170.1
 31
0.0
  0
ARC
  5
CE12
330
CD74
100
AcDbEntity
  8
1
  6
Continuous
100
AcDbCircle
 10
30.0
 20
169.08125
 30
0.0
 40
2.38125
100
AcDbArc
 50
167.557726
 51
3.719127999999999
  0
ARC
  5
CE13
330
CD74
100
AcDbEntity
  8
1
  6
Continuous
100
AcDbCircle
 10
30.0
 20
169.08125
 30
0.0
 40
2.38125
100
AcDbArc
 50
16.12167
 51
155.1551849999999
  0
LINE
  5
CE14
330
CD74
100
AcDbEntity
  8
1
  6
Continuous
100
AcDbLine
 10
27.6
 20
175.2499999999998
 30
0.0
 11
27.6
 21
170.1
 31
0.0
  0
ARC
  5
CE15
330
CD74
100
AcDbEntity
  8
1
  6
Continuous
100
AcDbCircle
 10
29.6
 20
177.5
 30
0.0
 40
0.5
100
AcDbArc
 50
323.130102
 51
0.0
  0
LINE
  5
CE16
330
CD74
100
AcDbEntity
  8
1
  6
Continuous
100
AcDbLine
 10
35.6
 20
195.8499999999999
 30
0.0
 11
41.5
 21
195.4
 31
0.0
  0
ARC
  5
CE17
330
CD74
100
AcDbEntity
  8
1
  6
Continuous
100
AcDbCircle
 10
40.89999999999998
 20
195.3289159999999
 30
0.0
 40
3.2
100
AcDbArc
 50
0.0
 51
37.01219099999998
  0
ARC
  5
CE18
330
CD74
100
AcDbEntity
  8
1
  6
Continuous
100
AcDbCircle
 10
40.89999999999998
 20
195.3289159999999
 30
0.0
 40
1.6
100
AcDbArc
 50
0.0
 51
37.01219099999998
  0
LINE
  5
CE19
330
CD74
100
AcDbEntity
  8
1
  6
Continuous
100
AcDbLine
 10
34.6
 20
172.322939
 30
0.0
 11
34.6
 21
193.177061
 31
0.0
  0
LINE
  5
CE1A
330
CD74
100
AcDbEntity
  8
1
  6
Continuous
100
AcDbLine
 10
42.5
 20
170.171084
 30
0.0
 11
42.5
 21
171.25
 31
0.0
  0
LINE
  5
CE1B
330
CD74
100
AcDbEntity
  8
1
  6
Continuous
100
AcDbLine
 10
44.1
 20
170.171084
 30
0.0
 11
44.1
 21
195.3289159999999
 31
0.0
  0
LINE
  5
CE1C
330
CD74
100
AcDbEntity
  8
1
  6
Continuous
100
AcDbLine
 10
41.5
 20
194.25
 30
0.0
 11
41.5
 21
195.4
 31
0.0
  0
LINE
  5
CE1D
330
CD74
100
AcDbEntity
  8
1
  6
Continuous
100
AcDbLine
 10
40.56006899999998
 20
194.25
 30
0.0
 11
40.42984299999999
 21
194.443435
 31
0.0
  0
ARC
  5
CE1E
330
CD74
100
AcDbEntity
  8
1
  6
Continuous
100
AcDbCircle
 10
36.422939
 20
193.177061
 30
0.0
 40
1.822938999999999
100
AcDbArc
 50
50.449321
 51
180.0
  0
ARC
  5
CE1F
330
CD74
100
AcDbEntity
  8
1
  6
Continuous
100
AcDbCircle
 10
39.1
 20
196.4187499999999
 30
0.0
 40
3.98125
100
AcDbArc
 50
37.01219099999998
 51
158.3347039999999
  0
LINE
  5
CE20
330
CD74
100
AcDbEntity
  8
1
  6
Continuous
100
AcDbLine
 10
43.455224
 20
197.2552679999998
 30
0.0
 11
42.279058
 21
198.815403
 31
0.0
  0
LINE
  5
CE21
330
CD74
100
AcDbEntity
  8
1
  6
Continuous
100
AcDbLine
 10
42.17761199999999
 20
196.292092
 30
0.0
 11
41.001446
 21
197.852227
 31
0.0
  0
LINE
  5
CE22
330
CD74
100
AcDbEntity
  8
1
  6
Continuous
100
AcDbLine
 10
35.4
 20
197.8885629999999
 30
0.0
 11
36.88696999999999
 21
197.2978689999999
 31
0.0
  0
LINE
  5
CE23
330
CD74
100
AcDbEntity
  8
1
  6
Continuous
100
AcDbLine
 10
41.5
 20
171.25
 30
0.0
 11
41.5
 21
170.1
 31
0.0
  0
ARC
  5
CE24
330
CD74
100
AcDbEntity
  8
1
  6
Continuous
100
AcDbCircle
 10
39.1
 20
169.08125
 30
0.0
 40
3.98125
100
AcDbArc
 50
201.6652959999999
 51
322.9878089999999
  0
ARC
  5
CE25
330
CD74
100
AcDbEntity
  8
1
  6
Continuous
100
AcDbCircle
 10
40.89999999999998
 20
170.171084
 30
0.0
 40
1.6
100
AcDbArc
 50
322.9878089999999
 51
0.0
  0
LINE
  5
CE26
330
CD74
100
AcDbEntity
  8
1
  6
Continuous
100
AcDbLine
 10
43.455224
 20
168.244732
 30
0.0
 11
42.279058
 21
166.6845969999999
 31
0.0
  0
ARC
  5
CE27
330
CD74
100
AcDbEntity
  8
1
  6
Continuous
100
AcDbCircle
 10
40.89999999999998
 20
170.171084
 30
0.0
 40
3.2
100
AcDbArc
 50
322.9878089999999
 51
0.0
  0
ARC
  5
CE28
330
CD74
100
AcDbEntity
  8
1
  6
Continuous
100
AcDbCircle
 10
39.1
 20
169.08125
 30
0.0
 40
2.38125
100
AcDbArc
 50
24.844815
 51
65.61074999999999
  0
ARC
  5
CE29
330
CD74
100
AcDbEntity
  8
1
  6
Continuous
100
AcDbCircle
 10
39.1
 20
169.08125
 30
0.0
 40
2.38125
100
AcDbArc
 50
176.2808719999999
 51
12.44227399999999
  0
LINE
  5
CE2A
330
CD74
100
AcDbEntity
  8
1
  6
Continuous
100
AcDbLine
 10
35.6
 20
169.65
 30
0.0
 11
41.5
 21
170.1
 31
0.0
  0
LINE
  5
CE2B
330
CD74
100
AcDbEntity
  8
1
  6
Continuous
100
AcDbLine
 10
35.4
 20
167.611437
 30
0.0
 11
36.88696999999999
 21
168.202131
 31
0.0
  0
LINE
  5
CE2C
330
CD74
100
AcDbEntity
  8
1
  6
Continuous
100
AcDbLine
 10
42.17761199999999
 20
169.207908
 30
0.0
 11
41.001446
 21
167.647773
 31
0.0
  0
ARC
  5
CE2D
330
CD74
100
AcDbEntity
  8
1
  6
Continuous
100
AcDbCircle
 10
36.422939
 20
172.322939
 30
0.0
 40
1.822938999999999
100
AcDbArc
 50
180.0
 51
309.5506789999999
  0
LINE
  5
CE2E
330
CD74
100
AcDbEntity
  8
1
  6
Continuous
100
AcDbLine
 10
40.56006899999998
 20
171.25
 30
0.0
 11
40.42984299999999
 21
171.0565649999998
 31
0.0
  0
LINE
  5
CE2F
330
CD74
100
AcDbEntity
  8
1
  6
Continuous
100
AcDbLine
 10
25.0
 20
190.25
 30
0.0
 11
30.0
 21
190.25
 31
0.0
  0
LINE
  5
CE30
330
CD74
100
AcDbEntity
  8
1
  6
Continuous
100
AcDbLine
 10
25.0
 20
175.2499999999998
 30
0.0
 11
30.0
 21
175.2499999999998
 31
0.0
  0
LINE
  5
CE31
330
CD74
100
AcDbEntity
  8
1
  6
Continuous
100
AcDbLine
 10
30.0
 20
175.2499999999998
 30
0.0
 11
30.0
 21
190.25
 31
0.0
  0
LINE
  5
CE32
330
CD74
100
AcDbEntity
  8
1
  6
Continuous
100
AcDbLine
 10
26.6
 20
190.25
 30
0.0
 11
26.6
 21
195.3289159999999
 31
0.0
  0
LINE
  5
CE33
330
CD74
100
AcDbEntity
  8
1
  6
Continuous
100
AcDbLine
 10
35.6
 20
172.75
 30
0.0
 11
35.6
 21
192.75
 31
0.0
  0
LINE
  5
CE34
330
CD74
100
AcDbEntity
  8
1
  6
Continuous
100
AcDbLine
 10
37.1
 20
194.25
 30
0.0
 11
44.1
 21
194.25
 31
0.0
  0
LINE
  5
CE35
330
CD74
100
AcDbEntity
  8
1
  6
Continuous
100
AcDbLine
 10
37.1
 20
171.25
 30
0.0
 11
44.1
 21
171.25
 31
0.0
  0
LINE
  5
CE36
330
CD74
100
AcDbEntity
  8
1
  6
Continuous
100
AcDbLine
 10
42.5
 20
194.25
 30
0.0
 11
42.5
 21
195.3289159999999
 31
0.0
  0
ARC
  5
CE37
330
CD74
100
AcDbEntity
  8
1
  6
Continuous
100
AcDbCircle
 10
37.1
 20
192.75
 30
0.0
 40
1.5
100
AcDbArc
 50
90.0
 51
180.0
  0
ARC
  5
CE38
330
CD74
100
AcDbEntity
  8
1
  6
Continuous
100
AcDbCircle
 10
37.1
 20
172.75
 30
0.0
 40
1.5
100
AcDbArc
 50
180.0
 51
270.0
  0
ARC
  5
CE39
330
CD74
100
AcDbEntity
  8
1
  6
Continuous
100
AcDbCircle
 10
39.1
 20
169.08125
 30
0.0
 40
2.38125
100
AcDbArc
 50
114.3892499999999
 51
163.87833
  0
LINE
  5
CE3A
330
CD74
100
AcDbEntity
  8
1
  6
Continuous
100
AcDbLine
 10
497.1
 20
197.8885629999999
 30
0.0
 11
849.9
 21
197.8885629999999
 31
0.0
  0
LINE
  5
CE3B
330
CD74
100
AcDbEntity
  8
1
  6
Continuous
100
AcDbLine
 10
497.1
 20
197.2978689999999
 30
0.0
 11
849.9
 21
197.2978689999999
 31
0.0
  0
LINE
  5
CE3C
330
CD74
100
AcDbEntity
  8
1
  6
Continuous
100
AcDbLine
 10
849.9
 20
194.25
 30
0.0
 11
851.5
 21
194.25
 31
0.0
  0
LINE
  5
CE3D
330
CD74
100
AcDbEntity
  8
1
  6
Continuous
100
AcDbLine
 10
849.9
 20
171.25
 30
0.0
 11
851.5
 21
171.25
 31
0.0
  0
LINE
  5
CE3E
330
CD74
100
AcDbEntity
  8
1
  6
Continuous
100
AcDbLine
 10
849.9
 20
171.25
 30
0.0
 11
849.9
 21
194.25
 31
0.0
  0
ARC
  5
CE3F
330
CD74
100
AcDbEntity
  8
1
  6
Continuous
100
AcDbCircle
 10
849.9
 20
199.4885629999999
 30
0.0
 40
1.6
100
AcDbArc
 50
270.0
 51
0.0
  0
ARC
  5
CE40
330
CD74
100
AcDbEntity
  8
1
  6
Continuous
100
AcDbCircle
 10
849.9
 20
198.8978689999999
 30
0.0
 40
1.6
100
AcDbArc
 50
270.0
 51
0.0
  0
ARC
  5
CE41
330
CD74
100
AcDbEntity
  8
1
  6
Continuous
100
AcDbCircle
 10
497.1
 20
199.4885629999999
 30
0.0
 40
1.6
100
AcDbArc
 50
180.0
 51
270.0
  0
ARC
  5
CE42
330
CD74
100
AcDbEntity
  8
1
  6
Continuous
100
AcDbCircle
 10
497.1
 20
198.8978689999999
 30
0.0
 40
1.6
100
AcDbArc
 50
180.0
 51
270.0
  0
ARC
  5
CE43
330
CD74
100
AcDbEntity
  8
1
  6
Continuous
100
AcDbCircle
 10
849.9
 20
166.602131
 30
0.0
 40
1.6
100
AcDbArc
 50
0.0
 51
90.0
  0
ARC
  5
CE44
330
CD74
100
AcDbEntity
  8
1
  6
Continuous
100
AcDbCircle
 10
849.9
 20
166.011437
 30
0.0
 40
1.6
100
AcDbArc
 50
0.0
 51
90.0
  0
LINE
  5
CE45
330
CD74
100
AcDbEntity
  8
1
  6
Continuous
100
AcDbLine
 10
497.1
 20
168.202131
 30
0.0
 11
849.9
 21
168.202131
 31
0.0
  0
LINE
  5
CE46
330
CD74
100
AcDbEntity
  8
1
  6
Continuous
100
AcDbLine
 10
497.1
 20
167.611437
 30
0.0
 11
849.9
 21
167.611437
 31
0.0
  0
ARC
  5
CE47
330
CD74
100
AcDbEntity
  8
1
  6
Continuous
100
AcDbCircle
 10
497.1
 20
166.602131
 30
0.0
 40
1.6
100
AcDbArc
 50
90.0
 51
180.0
  0
ARC
  5
CE48
330
CD74
100
AcDbEntity
  8
1
  6
Continuous
100
AcDbCircle
 10
497.1
 20
166.011437
 30
0.0
 40
1.6
100
AcDbArc
 50
90.0
 51
180.0
  0
LINE
  5
CE49
330
CD74
100
AcDbEntity
  8
1
  6
Continuous
100
AcDbLine
 10
499.5
 20
195.8499999999999
 30
0.0
 11
510.0
 21
195.8499999999999
 31
0.0
  0
ARC
  5
CE4A
330
CD74
100
AcDbEntity
  8
1
  6
Continuous
100
AcDbCircle
 10
504.75
 20
196.4187499999999
 30
0.0
 40
2.38125
100
AcDbArc
 50
158.3347039999999
 51
181.6544389999999
  0
ARC
  5
CE4B
330
CD74
100
AcDbEntity
  8
1
  6
Continuous
100
AcDbCircle
 10
504.75
 20
196.4187499999999
 30
0.0
 40
2.38125
100
AcDbArc
 50
193.81839
 51
216.5697209999999
  0
LINE
  5
CE4C
330
CD74
100
AcDbEntity
  8
1
  6
Continuous
100
AcDbLine
 10
499.5
 20
196.3499999999999
 30
0.0
 11
499.5
 21
195.0
 31
0.0
  0
ARC
  5
CE4D
330
CD74
100
AcDbEntity
  8
1
  6
Continuous
100
AcDbCircle
 10
504.75
 20
196.4187499999999
 30
0.0
 40
2.38125
100
AcDbArc
 50
323.430279
 51
346.18161
  0
ARC
  5
CE4E
330
CD74
100
AcDbEntity
  8
1
  6
Continuous
100
AcDbCircle
 10
504.75
 20
196.4187499999999
 30
0.0
 40
2.38125
100
AcDbArc
 50
358.3455609999999
 51
21.665296
  0
LINE
  5
CE4F
330
CD74
100
AcDbEntity
  8
1
  6
Continuous
100
AcDbLine
 10
510.0
 20
196.3499999999999
 30
0.0
 11
510.0
 21
195.0
 31
0.0
  0
LINE
  5
CE50
330
CD74
100
AcDbEntity
  8
1
  6
Continuous
100
AcDbLine
 10
473.5
 20
192.8375
 30
0.0
 11
662.8999999999997
 21
192.8375
 31
0.0
  0
LINE
  5
CE51
330
CD74
100
AcDbEntity
  8
1
  6
Continuous
100
AcDbLine
 10
473.5
 20
191.6375
 30
0.0
 11
624.8999999999997
 21
191.6375
 31
0.0
  0
LINE
  5
CE52
330
CD74
100
AcDbEntity
  8
1
  6
Continuous
100
AcDbLine
 10
473.5
 20
172.6625
 30
0.0
 11
662.8999999999997
 21
172.6625
 31
0.0
  0
LINE
  5
CE53
330
CD74
100
AcDbEntity
  8
1
  6
Continuous
100
AcDbLine
 10
473.5
 20
173.8625
 30
0.0
 11
624.8999999999997
 21
173.8625
 31
0.0
  0
LINE
  5
CE54
330
CD74
100
AcDbEntity
  8
1
  6
Continuous
100
AcDbLine
 10
471.0
 20
190.25
 30
0.0
 11
473.5
 21
190.25
 31
0.0
  0
LINE
  5
CE55
330
CD74
100
AcDbEntity
  8
1
  6
Continuous
100
AcDbLine
 10
471.0
 20
175.2499999999998
 30
0.0
 11
473.5
 21
175.2499999999998
 31
0.0
  0
LINE
  5
CE56
330
CD74
100
AcDbEntity
  8
1
  6
Continuous
100
AcDbLine
 10
471.0
 20
175.2499999999998
 30
0.0
 11
471.0
 21
190.25
 31
0.0
  0
LINE
  5
CE57
330
CD74
100
AcDbEntity
  8
1
  6
Continuous
100
AcDbLine
 10
473.5
 20
190.25
 30
0.0
 11
473.5
 21
200.4
 31
0.0
  0
LINE
  5
CE58
330
CD74
100
AcDbEntity
  8
3
  6
DASHED
100
AcDbLine
 10
498.0
 20
190.25
 30
0.0
 11
495.5
 21
190.25
 31
0.0
  0
LINE
  5
CE59
330
CD74
100
AcDbEntity
  8
3
  6
DASHED
100
AcDbLine
 10
498.0
 20
175.2499999999998
 30
0.0
 11
498.0
 21
190.25
 31
0.0
  0
LINE
  5
CE5A
330
CD74
100
AcDbEntity
  8
3
  6
DASHED
100
AcDbLine
 10
498.0
 20
175.2499999999998
 30
0.0
 11
495.5
 21
175.2499999999998
 31
0.0
  0
LINE
  5
CE5B
330
CD74
100
AcDbEntity
  8
3
  6
DASHED
100
AcDbLine
 10
495.5
 20
190.25
 30
0.0
 11
495.5
 21
195.0
 31
0.0
  0
LINE
  5
CE5C
330
CD74
100
AcDbEntity
  8
3
  6
DASHED
100
AcDbLine
 10
659.9
 20
195.0
 30
0.0
 11
659.9
 21
170.5
 31
0.0
  0
LINE
  5
CE5D
330
CD74
100
AcDbEntity
  8
3
  6
DASHED
100
AcDbLine
 10
306.1
 20
195.0
 30
0.0
 11
306.1
 21
170.5
 31
0.0
  0
LINE
  5
CE5E
330
CD74
100
AcDbEntity
  8
3
  6
DASHED
100
AcDbLine
 10
309.1
 20
195.0
 30
0.0
 11
309.1
 21
170.5
 31
0.0
  0
LINE
  5
CE5F
330
CD74
100
AcDbEntity
  8
3
  6
DASHED
100
AcDbLine
 10
306.1
 20
195.0
 30
0.0
 11
473.5
 21
195.0
 31
0.0
  0
LINE
  5
CE60
330
CD74
100
AcDbEntity
  8
3
  6
DASHED
100
AcDbLine
 10
306.1
 20
170.5
 30
0.0
 11
473.5
 21
170.5
 31
0.0
  0
LINE
  5
CE61
330
CD74
100
AcDbEntity
  8
1
  6
Continuous
100
AcDbLine
 10
33.5
 20
196.3499999999999
 30
0.0
 11
27.561975
 21
195.8971
 31
0.0
  0
ARC
  5
CE62
330
CD74
100
AcDbEntity
  8
1
  6
Continuous
100
AcDbCircle
 10
27.6
 20
195.398548
 30
0.0
 40
0.5
100
AcDbArc
 50
94.36157300000001
 51
180.0
  0
LINE
  5
CE63
330
CD74
100
AcDbEntity
  8
1
  6
Continuous
100
AcDbLine
 10
35.6
 20
196.3499999999999
 30
0.0
 11
41.538025
 21
195.8971
 31
0.0
  0
LINE
  5
CE64
330
CD74
100
AcDbEntity
  8
1
  6
Continuous
100
AcDbLine
 10
35.6
 20
195.8499999999999
 30
0.0
 11
35.6
 21
196.3499999999999
 31
0.0
  0
ARC
  5
CE65
330
CD74
100
AcDbEntity
  8
1
  6
Continuous
100
AcDbCircle
 10
41.5
 20
195.398548
 30
0.0
 40
0.5
100
AcDbArc
 50
0.0
 51
85.63842699999998
  0
LINE
  5
CE66
330
CD74
100
AcDbEntity
  8
1
  6
Continuous
100
AcDbLine
 10
42.0
 20
194.25
 30
0.0
 11
42.0
 21
195.398548
 31
0.0
  0
ARC
  5
CE67
330
CD74
100
AcDbEntity
  8
1
  6
Continuous
100
AcDbCircle
 10
39.1
 20
196.4187499999999
 30
0.0
 40
2.38125
100
AcDbArc
 50
347.557726
 51
183.719128
  0
ARC
  5
CE68
330
CD74
100
AcDbEntity
  8
1
  6
Continuous
100
AcDbCircle
 10
39.1
 20
196.4187499999999
 30
0.0
 40
2.38125
100
AcDbArc
 50
196.12167
 51
245.6107499999998
  0
ARC
  5
CE69
330
CD74
100
AcDbEntity
  8
1
  6
Continuous
100
AcDbCircle
 10
39.1
 20
196.4187499999999
 30
0.0
 40
2.38125
100
AcDbArc
 50
294.38925
 51
335.155185
  0
LINE
  5
CE6A
330
CD74
100
AcDbEntity
  8
1
  6
Continuous
100
AcDbLine
 10
42.0
 20
171.25
 30
0.0
 11
42.0
 21
170.101452
 31
0.0
  0
ARC
  5
CE6B
330
CD74
100
AcDbEntity
  8
1
  6
Continuous
100
AcDbCircle
 10
41.5
 20
170.101452
 30
0.0
 40
0.5
100
AcDbArc
 50
274.361573
 51
0.0
  0
LINE
  5
CE6C
330
CD74
100
AcDbEntity
  8
1
  6
Continuous
100
AcDbLine
 10
35.6
 20
169.15
 30
0.0
 11
41.538025
 21
169.6029
 31
0.0
  0
LINE
  5
CE6D
330
CD74
100
AcDbEntity
  8
1
  6
Continuous
100
AcDbLine
 10
35.6
 20
169.65
 30
0.0
 11
35.6
 21
169.15
 31
0.0
  0
LINE
  5
CE6E
330
CD74
100
AcDbEntity
  8
1
  6
Continuous
100
AcDbLine
 10
33.5
 20
169.65
 30
0.0
 11
33.5
 21
169.15
 31
0.0
  0
LINE
  5
CE6F
330
CD74
100
AcDbEntity
  8
1
  6
Continuous
100
AcDbLine
 10
33.5
 20
169.15
 30
0.0
 11
27.561975
 21
169.6029
 31
0.0
  0
ARC
  5
CE70
330
CD74
100
AcDbEntity
  8
1
  6
Continuous
100
AcDbCircle
 10
27.6
 20
170.101452
 30
0.0
 40
0.5
100
AcDbArc
 50
180.0
 51
265.6384269999999
  0
LINE
  5
CE71
330
CD74
100
AcDbEntity
  8
1
  6
Continuous
100
AcDbLine
 10
27.1
 20
175.2499999999998
 30
0.0
 11
27.1
 21
170.101452
 31
0.0
  0
LINE
  5
CE72
330
CD74
100
AcDbEntity
  8
1
  6
Continuous
100
AcDbLine
 10
499.5
 20
196.3499999999999
 30
0.0
 11
510.0
 21
196.3499999999999
 31
0.0
  0
LINE
  5
CE73
330
CD74
100
AcDbEntity
  8
1
  6
Continuous
100
AcDbLine
 10
522.5
 20
196.3499999999999
 30
0.0
 11
522.5
 21
195.0
 31
0.0
  0
LINE
  5
CE74
330
CD74
100
AcDbEntity
  8
1
  6
Continuous
100
AcDbLine
 10
512.0
 20
196.3499999999999
 30
0.0
 11
512.0
 21
195.0
 31
0.0
  0
ARC
  5
CE75
330
CD74
100
AcDbEntity
  8
1
  6
Continuous
100
AcDbCircle
 10
517.25
 20
196.4187499999999
 30
0.0
 40
2.38125
100
AcDbArc
 50
323.430279
 51
346.18161
  0
ARC
  5
CE76
330
CD74
100
AcDbEntity
  8
1
  6
Continuous
100
AcDbCircle
 10
517.25
 20
196.4187499999999
 30
0.0
 40
2.38125
100
AcDbArc
 50
193.81839
 51
216.5697209999999
  0
LINE
  5
CE77
330
CD74
100
AcDbEntity
  8
1
  6
Continuous
100
AcDbLine
 10
512.0
 20
196.3499999999999
 30
0.0
 11
522.5
 21
196.3499999999999
 31
0.0
  0
LINE
  5
CE78
330
CD74
100
AcDbEntity
  8
1
  6
Continuous
100
AcDbLine
 10
512.0
 20
195.8499999999999
 30
0.0
 11
522.5
 21
195.8499999999999
 31
0.0
  0
ARC
  5
CE79
330
CD74
100
AcDbEntity
  8
1
  6
Continuous
100
AcDbCircle
 10
517.25
 20
196.4187499999999
 30
0.0
 40
2.38125
100
AcDbArc
 50
158.3347039999999
 51
181.6544389999999
  0
ARC
  5
CE7A
330
CD74
100
AcDbEntity
  8
1
  6
Continuous
100
AcDbCircle
 10
517.25
 20
196.4187499999999
 30
0.0
 40
2.38125
100
AcDbArc
 50
358.3455609999999
 51
21.665296
  0
ARC
  5
CE7B
330
CD74
100
AcDbEntity
  8
1
  6
Continuous
100
AcDbCircle
 10
529.75
 20
196.4187499999999
 30
0.0
 40
2.38125
100
AcDbArc
 50
193.81839
 51
216.5697209999999
  0
ARC
  5
CE7C
330
CD74
100
AcDbEntity
  8
1
  6
Continuous
100
AcDbCircle
 10
529.75
 20
196.4187499999999
 30
0.0
 40
2.38125
100
AcDbArc
 50
323.430279
 51
346.18161
  0
LINE
  5
CE7D
330
CD74
100
AcDbEntity
  8
1
  6
Continuous
100
AcDbLine
 10
524.5
 20
196.3499999999999
 30
0.0
 11
524.5
 21
195.0
 31
0.0
  0
LINE
  5
CE7E
330
CD74
100
AcDbEntity
  8
1
  6
Continuous
100
AcDbLine
 10
535.0
 20
196.3499999999999
 30
0.0
 11
535.0
 21
195.0
 31
0.0
  0
LINE
  5
CE7F
330
CD74
100
AcDbEntity
  8
1
  6
Continuous
100
AcDbLine
 10
524.5
 20
195.8499999999999
 30
0.0
 11
535.0
 21
195.8499999999999
 31
0.0
  0
LINE
  5
CE80
330
CD74
100
AcDbEntity
  8
1
  6
Continuous
100
AcDbLine
 10
524.5
 20
196.3499999999999
 30
0.0
 11
535.0
 21
196.3499999999999
 31
0.0
  0
ARC
  5
CE81
330
CD74
100
AcDbEntity
  8
1
  6
Continuous
100
AcDbCircle
 10
529.75
 20
196.4187499999999
 30
0.0
 40
2.38125
100
AcDbArc
 50
358.3455609999999
 51
21.665296
  0
ARC
  5
CE82
330
CD74
100
AcDbEntity
  8
1
  6
Continuous
100
AcDbCircle
 10
529.75
 20
196.4187499999999
 30
0.0
 40
2.38125
100
AcDbArc
 50
158.3347039999999
 51
181.6544389999999
  0
LINE
  5
CE83
330
CD74
100
AcDbEntity
  8
1
  6
Continuous
100
AcDbLine
 10
547.5
 20
196.3499999999999
 30
0.0
 11
547.5
 21
195.0
 31
0.0
  0
LINE
  5
CE84
330
CD74
100
AcDbEntity
  8
1
  6
Continuous
100
AcDbLine
 10
537.0
 20
196.3499999999999
 30
0.0
 11
537.0
 21
195.0
 31
0.0
  0
ARC
  5
CE85
330
CD74
100
AcDbEntity
  8
1
  6
Continuous
100
AcDbCircle
 10
542.25
 20
196.4187499999999
 30
0.0
 40
2.38125
100
AcDbArc
 50
323.430279
 51
346.18161
  0
ARC
  5
CE86
330
CD74
100
AcDbEntity
  8
1
  6
Continuous
100
AcDbCircle
 10
542.25
 20
196.4187499999999
 30
0.0
 40
2.38125
100
AcDbArc
 50
193.81839
 51
216.5697209999999
  0
ARC
  5
CE87
330
CD74
100
AcDbEntity
  8
1
  6
Continuous
100
AcDbCircle
 10
542.25
 20
196.4187499999999
 30
0.0
 40
2.38125
100
AcDbArc
 50
158.3347039999999
 51
181.6544389999999
  0
ARC
  5
CE88
330
CD74
100
AcDbEntity
  8
1
  6
Continuous
100
AcDbCircle
 10
542.25
 20
196.4187499999999
 30
0.0
 40
2.38125
100
AcDbArc
 50
358.3455609999999
 51
21.665296
  0
LINE
  5
CE89
330
CD74
100
AcDbEntity
  8
1
  6
Continuous
100
AcDbLine
 10
537.0
 20
196.3499999999999
 30
0.0
 11
547.5
 21
196.3499999999999
 31
0.0
  0
LINE
  5
CE8A
330
CD74
100
AcDbEntity
  8
1
  6
Continuous
100
AcDbLine
 10
537.0
 20
195.8499999999999
 30
0.0
 11
547.5
 21
195.8499999999999
 31
0.0
  0
ARC
  5
CE8B
330
CD74
100
AcDbEntity
  8
1
  6
Continuous
100
AcDbCircle
 10
554.75
 20
196.4187499999999
 30
0.0
 40
2.38125
100
AcDbArc
 50
193.81839
 51
216.5697209999999
  0
ARC
  5
CE8C
330
CD74
100
AcDbEntity
  8
1
  6
Continuous
100
AcDbCircle
 10
554.75
 20
196.4187499999999
 30
0.0
 40
2.38125
100
AcDbArc
 50
323.430279
 51
346.18161
  0
LINE
  5
CE8D
330
CD74
100
AcDbEntity
  8
1
  6
Continuous
100
AcDbLine
 10
549.5
 20
196.3499999999999
 30
0.0
 11
549.5
 21
195.0
 31
0.0
  0
LINE
  5
CE8E
330
CD74
100
AcDbEntity
  8
1
  6
Continuous
100
AcDbLine
 10
560.0
 20
196.3499999999999
 30
0.0
 11
560.0
 21
195.0
 31
0.0
  0
LINE
  5
CE8F
330
CD74
100
AcDbEntity
  8
1
  6
Continuous
100
AcDbLine
 10
549.5
 20
195.8499999999999
 30
0.0
 11
560.0
 21
195.8499999999999
 31
0.0
  0
LINE
  5
CE90
330
CD74
100
AcDbEntity
  8
1
  6
Continuous
100
AcDbLine
 10
549.5
 20
196.3499999999999
 30
0.0
 11
560.0
 21
196.3499999999999
 31
0.0
  0
ARC
  5
CE91
330
CD74
100
AcDbEntity
  8
1
  6
Continuous
100
AcDbCircle
 10
554.75
 20
196.4187499999999
 30
0.0
 40
2.38125
100
AcDbArc
 50
358.3455609999999
 51
21.665296
  0
ARC
  5
CE92
330
CD74
100
AcDbEntity
  8
1
  6
Continuous
100
AcDbCircle
 10
554.75
 20
196.4187499999999
 30
0.0
 40
2.38125
100
AcDbArc
 50
158.3347039999999
 51
181.6544389999999
  0
LINE
  5
CE93
330
CD74
100
AcDbEntity
  8
1
  6
Continuous
100
AcDbLine
 10
562.0
 20
196.3499999999999
 30
0.0
 11
572.5
 21
196.3499999999999
 31
0.0
  0
LINE
  5
CE94
330
CD74
100
AcDbEntity
  8
1
  6
Continuous
100
AcDbLine
 10
562.0
 20
195.8499999999999
 30
0.0
 11
572.5
 21
195.8499999999999
 31
0.0
  0
LINE
  5
CE95
330
CD74
100
AcDbEntity
  8
1
  6
Continuous
100
AcDbLine
 10
562.0
 20
196.3499999999999
 30
0.0
 11
562.0
 21
195.0
 31
0.0
  0
ARC
  5
CE96
330
CD74
100
AcDbEntity
  8
1
  6
Continuous
100
AcDbCircle
 10
567.25
 20
196.4187499999999
 30
0.0
 40
2.38125
100
AcDbArc
 50
193.81839
 51
216.5697209999999
  0
ARC
  5
CE97
330
CD74
100
AcDbEntity
  8
1
  6
Continuous
100
AcDbCircle
 10
567.25
 20
196.4187499999999
 30
0.0
 40
2.38125
100
AcDbArc
 50
158.3347039999999
 51
181.6544389999999
  0
LINE
  5
CE98
330
CD74
100
AcDbEntity
  8
1
  6
Continuous
100
AcDbLine
 10
572.5
 20
196.3499999999999
 30
0.0
 11
572.5
 21
195.0
 31
0.0
  0
ARC
  5
CE99
330
CD74
100
AcDbEntity
  8
1
  6
Continuous
100
AcDbCircle
 10
567.25
 20
196.4187499999999
 30
0.0
 40
2.38125
100
AcDbArc
 50
323.430279
 51
346.18161
  0
ARC
  5
CE9A
330
CD74
100
AcDbEntity
  8
1
  6
Continuous
100
AcDbCircle
 10
567.25
 20
196.4187499999999
 30
0.0
 40
2.38125
100
AcDbArc
 50
358.3455609999999
 51
21.665296
  0
ARC
  5
CE9B
330
CD74
100
AcDbEntity
  8
1
  6
Continuous
100
AcDbCircle
 10
579.75
 20
196.4187499999999
 30
0.0
 40
2.38125
100
AcDbArc
 50
323.430279
 51
346.18161
  0
LINE
  5
CE9C
330
CD74
100
AcDbEntity
  8
1
  6
Continuous
100
AcDbLine
 10
585.0
 20
196.3499999999999
 30
0.0
 11
585.0
 21
195.0
 31
0.0
  0
ARC
  5
CE9D
330
CD74
100
AcDbEntity
  8
1
  6
Continuous
100
AcDbCircle
 10
579.75
 20
196.4187499999999
 30
0.0
 40
2.38125
100
AcDbArc
 50
193.81839
 51
216.5697209999999
  0
LINE
  5
CE9E
330
CD74
100
AcDbEntity
  8
1
  6
Continuous
100
AcDbLine
 10
574.5
 20
196.3499999999999
 30
0.0
 11
574.5
 21
195.0
 31
0.0
  0
LINE
  5
CE9F
330
CD74
100
AcDbEntity
  8
1
  6
Continuous
100
AcDbLine
 10
574.5
 20
195.8499999999999
 30
0.0
 11
585.0
 21
195.8499999999999
 31
0.0
  0
LINE
  5
CEA0
330
CD74
100
AcDbEntity
  8
1
  6
Continuous
100
AcDbLine
 10
574.5
 20
196.3499999999999
 30
0.0
 11
585.0
 21
196.3499999999999
 31
0.0
  0
ARC
  5
CEA1
330
CD74
100
AcDbEntity
  8
1
  6
Continuous
100
AcDbCircle
 10
579.75
 20
196.4187499999999
 30
0.0
 40
2.38125
100
AcDbArc
 50
358.3455609999999
 51
21.665296
  0
ARC
  5
CEA2
330
CD74
100
AcDbEntity
  8
1
  6
Continuous
100
AcDbCircle
 10
579.75
 20
196.4187499999999
 30
0.0
 40
2.38125
100
AcDbArc
 50
158.3347039999999
 51
181.6544389999999
  0
LINE
  5
CEA3
330
CD74
100
AcDbEntity
  8
1
  6
Continuous
100
AcDbLine
 10
587.0
 20
196.3499999999999
 30
0.0
 11
587.0
 21
195.0
 31
0.0
  0
ARC
  5
CEA4
330
CD74
100
AcDbEntity
  8
1
  6
Continuous
100
AcDbCircle
 10
592.25
 20
196.4187499999999
 30
0.0
 40
2.38125
100
AcDbArc
 50
193.81839
 51
216.5697209999999
  0
LINE
  5
CEA5
330
CD74
100
AcDbEntity
  8
1
  6
Continuous
100
AcDbLine
 10
597.5
 20
196.3499999999999
 30
0.0
 11
597.5
 21
195.0
 31
0.0
  0
ARC
  5
CEA6
330
CD74
100
AcDbEntity
  8
1
  6
Continuous
100
AcDbCircle
 10
592.25
 20
196.4187499999999
 30
0.0
 40
2.38125
100
AcDbArc
 50
323.430279
 51
346.18161
  0
ARC
  5
CEA7
330
CD74
100
AcDbEntity
  8
1
  6
Continuous
100
AcDbCircle
 10
592.25
 20
196.4187499999999
 30
0.0
 40
2.38125
100
AcDbArc
 50
158.3347039999999
 51
181.6544389999999
  0
ARC
  5
CEA8
330
CD74
100
AcDbEntity
  8
1
  6
Continuous
100
AcDbCircle
 10
592.25
 20
196.4187499999999
 30
0.0
 40
2.38125
100
AcDbArc
 50
358.3455609999999
 51
21.665296
  0
LINE
  5
CEA9
330
CD74
100
AcDbEntity
  8
1
  6
Continuous
100
AcDbLine
 10
587.0
 20
196.3499999999999
 30
0.0
 11
597.5
 21
196.3499999999999
 31
0.0
  0
LINE
  5
CEAA
330
CD74
100
AcDbEntity
  8
1
  6
Continuous
100
AcDbLine
 10
587.0
 20
195.8499999999999
 30
0.0
 11
597.5
 21
195.8499999999999
 31
0.0
  0
ARC
  5
CEAB
330
CD74
100
AcDbEntity
  8
1
  6
Continuous
100
AcDbCircle
 10
604.75
 20
196.4187499999999
 30
0.0
 40
2.38125
100
AcDbArc
 50
323.430279
 51
346.18161
  0
LINE
  5
CEAC
330
CD74
100
AcDbEntity
  8
1
  6
Continuous
100
AcDbLine
 10
610.0
 20
196.3499999999999
 30
0.0
 11
610.0
 21
195.0
 31
0.0
  0
ARC
  5
CEAD
330
CD74
100
AcDbEntity
  8
1
  6
Continuous
100
AcDbCircle
 10
604.75
 20
196.4187499999999
 30
0.0
 40
2.38125
100
AcDbArc
 50
193.81839
 51
216.5697209999999
  0
LINE
  5
CEAE
330
CD74
100
AcDbEntity
  8
1
  6
Continuous
100
AcDbLine
 10
599.5
 20
196.3499999999999
 30
0.0
 11
599.5
 21
195.0
 31
0.0
  0
LINE
  5
CEAF
330
CD74
100
AcDbEntity
  8
1
  6
Continuous
100
AcDbLine
 10
599.5
 20
195.8499999999999
 30
0.0
 11
610.0
 21
195.8499999999999
 31
0.0
  0
LINE
  5
CEB0
330
CD74
100
AcDbEntity
  8
1
  6
Continuous
100
AcDbLine
 10
599.5
 20
196.3499999999999
 30
0.0
 11
610.0
 21
196.3499999999999
 31
0.0
  0
ARC
  5
CEB1
330
CD74
100
AcDbEntity
  8
1
  6
Continuous
100
AcDbCircle
 10
604.75
 20
196.4187499999999
 30
0.0
 40
2.38125
100
AcDbArc
 50
358.3455609999999
 51
21.665296
  0
ARC
  5
CEB2
330
CD74
100
AcDbEntity
  8
1
  6
Continuous
100
AcDbCircle
 10
604.75
 20
196.4187499999999
 30
0.0
 40
2.38125
100
AcDbArc
 50
158.3347039999999
 51
181.6544389999999
  0
LINE
  5
CEB3
330
CD74
100
AcDbEntity
  8
1
  6
Continuous
100
AcDbLine
 10
612.0
 20
196.3499999999999
 30
0.0
 11
612.0
 21
195.0
 31
0.0
  0
ARC
  5
CEB4
330
CD74
100
AcDbEntity
  8
1
  6
Continuous
100
AcDbCircle
 10
617.25
 20
196.4187499999999
 30
0.0
 40
2.38125
100
AcDbArc
 50
193.81839
 51
216.5697209999999
  0
LINE
  5
CEB5
330
CD74
100
AcDbEntity
  8
1
  6
Continuous
100
AcDbLine
 10
622.5
 20
196.3499999999999
 30
0.0
 11
622.5
 21
195.0
 31
0.0
  0
ARC
  5
CEB6
330
CD74
100
AcDbEntity
  8
1
  6
Continuous
100
AcDbCircle
 10
617.25
 20
196.4187499999999
 30
0.0
 40
2.38125
100
AcDbArc
 50
323.430279
 51
346.18161
  0
LINE
  5
CEB7
330
CD74
100
AcDbEntity
  8
1
  6
Continuous
100
AcDbLine
 10
612.0
 20
196.3499999999999
 30
0.0
 11
622.5
 21
196.3499999999999
 31
0.0
  0
LINE
  5
CEB8
330
CD74
100
AcDbEntity
  8
1
  6
Continuous
100
AcDbLine
 10
612.0
 20
195.8499999999999
 30
0.0
 11
622.5
 21
195.8499999999999
 31
0.0
  0
ARC
  5
CEB9
330
CD74
100
AcDbEntity
  8
1
  6
Continuous
100
AcDbCircle
 10
617.25
 20
196.4187499999999
 30
0.0
 40
2.38125
100
AcDbArc
 50
158.3347039999999
 51
181.6544389999999
  0
ARC
  5
CEBA
330
CD74
100
AcDbEntity
  8
1
  6
Continuous
100
AcDbCircle
 10
617.25
 20
196.4187499999999
 30
0.0
 40
2.38125
100
AcDbArc
 50
358.3455609999999
 51
21.665296
  0
LINE
  5
CEBB
330
CD74
100
AcDbEntity
  8
1
  6
Continuous
100
AcDbLine
 10
624.5
 20
195.8499999999999
 30
0.0
 11
635.0
 21
195.8499999999999
 31
0.0
  0
LINE
  5
CEBC
330
CD74
100
AcDbEntity
  8
1
  6
Continuous
100
AcDbLine
 10
624.5
 20
196.3499999999999
 30
0.0
 11
635.0
 21
196.3499999999999
 31
0.0
  0
ARC
  5
CEBD
330
CD74
100
AcDbEntity
  8
1
  6
Continuous
100
AcDbCircle
 10
629.75
 20
196.4187499999999
 30
0.0
 40
2.38125
100
AcDbArc
 50
323.430279
 51
346.18161
  0
ARC
  5
CEBE
330
CD74
100
AcDbEntity
  8
1
  6
Continuous
100
AcDbCircle
 10
629.75
 20
196.4187499999999
 30
0.0
 40
2.38125
100
AcDbArc
 50
193.81839
 51
216.5697209999999
  0
LINE
  5
CEBF
330
CD74
100
AcDbEntity
  8
1
  6
Continuous
100
AcDbLine
 10
624.5
 20
196.3499999999999
 30
0.0
 11
624.5
 21
195.0
 31
0.0
  0
ARC
  5
CEC0
330
CD74
100
AcDbEntity
  8
1
  6
Continuous
100
AcDbCircle
 10
629.75
 20
196.4187499999999
 30
0.0
 40
2.38125
100
AcDbArc
 50
358.3455609999999
 51
21.665296
  0
ARC
  5
CEC1
330
CD74
100
AcDbEntity
  8
1
  6
Continuous
100
AcDbCircle
 10
629.75
 20
196.4187499999999
 30
0.0
 40
2.38125
100
AcDbArc
 50
158.3347039999999
 51
181.6544389999999
  0
LINE
  5
CEC2
330
CD74
100
AcDbEntity
  8
1
  6
Continuous
100
AcDbLine
 10
635.0
 20
196.3499999999999
 30
0.0
 11
635.0
 21
195.0
 31
0.0
  0
LINE
  5
CEC3
330
CD74
100
AcDbEntity
  8
1
  6
Continuous
100
AcDbLine
 10
612.0
 20
169.65
 30
0.0
 11
622.5
 21
169.65
 31
0.0
  0
LINE
  5
CEC4
330
CD74
100
AcDbEntity
  8
1
  6
Continuous
100
AcDbLine
 10
612.0
 20
169.15
 30
0.0
 11
622.5
 21
169.15
 31
0.0
  0
LINE
  5
CEC5
330
CD74
100
AcDbEntity
  8
1
  6
Continuous
100
AcDbLine
 10
549.5
 20
169.15
 30
0.0
 11
560.0
 21
169.15
 31
0.0
  0
LINE
  5
CEC6
330
CD74
100
AcDbEntity
  8
1
  6
Continuous
100
AcDbLine
 10
549.5
 20
169.65
 30
0.0
 11
560.0
 21
169.65
 31
0.0
  0
LINE
  5
CEC7
330
CD74
100
AcDbEntity
  8
1
  6
Continuous
100
AcDbLine
 10
549.5
 20
169.15
 30
0.0
 11
549.5
 21
170.5
 31
0.0
  0
ARC
  5
CEC8
330
CD74
100
AcDbEntity
  8
1
  6
Continuous
100
AcDbCircle
 10
554.75
 20
169.08125
 30
0.0
 40
2.38125
100
AcDbArc
 50
143.430279
 51
166.18161
  0
ARC
  5
CEC9
330
CD74
100
AcDbEntity
  8
1
  6
Continuous
100
AcDbCircle
 10
542.25
 20
169.08125
 30
0.0
 40
2.38125
100
AcDbArc
 50
143.430279
 51
166.18161
  0
ARC
  5
CECA
330
CD74
100
AcDbEntity
  8
1
  6
Continuous
100
AcDbCircle
 10
542.25
 20
169.08125
 30
0.0
 40
2.38125
100
AcDbArc
 50
13.81839
 51
36.569721
  0
LINE
  5
CECB
330
CD74
100
AcDbEntity
  8
1
  6
Continuous
100
AcDbLine
 10
537.0
 20
169.15
 30
0.0
 11
537.0
 21
170.5
 31
0.0
  0
LINE
  5
CECC
330
CD74
100
AcDbEntity
  8
1
  6
Continuous
100
AcDbLine
 10
547.5
 20
169.15
 30
0.0
 11
547.5
 21
170.5
 31
0.0
  0
LINE
  5
CECD
330
CD74
100
AcDbEntity
  8
1
  6
Continuous
100
AcDbLine
 10
535.0
 20
169.15
 30
0.0
 11
535.0
 21
170.5
 31
0.0
  0
LINE
  5
CECE
330
CD74
100
AcDbEntity
  8
1
  6
Continuous
100
AcDbLine
 10
524.5
 20
169.15
 30
0.0
 11
524.5
 21
170.5
 31
0.0
  0
ARC
  5
CECF
330
CD74
100
AcDbEntity
  8
1
  6
Continuous
100
AcDbCircle
 10
529.75
 20
169.08125
 30
0.0
 40
2.38125
100
AcDbArc
 50
13.81839
 51
36.569721
  0
ARC
  5
CED0
330
CD74
100
AcDbEntity
  8
1
  6
Continuous
100
AcDbCircle
 10
529.75
 20
169.08125
 30
0.0
 40
2.38125
100
AcDbArc
 50
143.430279
 51
166.18161
  0
ARC
  5
CED1
330
CD74
100
AcDbEntity
  8
1
  6
Continuous
100
AcDbCircle
 10
517.25
 20
169.08125
 30
0.0
 40
2.38125
100
AcDbArc
 50
143.430279
 51
166.18161
  0
ARC
  5
CED2
330
CD74
100
AcDbEntity
  8
1
  6
Continuous
100
AcDbCircle
 10
517.25
 20
169.08125
 30
0.0
 40
2.38125
100
AcDbArc
 50
13.81839
 51
36.569721
  0
LINE
  5
CED3
330
CD74
100
AcDbEntity
  8
1
  6
Continuous
100
AcDbLine
 10
512.0
 20
169.15
 30
0.0
 11
512.0
 21
170.5
 31
0.0
  0
LINE
  5
CED4
330
CD74
100
AcDbEntity
  8
1
  6
Continuous
100
AcDbLine
 10
522.5
 20
169.15
 30
0.0
 11
522.5
 21
170.5
 31
0.0
  0
LINE
  5
CED5
330
CD74
100
AcDbEntity
  8
1
  6
Continuous
100
AcDbLine
 10
510.0
 20
169.15
 30
0.0
 11
510.0
 21
170.5
 31
0.0
  0
LINE
  5
CED6
330
CD74
100
AcDbEntity
  8
1
  6
Continuous
100
AcDbLine
 10
499.5
 20
169.15
 30
0.0
 11
499.5
 21
170.5
 31
0.0
  0
ARC
  5
CED7
330
CD74
100
AcDbEntity
  8
1
  6
Continuous
100
AcDbCircle
 10
504.75
 20
169.08125
 30
0.0
 40
2.38125
100
AcDbArc
 50
13.81839
 51
36.569721
  0
ARC
  5
CED8
330
CD74
100
AcDbEntity
  8
1
  6
Continuous
100
AcDbCircle
 10
504.75
 20
169.08125
 30
0.0
 40
2.38125
100
AcDbArc
 50
143.430279
 51
166.18161
  0
LINE
  5
CED9
330
CD74
100
AcDbEntity
  8
1
  6
Continuous
100
AcDbLine
 10
512.0
 20
169.65
 30
0.0
 11
522.5
 21
169.65
 31
0.0
  0
LINE
  5
CEDA
330
CD74
100
AcDbEntity
  8
1
  6
Continuous
100
AcDbLine
 10
512.0
 20
169.15
 30
0.0
 11
522.5
 21
169.15
 31
0.0
  0
LINE
  5
CEDB
330
CD74
100
AcDbEntity
  8
1
  6
Continuous
100
AcDbLine
 10
499.5
 20
169.15
 30
0.0
 11
510.0
 21
169.15
 31
0.0
  0
LINE
  5
CEDC
330
CD74
100
AcDbEntity
  8
1
  6
Continuous
100
AcDbLine
 10
499.5
 20
169.65
 30
0.0
 11
510.0
 21
169.65
 31
0.0
  0
ARC
  5
CEDD
330
CD74
100
AcDbEntity
  8
1
  6
Continuous
100
AcDbCircle
 10
504.75
 20
169.08125
 30
0.0
 40
2.38125
100
AcDbArc
 50
178.345561
 51
201.6652959999999
  0
ARC
  5
CEDE
330
CD74
100
AcDbEntity
  8
1
  6
Continuous
100
AcDbCircle
 10
517.25
 20
169.08125
 30
0.0
 40
2.38125
100
AcDbArc
 50
338.3347039999998
 51
1.654438999999999
  0
ARC
  5
CEDF
330
CD74
100
AcDbEntity
  8
1
  6
Continuous
100
AcDbCircle
 10
517.25
 20
169.08125
 30
0.0
 40
2.38125
100
AcDbArc
 50
178.345561
 51
201.6652959999999
  0
ARC
  5
CEE0
330
CD74
100
AcDbEntity
  8
1
  6
Continuous
100
AcDbCircle
 10
504.75
 20
169.08125
 30
0.0
 40
2.38125
100
AcDbArc
 50
338.3347039999998
 51
1.654438999999999
  0
ARC
  5
CEE1
330
CD74
100
AcDbEntity
  8
1
  6
Continuous
100
AcDbCircle
 10
529.75
 20
169.08125
 30
0.0
 40
2.38125
100
AcDbArc
 50
178.345561
 51
201.6652959999999
  0
ARC
  5
CEE2
330
CD74
100
AcDbEntity
  8
1
  6
Continuous
100
AcDbCircle
 10
529.75
 20
169.08125
 30
0.0
 40
2.38125
100
AcDbArc
 50
338.3347039999998
 51
1.654438999999999
  0
LINE
  5
CEE3
330
CD74
100
AcDbEntity
  8
1
  6
Continuous
100
AcDbLine
 10
524.5
 20
169.15
 30
0.0
 11
535.0
 21
169.15
 31
0.0
  0
LINE
  5
CEE4
330
CD74
100
AcDbEntity
  8
1
  6
Continuous
100
AcDbLine
 10
524.5
 20
169.65
 30
0.0
 11
535.0
 21
169.65
 31
0.0
  0
ARC
  5
CEE5
330
CD74
100
AcDbEntity
  8
1
  6
Continuous
100
AcDbCircle
 10
554.75
 20
169.08125
 30
0.0
 40
2.38125
100
AcDbArc
 50
178.345561
 51
201.6652959999999
  0
LINE
  5
CEE6
330
CD74
100
AcDbEntity
  8
1
  6
Continuous
100
AcDbLine
 10
537.0
 20
169.65
 30
0.0
 11
547.5
 21
169.65
 31
0.0
  0
LINE
  5
CEE7
330
CD74
100
AcDbEntity
  8
1
  6
Continuous
100
AcDbLine
 10
537.0
 20
169.15
 30
0.0
 11
547.5
 21
169.15
 31
0.0
  0
ARC
  5
CEE8
330
CD74
100
AcDbEntity
  8
1
  6
Continuous
100
AcDbCircle
 10
542.25
 20
169.08125
 30
0.0
 40
2.38125
100
AcDbArc
 50
338.3347039999998
 51
1.654438999999999
  0
ARC
  5
CEE9
330
CD74
100
AcDbEntity
  8
1
  6
Continuous
100
AcDbCircle
 10
542.25
 20
169.08125
 30
0.0
 40
2.38125
100
AcDbArc
 50
178.345561
 51
201.6652959999999
  0
ARC
  5
CEEA
330
CD74
100
AcDbEntity
  8
1
  6
Continuous
100
AcDbCircle
 10
617.25
 20
169.08125
 30
0.0
 40
2.38125
100
AcDbArc
 50
13.81839
 51
36.569721
  0
ARC
  5
CEEB
330
CD74
100
AcDbEntity
  8
1
  6
Continuous
100
AcDbCircle
 10
617.25
 20
169.08125
 30
0.0
 40
2.38125
100
AcDbArc
 50
143.430279
 51
166.18161
  0
LINE
  5
CEEC
330
CD74
100
AcDbEntity
  8
1
  6
Continuous
100
AcDbLine
 10
612.0
 20
169.15
 30
0.0
 11
612.0
 21
170.5
 31
0.0
  0
LINE
  5
CEED
330
CD74
100
AcDbEntity
  8
1
  6
Continuous
100
AcDbLine
 10
599.5
 20
169.15
 30
0.0
 11
599.5
 21
170.5
 31
0.0
  0
ARC
  5
CEEE
330
CD74
100
AcDbEntity
  8
1
  6
Continuous
100
AcDbCircle
 10
604.75
 20
169.08125
 30
0.0
 40
2.38125
100
AcDbArc
 50
143.430279
 51
166.18161
  0
LINE
  5
CEEF
330
CD74
100
AcDbEntity
  8
1
  6
Continuous
100
AcDbLine
 10
610.0
 20
169.15
 30
0.0
 11
610.0
 21
170.5
 31
0.0
  0
ARC
  5
CEF0
330
CD74
100
AcDbEntity
  8
1
  6
Continuous
100
AcDbCircle
 10
604.75
 20
169.08125
 30
0.0
 40
2.38125
100
AcDbArc
 50
13.81839
 51
36.569721
  0
ARC
  5
CEF1
330
CD74
100
AcDbEntity
  8
1
  6
Continuous
100
AcDbCircle
 10
592.25
 20
169.08125
 30
0.0
 40
2.38125
100
AcDbArc
 50
13.81839
 51
36.569721
  0
LINE
  5
CEF2
330
CD74
100
AcDbEntity
  8
1
  6
Continuous
100
AcDbLine
 10
597.5
 20
169.15
 30
0.0
 11
597.5
 21
170.5
 31
0.0
  0
ARC
  5
CEF3
330
CD74
100
AcDbEntity
  8
1
  6
Continuous
100
AcDbCircle
 10
592.25
 20
169.08125
 30
0.0
 40
2.38125
100
AcDbArc
 50
143.430279
 51
166.18161
  0
LINE
  5
CEF4
330
CD74
100
AcDbEntity
  8
1
  6
Continuous
100
AcDbLine
 10
587.0
 20
169.15
 30
0.0
 11
587.0
 21
170.5
 31
0.0
  0
LINE
  5
CEF5
330
CD74
100
AcDbEntity
  8
1
  6
Continuous
100
AcDbLine
 10
574.5
 20
169.15
 30
0.0
 11
574.5
 21
170.5
 31
0.0
  0
ARC
  5
CEF6
330
CD74
100
AcDbEntity
  8
1
  6
Continuous
100
AcDbCircle
 10
579.75
 20
169.08125
 30
0.0
 40
2.38125
100
AcDbArc
 50
143.430279
 51
166.18161
  0
LINE
  5
CEF7
330
CD74
100
AcDbEntity
  8
1
  6
Continuous
100
AcDbLine
 10
585.0
 20
169.15
 30
0.0
 11
585.0
 21
170.5
 31
0.0
  0
ARC
  5
CEF8
330
CD74
100
AcDbEntity
  8
1
  6
Continuous
100
AcDbCircle
 10
579.75
 20
169.08125
 30
0.0
 40
2.38125
100
AcDbArc
 50
13.81839
 51
36.569721
  0
ARC
  5
CEF9
330
CD74
100
AcDbEntity
  8
1
  6
Continuous
100
AcDbCircle
 10
567.25
 20
169.08125
 30
0.0
 40
2.38125
100
AcDbArc
 50
13.81839
 51
36.569721
  0
LINE
  5
CEFA
330
CD74
100
AcDbEntity
  8
1
  6
Continuous
100
AcDbLine
 10
572.5
 20
169.15
 30
0.0
 11
572.5
 21
170.5
 31
0.0
  0
ARC
  5
CEFB
330
CD74
100
AcDbEntity
  8
1
  6
Continuous
100
AcDbCircle
 10
567.25
 20
169.08125
 30
0.0
 40
2.38125
100
AcDbArc
 50
143.430279
 51
166.18161
  0
LINE
  5
CEFC
330
CD74
100
AcDbEntity
  8
1
  6
Continuous
100
AcDbLine
 10
562.0
 20
169.15
 30
0.0
 11
562.0
 21
170.5
 31
0.0
  0
LINE
  5
CEFD
330
CD74
100
AcDbEntity
  8
1
  6
Continuous
100
AcDbLine
 10
560.0
 20
169.15
 30
0.0
 11
560.0
 21
170.5
 31
0.0
  0
ARC
  5
CEFE
330
CD74
100
AcDbEntity
  8
1
  6
Continuous
100
AcDbCircle
 10
554.75
 20
169.08125
 30
0.0
 40
2.38125
100
AcDbArc
 50
13.81839
 51
36.569721
  0
LINE
  5
CEFF
330
CD74
100
AcDbEntity
  8
1
  6
Continuous
100
AcDbLine
 10
562.0
 20
169.65
 30
0.0
 11
572.5
 21
169.65
 31
0.0
  0
LINE
  5
CF00
330
CD74
100
AcDbEntity
  8
1
  6
Continuous
100
AcDbLine
 10
562.0
 20
169.15
 30
0.0
 11
572.5
 21
169.15
 31
0.0
  0
ARC
  5
CF01
330
CD74
100
AcDbEntity
  8
1
  6
Continuous
100
AcDbCircle
 10
567.25
 20
169.08125
 30
0.0
 40
2.38125
100
AcDbArc
 50
338.3347039999998
 51
1.654438999999999
  0
ARC
  5
CF02
330
CD74
100
AcDbEntity
  8
1
  6
Continuous
100
AcDbCircle
 10
567.25
 20
169.08125
 30
0.0
 40
2.38125
100
AcDbArc
 50
178.345561
 51
201.6652959999999
  0
ARC
  5
CF03
330
CD74
100
AcDbEntity
  8
1
  6
Continuous
100
AcDbCircle
 10
554.75
 20
169.08125
 30
0.0
 40
2.38125
100
AcDbArc
 50
338.3347039999998
 51
1.654438999999999
  0
ARC
  5
CF04
330
CD74
100
AcDbEntity
  8
1
  6
Continuous
100
AcDbCircle
 10
579.75
 20
169.08125
 30
0.0
 40
2.38125
100
AcDbArc
 50
178.345561
 51
201.6652959999999
  0
ARC
  5
CF05
330
CD74
100
AcDbEntity
  8
1
  6
Continuous
100
AcDbCircle
 10
579.75
 20
169.08125
 30
0.0
 40
2.38125
100
AcDbArc
 50
338.3347039999998
 51
1.654438999999999
  0
LINE
  5
CF06
330
CD74
100
AcDbEntity
  8
1
  6
Continuous
100
AcDbLine
 10
574.5
 20
169.15
 30
0.0
 11
585.0
 21
169.15
 31
0.0
  0
LINE
  5
CF07
330
CD74
100
AcDbEntity
  8
1
  6
Continuous
100
AcDbLine
 10
574.5
 20
169.65
 30
0.0
 11
585.0
 21
169.65
 31
0.0
  0
LINE
  5
CF08
330
CD74
100
AcDbEntity
  8
1
  6
Continuous
100
AcDbLine
 10
599.5
 20
169.15
 30
0.0
 11
610.0
 21
169.15
 31
0.0
  0
LINE
  5
CF09
330
CD74
100
AcDbEntity
  8
1
  6
Continuous
100
AcDbLine
 10
599.5
 20
169.65
 30
0.0
 11
610.0
 21
169.65
 31
0.0
  0
ARC
  5
CF0A
330
CD74
100
AcDbEntity
  8
1
  6
Continuous
100
AcDbCircle
 10
604.75
 20
169.08125
 30
0.0
 40
2.38125
100
AcDbArc
 50
178.345561
 51
201.6652959999999
  0
LINE
  5
CF0B
330
CD74
100
AcDbEntity
  8
1
  6
Continuous
100
AcDbLine
 10
587.0
 20
169.65
 30
0.0
 11
597.5
 21
169.65
 31
0.0
  0
LINE
  5
CF0C
330
CD74
100
AcDbEntity
  8
1
  6
Continuous
100
AcDbLine
 10
587.0
 20
169.15
 30
0.0
 11
597.5
 21
169.15
 31
0.0
  0
ARC
  5
CF0D
330
CD74
100
AcDbEntity
  8
1
  6
Continuous
100
AcDbCircle
 10
592.25
 20
169.08125
 30
0.0
 40
2.38125
100
AcDbArc
 50
338.3347039999998
 51
1.654438999999999
  0
ARC
  5
CF0E
330
CD74
100
AcDbEntity
  8
1
  6
Continuous
100
AcDbCircle
 10
592.25
 20
169.08125
 30
0.0
 40
2.38125
100
AcDbArc
 50
178.345561
 51
201.6652959999999
  0
ARC
  5
CF0F
330
CD74
100
AcDbEntity
  8
1
  6
Continuous
100
AcDbCircle
 10
617.25
 20
169.08125
 30
0.0
 40
2.38125
100
AcDbArc
 50
338.3347039999998
 51
1.654438999999999
  0
ARC
  5
CF10
330
CD74
100
AcDbEntity
  8
1
  6
Continuous
100
AcDbCircle
 10
617.25
 20
169.08125
 30
0.0
 40
2.38125
100
AcDbArc
 50
178.345561
 51
201.6652959999999
  0
ARC
  5
CF11
330
CD74
100
AcDbEntity
  8
1
  6
Continuous
100
AcDbCircle
 10
604.75
 20
169.08125
 30
0.0
 40
2.38125
100
AcDbArc
 50
338.3347039999998
 51
1.654438999999999
  0
LINE
  5
CF12
330
CD74
100
AcDbEntity
  8
1
  6
Continuous
100
AcDbLine
 10
635.0
 20
169.15
 30
0.0
 11
635.0
 21
170.5
 31
0.0
  0
LINE
  5
CF13
330
CD74
100
AcDbEntity
  8
1
  6
Continuous
100
AcDbLine
 10
624.5
 20
169.15
 30
0.0
 11
624.5
 21
170.5
 31
0.0
  0
ARC
  5
CF14
330
CD74
100
AcDbEntity
  8
1
  6
Continuous
100
AcDbCircle
 10
629.75
 20
169.08125
 30
0.0
 40
2.38125
100
AcDbArc
 50
143.430279
 51
166.18161
  0
ARC
  5
CF15
330
CD74
100
AcDbEntity
  8
1
  6
Continuous
100
AcDbCircle
 10
629.75
 20
169.08125
 30
0.0
 40
2.38125
100
AcDbArc
 50
13.81839
 51
36.569721
  0
LINE
  5
CF16
330
CD74
100
AcDbEntity
  8
1
  6
Continuous
100
AcDbLine
 10
622.5
 20
169.15
 30
0.0
 11
622.5
 21
170.5
 31
0.0
  0
ARC
  5
CF17
330
CD74
100
AcDbEntity
  8
1
  6
Continuous
100
AcDbCircle
 10
629.75
 20
169.08125
 30
0.0
 40
2.38125
100
AcDbArc
 50
178.345561
 51
201.6652959999999
  0
ARC
  5
CF18
330
CD74
100
AcDbEntity
  8
1
  6
Continuous
100
AcDbCircle
 10
629.75
 20
169.08125
 30
0.0
 40
2.38125
100
AcDbArc
 50
338.3347039999998
 51
1.654438999999999
  0
LINE
  5
CF19
330
CD74
100
AcDbEntity
  8
1
  6
Continuous
100
AcDbLine
 10
624.5
 20
169.15
 30
0.0
 11
635.0
 21
169.15
 31
0.0
  0
LINE
  5
CF1A
330
CD74
100
AcDbEntity
  8
1
  6
Continuous
100
AcDbLine
 10
624.5
 20
169.65
 30
0.0
 11
635.0
 21
169.65
 31
0.0
  0
ARC
  5
CF1B
330
CD74
100
AcDbEntity
  8
1
  6
Continuous
100
AcDbCircle
 10
849.9
 20
195.057229
 30
0.0
 40
0.8072289999999997
100
AcDbArc
 50
141.1871849999998
 51
270.0
  0
LINE
  5
CF1C
330
CD74
100
AcDbEntity
  8
1
  6
Continuous
100
AcDbLine
 10
849.2710089999999
 20
195.563183
 30
0.0
 11
851.1467159999996
 21
197.8950239999998
 31
0.0
  0
LINE
  5
CF1D
330
CD74
100
AcDbEntity
  8
1
  6
Continuous
100
AcDbLine
 10
851.5
 20
198.8978689999999
 30
0.0
 11
851.5
 21
200.4
 31
0.0
  0
LINE
  5
CF1E
330
CD74
100
AcDbEntity
  8
1
  6
Continuous
100
AcDbLine
 10
849.2710089999999
 20
169.9368169999999
 30
0.0
 11
851.1467159999996
 21
167.6049759999999
 31
0.0
  0
ARC
  5
CF1F
330
CD74
100
AcDbEntity
  8
1
  6
Continuous
100
AcDbCircle
 10
849.9
 20
170.442771
 30
0.0
 40
0.8072289999999997
100
AcDbArc
 50
90.0
 51
218.812815
  0
LINE
  5
CF20
330
CD74
100
AcDbEntity
  8
1
  6
Continuous
100
AcDbLine
 10
851.5
 20
171.25
 30
0.0
 11
851.5
 21
194.25
 31
0.0
  0
LINE
  5
CF21
330
CD74
100
AcDbEntity
  8
1
  6
Continuous
100
AcDbLine
 10
119.728991
 20
195.563183
 30
0.0
 11
117.853284
 21
197.8950239999998
 31
0.0
  0
LINE
  5
CF22
330
CD74
100
AcDbEntity
  8
1
  6
Continuous
100
AcDbLine
 10
119.1
 20
171.25
 30
0.0
 11
119.1
 21
194.25
 31
0.0
  0
ARC
  5
CF23
330
CD74
100
AcDbEntity
  8
1
  6
Continuous
100
AcDbCircle
 10
119.1
 20
170.442771
 30
0.0
 40
0.8072289999999997
100
AcDbArc
 50
321.187185
 51
90.0
  0
LINE
  5
CF24
330
CD74
100
AcDbEntity
  8
1
  6
Continuous
100
AcDbLine
 10
119.728991
 20
169.9368169999999
 30
0.0
 11
117.853284
 21
167.6049759999999
 31
0.0
  0
ARC
  5
CF25
330
CD74
100
AcDbEntity
  8
1
  6
Continuous
100
AcDbCircle
 10
119.1
 20
166.602131
 30
0.0
 40
1.6
100
AcDbArc
 50
141.1871849999998
 51
180.0
  0
ARC
  5
CF26
330
CD74
100
AcDbEntity
  8
1
  6
Continuous
100
AcDbCircle
 10
119.1
 20
195.057229
 30
0.0
 40
0.8072289999999997
100
AcDbArc
 50
270.0
 51
38.812815
  0
ARC
  5
CF27
330
CD74
100
AcDbEntity
  8
1
  6
Continuous
100
AcDbCircle
 10
119.1
 20
198.8978689999999
 30
0.0
 40
1.6
100
AcDbArc
 50
180.0
 51
218.812815
  0
LINE
  5
CF28
330
CD74
100
AcDbEntity
  8
1
  6
Continuous
100
AcDbLine
 10
117.5
 20
198.8978689999999
 30
0.0
 11
117.5
 21
200.4
 31
0.0
  0
LINE
  5
CF29
330
CD74
100
AcDbEntity
  8
1
  6
Continuous
100
AcDbLine
 10
117.5
 20
305.3999999999998
 30
0.0
 11
117.5
 21
314.1
 31
0.0
  0
LINE
  5
CF2A
330
CD74
100
AcDbEntity
  8
1
  6
Continuous
100
AcDbLine
 10
473.5
 20
305.3999999999998
 30
0.0
 11
473.5
 21
314.1
 31
0.0
  0
LINE
  5
CF2B
330
CD74
100
AcDbEntity
  8
1
  6
Continuous
100
AcDbLine
 10
117.5
 20
305.3999999999998
 30
0.0
 11
473.5
 21
305.3999999999998
 31
0.0
  0
LINE
  5
CF2C
330
CD74
100
AcDbEntity
  8
1
  6
Continuous
100
AcDbLine
 10
117.5
 20
314.1
 30
0.0
 11
473.5
 21
314.1
 31
0.0
  0
LINE
  5
CF2D
330
CD74
100
AcDbEntity
  8
4
  6
CENTER
100
AcDbLine
 10
133.8
 20
310.471691
 30
0.0
 11
133.8
 21
299.971691
 31
0.0
  0
LINE
  5
CF2E
330
CD74
100
AcDbEntity
  8
4
  6
CENTER
100
AcDbLine
 10
146.5
 20
310.471691
 30
0.0
 11
146.5
 21
299.971691
 31
0.0
  0
LINE
  5
CF2F
330
CD74
100
AcDbEntity
  8
4
  6
CENTER
100
AcDbLine
 10
257.6
 20
310.471691
 30
0.0
 11
257.6
 21
299.971691
 31
0.0
  0
LINE
  5
CF30
330
CD74
100
AcDbEntity
  8
4
  6
CENTER
100
AcDbLine
 10
346.4999999999998
 20
310.471691
 30
0.0
 11
346.4999999999998
 21
299.971691
 31
0.0
  0
LINE
  5
CF31
330
CD74
100
AcDbEntity
  8
4
  6
CENTER
100
AcDbLine
 10
432.2
 20
310.471691
 30
0.0
 11
432.2
 21
299.971691
 31
0.0
  0
LINE
  5
CF32
330
CD74
100
AcDbEntity
  8
4
  6
CENTER
100
AcDbLine
 10
444.8999999999998
 20
310.471691
 30
0.0
 11
444.8999999999998
 21
299.971691
 31
0.0
  0
LINE
  5
CF33
330
CD74
100
AcDbEntity
  8
4
  6
CENTER
100
AcDbLine
 10
457.6
 20
324.933485
 30
0.0
 11
457.6
 21
299.971691
 31
0.0
  0
LINE
  5
CF34
330
CD74
100
AcDbEntity
  8
1
  6
Continuous
100
AcDbLine
 10
309.1
 20
314.9
 30
0.0
 11
309.1
 21
314.1
 31
0.0
  0
LINE
  5
CF35
330
CD74
100
AcDbEntity
  8
1
  6
Continuous
100
AcDbLine
 10
306.1
 20
321.4999999999998
 30
0.0
 11
306.1
 21
315.0
 31
0.0
  0
LINE
  5
CF36
330
CD74
100
AcDbEntity
  8
1
  6
Continuous
100
AcDbLine
 10
309.1
 20
314.9
 30
0.0
 11
662.8999999999997
 21
314.9
 31
0.0
  0
LINE
  5
CF37
330
CD74
100
AcDbEntity
  8
3
  6
DASHED
100
AcDbLine
 10
309.1
 20
308.3999999999999
 30
0.0
 11
473.5
 21
308.3999999999999
 31
0.0
  0
LINE
  5
CF38
330
CD74
100
AcDbEntity
  8
3
  6
DASHED
100
AcDbLine
 10
309.1
 20
314.1
 30
0.0
 11
309.1
 21
308.3999999999999
 31
0.0
  0
LINE
  5
CF39
330
CD74
100
AcDbEntity
  8
1
  6
Continuous
100
AcDbLine
 10
662.8999999999997
 20
314.9
 30
0.0
 11
662.8999999999997
 21
308.3999999999999
 31
0.0
  0
LINE
  5
CF3A
330
CD74
100
AcDbEntity
  8
3
  6
DASHED
100
AcDbLine
 10
659.9
 20
321.4999999999998
 30
0.0
 11
659.9
 21
315.8
 31
0.0
  0
LINE
  5
CF3B
330
CD74
100
AcDbEntity
  8
1
  6
Continuous
100
AcDbLine
 10
473.5
 20
308.3999999999999
 30
0.0
 11
662.8999999999997
 21
308.3999999999999
 31
0.0
  0
LINE
  5
CF3C
330
CD74
100
AcDbEntity
  8
1
  6
Continuous
100
AcDbLine
 10
306.1
 20
315.0
 30
0.0
 11
659.9
 21
315.0
 31
0.0
  0
LINE
  5
CF3D
330
CD74
100
AcDbEntity
  8
1
  6
Continuous
100
AcDbLine
 10
306.1
 20
321.4999999999998
 30
0.0
 11
495.5
 21
321.4999999999998
 31
0.0
  0
LINE
  5
CF3E
330
CD74
100
AcDbEntity
  8
1
  6
Continuous
100
AcDbLine
 10
495.5
 20
315.8
 30
0.0
 11
495.5
 21
324.5
 31
0.0
  0
LINE
  5
CF3F
330
CD74
100
AcDbEntity
  8
1
  6
Continuous
100
AcDbLine
 10
495.5
 20
324.5
 30
0.0
 11
851.5
 21
324.5
 31
0.0
  0
LINE
  5
CF40
330
CD74
100
AcDbEntity
  8
1
  6
Continuous
100
AcDbLine
 10
851.5
 20
315.8
 30
0.0
 11
851.5
 21
324.5
 31
0.0
  0
LINE
  5
CF41
330
CD74
100
AcDbEntity
  8
1
  6
Continuous
100
AcDbLine
 10
495.5
 20
315.8
 30
0.0
 11
851.5
 21
315.8
 31
0.0
  0
LINE
  5
CF42
330
CD74
100
AcDbEntity
  8
3
  6
DASHED
100
AcDbLine
 10
495.5
 20
321.4999999999998
 30
0.0
 11
659.9
 21
321.4999999999998
 31
0.0
  0
LINE
  5
CF43
330
CD74
100
AcDbEntity
  8
1
  6
Continuous
100
AcDbLine
 10
659.9
 20
315.8
 30
0.0
 11
659.9
 21
315.0
 31
0.0
  0
LINE
  5
CF44
330
CD74
100
AcDbEntity
  8
4
  6
CENTER
100
AcDbLine
 10
835.2
 20
328.9955889999998
 30
0.0
 11
835.2
 21
318.4955889999999
 31
0.0
  0
LINE
  5
CF45
330
CD74
100
AcDbEntity
  8
4
  6
CENTER
100
AcDbLine
 10
822.4999999999999
 20
328.9955889999998
 30
0.0
 11
822.4999999999999
 21
318.4955889999999
 31
0.0
  0
LINE
  5
CF46
330
CD74
100
AcDbEntity
  8
4
  6
CENTER
100
AcDbLine
 10
711.3999999999997
 20
328.9955889999998
 30
0.0
 11
711.3999999999997
 21
318.4955889999999
 31
0.0
  0
LINE
  5
CF47
330
CD74
100
AcDbEntity
  8
4
  6
CENTER
100
AcDbLine
 10
622.5
 20
328.9955889999998
 30
0.0
 11
622.5
 21
318.4955889999999
 31
0.0
  0
LINE
  5
CF48
330
CD74
100
AcDbEntity
  8
4
  6
CENTER
100
AcDbLine
 10
524.1
 20
328.9955889999998
 30
0.0
 11
524.1
 21
318.4955889999999
 31
0.0
  0
LINE
  5
CF49
330
CD74
100
AcDbEntity
  8
4
  6
CENTER
100
AcDbLine
 10
536.7999999999998
 20
328.9955889999998
 30
0.0
 11
536.7999999999998
 21
318.4955889999999
 31
0.0
  0
LINE
  5
CF4A
330
CD74
100
AcDbEntity
  8
4
  6
CENTER
100
AcDbLine
 10
511.3999999999998
 20
328.9955889999998
 30
0.0
 11
511.3999999999998
 21
305.465795
 31
0.0
  0
LINE
  5
CF4B
330
CD74
100
AcDbEntity
  8
3
  6
DASHED
100
AcDbLine
 10
471.0
 20
454.6499999999999
 30
0.0
 11
473.5
 21
454.6499999999999
 31
0.0
  0
LINE
  5
CF4C
330
CD74
100
AcDbEntity
  8
3
  6
DASHED
100
AcDbLine
 10
471.0
 20
439.6499999999998
 30
0.0
 11
473.5
 21
439.6499999999998
 31
0.0
  0
LINE
  5
CF4D
330
CD74
100
AcDbEntity
  8
1
  6
Continuous
100
AcDbLine
 10
471.9
 20
462.2885629999998
 30
0.0
 11
119.1
 21
462.2885629999998
 31
0.0
  0
LINE
  5
CF4E
330
CD74
100
AcDbEntity
  8
1
  6
Continuous
100
AcDbLine
 10
471.9
 20
461.697869
 30
0.0
 11
119.1
 21
461.697869
 31
0.0
  0
LINE
  5
CF4F
330
CD74
100
AcDbEntity
  8
1
  6
Continuous
100
AcDbLine
 10
471.9
 20
432.6021309999998
 30
0.0
 11
119.1
 21
432.6021309999998
 31
0.0
  0
LINE
  5
CF50
330
CD74
100
AcDbEntity
  8
1
  6
Continuous
100
AcDbLine
 10
471.9
 20
432.0114369999997
 30
0.0
 11
119.1
 21
432.0114369999997
 31
0.0
  0
LINE
  5
CF51
330
CD74
100
AcDbEntity
  8
1
  6
Continuous
100
AcDbLine
 10
473.5
 20
464.8
 30
0.0
 11
117.5
 21
464.8
 31
0.0
  0
LINE
  5
CF52
330
CD74
100
AcDbEntity
  8
1
  6
Continuous
100
AcDbLine
 10
473.5
 20
429.4999999999998
 30
0.0
 11
117.5
 21
429.4999999999998
 31
0.0
  0
LINE
  5
CF53
330
CD74
100
AcDbEntity
  8
1
  6
Continuous
100
AcDbLine
 10
495.5
 20
456.0375
 30
0.0
 11
344.1
 21
456.0375
 31
0.0
  0
LINE
  5
CF54
330
CD74
100
AcDbEntity
  8
1
  6
Continuous
100
AcDbLine
 10
495.5
 20
457.2375
 30
0.0
 11
306.1
 21
457.2375
 31
0.0
  0
LINE
  5
CF55
330
CD74
100
AcDbEntity
  8
1
  6
Continuous
100
AcDbLine
 10
495.5
 20
438.2624999999999
 30
0.0
 11
344.1
 21
438.2624999999999
 31
0.0
  0
LINE
  5
CF56
330
CD74
100
AcDbEntity
  8
1
  6
Continuous
100
AcDbLine
 10
495.5
 20
437.0625
 30
0.0
 11
306.1
 21
437.0625
 31
0.0
  0
LINE
  5
CF57
330
CD74
100
AcDbEntity
  8
1
  6
Continuous
100
AcDbLine
 10
495.5
 20
459.4
 30
0.0
 11
306.1
 21
459.4
 31
0.0
  0
LINE
  5
CF58
330
CD74
100
AcDbEntity
  8
1
  6
Continuous
100
AcDbLine
 10
495.5
 20
434.9
 30
0.0
 11
306.1
 21
434.9
 31
0.0
  0
LINE
  5
CF59
330
CD74
100
AcDbEntity
  8
4
  6
CENTER
100
AcDbLine
 10
856.4999999999999
 20
447.1499999999998
 30
0.0
 11
112.5
 21
447.1499999999998
 31
0.0
  0
LINE
  5
CF5A
330
CD74
100
AcDbEntity
  8
1
  6
Continuous
100
AcDbLine
 10
851.5
 20
429.4999999999998
 30
0.0
 11
495.5
 21
429.4999999999998
 31
0.0
  0
LINE
  5
CF5B
330
CD74
100
AcDbEntity
  8
1
  6
Continuous
100
AcDbLine
 10
851.5
 20
464.8
 30
0.0
 11
495.5
 21
464.8
 31
0.0
  0
LINE
  5
CF5C
330
CD74
100
AcDbEntity
  8
1
  6
Continuous
100
AcDbLine
 10
849.2710089999999
 20
434.3368169999997
 30
0.0
 11
851.1467159999996
 21
432.0049759999998
 31
0.0
  0
ARC
  5
CF5D
330
CD74
100
AcDbEntity
  8
1
  6
Continuous
100
AcDbCircle
 10
822.4999999999999
 20
447.55
 30
0.0
 40
2.25
100
AcDbArc
 50
0.0
 51
180.0
  0
ARC
  5
CF5E
330
CD74
100
AcDbEntity
  8
1
  6
Continuous
100
AcDbCircle
 10
822.4999999999999
 20
446.75
 30
0.0
 40
2.25
100
AcDbArc
 50
180.0
 51
0.0
  0
LINE
  5
CF5F
330
CD74
100
AcDbEntity
  8
1
  6
Continuous
100
AcDbLine
 10
849.9
 20
458.65
 30
0.0
 11
849.9
 21
435.6499999999998
 31
0.0
  0
LINE
  5
CF60
330
CD74
100
AcDbEntity
  8
1
  6
Continuous
100
AcDbLine
 10
851.5
 20
464.8
 30
0.0
 11
851.5
 21
463.2978689999998
 31
0.0
  0
LINE
  5
CF61
330
CD74
100
AcDbEntity
  8
1
  6
Continuous
100
AcDbLine
 10
849.2710089999999
 20
459.9631829999998
 30
0.0
 11
851.1467159999996
 21
462.295024
 31
0.0
  0
ARC
  5
CF62
330
CD74
100
AcDbEntity
  8
1
  6
Continuous
100
AcDbCircle
 10
849.9
 20
459.457229
 30
0.0
 40
0.8072289999999997
100
AcDbArc
 50
141.1871849999998
 51
270.0
  0
ARC
  5
CF63
330
CD74
100
AcDbEntity
  8
1
  6
Continuous
100
AcDbCircle
 10
849.9
 20
463.2978689999998
 30
0.0
 40
1.6
100
AcDbArc
 50
321.187185
 51
0.0
  0
ARC
  5
CF64
330
CD74
100
AcDbEntity
  8
1
  6
Continuous
100
AcDbCircle
 10
849.9
 20
434.842771
 30
0.0
 40
0.8072289999999997
100
AcDbArc
 50
90.0
 51
218.812815
  0
LINE
  5
CF65
330
CD74
100
AcDbEntity
  8
1
  6
Continuous
100
AcDbLine
 10
824.75
 20
446.75
 30
0.0
 11
824.75
 21
447.55
 31
0.0
  0
LINE
  5
CF66
330
CD74
100
AcDbEntity
  8
1
  6
Continuous
100
AcDbLine
 10
832.9500000000001
 20
446.75
 30
0.0
 11
832.9500000000001
 21
447.55
 31
0.0
  0
LINE
  5
CF67
330
CD74
100
AcDbEntity
  8
1
  6
Continuous
100
AcDbLine
 10
837.4500000000001
 20
446.75
 30
0.0
 11
837.4500000000001
 21
447.55
 31
0.0
  0
LINE
  5
CF68
330
CD74
100
AcDbEntity
  8
4
  6
CENTER
100
AcDbLine
 10
835.2
 20
441.8999999999998
 30
0.0
 11
835.2
 21
452.4
 31
0.0
  0
ARC
  5
CF69
330
CD74
100
AcDbEntity
  8
1
  6
Continuous
100
AcDbCircle
 10
835.2
 20
447.55
 30
0.0
 40
2.25
100
AcDbArc
 50
0.0
 51
180.0
  0
ARC
  5
CF6A
330
CD74
100
AcDbEntity
  8
1
  6
Continuous
100
AcDbCircle
 10
835.2
 20
446.75
 30
0.0
 40
2.25
100
AcDbArc
 50
180.0
 51
0.0
  0
LINE
  5
CF6B
330
CD74
100
AcDbEntity
  8
1
  6
Continuous
100
AcDbLine
 10
820.25
 20
446.75
 30
0.0
 11
820.25
 21
447.55
 31
0.0
  0
LINE
  5
CF6C
330
CD74
100
AcDbEntity
  8
4
  6
CENTER
100
AcDbLine
 10
822.4999999999999
 20
441.8999999999998
 30
0.0
 11
822.4999999999999
 21
452.4
 31
0.0
  0
LINE
  5
CF6D
330
CD74
100
AcDbEntity
  8
1
  6
Continuous
100
AcDbLine
 10
851.5
 20
431.0021309999998
 30
0.0
 11
851.5
 21
429.4999999999998
 31
0.0
  0
ARC
  5
CF6E
330
CD74
100
AcDbEntity
  8
1
  6
Continuous
100
AcDbCircle
 10
849.9
 20
431.0021309999998
 30
0.0
 40
1.6
100
AcDbArc
 50
0.0
 51
38.812815
  0
LINE
  5
CF6F
330
CD74
100
AcDbEntity
  8
3
  6
DASHED
100
AcDbLine
 10
662.8999999999997
 20
459.4
 30
0.0
 11
495.5
 21
459.4
 31
0.0
  0
LINE
  5
CF70
330
CD74
100
AcDbEntity
  8
3
  6
DASHED
100
AcDbLine
 10
662.8999999999997
 20
434.9
 30
0.0
 11
495.5
 21
434.9
 31
0.0
  0
ARC
  5
CF71
330
CD74
100
AcDbEntity
  8
1
  6
Continuous
100
AcDbCircle
 10
711.0
 20
447.1499999999998
 30
0.0
 40
2.25
100
AcDbArc
 50
90.0
 51
270.0
  0
ARC
  5
CF72
330
CD74
100
AcDbEntity
  8
1
  6
Continuous
100
AcDbCircle
 10
711.7999999999998
 20
447.1499999999998
 30
0.0
 40
2.25
100
AcDbArc
 50
270.0
 51
90.0
  0
LINE
  5
CF73
330
CD74
100
AcDbEntity
  8
1
  6
Continuous
100
AcDbLine
 10
711.0
 20
444.8999999999998
 30
0.0
 11
711.7999999999998
 21
444.8999999999998
 31
0.0
  0
LINE
  5
CF74
330
CD74
100
AcDbEntity
  8
4
  6
CENTER
100
AcDbLine
 10
711.3999999999997
 20
441.8999999999998
 30
0.0
 11
711.3999999999997
 21
452.4
 31
0.0
  0
LINE
  5
CF75
330
CD74
100
AcDbEntity
  8
1
  6
Continuous
100
AcDbLine
 10
711.0
 20
449.3999999999998
 30
0.0
 11
711.7999999999998
 21
449.3999999999998
 31
0.0
  0
LINE
  5
CF76
330
CD74
100
AcDbEntity
  8
3
  6
DASHED
100
AcDbLine
 10
659.9
 20
434.9
 30
0.0
 11
659.9
 21
459.4
 31
0.0
  0
LINE
  5
CF77
330
CD74
100
AcDbEntity
  8
3
  6
DASHED
100
AcDbLine
 10
662.8999999999997
 20
434.9
 30
0.0
 11
662.8999999999997
 21
459.4
 31
0.0
  0
ARC
  5
CF78
330
CD74
100
AcDbEntity
  8
1
  6
Continuous
100
AcDbCircle
 10
622.1
 20
447.1499999999998
 30
0.0
 40
2.25
100
AcDbArc
 50
90.0
 51
270.0
  0
LINE
  5
CF79
330
CD74
100
AcDbEntity
  8
1
  6
Continuous
100
AcDbLine
 10
622.1
 20
449.3999999999998
 30
0.0
 11
622.9
 21
449.3999999999998
 31
0.0
  0
LINE
  5
CF7A
330
CD74
100
AcDbEntity
  8
4
  6
CENTER
100
AcDbLine
 10
622.5
 20
441.8999999999998
 30
0.0
 11
622.5
 21
452.4
 31
0.0
  0
LINE
  5
CF7B
330
CD74
100
AcDbEntity
  8
1
  6
Continuous
100
AcDbLine
 10
622.1
 20
444.8999999999998
 30
0.0
 11
622.9
 21
444.8999999999998
 31
0.0
  0
ARC
  5
CF7C
330
CD74
100
AcDbEntity
  8
1
  6
Continuous
100
AcDbCircle
 10
622.9
 20
447.1499999999998
 30
0.0
 40
2.25
100
AcDbArc
 50
270.0
 51
90.0
  0
ARC
  5
CF7D
330
CD74
100
AcDbEntity
  8
1
  6
Continuous
100
AcDbCircle
 10
537.2
 20
447.1499999999998
 30
0.0
 40
2.25
100
AcDbArc
 50
270.0
 51
90.0
  0
LINE
  5
CF7E
330
CD74
100
AcDbEntity
  8
1
  6
Continuous
100
AcDbLine
 10
473.5
 20
434.9
 30
0.0
 11
473.5
 21
429.4999999999998
 31
0.0
  0
LINE
  5
CF7F
330
CD74
100
AcDbEntity
  8
1
  6
Continuous
100
AcDbLine
 10
495.5
 20
439.6499999999998
 30
0.0
 11
495.5
 21
429.4999999999998
 31
0.0
  0
LINE
  5
CF80
330
CD74
100
AcDbEntity
  8
1
  6
Continuous
100
AcDbLine
 10
521.85
 20
446.75
 30
0.0
 11
521.85
 21
447.55
 31
0.0
  0
LINE
  5
CF81
330
CD74
100
AcDbEntity
  8
1
  6
Continuous
100
AcDbLine
 10
526.35
 20
446.75
 30
0.0
 11
526.35
 21
447.55
 31
0.0
  0
LINE
  5
CF82
330
CD74
100
AcDbEntity
  8
4
  6
CENTER
100
AcDbLine
 10
524.1
 20
441.8999999999998
 30
0.0
 11
524.1
 21
452.4
 31
0.0
  0
ARC
  5
CF83
330
CD74
100
AcDbEntity
  8
1
  6
Continuous
100
AcDbCircle
 10
524.1
 20
447.55
 30
0.0
 40
2.25
100
AcDbArc
 50
0.0
 51
180.0
  0
ARC
  5
CF84
330
CD74
100
AcDbEntity
  8
1
  6
Continuous
100
AcDbCircle
 10
524.1
 20
446.75
 30
0.0
 40
2.25
100
AcDbArc
 50
180.0
 51
0.0
  0
LINE
  5
CF85
330
CD74
100
AcDbEntity
  8
4
  6
CENTER
100
AcDbLine
 10
536.7999999999998
 20
441.8999999999998
 30
0.0
 11
536.7999999999998
 21
452.4
 31
0.0
  0
ARC
  5
CF86
330
CD74
100
AcDbEntity
  8
1
  6
Continuous
100
AcDbCircle
 10
536.3999999999998
 20
447.1499999999998
 30
0.0
 40
2.25
100
AcDbArc
 50
90.0
 51
270.0
  0
LINE
  5
CF87
330
CD74
100
AcDbEntity
  8
1
  6
Continuous
100
AcDbLine
 10
536.3999999999998
 20
449.3999999999998
 30
0.0
 11
537.2
 21
449.3999999999998
 31
0.0
  0
LINE
  5
CF88
330
CD74
100
AcDbEntity
  8
1
  6
Continuous
100
AcDbLine
 10
536.3999999999998
 20
444.8999999999998
 30
0.0
 11
537.2
 21
444.8999999999998
 31
0.0
  0
ARC
  5
CF89
330
CD74
100
AcDbEntity
  8
1
  6
Continuous
100
AcDbCircle
 10
511.3999999999998
 20
446.75
 30
0.0
 40
2.25
100
AcDbArc
 50
180.0
 51
0.0
  0
LINE
  5
CF8A
330
CD74
100
AcDbEntity
  8
4
  6
CENTER
100
AcDbLine
 10
511.3999999999998
 20
441.8999999999998
 30
0.0
 11
511.3999999999998
 21
452.4
 31
0.0
  0
LINE
  5
CF8B
330
CD74
100
AcDbEntity
  8
1
  6
Continuous
100
AcDbLine
 10
513.6499999999998
 20
446.75
 30
0.0
 11
513.6499999999998
 21
447.55
 31
0.0
  0
LINE
  5
CF8C
330
CD74
100
AcDbEntity
  8
1
  6
Continuous
100
AcDbLine
 10
509.1499999999999
 20
446.75
 30
0.0
 11
509.1499999999999
 21
447.55
 31
0.0
  0
ARC
  5
CF8D
330
CD74
100
AcDbEntity
  8
1
  6
Continuous
100
AcDbCircle
 10
511.3999999999998
 20
447.55
 30
0.0
 40
2.25
100
AcDbArc
 50
0.0
 51
180.0
  0
LINE
  5
CF8E
330
CD74
100
AcDbEntity
  8
3
  6
DASHED
100
AcDbLine
 10
473.5
 20
459.4
 30
0.0
 11
473.5
 21
454.6499999999999
 31
0.0
  0
LINE
  5
CF8F
330
CD74
100
AcDbEntity
  8
1
  6
Continuous
100
AcDbLine
 10
495.5
 20
464.8
 30
0.0
 11
495.5
 21
454.6499999999999
 31
0.0
  0
ARC
  5
CF90
330
CD74
100
AcDbEntity
  8
1
  6
Continuous
100
AcDbCircle
 10
471.9
 20
463.8885629999998
 30
0.0
 40
1.6
100
AcDbArc
 50
270.0
 51
0.0
  0
ARC
  5
CF91
330
CD74
100
AcDbEntity
  8
1
  6
Continuous
100
AcDbCircle
 10
471.9
 20
463.2978689999998
 30
0.0
 40
1.6
100
AcDbArc
 50
270.0
 51
0.0
  0
LINE
  5
CF92
330
CD74
100
AcDbEntity
  8
1
  6
Continuous
100
AcDbLine
 10
473.5
 20
464.8
 30
0.0
 11
473.5
 21
459.4
 31
0.0
  0
LINE
  5
CF93
330
CD74
100
AcDbEntity
  8
1
  6
Continuous
100
AcDbLine
 10
498.0
 20
439.6499999999998
 30
0.0
 11
495.5
 21
439.6499999999998
 31
0.0
  0
LINE
  5
CF94
330
CD74
100
AcDbEntity
  8
1
  6
Continuous
100
AcDbLine
 10
498.0
 20
454.6499999999999
 30
0.0
 11
498.0
 21
439.6499999999998
 31
0.0
  0
LINE
  5
CF95
330
CD74
100
AcDbEntity
  8
1
  6
Continuous
100
AcDbLine
 10
498.0
 20
454.6499999999999
 30
0.0
 11
495.5
 21
454.6499999999999
 31
0.0
  0
LINE
  5
CF96
330
CD74
100
AcDbEntity
  8
3
  6
DASHED
100
AcDbLine
 10
473.5
 20
439.6499999999998
 30
0.0
 11
473.5
 21
434.9
 31
0.0
  0
ARC
  5
CF97
330
CD74
100
AcDbEntity
  8
1
  6
Continuous
100
AcDbCircle
 10
471.9
 20
431.0021309999998
 30
0.0
 40
1.6
100
AcDbArc
 50
0.0
 51
90.0
  0
ARC
  5
CF98
330
CD74
100
AcDbEntity
  8
1
  6
Continuous
100
AcDbCircle
 10
471.9
 20
430.4114369999998
 30
0.0
 40
1.6
100
AcDbArc
 50
0.0
 51
90.0
  0
LINE
  5
CF99
330
CD74
100
AcDbEntity
  8
1
  6
Continuous
100
AcDbLine
 10
344.5
 20
433.55
 30
0.0
 11
334.0
 21
433.55
 31
0.0
  0
LINE
  5
CF9A
330
CD74
100
AcDbEntity
  8
1
  6
Continuous
100
AcDbLine
 10
344.5
 20
434.05
 30
0.0
 11
334.0
 21
434.05
 31
0.0
  0
LINE
  5
CF9B
330
CD74
100
AcDbEntity
  8
1
  6
Continuous
100
AcDbLine
 10
344.5
 20
460.25
 30
0.0
 11
334.0
 21
460.25
 31
0.0
  0
LINE
  5
CF9C
330
CD74
100
AcDbEntity
  8
1
  6
Continuous
100
AcDbLine
 10
344.5
 20
460.7499999999998
 30
0.0
 11
334.0
 21
460.7499999999998
 31
0.0
  0
LINE
  5
CF9D
330
CD74
100
AcDbEntity
  8
1
  6
Continuous
100
AcDbLine
 10
407.0
 20
434.05
 30
0.0
 11
396.5
 21
434.05
 31
0.0
  0
LINE
  5
CF9E
330
CD74
100
AcDbEntity
  8
1
  6
Continuous
100
AcDbLine
 10
407.0
 20
433.55
 30
0.0
 11
396.5
 21
433.55
 31
0.0
  0
LINE
  5
CF9F
330
CD74
100
AcDbEntity
  8
1
  6
Continuous
100
AcDbLine
 10
407.0
 20
460.7499999999998
 30
0.0
 11
396.5
 21
460.7499999999998
 31
0.0
  0
LINE
  5
CFA0
330
CD74
100
AcDbEntity
  8
1
  6
Continuous
100
AcDbLine
 10
407.0
 20
460.25
 30
0.0
 11
396.5
 21
460.25
 31
0.0
  0
LINE
  5
CFA1
330
CD74
100
AcDbEntity
  8
1
  6
Continuous
100
AcDbLine
 10
407.0
 20
433.55
 30
0.0
 11
407.0
 21
434.9
 31
0.0
  0
LINE
  5
CFA2
330
CD74
100
AcDbEntity
  8
1
  6
Continuous
100
AcDbLine
 10
409.0
 20
433.55
 30
0.0
 11
409.0
 21
434.9
 31
0.0
  0
ARC
  5
CFA3
330
CD74
100
AcDbEntity
  8
1
  6
Continuous
100
AcDbCircle
 10
414.25
 20
433.4812499999999
 30
0.0
 40
2.38125
100
AcDbArc
 50
143.430279
 51
166.18161
  0
LINE
  5
CFA4
330
CD74
100
AcDbEntity
  8
1
  6
Continuous
100
AcDbLine
 10
419.5
 20
433.55
 30
0.0
 11
419.5
 21
434.9
 31
0.0
  0
ARC
  5
CFA5
330
CD74
100
AcDbEntity
  8
1
  6
Continuous
100
AcDbCircle
 10
414.25
 20
433.4812499999999
 30
0.0
 40
2.38125
100
AcDbArc
 50
13.81839
 51
36.569721
  0
ARC
  5
CFA6
330
CD74
100
AcDbEntity
  8
1
  6
Continuous
100
AcDbCircle
 10
426.75
 20
433.4812499999999
 30
0.0
 40
2.38125
100
AcDbArc
 50
13.81839
 51
36.569721
  0
ARC
  5
CFA7
330
CD74
100
AcDbEntity
  8
1
  6
Continuous
100
AcDbCircle
 10
426.75
 20
433.4812499999999
 30
0.0
 40
2.38125
100
AcDbArc
 50
143.430279
 51
166.18161
  0
LINE
  5
CFA8
330
CD74
100
AcDbEntity
  8
1
  6
Continuous
100
AcDbLine
 10
432.0
 20
433.55
 30
0.0
 11
432.0
 21
434.9
 31
0.0
  0
LINE
  5
CFA9
330
CD74
100
AcDbEntity
  8
1
  6
Continuous
100
AcDbLine
 10
421.4999999999998
 20
433.55
 30
0.0
 11
421.4999999999998
 21
434.9
 31
0.0
  0
LINE
  5
CFAA
330
CD74
100
AcDbEntity
  8
1
  6
Continuous
100
AcDbLine
 10
434.0
 20
433.55
 30
0.0
 11
434.0
 21
434.9
 31
0.0
  0
LINE
  5
CFAB
330
CD74
100
AcDbEntity
  8
1
  6
Continuous
100
AcDbLine
 10
444.5
 20
433.55
 30
0.0
 11
444.5
 21
434.9
 31
0.0
  0
ARC
  5
CFAC
330
CD74
100
AcDbEntity
  8
1
  6
Continuous
100
AcDbCircle
 10
439.25
 20
433.4812499999999
 30
0.0
 40
2.38125
100
AcDbArc
 50
143.430279
 51
166.18161
  0
ARC
  5
CFAD
330
CD74
100
AcDbEntity
  8
1
  6
Continuous
100
AcDbCircle
 10
439.25
 20
433.4812499999999
 30
0.0
 40
2.38125
100
AcDbArc
 50
13.81839
 51
36.569721
  0
ARC
  5
CFAE
330
CD74
100
AcDbEntity
  8
1
  6
Continuous
100
AcDbCircle
 10
451.75
 20
433.4812499999999
 30
0.0
 40
2.38125
100
AcDbArc
 50
13.81839
 51
36.569721
  0
ARC
  5
CFAF
330
CD74
100
AcDbEntity
  8
1
  6
Continuous
100
AcDbCircle
 10
451.75
 20
433.4812499999999
 30
0.0
 40
2.38125
100
AcDbArc
 50
143.430279
 51
166.18161
  0
LINE
  5
CFB0
330
CD74
100
AcDbEntity
  8
1
  6
Continuous
100
AcDbLine
 10
457.0
 20
433.55
 30
0.0
 11
457.0
 21
434.9
 31
0.0
  0
LINE
  5
CFB1
330
CD74
100
AcDbEntity
  8
1
  6
Continuous
100
AcDbLine
 10
446.4999999999998
 20
433.55
 30
0.0
 11
446.4999999999998
 21
434.9
 31
0.0
  0
LINE
  5
CFB2
330
CD74
100
AcDbEntity
  8
1
  6
Continuous
100
AcDbLine
 10
459.0
 20
433.55
 30
0.0
 11
459.0
 21
434.9
 31
0.0
  0
LINE
  5
CFB3
330
CD74
100
AcDbEntity
  8
1
  6
Continuous
100
AcDbLine
 10
469.5
 20
433.55
 30
0.0
 11
469.5
 21
434.9
 31
0.0
  0
ARC
  5
CFB4
330
CD74
100
AcDbEntity
  8
1
  6
Continuous
100
AcDbCircle
 10
464.25
 20
433.4812499999999
 30
0.0
 40
2.38125
100
AcDbArc
 50
143.430279
 51
166.18161
  0
ARC
  5
CFB5
330
CD74
100
AcDbEntity
  8
1
  6
Continuous
100
AcDbCircle
 10
464.25
 20
433.4812499999999
 30
0.0
 40
2.38125
100
AcDbArc
 50
13.81839
 51
36.569721
  0
LINE
  5
CFB6
330
CD74
100
AcDbEntity
  8
1
  6
Continuous
100
AcDbLine
 10
444.5
 20
460.25
 30
0.0
 11
434.0
 21
460.25
 31
0.0
  0
LINE
  5
CFB7
330
CD74
100
AcDbEntity
  8
1
  6
Continuous
100
AcDbLine
 10
444.5
 20
460.7499999999998
 30
0.0
 11
434.0
 21
460.7499999999998
 31
0.0
  0
LINE
  5
CFB8
330
CD74
100
AcDbEntity
  8
1
  6
Continuous
100
AcDbLine
 10
457.0
 20
460.7499999999998
 30
0.0
 11
446.4999999999998
 21
460.7499999999998
 31
0.0
  0
LINE
  5
CFB9
330
CD74
100
AcDbEntity
  8
1
  6
Continuous
100
AcDbLine
 10
457.0
 20
460.25
 30
0.0
 11
446.4999999999998
 21
460.25
 31
0.0
  0
ARC
  5
CFBA
330
CD74
100
AcDbEntity
  8
1
  6
Continuous
100
AcDbCircle
 10
464.25
 20
460.81875
 30
0.0
 40
2.38125
100
AcDbArc
 50
158.3347039999999
 51
181.6544389999999
  0
ARC
  5
CFBB
330
CD74
100
AcDbEntity
  8
1
  6
Continuous
100
AcDbCircle
 10
464.25
 20
460.81875
 30
0.0
 40
2.38125
100
AcDbArc
 50
193.81839
 51
216.5697209999999
  0
LINE
  5
CFBC
330
CD74
100
AcDbEntity
  8
1
  6
Continuous
100
AcDbLine
 10
459.0
 20
460.7499999999998
 30
0.0
 11
459.0
 21
459.4
 31
0.0
  0
LINE
  5
CFBD
330
CD74
100
AcDbEntity
  8
1
  6
Continuous
100
AcDbLine
 10
457.0
 20
460.7499999999998
 30
0.0
 11
457.0
 21
459.4
 31
0.0
  0
ARC
  5
CFBE
330
CD74
100
AcDbEntity
  8
1
  6
Continuous
100
AcDbCircle
 10
464.25
 20
460.81875
 30
0.0
 40
2.38125
100
AcDbArc
 50
358.3455609999999
 51
21.665296
  0
ARC
  5
CFBF
330
CD74
100
AcDbEntity
  8
1
  6
Continuous
100
AcDbCircle
 10
464.25
 20
460.81875
 30
0.0
 40
2.38125
100
AcDbArc
 50
323.430279
 51
346.18161
  0
LINE
  5
CFC0
330
CD74
100
AcDbEntity
  8
1
  6
Continuous
100
AcDbLine
 10
469.5
 20
460.7499999999998
 30
0.0
 11
469.5
 21
459.4
 31
0.0
  0
LINE
  5
CFC1
330
CD74
100
AcDbEntity
  8
1
  6
Continuous
100
AcDbLine
 10
469.5
 20
460.25
 30
0.0
 11
459.0
 21
460.25
 31
0.0
  0
LINE
  5
CFC2
330
CD74
100
AcDbEntity
  8
1
  6
Continuous
100
AcDbLine
 10
469.5
 20
460.7499999999998
 30
0.0
 11
459.0
 21
460.7499999999998
 31
0.0
  0
ARC
  5
CFC3
330
CD74
100
AcDbEntity
  8
1
  6
Continuous
100
AcDbCircle
 10
439.25
 20
460.81875
 30
0.0
 40
2.38125
100
AcDbArc
 50
358.3455609999999
 51
21.665296
  0
LINE
  5
CFC4
330
CD74
100
AcDbEntity
  8
1
  6
Continuous
100
AcDbLine
 10
446.4999999999998
 20
460.7499999999998
 30
0.0
 11
446.4999999999998
 21
459.4
 31
0.0
  0
ARC
  5
CFC5
330
CD74
100
AcDbEntity
  8
1
  6
Continuous
100
AcDbCircle
 10
439.25
 20
460.81875
 30
0.0
 40
2.38125
100
AcDbArc
 50
323.430279
 51
346.18161
  0
LINE
  5
CFC6
330
CD74
100
AcDbEntity
  8
1
  6
Continuous
100
AcDbLine
 10
444.5
 20
460.7499999999998
 30
0.0
 11
444.5
 21
459.4
 31
0.0
  0
ARC
  5
CFC7
330
CD74
100
AcDbEntity
  8
1
  6
Continuous
100
AcDbCircle
 10
451.75
 20
460.81875
 30
0.0
 40
2.38125
100
AcDbArc
 50
358.3455609999999
 51
21.665296
  0
ARC
  5
CFC8
330
CD74
100
AcDbEntity
  8
1
  6
Continuous
100
AcDbCircle
 10
451.75
 20
460.81875
 30
0.0
 40
2.38125
100
AcDbArc
 50
158.3347039999999
 51
181.6544389999999
  0
ARC
  5
CFC9
330
CD74
100
AcDbEntity
  8
1
  6
Continuous
100
AcDbCircle
 10
451.75
 20
460.81875
 30
0.0
 40
2.38125
100
AcDbArc
 50
193.81839
 51
216.5697209999999
  0
ARC
  5
CFCA
330
CD74
100
AcDbEntity
  8
1
  6
Continuous
100
AcDbCircle
 10
451.75
 20
460.81875
 30
0.0
 40
2.38125
100
AcDbArc
 50
323.430279
 51
346.18161
  0
ARC
  5
CFCB
330
CD74
100
AcDbEntity
  8
1
  6
Continuous
100
AcDbCircle
 10
456.0999999999999
 20
447.1499999999998
 30
0.0
 40
5.0
100
AcDbArc
 50
90.0
 51
270.0
  0
LINE
  5
CFCC
330
CD74
100
AcDbEntity
  8
4
  6
CENTER
100
AcDbLine
 10
457.6
 20
439.9433469999998
 30
0.0
 11
457.6
 21
454.75939
 31
0.0
  0
ARC
  5
CFCD
330
CD74
100
AcDbEntity
  8
1
  6
Continuous
100
AcDbCircle
 10
459.1
 20
447.1499999999998
 30
0.0
 40
5.0
100
AcDbArc
 50
270.0
 51
90.0
  0
LINE
  5
CFCE
330
CD74
100
AcDbEntity
  8
1
  6
Continuous
100
AcDbLine
 10
459.1
 20
452.1499999999998
 30
0.0
 11
456.0999999999999
 21
452.1499999999998
 31
0.0
  0
LINE
  5
CFCF
330
CD74
100
AcDbEntity
  8
1
  6
Continuous
100
AcDbLine
 10
459.1
 20
442.1499999999999
 30
0.0
 11
456.0999999999999
 21
442.1499999999999
 31
0.0
  0
LINE
  5
CFD0
330
CD74
100
AcDbEntity
  8
1
  6
Continuous
100
AcDbLine
 10
459.85
 20
446.75
 30
0.0
 11
459.85
 21
447.55
 31
0.0
  0
LINE
  5
CFD1
330
CD74
100
AcDbEntity
  8
1
  6
Continuous
100
AcDbLine
 10
455.35
 20
446.75
 30
0.0
 11
455.35
 21
447.55
 31
0.0
  0
ARC
  5
CFD2
330
CD74
100
AcDbEntity
  8
1
  6
Continuous
100
AcDbCircle
 10
457.6
 20
447.55
 30
0.0
 40
2.25
100
AcDbArc
 50
0.0
 51
180.0
  0
ARC
  5
CFD3
330
CD74
100
AcDbEntity
  8
1
  6
Continuous
100
AcDbCircle
 10
457.6
 20
446.75
 30
0.0
 40
2.25
100
AcDbArc
 50
180.0
 51
0.0
  0
LINE
  5
CFD4
330
CD74
100
AcDbEntity
  8
3
  6
DASHED
100
AcDbLine
 10
471.0
 20
454.6499999999999
 30
0.0
 11
471.0
 21
439.6499999999998
 31
0.0
  0
LINE
  5
CFD5
330
CD74
100
AcDbEntity
  8
4
  6
CENTER
100
AcDbLine
 10
444.8999999999998
 20
441.8999999999998
 30
0.0
 11
444.8999999999998
 21
452.4
 31
0.0
  0
LINE
  5
CFD6
330
CD74
100
AcDbEntity
  8
1
  6
Continuous
100
AcDbLine
 10
432.0
 20
460.7499999999998
 30
0.0
 11
421.4999999999998
 21
460.7499999999998
 31
0.0
  0
LINE
  5
CFD7
330
CD74
100
AcDbEntity
  8
1
  6
Continuous
100
AcDbLine
 10
432.0
 20
460.25
 30
0.0
 11
421.4999999999998
 21
460.25
 31
0.0
  0
ARC
  5
CFD8
330
CD74
100
AcDbEntity
  8
1
  6
Continuous
100
AcDbCircle
 10
426.75
 20
460.81875
 30
0.0
 40
2.38125
100
AcDbArc
 50
358.3455609999999
 51
21.665296
  0
ARC
  5
CFD9
330
CD74
100
AcDbEntity
  8
1
  6
Continuous
100
AcDbCircle
 10
426.75
 20
460.81875
 30
0.0
 40
2.38125
100
AcDbArc
 50
158.3347039999999
 51
181.6544389999999
  0
LINE
  5
CFDA
330
CD74
100
AcDbEntity
  8
1
  6
Continuous
100
AcDbLine
 10
432.0
 20
460.7499999999998
 30
0.0
 11
432.0
 21
459.4
 31
0.0
  0
ARC
  5
CFDB
330
CD74
100
AcDbEntity
  8
1
  6
Continuous
100
AcDbCircle
 10
426.75
 20
460.81875
 30
0.0
 40
2.38125
100
AcDbArc
 50
193.81839
 51
216.5697209999999
  0
ARC
  5
CFDC
330
CD74
100
AcDbEntity
  8
1
  6
Continuous
100
AcDbCircle
 10
426.75
 20
460.81875
 30
0.0
 40
2.38125
100
AcDbArc
 50
323.430279
 51
346.18161
  0
ARC
  5
CFDD
330
CD74
100
AcDbEntity
  8
1
  6
Continuous
100
AcDbCircle
 10
439.25
 20
460.81875
 30
0.0
 40
2.38125
100
AcDbArc
 50
158.3347039999999
 51
181.6544389999999
  0
ARC
  5
CFDE
330
CD74
100
AcDbEntity
  8
1
  6
Continuous
100
AcDbCircle
 10
439.25
 20
460.81875
 30
0.0
 40
2.38125
100
AcDbArc
 50
193.81839
 51
216.5697209999999
  0
LINE
  5
CFDF
330
CD74
100
AcDbEntity
  8
1
  6
Continuous
100
AcDbLine
 10
434.0
 20
460.7499999999998
 30
0.0
 11
434.0
 21
459.4
 31
0.0
  0
ARC
  5
CFE0
330
CD74
100
AcDbEntity
  8
1
  6
Continuous
100
AcDbCircle
 10
414.25
 20
460.81875
 30
0.0
 40
2.38125
100
AcDbArc
 50
158.3347039999999
 51
181.6544389999999
  0
ARC
  5
CFE1
330
CD74
100
AcDbEntity
  8
1
  6
Continuous
100
AcDbCircle
 10
414.25
 20
460.81875
 30
0.0
 40
2.38125
100
AcDbArc
 50
193.81839
 51
216.5697209999999
  0
LINE
  5
CFE2
330
CD74
100
AcDbEntity
  8
1
  6
Continuous
100
AcDbLine
 10
409.0
 20
460.7499999999998
 30
0.0
 11
409.0
 21
459.4
 31
0.0
  0
LINE
  5
CFE3
330
CD74
100
AcDbEntity
  8
1
  6
Continuous
100
AcDbLine
 10
407.0
 20
460.7499999999998
 30
0.0
 11
407.0
 21
459.4
 31
0.0
  0
ARC
  5
CFE4
330
CD74
100
AcDbEntity
  8
1
  6
Continuous
100
AcDbCircle
 10
414.25
 20
460.81875
 30
0.0
 40
2.38125
100
AcDbArc
 50
358.3455609999999
 51
21.665296
  0
LINE
  5
CFE5
330
CD74
100
AcDbEntity
  8
1
  6
Continuous
100
AcDbLine
 10
421.4999999999998
 20
460.7499999999998
 30
0.0
 11
421.4999999999998
 21
459.4
 31
0.0
  0
ARC
  5
CFE6
330
CD74
100
AcDbEntity
  8
1
  6
Continuous
100
AcDbCircle
 10
414.25
 20
460.81875
 30
0.0
 40
2.38125
100
AcDbArc
 50
323.430279
 51
346.18161
  0
LINE
  5
CFE7
330
CD74
100
AcDbEntity
  8
1
  6
Continuous
100
AcDbLine
 10
419.5
 20
460.7499999999998
 30
0.0
 11
419.5
 21
459.4
 31
0.0
  0
LINE
  5
CFE8
330
CD74
100
AcDbEntity
  8
1
  6
Continuous
100
AcDbLine
 10
419.5
 20
460.25
 30
0.0
 11
409.0
 21
460.25
 31
0.0
  0
LINE
  5
CFE9
330
CD74
100
AcDbEntity
  8
1
  6
Continuous
100
AcDbLine
 10
419.5
 20
460.7499999999998
 30
0.0
 11
409.0
 21
460.7499999999998
 31
0.0
  0
LINE
  5
CFEA
330
CD74
100
AcDbEntity
  8
4
  6
CENTER
100
AcDbLine
 10
432.2
 20
441.8999999999998
 30
0.0
 11
432.2
 21
452.4
 31
0.0
  0
LINE
  5
CFEB
330
CD74
100
AcDbEntity
  8
1
  6
Continuous
100
AcDbLine
 10
444.5
 20
433.55
 30
0.0
 11
434.0
 21
433.55
 31
0.0
  0
LINE
  5
CFEC
330
CD74
100
AcDbEntity
  8
1
  6
Continuous
100
AcDbLine
 10
444.5
 20
434.05
 30
0.0
 11
434.0
 21
434.05
 31
0.0
  0
LINE
  5
CFED
330
CD74
100
AcDbEntity
  8
1
  6
Continuous
100
AcDbLine
 10
457.0
 20
434.05
 30
0.0
 11
446.4999999999998
 21
434.05
 31
0.0
  0
LINE
  5
CFEE
330
CD74
100
AcDbEntity
  8
1
  6
Continuous
100
AcDbLine
 10
457.0
 20
433.55
 30
0.0
 11
446.4999999999998
 21
433.55
 31
0.0
  0
ARC
  5
CFEF
330
CD74
100
AcDbEntity
  8
1
  6
Continuous
100
AcDbCircle
 10
464.25
 20
433.4812499999999
 30
0.0
 40
2.38125
100
AcDbArc
 50
178.345561
 51
201.6652959999999
  0
ARC
  5
CFF0
330
CD74
100
AcDbEntity
  8
1
  6
Continuous
100
AcDbCircle
 10
464.25
 20
433.4812499999999
 30
0.0
 40
2.38125
100
AcDbArc
 50
338.3347039999998
 51
1.654438999999999
  0
LINE
  5
CFF1
330
CD74
100
AcDbEntity
  8
1
  6
Continuous
100
AcDbLine
 10
469.5
 20
433.55
 30
0.0
 11
459.0
 21
433.55
 31
0.0
  0
LINE
  5
CFF2
330
CD74
100
AcDbEntity
  8
1
  6
Continuous
100
AcDbLine
 10
469.5
 20
434.05
 30
0.0
 11
459.0
 21
434.05
 31
0.0
  0
ARC
  5
CFF3
330
CD74
100
AcDbEntity
  8
1
  6
Continuous
100
AcDbCircle
 10
439.25
 20
433.4812499999999
 30
0.0
 40
2.38125
100
AcDbArc
 50
338.3347039999998
 51
1.654438999999999
  0
ARC
  5
CFF4
330
CD74
100
AcDbEntity
  8
1
  6
Continuous
100
AcDbCircle
 10
451.75
 20
433.4812499999999
 30
0.0
 40
2.38125
100
AcDbArc
 50
178.345561
 51
201.6652959999999
  0
ARC
  5
CFF5
330
CD74
100
AcDbEntity
  8
1
  6
Continuous
100
AcDbCircle
 10
451.75
 20
433.4812499999999
 30
0.0
 40
2.38125
100
AcDbArc
 50
338.3347039999998
 51
1.654438999999999
  0
LINE
  5
CFF6
330
CD74
100
AcDbEntity
  8
1
  6
Continuous
100
AcDbLine
 10
432.0
 20
434.05
 30
0.0
 11
421.4999999999998
 21
434.05
 31
0.0
  0
LINE
  5
CFF7
330
CD74
100
AcDbEntity
  8
1
  6
Continuous
100
AcDbLine
 10
432.0
 20
433.55
 30
0.0
 11
421.4999999999998
 21
433.55
 31
0.0
  0
ARC
  5
CFF8
330
CD74
100
AcDbEntity
  8
1
  6
Continuous
100
AcDbCircle
 10
426.75
 20
433.4812499999999
 30
0.0
 40
2.38125
100
AcDbArc
 50
178.345561
 51
201.6652959999999
  0
ARC
  5
CFF9
330
CD74
100
AcDbEntity
  8
1
  6
Continuous
100
AcDbCircle
 10
426.75
 20
433.4812499999999
 30
0.0
 40
2.38125
100
AcDbArc
 50
338.3347039999998
 51
1.654438999999999
  0
ARC
  5
CFFA
330
CD74
100
AcDbEntity
  8
1
  6
Continuous
100
AcDbCircle
 10
439.25
 20
433.4812499999999
 30
0.0
 40
2.38125
100
AcDbArc
 50
178.345561
 51
201.6652959999999
  0
ARC
  5
CFFB
330
CD74
100
AcDbEntity
  8
1
  6
Continuous
100
AcDbCircle
 10
414.25
 20
433.4812499999999
 30
0.0
 40
2.38125
100
AcDbArc
 50
178.345561
 51
201.6652959999999
  0
ARC
  5
CFFC
330
CD74
100
AcDbEntity
  8
1
  6
Continuous
100
AcDbCircle
 10
414.25
 20
433.4812499999999
 30
0.0
 40
2.38125
100
AcDbArc
 50
338.3347039999998
 51
1.654438999999999
  0
LINE
  5
CFFD
330
CD74
100
AcDbEntity
  8
1
  6
Continuous
100
AcDbLine
 10
419.5
 20
433.55
 30
0.0
 11
409.0
 21
433.55
 31
0.0
  0
LINE
  5
CFFE
330
CD74
100
AcDbEntity
  8
1
  6
Continuous
100
AcDbLine
 10
419.5
 20
434.05
 30
0.0
 11
409.0
 21
434.05
 31
0.0
  0
LINE
  5
CFFF
330
CD74
100
AcDbEntity
  8
1
  6
Continuous
100
AcDbLine
 10
344.5
 20
433.55
 30
0.0
 11
344.5
 21
434.9
 31
0.0
  0
ARC
  5
D000
330
CD74
100
AcDbEntity
  8
1
  6
Continuous
100
AcDbCircle
 10
339.25
 20
433.4812499999999
 30
0.0
 40
2.38125
100
AcDbArc
 50
13.81839
 51
36.569721
  0
LINE
  5
D001
330
CD74
100
AcDbEntity
  8
1
  6
Continuous
100
AcDbLine
 10
346.4999999999998
 20
433.55
 30
0.0
 11
346.4999999999998
 21
434.9
 31
0.0
  0
ARC
  5
D002
330
CD74
100
AcDbEntity
  8
1
  6
Continuous
100
AcDbCircle
 10
351.75
 20
433.4812499999999
 30
0.0
 40
2.38125
100
AcDbArc
 50
143.430279
 51
166.18161
  0
ARC
  5
D003
330
CD74
100
AcDbEntity
  8
1
  6
Continuous
100
AcDbCircle
 10
351.75
 20
433.4812499999999
 30
0.0
 40
2.38125
100
AcDbArc
 50
13.81839
 51
36.569721
  0
LINE
  5
D004
330
CD74
100
AcDbEntity
  8
1
  6
Continuous
100
AcDbLine
 10
357.0
 20
433.55
 30
0.0
 11
357.0
 21
434.9
 31
0.0
  0
LINE
  5
D005
330
CD74
100
AcDbEntity
  8
1
  6
Continuous
100
AcDbLine
 10
369.5
 20
433.55
 30
0.0
 11
369.5
 21
434.9
 31
0.0
  0
ARC
  5
D006
330
CD74
100
AcDbEntity
  8
1
  6
Continuous
100
AcDbCircle
 10
364.25
 20
433.4812499999999
 30
0.0
 40
2.38125
100
AcDbArc
 50
13.81839
 51
36.569721
  0
LINE
  5
D007
330
CD74
100
AcDbEntity
  8
1
  6
Continuous
100
AcDbLine
 10
359.0
 20
433.55
 30
0.0
 11
359.0
 21
434.9
 31
0.0
  0
ARC
  5
D008
330
CD74
100
AcDbEntity
  8
1
  6
Continuous
100
AcDbCircle
 10
364.25
 20
433.4812499999999
 30
0.0
 40
2.38125
100
AcDbArc
 50
143.430279
 51
166.18161
  0
ARC
  5
D009
330
CD74
100
AcDbEntity
  8
1
  6
Continuous
100
AcDbCircle
 10
376.75
 20
433.4812499999999
 30
0.0
 40
2.38125
100
AcDbArc
 50
143.430279
 51
166.18161
  0
LINE
  5
D00A
330
CD74
100
AcDbEntity
  8
1
  6
Continuous
100
AcDbLine
 10
371.4999999999998
 20
433.55
 30
0.0
 11
371.4999999999998
 21
434.9
 31
0.0
  0
ARC
  5
D00B
330
CD74
100
AcDbEntity
  8
1
  6
Continuous
100
AcDbCircle
 10
376.75
 20
433.4812499999999
 30
0.0
 40
2.38125
100
AcDbArc
 50
13.81839
 51
36.569721
  0
LINE
  5
D00C
330
CD74
100
AcDbEntity
  8
1
  6
Continuous
100
AcDbLine
 10
382.0
 20
433.55
 30
0.0
 11
382.0
 21
434.9
 31
0.0
  0
LINE
  5
D00D
330
CD74
100
AcDbEntity
  8
1
  6
Continuous
100
AcDbLine
 10
394.5
 20
433.55
 30
0.0
 11
394.5
 21
434.9
 31
0.0
  0
ARC
  5
D00E
330
CD74
100
AcDbEntity
  8
1
  6
Continuous
100
AcDbCircle
 10
389.25
 20
433.4812499999999
 30
0.0
 40
2.38125
100
AcDbArc
 50
13.81839
 51
36.569721
  0
LINE
  5
D00F
330
CD74
100
AcDbEntity
  8
1
  6
Continuous
100
AcDbLine
 10
384.0
 20
433.55
 30
0.0
 11
384.0
 21
434.9
 31
0.0
  0
ARC
  5
D010
330
CD74
100
AcDbEntity
  8
1
  6
Continuous
100
AcDbCircle
 10
389.25
 20
433.4812499999999
 30
0.0
 40
2.38125
100
AcDbArc
 50
143.430279
 51
166.18161
  0
ARC
  5
D011
330
CD74
100
AcDbEntity
  8
1
  6
Continuous
100
AcDbCircle
 10
401.75
 20
433.4812499999999
 30
0.0
 40
2.38125
100
AcDbArc
 50
143.430279
 51
166.18161
  0
LINE
  5
D012
330
CD74
100
AcDbEntity
  8
1
  6
Continuous
100
AcDbLine
 10
396.5
 20
433.55
 30
0.0
 11
396.5
 21
434.9
 31
0.0
  0
ARC
  5
D013
330
CD74
100
AcDbEntity
  8
1
  6
Continuous
100
AcDbCircle
 10
401.75
 20
433.4812499999999
 30
0.0
 40
2.38125
100
AcDbArc
 50
13.81839
 51
36.569721
  0
LINE
  5
D014
330
CD74
100
AcDbEntity
  8
1
  6
Continuous
100
AcDbLine
 10
394.5
 20
460.25
 30
0.0
 11
384.0
 21
460.25
 31
0.0
  0
LINE
  5
D015
330
CD74
100
AcDbEntity
  8
1
  6
Continuous
100
AcDbLine
 10
394.5
 20
460.7499999999998
 30
0.0
 11
384.0
 21
460.7499999999998
 31
0.0
  0
ARC
  5
D016
330
CD74
100
AcDbEntity
  8
1
  6
Continuous
100
AcDbCircle
 10
389.25
 20
460.81875
 30
0.0
 40
2.38125
100
AcDbArc
 50
358.3455609999999
 51
21.665296
  0
LINE
  5
D017
330
CD74
100
AcDbEntity
  8
1
  6
Continuous
100
AcDbLine
 10
396.5
 20
460.7499999999998
 30
0.0
 11
396.5
 21
459.4
 31
0.0
  0
ARC
  5
D018
330
CD74
100
AcDbEntity
  8
1
  6
Continuous
100
AcDbCircle
 10
389.25
 20
460.81875
 30
0.0
 40
2.38125
100
AcDbArc
 50
323.430279
 51
346.18161
  0
LINE
  5
D019
330
CD74
100
AcDbEntity
  8
1
  6
Continuous
100
AcDbLine
 10
394.5
 20
460.7499999999998
 30
0.0
 11
394.5
 21
459.4
 31
0.0
  0
ARC
  5
D01A
330
CD74
100
AcDbEntity
  8
1
  6
Continuous
100
AcDbCircle
 10
401.75
 20
460.81875
 30
0.0
 40
2.38125
100
AcDbArc
 50
358.3455609999999
 51
21.665296
  0
ARC
  5
D01B
330
CD74
100
AcDbEntity
  8
1
  6
Continuous
100
AcDbCircle
 10
401.75
 20
460.81875
 30
0.0
 40
2.38125
100
AcDbArc
 50
158.3347039999999
 51
181.6544389999999
  0
ARC
  5
D01C
330
CD74
100
AcDbEntity
  8
1
  6
Continuous
100
AcDbCircle
 10
401.75
 20
460.81875
 30
0.0
 40
2.38125
100
AcDbArc
 50
323.430279
 51
346.18161
  0
ARC
  5
D01D
330
CD74
100
AcDbEntity
  8
1
  6
Continuous
100
AcDbCircle
 10
401.75
 20
460.81875
 30
0.0
 40
2.38125
100
AcDbArc
 50
193.81839
 51
216.5697209999999
  0
ARC
  5
D01E
330
CD74
100
AcDbEntity
  8
1
  6
Continuous
100
AcDbCircle
 10
376.75
 20
460.81875
 30
0.0
 40
2.38125
100
AcDbArc
 50
358.3455609999999
 51
21.665296
  0
ARC
  5
D01F
330
CD74
100
AcDbEntity
  8
1
  6
Continuous
100
AcDbCircle
 10
376.75
 20
460.81875
 30
0.0
 40
2.38125
100
AcDbArc
 50
158.3347039999999
 51
181.6544389999999
  0
LINE
  5
D020
330
CD74
100
AcDbEntity
  8
1
  6
Continuous
100
AcDbLine
 10
382.0
 20
460.7499999999998
 30
0.0
 11
371.4999999999998
 21
460.7499999999998
 31
0.0
  0
LINE
  5
D021
330
CD74
100
AcDbEntity
  8
1
  6
Continuous
100
AcDbLine
 10
382.0
 20
460.25
 30
0.0
 11
371.4999999999998
 21
460.25
 31
0.0
  0
LINE
  5
D022
330
CD74
100
AcDbEntity
  8
1
  6
Continuous
100
AcDbLine
 10
382.0
 20
460.7499999999998
 30
0.0
 11
382.0
 21
459.4
 31
0.0
  0
ARC
  5
D023
330
CD74
100
AcDbEntity
  8
1
  6
Continuous
100
AcDbCircle
 10
376.75
 20
460.81875
 30
0.0
 40
2.38125
100
AcDbArc
 50
323.430279
 51
346.18161
  0
LINE
  5
D024
330
CD74
100
AcDbEntity
  8
1
  6
Continuous
100
AcDbLine
 10
371.4999999999998
 20
460.7499999999998
 30
0.0
 11
371.4999999999998
 21
459.4
 31
0.0
  0
ARC
  5
D025
330
CD74
100
AcDbEntity
  8
1
  6
Continuous
100
AcDbCircle
 10
376.75
 20
460.81875
 30
0.0
 40
2.38125
100
AcDbArc
 50
193.81839
 51
216.5697209999999
  0
ARC
  5
D026
330
CD74
100
AcDbEntity
  8
1
  6
Continuous
100
AcDbCircle
 10
389.25
 20
460.81875
 30
0.0
 40
2.38125
100
AcDbArc
 50
158.3347039999999
 51
181.6544389999999
  0
ARC
  5
D027
330
CD74
100
AcDbEntity
  8
1
  6
Continuous
100
AcDbCircle
 10
389.25
 20
460.81875
 30
0.0
 40
2.38125
100
AcDbArc
 50
193.81839
 51
216.5697209999999
  0
LINE
  5
D028
330
CD74
100
AcDbEntity
  8
1
  6
Continuous
100
AcDbLine
 10
384.0
 20
460.7499999999998
 30
0.0
 11
384.0
 21
459.4
 31
0.0
  0
LINE
  5
D029
330
CD74
100
AcDbEntity
  8
1
  6
Continuous
100
AcDbLine
 10
344.1
 20
437.0625
 30
0.0
 11
344.1
 21
457.2375
 31
0.0
  0
LINE
  5
D02A
330
CD74
100
AcDbEntity
  8
1
  6
Continuous
100
AcDbLine
 10
357.0
 20
460.7499999999998
 30
0.0
 11
346.4999999999998
 21
460.7499999999998
 31
0.0
  0
LINE
  5
D02B
330
CD74
100
AcDbEntity
  8
1
  6
Continuous
100
AcDbLine
 10
357.0
 20
460.25
 30
0.0
 11
346.4999999999998
 21
460.25
 31
0.0
  0
ARC
  5
D02C
330
CD74
100
AcDbEntity
  8
1
  6
Continuous
100
AcDbCircle
 10
364.25
 20
460.81875
 30
0.0
 40
2.38125
100
AcDbArc
 50
158.3347039999999
 51
181.6544389999999
  0
ARC
  5
D02D
330
CD74
100
AcDbEntity
  8
1
  6
Continuous
100
AcDbCircle
 10
364.25
 20
460.81875
 30
0.0
 40
2.38125
100
AcDbArc
 50
193.81839
 51
216.5697209999999
  0
LINE
  5
D02E
330
CD74
100
AcDbEntity
  8
1
  6
Continuous
100
AcDbLine
 10
359.0
 20
460.7499999999998
 30
0.0
 11
359.0
 21
459.4
 31
0.0
  0
LINE
  5
D02F
330
CD74
100
AcDbEntity
  8
1
  6
Continuous
100
AcDbLine
 10
357.0
 20
460.7499999999998
 30
0.0
 11
357.0
 21
459.4
 31
0.0
  0
ARC
  5
D030
330
CD74
100
AcDbEntity
  8
1
  6
Continuous
100
AcDbCircle
 10
364.25
 20
460.81875
 30
0.0
 40
2.38125
100
AcDbArc
 50
358.3455609999999
 51
21.665296
  0
ARC
  5
D031
330
CD74
100
AcDbEntity
  8
1
  6
Continuous
100
AcDbCircle
 10
364.25
 20
460.81875
 30
0.0
 40
2.38125
100
AcDbArc
 50
323.430279
 51
346.18161
  0
LINE
  5
D032
330
CD74
100
AcDbEntity
  8
1
  6
Continuous
100
AcDbLine
 10
369.5
 20
460.7499999999998
 30
0.0
 11
369.5
 21
459.4
 31
0.0
  0
LINE
  5
D033
330
CD74
100
AcDbEntity
  8
1
  6
Continuous
100
AcDbLine
 10
369.5
 20
460.25
 30
0.0
 11
359.0
 21
460.25
 31
0.0
  0
LINE
  5
D034
330
CD74
100
AcDbEntity
  8
1
  6
Continuous
100
AcDbLine
 10
369.5
 20
460.7499999999998
 30
0.0
 11
359.0
 21
460.7499999999998
 31
0.0
  0
ARC
  5
D035
330
CD74
100
AcDbEntity
  8
1
  6
Continuous
100
AcDbCircle
 10
339.25
 20
460.81875
 30
0.0
 40
2.38125
100
AcDbArc
 50
358.3455609999999
 51
21.665296
  0
LINE
  5
D036
330
CD74
100
AcDbEntity
  8
1
  6
Continuous
100
AcDbLine
 10
346.4999999999998
 20
460.7499999999998
 30
0.0
 11
346.4999999999998
 21
459.4
 31
0.0
  0
ARC
  5
D037
330
CD74
100
AcDbEntity
  8
1
  6
Continuous
100
AcDbCircle
 10
339.25
 20
460.81875
 30
0.0
 40
2.38125
100
AcDbArc
 50
323.430279
 51
346.18161
  0
LINE
  5
D038
330
CD74
100
AcDbEntity
  8
1
  6
Continuous
100
AcDbLine
 10
344.5
 20
460.7499999999998
 30
0.0
 11
344.5
 21
459.4
 31
0.0
  0
ARC
  5
D039
330
CD74
100
AcDbEntity
  8
1
  6
Continuous
100
AcDbCircle
 10
351.75
 20
460.81875
 30
0.0
 40
2.38125
100
AcDbArc
 50
358.3455609999999
 51
21.665296
  0
ARC
  5
D03A
330
CD74
100
AcDbEntity
  8
1
  6
Continuous
100
AcDbCircle
 10
351.75
 20
460.81875
 30
0.0
 40
2.38125
100
AcDbArc
 50
158.3347039999999
 51
181.6544389999999
  0
ARC
  5
D03B
330
CD74
100
AcDbEntity
  8
1
  6
Continuous
100
AcDbCircle
 10
351.75
 20
460.81875
 30
0.0
 40
2.38125
100
AcDbArc
 50
323.430279
 51
346.18161
  0
ARC
  5
D03C
330
CD74
100
AcDbEntity
  8
1
  6
Continuous
100
AcDbCircle
 10
351.75
 20
460.81875
 30
0.0
 40
2.38125
100
AcDbArc
 50
193.81839
 51
216.5697209999999
  0
CIRCLE
  5
D03D
330
CD74
100
AcDbEntity
  8
1
  6
Continuous
100
AcDbCircle
 10
331.1
 20
447.1499999999998
 30
0.0
 40
3.5
  0
LINE
  5
D03E
330
CD74
100
AcDbEntity
  8
4
  6
CENTER
100
AcDbLine
 10
331.1
 20
440.65
 30
0.0
 11
331.1
 21
453.65
 31
0.0
  0
LINE
  5
D03F
330
CD74
100
AcDbEntity
  8
4
  6
CENTER
100
AcDbLine
 10
346.4999999999998
 20
441.8999999999998
 30
0.0
 11
346.4999999999998
 21
452.4
 31
0.0
  0
LINE
  5
D040
330
CD74
100
AcDbEntity
  8
1
  6
Continuous
100
AcDbLine
 10
394.5
 20
433.55
 30
0.0
 11
384.0
 21
433.55
 31
0.0
  0
LINE
  5
D041
330
CD74
100
AcDbEntity
  8
1
  6
Continuous
100
AcDbLine
 10
394.5
 20
434.05
 30
0.0
 11
384.0
 21
434.05
 31
0.0
  0
ARC
  5
D042
330
CD74
100
AcDbEntity
  8
1
  6
Continuous
100
AcDbCircle
 10
389.25
 20
433.4812499999999
 30
0.0
 40
2.38125
100
AcDbArc
 50
338.3347039999998
 51
1.654438999999999
  0
ARC
  5
D043
330
CD74
100
AcDbEntity
  8
1
  6
Continuous
100
AcDbCircle
 10
401.75
 20
433.4812499999999
 30
0.0
 40
2.38125
100
AcDbArc
 50
178.345561
 51
201.6652959999999
  0
ARC
  5
D044
330
CD74
100
AcDbEntity
  8
1
  6
Continuous
100
AcDbCircle
 10
401.75
 20
433.4812499999999
 30
0.0
 40
2.38125
100
AcDbArc
 50
338.3347039999998
 51
1.654438999999999
  0
LINE
  5
D045
330
CD74
100
AcDbEntity
  8
1
  6
Continuous
100
AcDbLine
 10
382.0
 20
434.05
 30
0.0
 11
371.4999999999998
 21
434.05
 31
0.0
  0
LINE
  5
D046
330
CD74
100
AcDbEntity
  8
1
  6
Continuous
100
AcDbLine
 10
382.0
 20
433.55
 30
0.0
 11
371.4999999999998
 21
433.55
 31
0.0
  0
ARC
  5
D047
330
CD74
100
AcDbEntity
  8
1
  6
Continuous
100
AcDbCircle
 10
376.75
 20
433.4812499999999
 30
0.0
 40
2.38125
100
AcDbArc
 50
178.345561
 51
201.6652959999999
  0
ARC
  5
D048
330
CD74
100
AcDbEntity
  8
1
  6
Continuous
100
AcDbCircle
 10
376.75
 20
433.4812499999999
 30
0.0
 40
2.38125
100
AcDbArc
 50
338.3347039999998
 51
1.654438999999999
  0
ARC
  5
D049
330
CD74
100
AcDbEntity
  8
1
  6
Continuous
100
AcDbCircle
 10
389.25
 20
433.4812499999999
 30
0.0
 40
2.38125
100
AcDbArc
 50
178.345561
 51
201.6652959999999
  0
LINE
  5
D04A
330
CD74
100
AcDbEntity
  8
1
  6
Continuous
100
AcDbLine
 10
357.0
 20
434.05
 30
0.0
 11
346.4999999999998
 21
434.05
 31
0.0
  0
LINE
  5
D04B
330
CD74
100
AcDbEntity
  8
1
  6
Continuous
100
AcDbLine
 10
357.0
 20
433.55
 30
0.0
 11
346.4999999999998
 21
433.55
 31
0.0
  0
ARC
  5
D04C
330
CD74
100
AcDbEntity
  8
1
  6
Continuous
100
AcDbCircle
 10
364.25
 20
433.4812499999999
 30
0.0
 40
2.38125
100
AcDbArc
 50
178.345561
 51
201.6652959999999
  0
ARC
  5
D04D
330
CD74
100
AcDbEntity
  8
1
  6
Continuous
100
AcDbCircle
 10
364.25
 20
433.4812499999999
 30
0.0
 40
2.38125
100
AcDbArc
 50
338.3347039999998
 51
1.654438999999999
  0
LINE
  5
D04E
330
CD74
100
AcDbEntity
  8
1
  6
Continuous
100
AcDbLine
 10
369.5
 20
433.55
 30
0.0
 11
359.0
 21
433.55
 31
0.0
  0
LINE
  5
D04F
330
CD74
100
AcDbEntity
  8
1
  6
Continuous
100
AcDbLine
 10
369.5
 20
434.05
 30
0.0
 11
359.0
 21
434.05
 31
0.0
  0
ARC
  5
D050
330
CD74
100
AcDbEntity
  8
1
  6
Continuous
100
AcDbCircle
 10
339.25
 20
433.4812499999999
 30
0.0
 40
2.38125
100
AcDbArc
 50
338.3347039999998
 51
1.654438999999999
  0
ARC
  5
D051
330
CD74
100
AcDbEntity
  8
1
  6
Continuous
100
AcDbCircle
 10
351.75
 20
433.4812499999999
 30
0.0
 40
2.38125
100
AcDbArc
 50
178.345561
 51
201.6652959999999
  0
ARC
  5
D052
330
CD74
100
AcDbEntity
  8
1
  6
Continuous
100
AcDbCircle
 10
351.75
 20
433.4812499999999
 30
0.0
 40
2.38125
100
AcDbArc
 50
338.3347039999998
 51
1.654438999999999
  0
LINE
  5
D053
330
CD74
100
AcDbEntity
  8
1
  6
Continuous
100
AcDbLine
 10
334.0
 20
433.55
 30
0.0
 11
334.0
 21
434.9
 31
0.0
  0
ARC
  5
D054
330
CD74
100
AcDbEntity
  8
1
  6
Continuous
100
AcDbCircle
 10
339.25
 20
433.4812499999999
 30
0.0
 40
2.38125
100
AcDbArc
 50
143.430279
 51
166.18161
  0
LINE
  5
D055
330
CD74
100
AcDbEntity
  8
3
  6
DASHED
100
AcDbLine
 10
309.1
 20
434.9
 30
0.0
 11
309.1
 21
459.4
 31
0.0
  0
LINE
  5
D056
330
CD74
100
AcDbEntity
  8
1
  6
Continuous
100
AcDbLine
 10
306.1
 20
434.9
 30
0.0
 11
306.1
 21
459.4
 31
0.0
  0
ARC
  5
D057
330
CD74
100
AcDbEntity
  8
1
  6
Continuous
100
AcDbCircle
 10
339.25
 20
460.81875
 30
0.0
 40
2.38125
100
AcDbArc
 50
158.3347039999999
 51
181.6544389999999
  0
ARC
  5
D058
330
CD74
100
AcDbEntity
  8
1
  6
Continuous
100
AcDbCircle
 10
339.25
 20
460.81875
 30
0.0
 40
2.38125
100
AcDbArc
 50
193.81839
 51
216.5697209999999
  0
LINE
  5
D059
330
CD74
100
AcDbEntity
  8
1
  6
Continuous
100
AcDbLine
 10
334.0
 20
460.7499999999998
 30
0.0
 11
334.0
 21
459.4
 31
0.0
  0
LINE
  5
D05A
330
CD74
100
AcDbEntity
  8
1
  6
Continuous
100
AcDbLine
 10
258.0
 20
449.3999999999998
 30
0.0
 11
257.2
 21
449.3999999999998
 31
0.0
  0
LINE
  5
D05B
330
CD74
100
AcDbEntity
  8
4
  6
CENTER
100
AcDbLine
 10
257.6
 20
441.8999999999998
 30
0.0
 11
257.6
 21
452.4
 31
0.0
  0
LINE
  5
D05C
330
CD74
100
AcDbEntity
  8
1
  6
Continuous
100
AcDbLine
 10
258.0
 20
444.8999999999998
 30
0.0
 11
257.2
 21
444.8999999999998
 31
0.0
  0
ARC
  5
D05D
330
CD74
100
AcDbEntity
  8
1
  6
Continuous
100
AcDbCircle
 10
258.0
 20
447.1499999999998
 30
0.0
 40
2.25
100
AcDbArc
 50
270.0
 51
90.0
  0
ARC
  5
D05E
330
CD74
100
AcDbEntity
  8
1
  6
Continuous
100
AcDbCircle
 10
257.2
 20
447.1499999999998
 30
0.0
 40
2.25
100
AcDbArc
 50
90.0
 51
270.0
  0
ARC
  5
D05F
330
CD74
100
AcDbEntity
  8
1
  6
Continuous
100
AcDbCircle
 10
339.25
 20
433.4812499999999
 30
0.0
 40
2.38125
100
AcDbArc
 50
178.345561
 51
201.6652959999999
  0
LINE
  5
D060
330
CD74
100
AcDbEntity
  8
1
  6
Continuous
100
AcDbLine
 10
119.728991
 20
434.3368169999997
 30
0.0
 11
117.853284
 21
432.0049759999998
 31
0.0
  0
ARC
  5
D061
330
CD74
100
AcDbEntity
  8
1
  6
Continuous
100
AcDbCircle
 10
119.1
 20
434.842771
 30
0.0
 40
0.8072289999999997
100
AcDbArc
 50
321.187185
 51
90.0
  0
ARC
  5
D062
330
CD74
100
AcDbEntity
  8
1
  6
Continuous
100
AcDbCircle
 10
119.1
 20
459.457229
 30
0.0
 40
0.8072289999999997
100
AcDbArc
 50
270.0
 51
38.812815
  0
ARC
  5
D063
330
CD74
100
AcDbEntity
  8
1
  6
Continuous
100
AcDbCircle
 10
146.5
 20
446.75
 30
0.0
 40
2.25
100
AcDbArc
 50
180.0
 51
0.0
  0
ARC
  5
D064
330
CD74
100
AcDbEntity
  8
1
  6
Continuous
100
AcDbCircle
 10
146.5
 20
447.55
 30
0.0
 40
2.25
100
AcDbArc
 50
0.0
 51
180.0
  0
LINE
  5
D065
330
CD74
100
AcDbEntity
  8
4
  6
CENTER
100
AcDbLine
 10
146.5
 20
441.8999999999998
 30
0.0
 11
146.5
 21
452.4
 31
0.0
  0
LINE
  5
D066
330
CD74
100
AcDbEntity
  8
1
  6
Continuous
100
AcDbLine
 10
144.25
 20
446.75
 30
0.0
 11
144.25
 21
447.55
 31
0.0
  0
LINE
  5
D067
330
CD74
100
AcDbEntity
  8
1
  6
Continuous
100
AcDbLine
 10
148.75
 20
446.75
 30
0.0
 11
148.75
 21
447.55
 31
0.0
  0
LINE
  5
D068
330
CD74
100
AcDbEntity
  8
1
  6
Continuous
100
AcDbLine
 10
131.55
 20
446.75
 30
0.0
 11
131.55
 21
447.55
 31
0.0
  0
LINE
  5
D069
330
CD74
100
AcDbEntity
  8
4
  6
CENTER
100
AcDbLine
 10
133.8
 20
441.8999999999998
 30
0.0
 11
133.8
 21
452.4
 31
0.0
  0
LINE
  5
D06A
330
CD74
100
AcDbEntity
  8
1
  6
Continuous
100
AcDbLine
 10
136.05
 20
446.75
 30
0.0
 11
136.05
 21
447.55
 31
0.0
  0
ARC
  5
D06B
330
CD74
100
AcDbEntity
  8
1
  6
Continuous
100
AcDbCircle
 10
133.8
 20
446.75
 30
0.0
 40
2.25
100
AcDbArc
 50
180.0
 51
0.0
  0
ARC
  5
D06C
330
CD74
100
AcDbEntity
  8
1
  6
Continuous
100
AcDbCircle
 10
133.8
 20
447.55
 30
0.0
 40
2.25
100
AcDbArc
 50
0.0
 51
180.0
  0
LINE
  5
D06D
330
CD74
100
AcDbEntity
  8
1
  6
Continuous
100
AcDbLine
 10
117.5
 20
458.65
 30
0.0
 11
117.5
 21
435.6499999999998
 31
0.0
  0
LINE
  5
D06E
330
CD74
100
AcDbEntity
  8
1
  6
Continuous
100
AcDbLine
 10
119.1
 20
458.65
 30
0.0
 11
119.1
 21
435.6499999999998
 31
0.0
  0
LINE
  5
D06F
330
CD74
100
AcDbEntity
  8
1
  6
Continuous
100
AcDbLine
 10
117.5
 20
464.8
 30
0.0
 11
117.5
 21
463.2978689999998
 31
0.0
  0
LINE
  5
D070
330
CD74
100
AcDbEntity
  8
1
  6
Continuous
100
AcDbLine
 10
119.728991
 20
459.9631829999998
 30
0.0
 11
117.853284
 21
462.295024
 31
0.0
  0
ARC
  5
D071
330
CD74
100
AcDbEntity
  8
1
  6
Continuous
100
AcDbCircle
 10
119.1
 20
463.8885629999998
 30
0.0
 40
1.6
100
AcDbArc
 50
180.0
 51
270.0
  0
ARC
  5
D072
330
CD74
100
AcDbEntity
  8
1
  6
Continuous
100
AcDbCircle
 10
119.1
 20
463.2978689999998
 30
0.0
 40
1.6
100
AcDbArc
 50
180.0
 51
270.0
  0
LINE
  5
D073
330
CD74
100
AcDbEntity
  8
1
  6
Continuous
100
AcDbLine
 10
119.1
 20
458.65
 30
0.0
 11
117.5
 21
458.65
 31
0.0
  0
LINE
  5
D074
330
CD74
100
AcDbEntity
  8
1
  6
Continuous
100
AcDbLine
 10
119.1
 20
435.6499999999998
 30
0.0
 11
117.5
 21
435.6499999999998
 31
0.0
  0
LINE
  5
D075
330
CD74
100
AcDbEntity
  8
1
  6
Continuous
100
AcDbLine
 10
117.5
 20
431.0021309999998
 30
0.0
 11
117.5
 21
429.4999999999998
 31
0.0
  0
ARC
  5
D076
330
CD74
100
AcDbEntity
  8
1
  6
Continuous
100
AcDbCircle
 10
119.1
 20
431.0021309999998
 30
0.0
 40
1.6
100
AcDbArc
 50
90.0
 51
180.0
  0
ARC
  5
D077
330
CD74
100
AcDbEntity
  8
1
  6
Continuous
100
AcDbCircle
 10
119.1
 20
430.4114369999998
 30
0.0
 40
1.6
100
AcDbArc
 50
90.0
 51
180.0
  0
LINE
  5
D078
330
CD74
100
AcDbEntity
  8
1
  6
Continuous
100
AcDbLine
 10
473.5
 20
57.1
 30
0.0
 11
662.8999999999997
 21
57.1
 31
0.0
  0
LINE
  5
D079
330
CD74
100
AcDbEntity
  8
1
  6
Continuous
100
AcDbLine
 10
309.1
 20
50.6
 30
0.0
 11
662.8999999999997
 21
50.6
 31
0.0
  0
LINE
  5
D07A
330
CD74
100
AcDbEntity
  8
1
  6
Continuous
100
AcDbLine
 10
306.1
 20
50.5
 30
0.0
 11
659.9
 21
50.5
 31
0.0
  0
LINE
  5
D07B
330
CD74
100
AcDbEntity
  8
1
  6
Continuous
100
AcDbLine
 10
495.5
 20
41.0
 30
0.0
 11
851.5
 21
41.0
 31
0.0
  0
LINE
  5
D07C
330
CD74
100
AcDbEntity
  8
1
  6
Continuous
100
AcDbLine
 10
495.5
 20
49.7
 30
0.0
 11
851.5
 21
49.7
 31
0.0
  0
LINE
  5
D07D
330
CD74
100
AcDbEntity
  8
3
  6
DASHED
100
AcDbLine
 10
495.5
 20
44.0
 30
0.0
 11
659.9
 21
44.0
 31
0.0
  0
LINE
  5
D07E
330
CD74
100
AcDbEntity
  8
1
  6
Continuous
100
AcDbLine
 10
473.5
 20
60.1
 30
0.0
 11
473.5
 21
51.4
 31
0.0
  0
LINE
  5
D07F
330
CD74
100
AcDbEntity
  8
4
  6
CENTER
100
AcDbLine
 10
457.6
 20
40.566515
 30
0.0
 11
457.6
 21
65.528309
 31
0.0
  0
LINE
  5
D080
330
CD74
100
AcDbEntity
  8
3
  6
DASHED
100
AcDbLine
 10
309.1
 20
51.4
 30
0.0
 11
309.1
 21
57.1
 31
0.0
  0
LINE
  5
D081
330
CD74
100
AcDbEntity
  8
1
  6
Continuous
100
AcDbLine
 10
117.5
 20
60.1
 30
0.0
 11
117.5
 21
51.4
 31
0.0
  0
LINE
  5
D082
330
CD74
100
AcDbEntity
  8
1
  6
Continuous
100
AcDbLine
 10
117.5
 20
60.1
 30
0.0
 11
473.5
 21
60.1
 31
0.0
  0
LINE
  5
D083
330
CD74
100
AcDbEntity
  8
4
  6
CENTER
100
AcDbLine
 10
146.5
 20
55.028309
 30
0.0
 11
146.5
 21
65.528309
 31
0.0
  0
LINE
  5
D084
330
CD74
100
AcDbEntity
  8
4
  6
CENTER
100
AcDbLine
 10
133.8
 20
55.028309
 30
0.0
 11
133.8
 21
65.528309
 31
0.0
  0
LINE
  5
D085
330
CD74
100
AcDbEntity
  8
3
  6
DASHED
100
AcDbLine
 10
309.1
 20
57.1
 30
0.0
 11
473.5
 21
57.1
 31
0.0
  0
LINE
  5
D086
330
CD74
100
AcDbEntity
  8
4
  6
CENTER
100
AcDbLine
 10
257.6
 20
55.028309
 30
0.0
 11
257.6
 21
65.528309
 31
0.0
  0
LINE
  5
D087
330
CD74
100
AcDbEntity
  8
4
  6
CENTER
100
AcDbLine
 10
346.4999999999998
 20
55.028309
 30
0.0
 11
346.4999999999998
 21
65.528309
 31
0.0
  0
LINE
  5
D088
330
CD74
100
AcDbEntity
  8
4
  6
CENTER
100
AcDbLine
 10
432.2
 20
55.028309
 30
0.0
 11
432.2
 21
65.528309
 31
0.0
  0
LINE
  5
D089
330
CD74
100
AcDbEntity
  8
4
  6
CENTER
100
AcDbLine
 10
444.8999999999998
 20
55.028309
 30
0.0
 11
444.8999999999998
 21
65.528309
 31
0.0
  0
LINE
  5
D08A
330
CD74
100
AcDbEntity
  8
1
  6
Continuous
100
AcDbLine
 10
117.5
 20
51.4
 30
0.0
 11
473.5
 21
51.4
 31
0.0
  0
LINE
  5
D08B
330
CD74
100
AcDbEntity
  8
1
  6
Continuous
100
AcDbLine
 10
306.1
 20
44.0
 30
0.0
 11
495.5
 21
44.0
 31
0.0
  0
LINE
  5
D08C
330
CD74
100
AcDbEntity
  8
1
  6
Continuous
100
AcDbLine
 10
309.1
 20
50.6
 30
0.0
 11
309.1
 21
51.4
 31
0.0
  0
LINE
  5
D08D
330
CD74
100
AcDbEntity
  8
1
  6
Continuous
100
AcDbLine
 10
306.1
 20
44.0
 30
0.0
 11
306.1
 21
50.5
 31
0.0
  0
LINE
  5
D08E
330
CD74
100
AcDbEntity
  8
1
  6
Continuous
100
AcDbLine
 10
495.5
 20
49.7
 30
0.0
 11
495.5
 21
41.0
 31
0.0
  0
LINE
  5
D08F
330
CD74
100
AcDbEntity
  8
1
  6
Continuous
100
AcDbLine
 10
662.8999999999997
 20
50.6
 30
0.0
 11
662.8999999999997
 21
57.1
 31
0.0
  0
LINE
  5
D090
330
CD74
100
AcDbEntity
  8
4
  6
CENTER
100
AcDbLine
 10
511.3999999999998
 20
36.504411
 30
0.0
 11
511.3999999999998
 21
60.034205
 31
0.0
  0
LINE
  5
D091
330
CD74
100
AcDbEntity
  8
4
  6
CENTER
100
AcDbLine
 10
524.1
 20
36.504411
 30
0.0
 11
524.1
 21
47.00441099999999
 31
0.0
  0
LINE
  5
D092
330
CD74
100
AcDbEntity
  8
4
  6
CENTER
100
AcDbLine
 10
536.7999999999998
 20
36.504411
 30
0.0
 11
536.7999999999998
 21
47.00441099999999
 31
0.0
  0
LINE
  5
D093
330
CD74
100
AcDbEntity
  8
3
  6
DASHED
100
AcDbLine
 10
659.9
 20
44.0
 30
0.0
 11
659.9
 21
49.7
 31
0.0
  0
LINE
  5
D094
330
CD74
100
AcDbEntity
  8
4
  6
CENTER
100
AcDbLine
 10
622.5
 20
36.504411
 30
0.0
 11
622.5
 21
47.00441099999999
 31
0.0
  0
LINE
  5
D095
330
CD74
100
AcDbEntity
  8
1
  6
Continuous
100
AcDbLine
 10
659.9
 20
49.7
 30
0.0
 11
659.9
 21
50.5
 31
0.0
  0
LINE
  5
D096
330
CD74
100
AcDbEntity
  8
4
  6
CENTER
100
AcDbLine
 10
711.3999999999997
 20
36.504411
 30
0.0
 11
711.3999999999997
 21
47.00441099999999
 31
0.0
  0
LINE
  5
D097
330
CD74
100
AcDbEntity
  8
4
  6
CENTER
100
AcDbLine
 10
835.2
 20
36.504411
 30
0.0
 11
835.2
 21
47.00441099999999
 31
0.0
  0
LINE
  5
D098
330
CD74
100
AcDbEntity
  8
4
  6
CENTER
100
AcDbLine
 10
822.4999999999999
 20
36.504411
 30
0.0
 11
822.4999999999999
 21
47.00441099999999
 31
0.0
  0
LINE
  5
D099
330
CD74
100
AcDbEntity
  8
1
  6
Continuous
100
AcDbLine
 10
851.5
 20
49.7
 30
0.0
 11
851.5
 21
41.0
 31
0.0
  0
LINE
  5
D09A
330
CD74
100
AcDbEntity
  8
1
  6
Continuous
100
AcDbLine
 10
945.6000000000001
 20
170.171084
 30
0.0
 11
945.6000000000001
 21
195.3289159999999
 31
0.0
  0
LINE
  5
D09B
330
CD74
100
AcDbEntity
  8
5
  6
PHANTOM
100
AcDbLine
 10
497.1
 20
171.25
 30
0.0
 11
497.1
 21
194.25
 31
0.0
  0
ARC
  5
D09C
330
CD74
100
AcDbEntity
  8
5
  6
PHANTOM
100
AcDbCircle
 10
497.1
 20
170.442771
 30
0.0
 40
0.8072289999999997
100
AcDbArc
 50
321.187185
 51
90.0
  0
ARC
  5
D09D
330
CD74
100
AcDbEntity
  8
5
  6
PHANTOM
100
AcDbCircle
 10
497.1
 20
166.602131
 30
0.0
 40
1.6
100
AcDbArc
 50
141.1871849999998
 51
180.0
  0
LINE
  5
D09E
330
CD74
100
AcDbEntity
  8
5
  6
PHANTOM
100
AcDbLine
 10
497.728991
 20
169.9368169999999
 30
0.0
 11
495.853284
 21
167.6049759999999
 31
0.0
  0
LINE
  5
D09F
330
CD74
100
AcDbEntity
  8
5
  6
PHANTOM
100
AcDbLine
 10
495.5
 20
165.0999999999999
 30
0.0
 11
495.5
 21
166.602131
 31
0.0
  0
ARC
  5
D0A0
330
CD74
100
AcDbEntity
  8
5
  6
PHANTOM
100
AcDbCircle
 10
497.1
 20
195.057229
 30
0.0
 40
0.8072289999999997
100
AcDbArc
 50
270.0
 51
38.812815
  0
LINE
  5
D0A1
330
CD74
100
AcDbEntity
  8
5
  6
PHANTOM
100
AcDbLine
 10
497.728991
 20
195.563183
 30
0.0
 11
495.853284
 21
197.8950239999998
 31
0.0
  0
ARC
  5
D0A2
330
CD74
100
AcDbEntity
  8
5
  6
PHANTOM
100
AcDbCircle
 10
497.1
 20
198.8978689999999
 30
0.0
 40
1.6
100
AcDbArc
 50
180.0
 51
218.812815
  0
LINE
  5
D0A3
330
CD74
100
AcDbEntity
  8
5
  6
PHANTOM
100
AcDbLine
 10
495.5
 20
198.8978689999999
 30
0.0
 11
495.5
 21
200.4
 31
0.0
  0
LINE
  5
D0A4
330
CD74
100
AcDbEntity
  8
4
  6
CENTER
100
AcDbLine
 10
511.8
 20
188.0
 30
0.0
 11
511.8
 21
177.5
 31
0.0
  0
LINE
  5
D0A5
330
CD74
100
AcDbEntity
  8
5
  6
PHANTOM
100
AcDbLine
 10
514.0499999999998
 20
183.15
 30
0.0
 11
514.0499999999998
 21
182.3499999999999
 31
0.0
  0
LINE
  5
D0A6
330
CD74
100
AcDbEntity
  8
5
  6
PHANTOM
100
AcDbLine
 10
509.55
 20
183.15
 30
0.0
 11
509.55
 21
182.3499999999999
 31
0.0
  0
ARC
  5
D0A7
330
CD74
100
AcDbEntity
  8
5
  6
PHANTOM
100
AcDbCircle
 10
511.8
 20
183.15
 30
0.0
 40
2.25
100
AcDbArc
 50
0.0
 51
180.0
  0
ARC
  5
D0A8
330
CD74
100
AcDbEntity
  8
5
  6
PHANTOM
100
AcDbCircle
 10
511.8
 20
182.3499999999999
 30
0.0
 40
2.25
100
AcDbArc
 50
180.0
 51
0.0
  0
ARC
  5
D0A9
330
CD74
100
AcDbEntity
  8
5
  6
PHANTOM
100
AcDbCircle
 10
524.5
 20
183.15
 30
0.0
 40
2.25
100
AcDbArc
 50
0.0
 51
180.0
  0
ARC
  5
D0AA
330
CD74
100
AcDbEntity
  8
5
  6
PHANTOM
100
AcDbCircle
 10
524.5
 20
182.3499999999999
 30
0.0
 40
2.25
100
AcDbArc
 50
180.0
 51
0.0
  0
LINE
  5
D0AB
330
CD74
100
AcDbEntity
  8
5
  6
PHANTOM
100
AcDbLine
 10
522.25
 20
183.15
 30
0.0
 11
522.25
 21
182.3499999999999
 31
0.0
  0
LINE
  5
D0AC
330
CD74
100
AcDbEntity
  8
4
  6
CENTER
100
AcDbLine
 10
524.5
 20
188.0
 30
0.0
 11
524.5
 21
177.5
 31
0.0
  0
LINE
  5
D0AD
330
CD74
100
AcDbEntity
  8
5
  6
PHANTOM
100
AcDbLine
 10
526.75
 20
183.15
 30
0.0
 11
526.75
 21
182.3499999999999
 31
0.0
  0
LINE
  5
D0AE
330
CD74
100
AcDbEntity
  8
5
  6
PHANTOM
100
AcDbLine
 10
636.0
 20
180.4999999999998
 30
0.0
 11
635.2000000000002
 21
180.4999999999998
 31
0.0
  0
LINE
  5
D0AF
330
CD74
100
AcDbEntity
  8
4
  6
CENTER
100
AcDbLine
 10
635.6
 20
188.0
 30
0.0
 11
635.6
 21
177.5
 31
0.0
  0
LINE
  5
D0B0
330
CD74
100
AcDbEntity
  8
5
  6
PHANTOM
100
AcDbLine
 10
636.0
 20
185.0
 30
0.0
 11
635.2000000000002
 21
185.0
 31
0.0
  0
ARC
  5
D0B1
330
CD74
100
AcDbEntity
  8
5
  6
PHANTOM
100
AcDbCircle
 10
635.2000000000002
 20
182.75
 30
0.0
 40
2.25
100
AcDbArc
 50
90.0
 51
270.0
  0
ARC
  5
D0B2
330
CD74
100
AcDbEntity
  8
5
  6
PHANTOM
100
AcDbCircle
 10
636.0
 20
182.75
 30
0.0
 40
2.25
100
AcDbArc
 50
270.0
 51
90.0
  0
ARC
  5
D0B3
330
CD74
100
AcDbEntity
  8
5
  6
PHANTOM
100
AcDbCircle
 10
724.8999999999997
 20
182.75
 30
0.0
 40
2.25
100
AcDbArc
 50
270.0
 51
90.0
  0
LINE
  5
D0B4
330
CD74
100
AcDbEntity
  8
5
  6
PHANTOM
100
AcDbLine
 10
724.8999999999997
 20
185.0
 30
0.0
 11
724.1
 21
185.0
 31
0.0
  0
LINE
  5
D0B5
330
CD74
100
AcDbEntity
  8
4
  6
CENTER
100
AcDbLine
 10
724.5
 20
188.0
 30
0.0
 11
724.5
 21
177.5
 31
0.0
  0
LINE
  5
D0B6
330
CD74
100
AcDbEntity
  8
5
  6
PHANTOM
100
AcDbLine
 10
724.8999999999997
 20
180.4999999999998
 30
0.0
 11
724.1
 21
180.4999999999998
 31
0.0
  0
ARC
  5
D0B7
330
CD74
100
AcDbEntity
  8
5
  6
PHANTOM
100
AcDbCircle
 10
724.1
 20
182.75
 30
0.0
 40
2.25
100
AcDbArc
 50
90.0
 51
270.0
  0
ARC
  5
D0B8
330
CD74
100
AcDbEntity
  8
5
  6
PHANTOM
100
AcDbCircle
 10
809.7999999999997
 20
182.75
 30
0.0
 40
2.25
100
AcDbArc
 50
90.0
 51
270.0
  0
LINE
  5
D0B9
330
CD74
100
AcDbEntity
  8
4
  6
CENTER
100
AcDbLine
 10
822.8999999999999
 20
188.0
 30
0.0
 11
822.8999999999999
 21
177.5
 31
0.0
  0
LINE
  5
D0BA
330
CD74
100
AcDbEntity
  8
5
  6
PHANTOM
100
AcDbLine
 10
825.15
 20
183.15
 30
0.0
 11
825.15
 21
182.3499999999999
 31
0.0
  0
LINE
  5
D0BB
330
CD74
100
AcDbEntity
  8
5
  6
PHANTOM
100
AcDbLine
 10
820.65
 20
183.15
 30
0.0
 11
820.65
 21
182.3499999999999
 31
0.0
  0
LINE
  5
D0BC
330
CD74
100
AcDbEntity
  8
5
  6
PHANTOM
100
AcDbLine
 10
810.5999999999996
 20
185.0
 30
0.0
 11
809.7999999999997
 21
185.0
 31
0.0
  0
LINE
  5
D0BD
330
CD74
100
AcDbEntity
  8
5
  6
PHANTOM
100
AcDbLine
 10
810.5999999999996
 20
180.4999999999998
 30
0.0
 11
809.7999999999997
 21
180.4999999999998
 31
0.0
  0
ARC
  5
D0BE
330
CD74
100
AcDbEntity
  8
5
  6
PHANTOM
100
AcDbCircle
 10
810.5999999999996
 20
182.75
 30
0.0
 40
2.25
100
AcDbArc
 50
270.0
 51
90.0
  0
LINE
  5
D0BF
330
CD74
100
AcDbEntity
  8
4
  6
CENTER
100
AcDbLine
 10
810.2
 20
188.0
 30
0.0
 11
810.2
 21
177.5
 31
0.0
  0
ARC
  5
D0C0
330
CD74
100
AcDbEntity
  8
5
  6
PHANTOM
100
AcDbCircle
 10
822.8999999999999
 20
183.15
 30
0.0
 40
2.25
100
AcDbArc
 50
0.0
 51
180.0
  0
ARC
  5
D0C1
330
CD74
100
AcDbEntity
  8
5
  6
PHANTOM
100
AcDbCircle
 10
822.8999999999999
 20
182.3499999999999
 30
0.0
 40
2.25
100
AcDbArc
 50
180.0
 51
0.0
  0
ARC
  5
D0C2
330
CD74
100
AcDbEntity
  8
5
  6
PHANTOM
100
AcDbCircle
 10
835.5999999999996
 20
182.3499999999999
 30
0.0
 40
2.25
100
AcDbArc
 50
180.0
 51
0.0
  0
LINE
  5
D0C3
330
CD74
100
AcDbEntity
  8
5
  6
PHANTOM
100
AcDbLine
 10
837.85
 20
183.15
 30
0.0
 11
837.85
 21
182.3499999999999
 31
0.0
  0
LINE
  5
D0C4
330
CD74
100
AcDbEntity
  8
5
  6
PHANTOM
100
AcDbLine
 10
833.35
 20
183.15
 30
0.0
 11
833.35
 21
182.3499999999999
 31
0.0
  0
LINE
  5
D0C5
330
CD74
100
AcDbEntity
  8
4
  6
CENTER
100
AcDbLine
 10
835.5999999999996
 20
188.0
 30
0.0
 11
835.5999999999996
 21
177.5
 31
0.0
  0
ARC
  5
D0C6
330
CD74
100
AcDbEntity
  8
5
  6
PHANTOM
100
AcDbCircle
 10
835.5999999999996
 20
183.15
 30
0.0
 40
2.25
100
AcDbArc
 50
0.0
 51
180.0
  0
LINE
  5
D0C7
330
CD74
100
AcDbEntity
  8
5
  6
PHANTOM
100
AcDbLine
 10
851.5
 20
165.0999999999999
 30
0.0
 11
851.5
 21
175.2499999999998
 31
0.0
  0
LINE
  5
D0C8
330
CD74
100
AcDbEntity
  8
5
  6
PHANTOM
100
AcDbLine
 10
851.5
 20
190.25
 30
0.0
 11
851.5
 21
200.4
 31
0.0
  0
LINE
  5
D0C9
330
CD74
100
AcDbEntity
  8
5
  6
PHANTOM
100
AcDbLine
 10
849.0
 20
190.25
 30
0.0
 11
851.5
 21
190.25
 31
0.0
  0
LINE
  5
D0CA
330
CD74
100
AcDbEntity
  8
5
  6
PHANTOM
100
AcDbLine
 10
849.0
 20
175.2499999999998
 30
0.0
 11
851.5
 21
175.2499999999998
 31
0.0
  0
LINE
  5
D0CB
330
CD74
100
AcDbEntity
  8
5
  6
PHANTOM
100
AcDbLine
 10
849.0
 20
175.2499999999998
 30
0.0
 11
849.0
 21
190.25
 31
0.0
  0
ARC
  5
D0CC
330
CD74
100
AcDbEntity
  8
1
  6
Continuous
100
AcDbCircle
 10
938.6000000000001
 20
192.75
 30
0.0
 40
1.5
100
AcDbArc
 50
90.0
 51
180.0
  0
ARC
  5
D0CD
330
CD74
100
AcDbEntity
  8
1
  6
Continuous
100
AcDbCircle
 10
934.1770609999999
 20
193.177061
 30
0.0
 40
0.6229390000000003
100
AcDbArc
 50
0.0
 51
129.550679
  0
LINE
  5
D0CE
330
CD74
100
AcDbEntity
  8
1
  6
Continuous
100
AcDbLine
 10
928.5999999999999
 20
190.25
 30
0.0
 11
928.5999999999999
 21
195.398548
 31
0.0
  0
LINE
  5
D0CF
330
CD74
100
AcDbEntity
  8
1
  6
Continuous
100
AcDbLine
 10
929.1
 20
190.25
 30
0.0
 11
929.1
 21
195.4
 31
0.0
  0
LINE
  5
D0D0
330
CD74
100
AcDbEntity
  8
1
  6
Continuous
100
AcDbLine
 10
928.1
 20
190.25
 30
0.0
 11
928.1
 21
195.3289159999999
 31
0.0
  0
LINE
  5
D0D1
330
CD74
100
AcDbEntity
  8
1
  6
Continuous
100
AcDbLine
 10
929.4999999999999
 20
193.448001
 30
0.0
 11
930.170157
 21
194.443435
 31
0.0
  0
ARC
  5
D0D2
330
CD74
100
AcDbEntity
  8
1
  6
Continuous
100
AcDbCircle
 10
931.4999999999999
 20
196.4187499999999
 30
0.0
 40
3.581249999999998
100
AcDbArc
 50
236.0503449999999
 51
309.5506789999999
  0
ARC
  5
D0D3
330
CD74
100
AcDbEntity
  8
1
  6
Continuous
100
AcDbCircle
 10
937.922939
 20
193.177061
 30
0.0
 40
1.822938999999999
100
AcDbArc
 50
50.449321
 51
180.0
  0
ARC
  5
D0D4
330
CD74
100
AcDbEntity
  8
1
  6
Continuous
100
AcDbCircle
 10
934.1770609999999
 20
193.177061
 30
0.0
 40
1.822938999999999
100
AcDbArc
 50
0.0
 51
129.550679
  0
LINE
  5
D0D5
330
CD74
100
AcDbEntity
  8
1
  6
Continuous
100
AcDbLine
 10
926.5
 20
170.171084
 30
0.0
 11
926.5
 21
195.3289159999999
 31
0.0
  0
ARC
  5
D0D6
330
CD74
100
AcDbEntity
  8
1
  6
Continuous
100
AcDbCircle
 10
937.922939
 20
172.322939
 30
0.0
 40
1.822938999999999
100
AcDbArc
 50
180.0
 51
309.5506789999999
  0
LINE
  5
D0D7
330
CD74
100
AcDbEntity
  8
4
  6
CENTER
100
AcDbLine
 10
921.4999999999999
 20
182.75
 30
0.0
 11
950.6
 21
182.75
 31
0.0
  0
LINE
  5
D0D8
330
CD74
100
AcDbEntity
  8
1
  6
Continuous
100
AcDbLine
 10
935.0
 20
169.65
 30
0.0
 11
935.0
 21
169.15
 31
0.0
  0
ARC
  5
D0D9
330
CD74
100
AcDbEntity
  8
1
  6
Continuous
100
AcDbCircle
 10
929.7
 20
170.171084
 30
0.0
 40
3.2
100
AcDbArc
 50
180.0
 51
217.012191
  0
ARC
  5
D0DA
330
CD74
100
AcDbEntity
  8
1
  6
Continuous
100
AcDbCircle
 10
929.7
 20
170.171084
 30
0.0
 40
1.6
100
AcDbArc
 50
180.0
 51
217.012191
  0
ARC
  5
D0DB
330
CD74
100
AcDbEntity
  8
1
  6
Continuous
100
AcDbCircle
 10
931.4999999999999
 20
169.08125
 30
0.0
 40
2.38125
100
AcDbArc
 50
167.557726
 51
3.719127999999999
  0
LINE
  5
D0DC
330
CD74
100
AcDbEntity
  8
1
  6
Continuous
100
AcDbLine
 10
935.0
 20
169.15
 30
0.0
 11
929.0619749999999
 21
169.6029
 31
0.0
  0
LINE
  5
D0DD
330
CD74
100
AcDbEntity
  8
1
  6
Continuous
100
AcDbLine
 10
935.2
 20
167.611437
 30
0.0
 11
933.7130300000001
 21
168.202131
 31
0.0
  0
LINE
  5
D0DE
330
CD74
100
AcDbEntity
  8
1
  6
Continuous
100
AcDbLine
 10
927.1447759999999
 20
168.244732
 30
0.0
 11
928.320942
 21
166.6845969999999
 31
0.0
  0
LINE
  5
D0DF
330
CD74
100
AcDbEntity
  8
1
  6
Continuous
100
AcDbLine
 10
928.4223879999997
 20
169.207908
 30
0.0
 11
929.598554
 21
167.647773
 31
0.0
  0
ARC
  5
D0E0
330
CD74
100
AcDbEntity
  8
1
  6
Continuous
100
AcDbCircle
 10
931.4999999999999
 20
169.08125
 30
0.0
 40
3.98125
100
AcDbArc
 50
217.012191
 51
338.3347039999998
  0
ARC
  5
D0E1
330
CD74
100
AcDbEntity
  8
1
  6
Continuous
100
AcDbCircle
 10
931.0999999999999
 20
188.0
 30
0.0
 40
0.5
100
AcDbArc
 50
0.0
 51
36.869898
  0
ARC
  5
D0E2
330
CD74
100
AcDbEntity
  8
1
  6
Continuous
100
AcDbCircle
 10
931.0999999999999
 20
177.5
 30
0.0
 40
0.5
100
AcDbArc
 50
323.130102
 51
0.0
  0
LINE
  5
D0E3
330
CD74
100
AcDbEntity
  8
1
  6
Continuous
100
AcDbLine
 10
931.6
 20
177.5
 30
0.0
 11
931.6
 21
188.0
 31
0.0
  0
ARC
  5
D0E4
330
CD74
100
AcDbEntity
  8
1
  6
Continuous
100
AcDbCircle
 10
932.3999999999998
 20
190.4374999999998
 30
0.0
 40
1.199999999999999
100
AcDbArc
 50
0.0
 51
90.0
  0
ARC
  5
D0E5
330
CD74
100
AcDbEntity
  8
1
  6
Continuous
100
AcDbCircle
 10
932.3999999999998
 20
190.4374999999998
 30
0.0
 40
2.399999999999999
100
AcDbArc
 50
0.0
 51
90.0
  0
ARC
  5
D0E6
330
CD74
100
AcDbEntity
  8
1
  6
Continuous
100
AcDbCircle
 10
932.3999999999998
 20
175.0625
 30
0.0
 40
1.199999999999999
100
AcDbArc
 50
270.0
 51
0.0
  0
ARC
  5
D0E7
330
CD74
100
AcDbEntity
  8
1
  6
Continuous
100
AcDbCircle
 10
932.3999999999998
 20
175.0625
 30
0.0
 40
2.399999999999999
100
AcDbArc
 50
270.0
 51
0.0
  0
LINE
  5
D0E8
330
CD74
100
AcDbEntity
  8
1
  6
Continuous
100
AcDbLine
 10
931.4999999999999
 20
175.2499999999998
 30
0.0
 11
931.4999999999999
 21
190.25
 31
0.0
  0
LINE
  5
D0E9
330
CD74
100
AcDbEntity
  8
1
  6
Continuous
100
AcDbLine
 10
933.6
 20
175.0625
 30
0.0
 11
933.6
 21
190.4374999999998
 31
0.0
  0
LINE
  5
D0EA
330
CD74
100
AcDbEntity
  8
1
  6
Continuous
100
AcDbLine
 10
936.1
 20
172.322939
 30
0.0
 11
936.1
 21
193.177061
 31
0.0
  0
LINE
  5
D0EB
330
CD74
100
AcDbEntity
  8
1
  6
Continuous
100
AcDbLine
 10
934.7999999999997
 20
172.322939
 30
0.0
 11
934.7999999999997
 21
193.177061
 31
0.0
  0
LINE
  5
D0EC
330
CD74
100
AcDbEntity
  8
1
  6
Continuous
100
AcDbLine
 10
936.0
 20
172.322939
 30
0.0
 11
936.0
 21
193.177061
 31
0.0
  0
LINE
  5
D0ED
330
CD74
100
AcDbEntity
  8
1
  6
Continuous
100
AcDbLine
 10
929.8
 20
191.6375
 30
0.0
 11
929.8
 21
192.8375
 31
0.0
  0
LINE
  5
D0EE
330
CD74
100
AcDbEntity
  8
1
  6
Continuous
100
AcDbLine
 10
929.8
 20
173.8625
 30
0.0
 11
929.8
 21
172.6625
 31
0.0
  0
LINE
  5
D0EF
330
CD74
100
AcDbEntity
  8
1
  6
Continuous
100
AcDbLine
 10
929.8
 20
191.6375
 30
0.0
 11
932.3999999999998
 21
191.6375
 31
0.0
  0
LINE
  5
D0F0
330
CD74
100
AcDbEntity
  8
1
  6
Continuous
100
AcDbLine
 10
929.8
 20
192.8375
 30
0.0
 11
932.3999999999998
 21
192.8375
 31
0.0
  0
LINE
  5
D0F1
330
CD74
100
AcDbEntity
  8
1
  6
Continuous
100
AcDbLine
 10
926.5
 20
190.25
 30
0.0
 11
931.4999999999999
 21
190.25
 31
0.0
  0
LINE
  5
D0F2
330
CD74
100
AcDbEntity
  8
1
  6
Continuous
100
AcDbLine
 10
929.8
 20
173.8625
 30
0.0
 11
932.3999999999998
 21
173.8625
 31
0.0
  0
LINE
  5
D0F3
330
CD74
100
AcDbEntity
  8
1
  6
Continuous
100
AcDbLine
 10
929.8
 20
172.6625
 30
0.0
 11
932.3999999999998
 21
172.6625
 31
0.0
  0
LINE
  5
D0F4
330
CD74
100
AcDbEntity
  8
1
  6
Continuous
100
AcDbLine
 10
926.5
 20
175.2499999999998
 30
0.0
 11
931.4999999999999
 21
175.2499999999998
 31
0.0
  0
LINE
  5
D0F5
330
CD74
100
AcDbEntity
  8
1
  6
Continuous
100
AcDbLine
 10
929.4999999999999
 20
172.0519989999999
 30
0.0
 11
930.170157
 21
171.0565649999998
 31
0.0
  0
ARC
  5
D0F6
330
CD74
100
AcDbEntity
  8
1
  6
Continuous
100
AcDbCircle
 10
929.1
 20
170.101452
 30
0.0
 40
0.5
100
AcDbArc
 50
180.0
 51
265.6384269999999
  0
ARC
  5
D0F7
330
CD74
100
AcDbEntity
  8
1
  6
Continuous
100
AcDbCircle
 10
931.4999999999999
 20
169.08125
 30
0.0
 40
2.38125
100
AcDbArc
 50
16.12167
 51
155.1551849999999
  0
LINE
  5
D0F8
330
CD74
100
AcDbEntity
  8
1
  6
Continuous
100
AcDbLine
 10
935.0
 20
169.65
 30
0.0
 11
929.1
 21
170.1
 31
0.0
  0
LINE
  5
D0F9
330
CD74
100
AcDbEntity
  8
1
  6
Continuous
100
AcDbLine
 10
928.5999999999999
 20
175.2499999999998
 30
0.0
 11
928.5999999999999
 21
170.101452
 31
0.0
  0
LINE
  5
D0FA
330
CD74
100
AcDbEntity
  8
1
  6
Continuous
100
AcDbLine
 10
928.1
 20
170.171084
 30
0.0
 11
928.1
 21
175.2499999999998
 31
0.0
  0
LINE
  5
D0FB
330
CD74
100
AcDbEntity
  8
1
  6
Continuous
100
AcDbLine
 10
929.1
 20
175.2499999999998
 30
0.0
 11
929.1
 21
170.1
 31
0.0
  0
ARC
  5
D0FC
330
CD74
100
AcDbEntity
  8
1
  6
Continuous
100
AcDbCircle
 10
931.4999999999999
 20
169.08125
 30
0.0
 40
3.581249999999998
100
AcDbArc
 50
50.449321
 51
123.949655
  0
ARC
  5
D0FD
330
CD74
100
AcDbEntity
  8
1
  6
Continuous
100
AcDbCircle
 10
934.1770609999999
 20
172.322939
 30
0.0
 40
1.822938999999999
100
AcDbArc
 50
230.4493209999999
 51
0.0
  0
ARC
  5
D0FE
330
CD74
100
AcDbEntity
  8
1
  6
Continuous
100
AcDbCircle
 10
934.1770609999999
 20
172.322939
 30
0.0
 40
0.6229390000000003
100
AcDbArc
 50
230.4493209999999
 51
0.0
  0
ARC
  5
D0FF
330
CD74
100
AcDbEntity
  8
1
  6
Continuous
100
AcDbCircle
 10
942.3999999999999
 20
170.171084
 30
0.0
 40
1.6
100
AcDbArc
 50
322.9878089999999
 51
0.0
  0
ARC
  5
D100
330
CD74
100
AcDbEntity
  8
1
  6
Continuous
100
AcDbCircle
 10
942.3999999999999
 20
170.171084
 30
0.0
 40
3.2
100
AcDbArc
 50
322.9878089999999
 51
0.0
  0
LINE
  5
D101
330
CD74
100
AcDbEntity
  8
1
  6
Continuous
100
AcDbLine
 10
937.1
 20
169.65
 30
0.0
 11
937.1
 21
169.15
 31
0.0
  0
ARC
  5
D102
330
CD74
100
AcDbEntity
  8
1
  6
Continuous
100
AcDbCircle
 10
940.6
 20
169.08125
 30
0.0
 40
2.38125
100
AcDbArc
 50
176.2808719999999
 51
12.44227399999999
  0
LINE
  5
D103
330
CD74
100
AcDbEntity
  8
1
  6
Continuous
100
AcDbLine
 10
937.1
 20
169.15
 30
0.0
 11
943.0380249999997
 21
169.6029
 31
0.0
  0
LINE
  5
D104
330
CD74
100
AcDbEntity
  8
1
  6
Continuous
100
AcDbLine
 10
944.955224
 20
168.244732
 30
0.0
 11
943.7790579999997
 21
166.6845969999999
 31
0.0
  0
LINE
  5
D105
330
CD74
100
AcDbEntity
  8
1
  6
Continuous
100
AcDbLine
 10
936.8999999999997
 20
167.611437
 30
0.0
 11
938.3869699999999
 21
168.202131
 31
0.0
  0
ARC
  5
D106
330
CD74
100
AcDbEntity
  8
1
  6
Continuous
100
AcDbCircle
 10
940.6
 20
169.08125
 30
0.0
 40
3.98125
100
AcDbArc
 50
201.6652959999999
 51
322.9878089999999
  0
LINE
  5
D107
330
CD74
100
AcDbEntity
  8
1
  6
Continuous
100
AcDbLine
 10
943.6776119999999
 20
169.207908
 30
0.0
 11
942.5014459999999
 21
167.647773
 31
0.0
  0
LINE
  5
D108
330
CD74
100
AcDbEntity
  8
1
  6
Continuous
100
AcDbLine
 10
937.1
 20
172.75
 30
0.0
 11
937.1
 21
192.75
 31
0.0
  0
LINE
  5
D109
330
CD74
100
AcDbEntity
  8
1
  6
Continuous
100
AcDbLine
 10
943.5
 20
171.25
 30
0.0
 11
943.5
 21
170.101452
 31
0.0
  0
LINE
  5
D10A
330
CD74
100
AcDbEntity
  8
1
  6
Continuous
100
AcDbLine
 10
944.0
 20
170.171084
 30
0.0
 11
944.0
 21
171.25
 31
0.0
  0
LINE
  5
D10B
330
CD74
100
AcDbEntity
  8
1
  6
Continuous
100
AcDbLine
 10
943.0
 20
171.25
 30
0.0
 11
943.0
 21
170.1
 31
0.0
  0
ARC
  5
D10C
330
CD74
100
AcDbEntity
  8
1
  6
Continuous
100
AcDbCircle
 10
943.0
 20
170.101452
 30
0.0
 40
0.5
100
AcDbArc
 50
274.361573
 51
0.0
  0
LINE
  5
D10D
330
CD74
100
AcDbEntity
  8
1
  6
Continuous
100
AcDbLine
 10
942.060069
 20
171.25
 30
0.0
 11
941.9298429999999
 21
171.0565649999998
 31
0.0
  0
ARC
  5
D10E
330
CD74
100
AcDbEntity
  8
1
  6
Continuous
100
AcDbCircle
 10
940.6
 20
169.08125
 30
0.0
 40
2.38125
100
AcDbArc
 50
114.3892499999999
 51
163.87833
  0
ARC
  5
D10F
330
CD74
100
AcDbEntity
  8
1
  6
Continuous
100
AcDbCircle
 10
940.6
 20
169.08125
 30
0.0
 40
2.38125
100
AcDbArc
 50
24.844815
 51
65.61074999999999
  0
LINE
  5
D110
330
CD74
100
AcDbEntity
  8
1
  6
Continuous
100
AcDbLine
 10
937.1
 20
169.65
 30
0.0
 11
943.0
 21
170.1
 31
0.0
  0
LINE
  5
D111
330
CD74
100
AcDbEntity
  8
1
  6
Continuous
100
AcDbLine
 10
938.6000000000001
 20
171.25
 30
0.0
 11
945.6000000000001
 21
171.25
 31
0.0
  0
ARC
  5
D112
330
CD74
100
AcDbEntity
  8
1
  6
Continuous
100
AcDbCircle
 10
938.6000000000001
 20
172.75
 30
0.0
 40
1.5
100
AcDbArc
 50
180.0
 51
270.0
  0
LINE
  5
D113
330
CD74
100
AcDbEntity
  8
1
  6
Continuous
100
AcDbLine
 10
935.0
 20
195.8499999999999
 30
0.0
 11
935.0
 21
196.3499999999999
 31
0.0
  0
LINE
  5
D114
330
CD74
100
AcDbEntity
  8
1
  6
Continuous
100
AcDbLine
 10
935.2
 20
197.8885629999999
 30
0.0
 11
933.7130300000001
 21
197.2978689999999
 31
0.0
  0
LINE
  5
D115
330
CD74
100
AcDbEntity
  8
1
  6
Continuous
100
AcDbLine
 10
927.1447759999999
 20
197.2552679999998
 30
0.0
 11
928.320942
 21
198.815403
 31
0.0
  0
LINE
  5
D116
330
CD74
100
AcDbEntity
  8
1
  6
Continuous
100
AcDbLine
 10
928.4223879999997
 20
196.292092
 30
0.0
 11
929.598554
 21
197.852227
 31
0.0
  0
LINE
  5
D117
330
CD74
100
AcDbEntity
  8
1
  6
Continuous
100
AcDbLine
 10
935.0
 20
196.3499999999999
 30
0.0
 11
929.0619749999999
 21
195.8971
 31
0.0
  0
ARC
  5
D118
330
CD74
100
AcDbEntity
  8
1
  6
Continuous
100
AcDbCircle
 10
931.4999999999999
 20
196.4187499999999
 30
0.0
 40
3.98125
100
AcDbArc
 50
21.665296
 51
142.987809
  0
ARC
  5
D119
330
CD74
100
AcDbEntity
  8
1
  6
Continuous
100
AcDbCircle
 10
931.4999999999999
 20
196.4187499999999
 30
0.0
 40
2.38125
100
AcDbArc
 50
356.280872
 51
192.4422739999998
  0
ARC
  5
D11A
330
CD74
100
AcDbEntity
  8
1
  6
Continuous
100
AcDbCircle
 10
931.4999999999999
 20
196.4187499999999
 30
0.0
 40
2.38125
100
AcDbArc
 50
204.844815
 51
343.87833
  0
ARC
  5
D11B
330
CD74
100
AcDbEntity
  8
1
  6
Continuous
100
AcDbCircle
 10
929.1
 20
195.398548
 30
0.0
 40
0.5
100
AcDbArc
 50
94.36157300000001
 51
180.0
  0
ARC
  5
D11C
330
CD74
100
AcDbEntity
  8
1
  6
Continuous
100
AcDbCircle
 10
929.7
 20
195.3289159999999
 30
0.0
 40
3.2
100
AcDbArc
 50
142.987809
 51
180.0
  0
ARC
  5
D11D
330
CD74
100
AcDbEntity
  8
1
  6
Continuous
100
AcDbCircle
 10
929.7
 20
195.3289159999999
 30
0.0
 40
1.6
100
AcDbArc
 50
142.987809
 51
180.0
  0
LINE
  5
D11E
330
CD74
100
AcDbEntity
  8
1
  6
Continuous
100
AcDbLine
 10
935.0
 20
195.8499999999999
 30
0.0
 11
929.1
 21
195.4
 31
0.0
  0
LINE
  5
D11F
330
CD74
100
AcDbEntity
  8
1
  6
Continuous
100
AcDbLine
 10
944.955224
 20
197.2552679999998
 30
0.0
 11
943.7790579999997
 21
198.815403
 31
0.0
  0
LINE
  5
D120
330
CD74
100
AcDbEntity
  8
1
  6
Continuous
100
AcDbLine
 10
937.1
 20
195.8499999999999
 30
0.0
 11
937.1
 21
196.3499999999999
 31
0.0
  0
LINE
  5
D121
330
CD74
100
AcDbEntity
  8
1
  6
Continuous
100
AcDbLine
 10
936.8999999999997
 20
197.8885629999999
 30
0.0
 11
938.3869699999999
 21
197.2978689999999
 31
0.0
  0
LINE
  5
D122
330
CD74
100
AcDbEntity
  8
1
  6
Continuous
100
AcDbLine
 10
937.1
 20
196.3499999999999
 30
0.0
 11
943.0380249999997
 21
195.8971
 31
0.0
  0
LINE
  5
D123
330
CD74
100
AcDbEntity
  8
1
  6
Continuous
100
AcDbLine
 10
943.6776119999999
 20
196.292092
 30
0.0
 11
942.5014459999999
 21
197.852227
 31
0.0
  0
ARC
  5
D124
330
CD74
100
AcDbEntity
  8
1
  6
Continuous
100
AcDbCircle
 10
940.6
 20
196.4187499999999
 30
0.0
 40
3.98125
100
AcDbArc
 50
37.01219099999998
 51
158.3347039999999
  0
LINE
  5
D125
330
CD74
100
AcDbEntity
  8
1
  6
Continuous
100
AcDbLine
 10
943.5
 20
194.25
 30
0.0
 11
943.5
 21
195.398548
 31
0.0
  0
LINE
  5
D126
330
CD74
100
AcDbEntity
  8
1
  6
Continuous
100
AcDbLine
 10
944.0
 20
194.25
 30
0.0
 11
944.0
 21
195.3289159999999
 31
0.0
  0
LINE
  5
D127
330
CD74
100
AcDbEntity
  8
1
  6
Continuous
100
AcDbLine
 10
943.0
 20
194.25
 30
0.0
 11
943.0
 21
195.4
 31
0.0
  0
LINE
  5
D128
330
CD74
100
AcDbEntity
  8
1
  6
Continuous
100
AcDbLine
 10
942.060069
 20
194.25
 30
0.0
 11
941.9298429999999
 21
194.443435
 31
0.0
  0
LINE
  5
D129
330
CD74
100
AcDbEntity
  8
1
  6
Continuous
100
AcDbLine
 10
938.6000000000001
 20
194.25
 30
0.0
 11
945.6000000000001
 21
194.25
 31
0.0
  0
ARC
  5
D12A
330
CD74
100
AcDbEntity
  8
1
  6
Continuous
100
AcDbCircle
 10
943.0
 20
195.398548
 30
0.0
 40
0.5
100
AcDbArc
 50
0.0
 51
85.63842699999998
  0
ARC
  5
D12B
330
CD74
100
AcDbEntity
  8
1
  6
Continuous
100
AcDbCircle
 10
942.3999999999999
 20
195.3289159999999
 30
0.0
 40
1.6
100
AcDbArc
 50
0.0
 51
37.01219099999998
  0
ARC
  5
D12C
330
CD74
100
AcDbEntity
  8
1
  6
Continuous
100
AcDbCircle
 10
942.3999999999999
 20
195.3289159999999
 30
0.0
 40
3.2
100
AcDbArc
 50
0.0
 51
37.01219099999998
  0
ARC
  5
D12D
330
CD74
100
AcDbEntity
  8
1
  6
Continuous
100
AcDbCircle
 10
940.6
 20
196.4187499999999
 30
0.0
 40
2.38125
100
AcDbArc
 50
294.38925
 51
335.155185
  0
ARC
  5
D12E
330
CD74
100
AcDbEntity
  8
1
  6
Continuous
100
AcDbCircle
 10
940.6
 20
196.4187499999999
 30
0.0
 40
2.38125
100
AcDbArc
 50
196.12167
 51
245.6107499999998
  0
ARC
  5
D12F
330
CD74
100
AcDbEntity
  8
1
  6
Continuous
100
AcDbCircle
 10
940.6
 20
196.4187499999999
 30
0.0
 40
2.38125
100
AcDbArc
 50
347.557726
 51
183.719128
  0
LINE
  5
D130
330
CD74
100
AcDbEntity
  8
1
  6
Continuous
100
AcDbLine
 10
937.1
 20
195.8499999999999
 30
0.0
 11
943.0
 21
195.4
 31
0.0
  0
LINE
  5
D131
330
CD74
100
AcDbEntity
  8
1
  6
Continuous
100
AcDbLine
 10
309.0
 20
460.7499999999998
 30
0.0
 11
309.0
 21
459.4
 31
0.0
  0
ARC
  5
D132
330
CD74
100
AcDbEntity
  8
1
  6
Continuous
100
AcDbCircle
 10
314.25
 20
460.81875
 30
0.0
 40
2.38125
100
AcDbArc
 50
193.81839
 51
216.5697209999999
  0
ARC
  5
D133
330
CD74
100
AcDbEntity
  8
1
  6
Continuous
100
AcDbCircle
 10
326.75
 20
460.81875
 30
0.0
 40
2.38125
100
AcDbArc
 50
193.81839
 51
216.5697209999999
  0
ARC
  5
D134
330
CD74
100
AcDbEntity
  8
1
  6
Continuous
100
AcDbCircle
 10
326.75
 20
460.81875
 30
0.0
 40
2.38125
100
AcDbArc
 50
323.430279
 51
346.18161
  0
LINE
  5
D135
330
CD74
100
AcDbEntity
  8
1
  6
Continuous
100
AcDbLine
 10
319.5
 20
460.7499999999998
 30
0.0
 11
319.5
 21
459.4
 31
0.0
  0
ARC
  5
D136
330
CD74
100
AcDbEntity
  8
1
  6
Continuous
100
AcDbCircle
 10
314.25
 20
460.81875
 30
0.0
 40
2.38125
100
AcDbArc
 50
323.430279
 51
346.18161
  0
LINE
  5
D137
330
CD74
100
AcDbEntity
  8
1
  6
Continuous
100
AcDbLine
 10
321.4999999999998
 20
460.7499999999998
 30
0.0
 11
321.4999999999998
 21
459.4
 31
0.0
  0
LINE
  5
D138
330
CD74
100
AcDbEntity
  8
1
  6
Continuous
100
AcDbLine
 10
332.0
 20
460.7499999999998
 30
0.0
 11
332.0
 21
459.4
 31
0.0
  0
ARC
  5
D139
330
CD74
100
AcDbEntity
  8
1
  6
Continuous
100
AcDbCircle
 10
314.25
 20
460.81875
 30
0.0
 40
2.38125
100
AcDbArc
 50
158.3347039999999
 51
181.6544389999999
  0
ARC
  5
D13A
330
CD74
100
AcDbEntity
  8
1
  6
Continuous
100
AcDbCircle
 10
314.25
 20
460.81875
 30
0.0
 40
2.38125
100
AcDbArc
 50
358.3455609999999
 51
21.665296
  0
LINE
  5
D13B
330
CD74
100
AcDbEntity
  8
1
  6
Continuous
100
AcDbLine
 10
319.5
 20
460.7499999999998
 30
0.0
 11
309.0
 21
460.7499999999998
 31
0.0
  0
LINE
  5
D13C
330
CD74
100
AcDbEntity
  8
1
  6
Continuous
100
AcDbLine
 10
319.5
 20
460.25
 30
0.0
 11
309.0
 21
460.25
 31
0.0
  0
ARC
  5
D13D
330
CD74
100
AcDbEntity
  8
1
  6
Continuous
100
AcDbCircle
 10
326.75
 20
460.81875
 30
0.0
 40
2.38125
100
AcDbArc
 50
158.3347039999999
 51
181.6544389999999
  0
ARC
  5
D13E
330
CD74
100
AcDbEntity
  8
1
  6
Continuous
100
AcDbCircle
 10
326.75
 20
460.81875
 30
0.0
 40
2.38125
100
AcDbArc
 50
358.3455609999999
 51
21.665296
  0
LINE
  5
D13F
330
CD74
100
AcDbEntity
  8
1
  6
Continuous
100
AcDbLine
 10
332.0
 20
460.25
 30
0.0
 11
321.4999999999998
 21
460.25
 31
0.0
  0
LINE
  5
D140
330
CD74
100
AcDbEntity
  8
1
  6
Continuous
100
AcDbLine
 10
332.0
 20
460.7499999999998
 30
0.0
 11
321.4999999999998
 21
460.7499999999998
 31
0.0
  0
ARC
  5
D141
330
CD74
100
AcDbEntity
  8
1
  6
Continuous
100
AcDbCircle
 10
314.25
 20
433.4812499999999
 30
0.0
 40
2.38125
100
AcDbArc
 50
178.345561
 51
201.6652959999999
  0
ARC
  5
D142
330
CD74
100
AcDbEntity
  8
1
  6
Continuous
100
AcDbCircle
 10
314.25
 20
433.4812499999999
 30
0.0
 40
2.38125
100
AcDbArc
 50
143.430279
 51
166.18161
  0
LINE
  5
D143
330
CD74
100
AcDbEntity
  8
1
  6
Continuous
100
AcDbLine
 10
309.0
 20
433.55
 30
0.0
 11
309.0
 21
434.9
 31
0.0
  0
ARC
  5
D144
330
CD74
100
AcDbEntity
  8
1
  6
Continuous
100
AcDbCircle
 10
314.25
 20
433.4812499999999
 30
0.0
 40
2.38125
100
AcDbArc
 50
338.3347039999998
 51
1.654438999999999
  0
ARC
  5
D145
330
CD74
100
AcDbEntity
  8
1
  6
Continuous
100
AcDbCircle
 10
314.25
 20
433.4812499999999
 30
0.0
 40
2.38125
100
AcDbArc
 50
13.81839
 51
36.569721
  0
LINE
  5
D146
330
CD74
100
AcDbEntity
  8
1
  6
Continuous
100
AcDbLine
 10
319.5
 20
433.55
 30
0.0
 11
319.5
 21
434.9
 31
0.0
  0
LINE
  5
D147
330
CD74
100
AcDbEntity
  8
1
  6
Continuous
100
AcDbLine
 10
319.5
 20
434.05
 30
0.0
 11
309.0
 21
434.05
 31
0.0
  0
LINE
  5
D148
330
CD74
100
AcDbEntity
  8
1
  6
Continuous
100
AcDbLine
 10
319.5
 20
433.55
 30
0.0
 11
309.0
 21
433.55
 31
0.0
  0
ARC
  5
D149
330
CD74
100
AcDbEntity
  8
1
  6
Continuous
100
AcDbCircle
 10
326.75
 20
433.4812499999999
 30
0.0
 40
2.38125
100
AcDbArc
 50
338.3347039999998
 51
1.654438999999999
  0
ARC
  5
D14A
330
CD74
100
AcDbEntity
  8
1
  6
Continuous
100
AcDbCircle
 10
326.75
 20
433.4812499999999
 30
0.0
 40
2.38125
100
AcDbArc
 50
178.345561
 51
201.6652959999999
  0
LINE
  5
D14B
330
CD74
100
AcDbEntity
  8
1
  6
Continuous
100
AcDbLine
 10
332.0
 20
433.55
 30
0.0
 11
321.4999999999998
 21
433.55
 31
0.0
  0
LINE
  5
D14C
330
CD74
100
AcDbEntity
  8
1
  6
Continuous
100
AcDbLine
 10
332.0
 20
434.05
 30
0.0
 11
321.4999999999998
 21
434.05
 31
0.0
  0
LINE
  5
D14D
330
CD74
100
AcDbEntity
  8
1
  6
Continuous
100
AcDbLine
 10
332.0
 20
433.55
 30
0.0
 11
332.0
 21
434.9
 31
0.0
  0
ARC
  5
D14E
330
CD74
100
AcDbEntity
  8
1
  6
Continuous
100
AcDbCircle
 10
326.75
 20
433.4812499999999
 30
0.0
 40
2.38125
100
AcDbArc
 50
13.81839
 51
36.569721
  0
ARC
  5
D14F
330
CD74
100
AcDbEntity
  8
1
  6
Continuous
100
AcDbCircle
 10
326.75
 20
433.4812499999999
 30
0.0
 40
2.38125
100
AcDbArc
 50
143.430279
 51
166.18161
  0
LINE
  5
D150
330
CD74
100
AcDbEntity
  8
1
  6
Continuous
100
AcDbLine
 10
321.4999999999998
 20
433.55
 30
0.0
 11
321.4999999999998
 21
434.9
 31
0.0
  0
LINE
  5
D151
330
CD74
100
AcDbEntity
  8
1
  6
Continuous
100
AcDbLine
 10
637.0
 20
195.8499999999999
 30
0.0
 11
647.5
 21
195.8499999999999
 31
0.0
  0
LINE
  5
D152
330
CD74
100
AcDbEntity
  8
1
  6
Continuous
100
AcDbLine
 10
637.0
 20
196.3499999999999
 30
0.0
 11
647.5
 21
196.3499999999999
 31
0.0
  0
ARC
  5
D153
330
CD74
100
AcDbEntity
  8
1
  6
Continuous
100
AcDbCircle
 10
642.25
 20
196.4187499999999
 30
0.0
 40
2.38125
100
AcDbArc
 50
158.3347039999999
 51
181.6544389999999
  0
ARC
  5
D154
330
CD74
100
AcDbEntity
  8
1
  6
Continuous
100
AcDbCircle
 10
642.25
 20
196.4187499999999
 30
0.0
 40
2.38125
100
AcDbArc
 50
193.81839
 51
216.5697209999999
  0
LINE
  5
D155
330
CD74
100
AcDbEntity
  8
1
  6
Continuous
100
AcDbLine
 10
637.0
 20
196.3499999999999
 30
0.0
 11
637.0
 21
195.0
 31
0.0
  0
LINE
  5
D156
330
CD74
100
AcDbEntity
  8
1
  6
Continuous
100
AcDbLine
 10
660.0
 20
196.3499999999999
 30
0.0
 11
660.0
 21
195.0
 31
0.0
  0
ARC
  5
D157
330
CD74
100
AcDbEntity
  8
1
  6
Continuous
100
AcDbCircle
 10
654.75
 20
196.4187499999999
 30
0.0
 40
2.38125
100
AcDbArc
 50
158.3347039999999
 51
181.6544389999999
  0
ARC
  5
D158
330
CD74
100
AcDbEntity
  8
1
  6
Continuous
100
AcDbCircle
 10
654.75
 20
196.4187499999999
 30
0.0
 40
2.38125
100
AcDbArc
 50
358.3455609999999
 51
21.665296
  0
LINE
  5
D159
330
CD74
100
AcDbEntity
  8
1
  6
Continuous
100
AcDbLine
 10
649.5
 20
196.3499999999999
 30
0.0
 11
649.5
 21
195.0
 31
0.0
  0
ARC
  5
D15A
330
CD74
100
AcDbEntity
  8
1
  6
Continuous
100
AcDbCircle
 10
654.75
 20
196.4187499999999
 30
0.0
 40
2.38125
100
AcDbArc
 50
193.81839
 51
216.5697209999999
  0
ARC
  5
D15B
330
CD74
100
AcDbEntity
  8
1
  6
Continuous
100
AcDbCircle
 10
654.75
 20
196.4187499999999
 30
0.0
 40
2.38125
100
AcDbArc
 50
323.430279
 51
346.18161
  0
LINE
  5
D15C
330
CD74
100
AcDbEntity
  8
1
  6
Continuous
100
AcDbLine
 10
649.5
 20
196.3499999999999
 30
0.0
 11
660.0
 21
196.3499999999999
 31
0.0
  0
LINE
  5
D15D
330
CD74
100
AcDbEntity
  8
1
  6
Continuous
100
AcDbLine
 10
649.5
 20
195.8499999999999
 30
0.0
 11
660.0
 21
195.8499999999999
 31
0.0
  0
ARC
  5
D15E
330
CD74
100
AcDbEntity
  8
1
  6
Continuous
100
AcDbCircle
 10
642.25
 20
196.4187499999999
 30
0.0
 40
2.38125
100
AcDbArc
 50
358.3455609999999
 51
21.665296
  0
ARC
  5
D15F
330
CD74
100
AcDbEntity
  8
1
  6
Continuous
100
AcDbCircle
 10
642.25
 20
196.4187499999999
 30
0.0
 40
2.38125
100
AcDbArc
 50
323.430279
 51
346.18161
  0
LINE
  5
D160
330
CD74
100
AcDbEntity
  8
1
  6
Continuous
100
AcDbLine
 10
647.5
 20
196.3499999999999
 30
0.0
 11
647.5
 21
195.0
 31
0.0
  0
LINE
  5
D161
330
CD74
100
AcDbEntity
  8
1
  6
Continuous
100
AcDbLine
 10
637.0
 20
169.15
 30
0.0
 11
647.5
 21
169.15
 31
0.0
  0
LINE
  5
D162
330
CD74
100
AcDbEntity
  8
1
  6
Continuous
100
AcDbLine
 10
637.0
 20
169.65
 30
0.0
 11
647.5
 21
169.65
 31
0.0
  0
LINE
  5
D163
330
CD74
100
AcDbEntity
  8
1
  6
Continuous
100
AcDbLine
 10
637.0
 20
169.15
 30
0.0
 11
637.0
 21
170.5
 31
0.0
  0
ARC
  5
D164
330
CD74
100
AcDbEntity
  8
1
  6
Continuous
100
AcDbCircle
 10
642.25
 20
169.08125
 30
0.0
 40
2.38125
100
AcDbArc
 50
178.345561
 51
201.6652959999999
  0
ARC
  5
D165
330
CD74
100
AcDbEntity
  8
1
  6
Continuous
100
AcDbCircle
 10
642.25
 20
169.08125
 30
0.0
 40
2.38125
100
AcDbArc
 50
143.430279
 51
166.18161
  0
LINE
  5
D166
330
CD74
100
AcDbEntity
  8
1
  6
Continuous
100
AcDbLine
 10
647.5
 20
169.15
 30
0.0
 11
647.5
 21
170.5
 31
0.0
  0
LINE
  5
D167
330
CD74
100
AcDbEntity
  8
1
  6
Continuous
100
AcDbLine
 10
649.5
 20
169.15
 30
0.0
 11
649.5
 21
170.5
 31
0.0
  0
LINE
  5
D168
330
CD74
100
AcDbEntity
  8
1
  6
Continuous
100
AcDbLine
 10
660.0
 20
169.15
 30
0.0
 11
660.0
 21
170.5
 31
0.0
  0
LINE
  5
D169
330
CD74
100
AcDbEntity
  8
1
  6
Continuous
100
AcDbLine
 10
649.5
 20
169.15
 30
0.0
 11
660.0
 21
169.15
 31
0.0
  0
ARC
  5
D16A
330
CD74
100
AcDbEntity
  8
1
  6
Continuous
100
AcDbCircle
 10
654.75
 20
169.08125
 30
0.0
 40
2.38125
100
AcDbArc
 50
338.3347039999998
 51
1.654438999999999
  0
ARC
  5
D16B
330
CD74
100
AcDbEntity
  8
1
  6
Continuous
100
AcDbCircle
 10
654.75
 20
169.08125
 30
0.0
 40
2.38125
100
AcDbArc
 50
178.345561
 51
201.6652959999999
  0
ARC
  5
D16C
330
CD74
100
AcDbEntity
  8
1
  6
Continuous
100
AcDbCircle
 10
642.25
 20
169.08125
 30
0.0
 40
2.38125
100
AcDbArc
 50
338.3347039999998
 51
1.654438999999999
  0
LINE
  5
D16D
330
CD74
100
AcDbEntity
  8
1
  6
Continuous
100
AcDbLine
 10
649.5
 20
169.65
 30
0.0
 11
660.0
 21
169.65
 31
0.0
  0
ARC
  5
D16E
330
CD74
100
AcDbEntity
  8
1
  6
Continuous
100
AcDbCircle
 10
654.75
 20
169.08125
 30
0.0
 40
2.38125
100
AcDbArc
 50
13.81839
 51
36.569721
  0
ARC
  5
D16F
330
CD74
100
AcDbEntity
  8
1
  6
Continuous
100
AcDbCircle
 10
654.75
 20
169.08125
 30
0.0
 40
2.38125
100
AcDbArc
 50
143.430279
 51
166.18161
  0
ARC
  5
D170
330
CD74
100
AcDbEntity
  8
1
  6
Continuous
100
AcDbCircle
 10
642.25
 20
169.08125
 30
0.0
 40
2.38125
100
AcDbArc
 50
13.81839
 51
36.569721
  0
ENDSEC
  0
SECTION
  2
OBJECTS
  0
DICTIONARY
  5
CD62
330
0
100
AcDbDictionary
281
     1
  3
ACAD_CIP_PREVIOUS_PRODUCT_INFO
350
D1D0
  3
ACAD_COLOR
350
D1B2
  3
ACAD_DETAILVIEWSTYLE
350
D1CB
  3
ACAD_GROUP
350
CD63
  3
ACAD_LAYOUT
350
CD6F
  3
ACAD_MATERIAL
350
D180
  3
ACAD_MLEADERSTYLE
350
D1C7
  3
ACAD_MLINESTYLE
350
CD6C
  3
ACAD_PLOTSETTINGS
350
CD6E
  3
ACAD_PLOTSTYLENAME
350
D17E
  3
ACAD_SCALELIST
350
D1B5
  3
ACAD_SECTIONVIEWSTYLE
350
D1C9
  3
ACAD_TABLESTYLE
350
D1B3
  3
ACAD_VISUALSTYLE
350
D199
  3
ACDB_RECOMPOSE_DATA
350
D1EE
  3
AcDbVariableDictionary
350
D1E1
  3
DWGPROPS
350
D1EF
  0
DICTIONARY
  5
D1D1
330
CD66
100
AcDbDictionary
280
     1
281
     1
  3
ADSK_XREC_LAYER_RECONCILED
360
D1D2
  0
DICTIONARY
  5
D1D3
330
CD7C
100
AcDbDictionary
280
     1
281
     1
  3
ADSK_XREC_LAYER_RECONCILED
360
D1D4
  0
DICTIONARY
  5
D1D5
330
CD7D
100
AcDbDictionary
280
     1
281
     1
  3
ADSK_XREC_LAYER_RECONCILED
360
D1D6
  0
DICTIONARY
  5
D1D7
330
CD7E
100
AcDbDictionary
280
     1
281
     1
  3
ADSK_XREC_LAYER_RECONCILED
360
D1D8
  0
DICTIONARY
  5
D1D9
330
CD7F
100
AcDbDictionary
280
     1
281
     1
  3
ADSK_XREC_LAYER_RECONCILED
360
D1DA
  0
DICTIONARY
  5
D1DB
330
CD80
100
AcDbDictionary
280
     1
281
     1
  3
ADSK_XREC_LAYER_RECONCILED
360
D1DC
  0
DICTIONARY
  5
D1DD
330
CD81
100
AcDbDictionary
280
     1
281
     1
  3
ADSK_XREC_LAYER_RECONCILED
360
D1DE
  0
DICTIONARY
  5
D1DF
330
CD82
100
AcDbDictionary
280
     1
281
     1
  3
ADSK_XREC_LAYER_RECONCILED
360
D1E0
  0
DICTIONARY
  5
D179
330
CD74
100
AcDbDictionary
281
     1
  3
ACAD_LAYOUTSELFREF
350
D17A
  0
DICTIONARY
  5
D177
330
CD70
100
AcDbDictionary
281
     1
  3
ACAD_LAYOUTSELFREF
350
D178
  0
XRECORD
  5
D1D0
102
{ACAD_REACTORS
330
CD62
102
}
330
CD62
100
AcDbXrecord
280
     1
300
ACDLT
300
2014
300
ACDLT_F_S
  0
DICTIONARY
  5
D1B2
102
{ACAD_REACTORS
330
CD62
102
}
330
CD62
100
AcDbDictionary
281
     1
  0
DICTIONARY
  5
D1CB
102
{ACAD_REACTORS
330
CD62
102
}
330
CD62
100
AcDbDictionary
281
     1
  3
Imperial24
350
D1CC
  0
DICTIONARY
  5
CD63
102
{ACAD_REACTORS
330
CD62
102
}
330
CD62
100
AcDbDictionary
281
     1
  0
DICTIONARY
  5
CD6F
102
{ACAD_REACTORS
330
CD62
102
}
330
CD62
100
AcDbDictionary
281
     1
  3
Model
350
D1CD
  3
レイアウト1
350
D1CE
  0
DICTIONARY
  5
D180
102
{ACAD_REACTORS
330
CD62
102
}
330
CD62
100
AcDbDictionary
281
     1
  3
ByBlock
350
D189
  3
ByLayer
350
D181
  3
Global
350
D191
  0
DICTIONARY
  5
D1C7
102
{ACAD_REACTORS
330
CD62
102
}
330
CD62
100
AcDbDictionary
281
     1
  3
Standard
350
D1C8
  0
DICTIONARY
  5
CD6C
102
{ACAD_REACTORS
330
CD62
102
}
330
CD62
100
AcDbDictionary
281
     1
  3
STANDARD
350
CD6D
  0
DICTIONARY
  5
CD6E
102
{ACAD_REACTORS
330
CD62
102
}
330
CD62
100
AcDbDictionary
281
     1
  0
ACDBDICTIONARYWDFLT
  5
D17E
102
{ACAD_REACTORS
330
CD62
102
}
330
CD62
100
AcDbDictionary
281
     1
  3
Normal
350
D17F
100
AcDbDictionaryWithDefault
340
D17F
  0
DICTIONARY
  5
D1B5
102
{ACAD_REACTORS
330
CD62
102
}
330
CD62
100
AcDbDictionary
281
     1
  3
A0
350
D1B6
  3
A1
350
D1B7
  3
A2
350
D1B8
  3
A3
350
D1B9
  3
A4
350
D1BA
  3
A5
350
D1BB
  3
A6
350
D1BC
  3
A7
350
D1BD
  3
A8
350
D1BE
  3
A9
350
D1BF
  3
B0
350
D1C0
  3
B1
350
D1C1
  3
B2
350
D1C2
  3
B3
350
D1C3
  3
B4
350
D1C4
  3
B5
350
D1C5
  3
B6
350
D1C6
  0
DICTIONARY
  5
D1C9
102
{ACAD_REACTORS
330
CD62
102
}
330
CD62
100
AcDbDictionary
281
     1
  3
Imperial24
350
D1CA
  0
DICTIONARY
  5
D1B3
102
{ACAD_REACTORS
330
CD62
102
}
330
CD62
100
AcDbDictionary
281
     1
  3
Standard
350
D1B4
  0
DICTIONARY
  5
D199
102
{ACAD_REACTORS
330
CD62
102
}
330
CD62
100
AcDbDictionary
281
     1
  3
2dWireframe
350
D19F
  3
Basic
350
D19E
  3
Brighten
350
D1A5
  3
ColorChange
350
D1A9
  3
Conceptual
350
D1A2
  3
Dim
350
D1A4
  3
EdgeColorOff
350
D1B1
  3
Facepattern
350
D1A8
  3
Flat
350
D19A
  3
FlatWithEdges
350
D19B
  3
Gouraud
350
D19C
  3
GouraudWithEdges
350
D19D
  3
Hidden
350
D1A1
  3
JitterOff
350
D1AF
  3
Linepattern
350
D1A7
  3
OverhangOff
350
D1B0
  3
Realistic
350
D1A3
  3
Shaded
350
D1AE
  3
Shaded with edges
350
D1AD
  3
Shades of Gray
350
D1AA
  3
Sketchy
350
D1AB
  3
Thicken
350
D1A6
  3
Wireframe
350
D1A0
  3
X-Ray
350
D1AC
  0
XRECORD
  5
D1EE
102
{ACAD_REACTORS
330
CD62
102
}
330
CD62
100
AcDbXrecord
280
     1
 90
        1
330
D1B4
  0
DICTIONARY
  5
D1E1
102
{ACAD_REACTORS
330
CD62
102
}
330
CD62
100
AcDbDictionary
281
     1
  3
CANNOSCALE
350
D1E6
  3
CMLEADERSTYLE
350
D1E3
  3
CTABLESTYLE
350
D1E2
  3
CVIEWDETAILSTYLE
350
D1E4
  3
CVIEWSECTIONSTYLE
350
D1E5
  3
DIMASSOC
350
D1E9
  3
INDEXCTL
350
D1E8
  3
SORTENTS
350
D1E7
  3
XCLIPFRAME
350
D1EA
  0
XRECORD
  5
D1EF
102
{ACAD_REACTORS
330
CD62
102
}
330
CD62
100
AcDbXrecord
280
     1
  1
DWGPROPS COOKIE
  2

  3

  4

  6

  7

  8
Yoshitsune
  9

300
=
301
=
302
=
303
=
304
=
305
=
306
=
307
=
308
=
309
=
 40
0.0000124421296296
 41
2451233.360665278
 42
2457192.659523322
  1

 90
        0
  0
XRECORD
  5
D1D2
102
{ACAD_REACTORS
330
D1D1
102
}
330
D1D1
100
AcDbXrecord
280
     1
290
     1
  0
XRECORD
  5
D1D4
102
{ACAD_REACTORS
330
D1D3
102
}
330
D1D3
100
AcDbXrecord
280
     1
290
     1
  0
XRECORD
  5
D1D6
102
{ACAD_REACTORS
330
D1D5
102
}
330
D1D5
100
AcDbXrecord
280
     1
290
     1
  0
XRECORD
  5
D1D8
102
{ACAD_REACTORS
330
D1D7
102
}
330
D1D7
100
AcDbXrecord
280
     1
290
     1
  0
XRECORD
  5
D1DA
102
{ACAD_REACTORS
330
D1D9
102
}
330
D1D9
100
AcDbXrecord
280
     1
290
     1
  0
XRECORD
  5
D1DC
102
{ACAD_REACTORS
330
D1DB
102
}
330
D1DB
100
AcDbXrecord
280
     1
290
     1
  0
XRECORD
  5
D1DE
102
{ACAD_REACTORS
330
D1DD
102
}
330
D1DD
100
AcDbXrecord
280
     1
290
     1
  0
XRECORD
  5
D1E0
102
{ACAD_REACTORS
330
D1DF
102
}
330
D1DF
100
AcDbXrecord
280
     1
290
     1
  0
XRECORD
  5
D17A
102
{ACAD_REACTORS
330
D179
102
}
330
D179
100
AcDbXrecord
280
     1
340
CD74
  0
XRECORD
  5
D178
102
{ACAD_REACTORS
330
D177
102
}
330
D177
100
AcDbXrecord
280
     1
340
CD70
  0
ACDBDETAILVIEWSTYLE
  5
D1CC
102
{ACAD_XDICTIONARY
360
D227
102
}
102
{ACAD_REACTORS
330
D1CB
102
}
330
D1CB
100
AcDbModelDocViewStyle
 70
     0
  3
Imperial24
290
     0
100
AcDbDetailViewStyle
 70
     0
 71
     0
 90
        3
 71
     1
340
CD67
 40
0.24
340
0
 40
0.24
300

 40
0.36
280
     3
 71
     2
340
CD6B
 90
       25
 71
     3
340
CD67
 40
0.24
 90
        1
 40
0.75
 90
        1
300
%<\AcVar ViewType \f "%tc1">% %<\AcVar ViewDetailId>%\PSCALE %<\AcVar ViewScale \f "%sn">%
 71
     4
340
CD6B
 90
       25
340
CD6B
 90
       25
280
     0
  0
LAYOUT
  5
D1CD
102
{ACAD_XDICTIONARY
360
D229
102
}
102
{ACAD_REACTORS
330
CD6F
102
}
330
CD6F
100
AcDbPlotSettings
  1

  2
Canon LBP9100C
  4

  6

 40
0.0
 41
0.0
 42
0.0
 43
0.0
 44
0.0
 45
0.0
 46
0.0
 47
0.0
 48
0.0
 49
0.0
140
0.0
141
0.0
142
1.0
143
1.0
 70
  1712
 72
     0
 73
     0
 74
     0
  7

 75
     0
147
1.0
148
0.0
149
0.0
100
AcDbLayout
  1
Model
 70
     1
 71
     0
 10
0.0
 20
0.0
 11
12.0
 21
9.0
 12
0.0
 22
0.0
 32
0.0
 14
0.0
 24
0.0
 34
0.0
 15
0.0
 25
0.0
 35
0.0
146
0.0
 13
0.0
 23
0.0
 33
0.0
 16
1.0
 26
0.0
 36
0.0
 17
0.0
 27
1.0
 37
0.0
 76
     0
330
CD74
331
D176
  0
LAYOUT
  5
D1CE
102
{ACAD_XDICTIONARY
360
D22B
102
}
102
{ACAD_REACTORS
330
CD6F
102
}
330
CD6F
100
AcDbPlotSettings
  1

  2
Canon LBP9100C
  4

  6

 40
0.0
 41
0.0
 42
0.0
 43
0.0
 44
0.0
 45
0.0
 46
0.0
 47
0.0
 48
0.0
 49
0.0
140
0.0
141
0.0
142
1.0
143
1.0
 70
   688
 72
     0
 73
     0
 74
     5
  7

 75
    16
147
1.0
148
0.0
149
0.0
100
AcDbLayout
  1
レイアウト1
 70
     0
 71
     1
 10
0.0
 20
0.0
 11
420.0
 21
297.0
 12
0.0
 22
0.0
 32
0.0
 14
1.000000000000000E+20
 24
1.000000000000000E+20
 34
1.000000000000000E+20
 15
-1.000000000000000E+20
 25
-1.000000000000000E+20
 35
-1.000000000000000E+20
146
0.0
 13
0.0
 23
0.0
 33
0.0
 16
1.0
 26
0.0
 36
0.0
 17
0.0
 27
1.0
 37
0.0
 76
     0
330
CD70
  0
MATERIAL
  5
D189
102
{ACAD_XDICTIONARY
360
D18A
102
}
102
{ACAD_REACTORS
330
D180
102
}
330
D180
100
AcDbMaterial
  1
ByBlock
 72
     0
 43
0.0208333333333333
 43
0.0
 43
0.0
 43
0.0
 43
0.0
 43
0.0208333333333333
 43
0.0
 43
0.0
 43
0.0
 43
0.0
 43
1.0
 43
0.0
 43
0.0
 43
0.0
 43
0.0
 43
1.0
 77
     0
 47
0.0208333333333333
 47
0.0
 47
0.0
 47
0.0
 47
0.0
 47
0.0208333333333333
 47
0.0
 47
0.0
 47
0.0
 47
0.0
 47
1.0
 47
0.0
 47
0.0
 47
0.0
 47
0.0
 47
1.0
171
     0
 49
0.0208333333333333
 49
0.0
 49
0.0
 49
0.0
 49
0.0
 49
0.0208333333333333
 49
0.0
 49
0.0
 49
0.0
 49
0.0
 49
1.0
 49
0.0
 49
0.0
 49
0.0
 49
0.0
 49
1.0
175
     0
142
0.0208333333333333
142
0.0
142
0.0
142
0.0
142
0.0
142
0.0208333333333333
142
0.0
142
0.0
142
0.0
142
0.0
142
1.0
142
0.0
142
0.0
142
0.0
142
0.0
142
1.0
179
     0
144
0.0208333333333333
144
0.0
144
0.0
144
0.0
144
0.0
144
0.0208333333333333
144
0.0
144
0.0
144
0.0
144
0.0
144
1.0
144
0.0
144
0.0
144
0.0
144
0.0
144
1.0
147
0.0208333333333333
147
0.0
147
0.0
147
0.0
147
0.0
147
0.0208333333333333
147
0.0
147
0.0
147
0.0
147
0.0
147
1.0
147
0.0
147
0.0
147
0.0
147
0.0
147
1.0
  0
MATERIAL
  5
D181
102
{ACAD_XDICTIONARY
360
D182
102
}
102
{ACAD_REACTORS
330
D180
102
}
330
D180
100
AcDbMaterial
  1
ByLayer
 72
     0
 43
0.0208333333333333
 43
0.0
 43
0.0
 43
0.0
 43
0.0
 43
0.0208333333333333
 43
0.0
 43
0.0
 43
0.0
 43
0.0
 43
1.0
 43
0.0
 43
0.0
 43
0.0
 43
0.0
 43
1.0
 77
     0
 47
0.0208333333333333
 47
0.0
 47
0.0
 47
0.0
 47
0.0
 47
0.0208333333333333
 47
0.0
 47
0.0
 47
0.0
 47
0.0
 47
1.0
 47
0.0
 47
0.0
 47
0.0
 47
0.0
 47
1.0
171
     0
 49
0.0208333333333333
 49
0.0
 49
0.0
 49
0.0
 49
0.0
 49
0.0208333333333333
 49
0.0
 49
0.0
 49
0.0
 49
0.0
 49
1.0
 49
0.0
 49
0.0
 49
0.0
 49
0.0
 49
1.0
175
     0
142
0.0208333333333333
142
0.0
142
0.0
142
0.0
142
0.0
142
0.0208333333333333
142
0.0
142
0.0
142
0.0
142
0.0
142
1.0
142
0.0
142
0.0
142
0.0
142
0.0
142
1.0
179
     0
144
0.0208333333333333
144
0.0
144
0.0
144
0.0
144
0.0
144
0.0208333333333333
144
0.0
144
0.0
144
0.0
144
0.0
144
1.0
144
0.0
144
0.0
144
0.0
144
0.0
144
1.0
147
0.0208333333333333
147
0.0
147
0.0
147
0.0
147
0.0
147
0.0208333333333333
147
0.0
147
0.0
147
0.0
147
0.0
147
1.0
147
0.0
147
0.0
147
0.0
147
0.0
147
1.0
  0
MATERIAL
  5
D191
102
{ACAD_XDICTIONARY
360
D192
102
}
102
{ACAD_REACTORS
330
D180
102
}
330
D180
100
AcDbMaterial
  1
Global
 72
     0
 43
0.0208333333333333
 43
0.0
 43
0.0
 43
0.0
 43
0.0
 43
0.0208333333333333
 43
0.0
 43
0.0
 43
0.0
 43
0.0
 43
1.0
 43
0.0
 43
0.0
 43
0.0
 43
0.0
 43
1.0
 77
     0
 47
0.0208333333333333
 47
0.0
 47
0.0
 47
0.0
 47
0.0
 47
0.0208333333333333
 47
0.0
 47
0.0
 47
0.0
 47
0.0
 47
1.0
 47
0.0
 47
0.0
 47
0.0
 47
0.0
 47
1.0
171
     0
 49
0.0208333333333333
 49
0.0
 49
0.0
 49
0.0
 49
0.0
 49
0.0208333333333333
 49
0.0
 49
0.0
 49
0.0
 49
0.0
 49
1.0
 49
0.0
 49
0.0
 49
0.0
 49
0.0
 49
1.0
175
     0
142
0.0208333333333333
142
0.0
142
0.0
142
0.0
142
0.0
142
0.0208333333333333
142
0.0
142
0.0
142
0.0
142
0.0
142
1.0
142
0.0
142
0.0
142
0.0
142
0.0
142
1.0
179
     0
144
0.0208333333333333
144
0.0
144
0.0
144
0.0
144
0.0
144
0.0208333333333333
144
0.0
144
0.0
144
0.0
144
0.0
144
1.0
144
0.0
144
0.0
144
0.0
144
0.0
144
1.0
147
0.0208333333333333
147
0.0
147
0.0
147
0.0
147
0.0
147
0.0208333333333333
147
0.0
147
0.0
147
0.0
147
0.0
147
1.0
147
0.0
147
0.0
147
0.0
147
0.0
147
1.0
  0
MLEADERSTYLE
  5
D1C8
102
{ACAD_REACTORS
330
D1C7
102
}
330
D1C7
100
AcDbMLeaderStyle
170
     2
171
     1
172
     0
 90
        2
 40
0.0
 41
0.0
173
     1
 91
-1056964608
340
CD69
 92
       -2
290
     1
 42
0.09
291
     1
 43
0.36
  3
Standard
 44
0.18
300

342
CD67
174
     1
178
     6
175
     1
176
     0
 93
-1056964608
 45
0.18
292
     0
297
     0
 46
0.18
 94
-1056964608
 47
1.0
 49
1.0
140
1.0
293
     1
141
0.0
294
     1
177
     0
142
1.0
295
     0
296
     0
143
0.125
1001
ACAD_MLEADERVER
1070
     2
  0
MLINESTYLE
  5
CD6D
102
{ACAD_REACTORS
330
CD6C
102
}
330
CD6C
100
AcDbMlineStyle
  2
STANDARD
 70
     0
  3

 62
   256
 51
90.0
 52
90.0
 71
     2
 49
0.5
 62
   256
  6
BYLAYER
 49
-0.5
 62
   256
  6
BYLAYER
  0
ACDBPLACEHOLDER
  5
D17F
102
{ACAD_REACTORS
330
D17E
102
}
330
D17E
  0
SCALE
  5
D1B6
102
{ACAD_REACTORS
330
D1B5
102
}
330
D1B5
100
AcDbScale
 70
     0
300
1:1
140
1.0
141
1.0
290
     1
  0
SCALE
  5
D1B7
102
{ACAD_REACTORS
330
D1B5
102
}
330
D1B5
100
AcDbScale
 70
     0
300
1/128" = 1'-0"
140
0.0078125
141
12.0
290
     0
  0
SCALE
  5
D1B8
102
{ACAD_REACTORS
330
D1B5
102
}
330
D1B5
100
AcDbScale
 70
     0
300
1/64" = 1'-0"
140
0.015625
141
12.0
290
     0
  0
SCALE
  5
D1B9
102
{ACAD_REACTORS
330
D1B5
102
}
330
D1B5
100
AcDbScale
 70
     0
300
1/32" = 1'-0"
140
0.03125
141
12.0
290
     0
  0
SCALE
  5
D1BA
102
{ACAD_REACTORS
330
D1B5
102
}
330
D1B5
100
AcDbScale
 70
     0
300
1/16" = 1'-0"
140
0.0625
141
12.0
290
     0
  0
SCALE
  5
D1BB
102
{ACAD_REACTORS
330
D1B5
102
}
330
D1B5
100
AcDbScale
 70
     0
300
3/32" = 1'-0"
140
0.09375
141
12.0
290
     0
  0
SCALE
  5
D1BC
102
{ACAD_REACTORS
330
D1B5
102
}
330
D1B5
100
AcDbScale
 70
     0
300
1/8" = 1'-0"
140
0.125
141
12.0
290
     0
  0
SCALE
  5
D1BD
102
{ACAD_REACTORS
330
D1B5
102
}
330
D1B5
100
AcDbScale
 70
     0
300
3/16" = 1'-0"
140
0.1875
141
12.0
290
     0
  0
SCALE
  5
D1BE
102
{ACAD_REACTORS
330
D1B5
102
}
330
D1B5
100
AcDbScale
 70
     0
300
1/4" = 1'-0"
140
0.25
141
12.0
290
     0
  0
SCALE
  5
D1BF
102
{ACAD_REACTORS
330
D1B5
102
}
330
D1B5
100
AcDbScale
 70
     0
300
3/8" = 1'-0"
140
0.375
141
12.0
290
     0
  0
SCALE
  5
D1C0
102
{ACAD_REACTORS
330
D1B5
102
}
330
D1B5
100
AcDbScale
 70
     0
300
1/2" = 1'-0"
140
0.5
141
12.0
290
     0
  0
SCALE
  5
D1C1
102
{ACAD_REACTORS
330
D1B5
102
}
330
D1B5
100
AcDbScale
 70
     0
300
3/4" = 1'-0"
140
0.75
141
12.0
290
     0
  0
SCALE
  5
D1C2
102
{ACAD_REACTORS
330
D1B5
102
}
330
D1B5
100
AcDbScale
 70
     0
300
1" = 1'-0"
140
1.0
141
12.0
290
     0
  0
SCALE
  5
D1C3
102
{ACAD_REACTORS
330
D1B5
102
}
330
D1B5
100
AcDbScale
 70
     0
300
1-1/2" = 1'-0"
140
1.5
141
12.0
290
     0
  0
SCALE
  5
D1C4
102
{ACAD_REACTORS
330
D1B5
102
}
330
D1B5
100
AcDbScale
 70
     0
300
3" = 1'-0"
140
3.0
141
12.0
290
     0
  0
SCALE
  5
D1C5
102
{ACAD_REACTORS
330
D1B5
102
}
330
D1B5
100
AcDbScale
 70
     0
300
6" = 1'-0"
140
6.0
141
12.0
290
     0
  0
SCALE
  5
D1C6
102
{ACAD_REACTORS
330
D1B5
102
}
330
D1B5
100
AcDbScale
 70
     0
300
1'-0" = 1'-0"
140
12.0
141
12.0
290
     0
  0
ACDBSECTIONVIEWSTYLE
  5
D1CA
102
{ACAD_XDICTIONARY
360
D225
102
}
102
{ACAD_REACTORS
330
D1C9
102
}
330
D1C9
100
AcDbModelDocViewStyle
 70
     0
  3
Imperial24
290
     0
100
AcDbSectionViewStyle
 70
     0
 71
     0
 90
       78
 71
     1
340
CD67
 40
0.24
340
0
340
0
 40
0.24
300
I, O, Q, S, X, Z
 40
0.48
 90
        3
 40
0.18
 90
        1
 71
     2
340
CD6B
 90
       25
340
CD6B
 90
       50
 40
0.24
 40
0.0
 40
0.24
 71
     3
340
CD67
 40
0.24
 90
        1
 40
0.75
 90
        1
300
%<\AcVar ViewType \f "%tc1">% %<\AcVar ViewSectionStartId>%-%<\AcVar ViewSectionEndId>%\PSCALE %<\AcVar ViewScale \f "%sn">%
 71
     4
300
ANSI31
 40
1.0
 90
        0
290
     0
290
     0
 90
        6
 40
0.0
 40
1.570796326794896
 40
0.2617993877991494
 40
1.308996938995747
 40
-0.2617993877991494
 40
1.832595714594046
  0
TABLESTYLE
  5
D1B4
102
{ACAD_XDICTIONARY
360
D1EC
102
}
102
{ACAD_REACTORS
330
D1B3
102
}
330
D1B3
100
AcDbTableStyle
  3
Standard
 70
     0
 71
     0
 40
0.06
 41
0.06
280
     0
281
     0
  7
STANDARD
140
0.18
170
     2
 62
     0
 63
     7
283
     0
274
    -2
284
     1
 64
     0
275
    -2
285
     1
 65
     0
276
    -2
286
     1
 66
     0
277
    -2
287
     1
 67
     0
278
    -2
288
     1
 68
     0
279
    -2
289
     1
 69
     0
  7
STANDARD
140
0.25
170
     5
 62
     0
 63
     7
283
     0
274
    -2
284
     1
 64
     0
275
    -2
285
     1
 65
     0
276
    -2
286
     1
 66
     0
277
    -2
287
     1
 67
     0
278
    -2
288
     1
 68
     0
279
    -2
289
     1
 69
     0
  7
STANDARD
140
0.18
170
     5
 62
     0
 63
     7
283
     0
274
    -2
284
     1
 64
     0
275
    -2
285
     1
 65
     0
276
    -2
286
     1
 66
     0
277
    -2
287
     1
 67
     0
278
    -2
288
     1
 68
     0
279
    -2
289
     1
 69
     0
  0
VISUALSTYLE
  5
D19F
102
{ACAD_XDICTIONARY
360
D1FD
102
}
102
{ACAD_REACTORS
330
D199
102
}
330
D199
100
AcDbVisualStyle
  2
2dWireframe
 70
     4
 71
     0
 72
     2
 73
     0
 90
        0
 40
-0.6
 41
-30.0
 62
     5
 63
     7
 74
     1
 91
        4
 64
     7
 65
   257
 75
     1
175
     1
 42
1.0
 92
        0
 66
   257
 43
1.0
 76
     1
 77
     6
 78
     2
 67
     7
 79
     5
170
     0
171
     0
290
     0
174
     0
 93
        1
 44
0.0
173
     0
291
     0
 45
0.0
1001
ACAD
1000
AcDbSavedByObjectVersion
1070
     0
  0
VISUALSTYLE
  5
D19E
102
{ACAD_XDICTIONARY
360
D1FB
102
}
102
{ACAD_REACTORS
330
D199
102
}
330
D199
100
AcDbVisualStyle
  2
Basic
 70
     7
 71
     1
 72
     0
 73
     1
 90
        0
 40
-0.6
 41
-30.0
 62
     5
 63
     7
 74
     0
 91
        4
 64
     7
 65
   257
 75
     1
175
     1
 42
1.0
 92
        8
 66
     7
 43
1.0
 76
     1
 77
     6
 78
     2
 67
     7
 79
     5
170
     0
171
     0
290
     0
174
     0
 93
        1
 44
0.0
173
     0
291
     1
 45
0.0
1001
ACAD
1000
AcDbSavedByObjectVersion
1070
     0
  0
VISUALSTYLE
  5
D1A5
102
{ACAD_XDICTIONARY
360
D209
102
}
102
{ACAD_REACTORS
330
D199
102
}
330
D199
100
AcDbVisualStyle
  2
Brighten
 70
    12
 71
     2
 72
     2
 73
     0
 90
        0
 40
-0.6
 41
-30.0
 62
     5
 63
     7
 74
     1
 91
        4
 64
     7
 65
   257
 75
     1
175
     1
 42
1.0
 92
        8
 66
     7
 43
1.0
 76
     1
 77
     6
 78
     2
 67
     7
 79
     5
170
     0
171
     0
290
     0
174
     0
 93
        1
 44
50.0
173
     0
291
     1
 45
0.0
1001
ACAD
1000
AcDbSavedByObjectVersion
1070
     0
  0
VISUALSTYLE
  5
D1A9
102
{ACAD_XDICTIONARY
360
D211
102
}
102
{ACAD_REACTORS
330
D199
102
}
330
D199
100
AcDbVisualStyle
  2
ColorChange
 70
    16
 71
     2
 72
     2
 73
     3
 90
        0
 40
-0.6
 41
-30.0
 62
     5
 63
     8
 74
     1
 91
        4
 64
     7
 65
   257
 75
     1
175
     1
 42
1.0
 92
        8
 66
     8
 43
1.0
 76
     1
 77
     6
 78
     2
 67
     7
 79
     5
170
     0
171
     0
290
     0
174
     0
 93
        1
 44
0.0
173
     0
291
     1
 45
0.0
1001
ACAD
1000
AcDbSavedByObjectVersion
1070
     0
  0
VISUALSTYLE
  5
D1A2
102
{ACAD_XDICTIONARY
360
D203
102
}
102
{ACAD_REACTORS
330
D199
102
}
330
D199
100
AcDbVisualStyle
  2
Conceptual
 70
     9
 71
     3
 72
     2
 73
     0
 90
        0
 40
-0.6
 41
-30.0
 62
     5
 63
     7
 74
     2
 91
        2
 64
     7
 65
   257
 75
     1
175
     1
 42
179.0
 92
        8
 66
     7
 43
1.0
 76
     1
 77
     6
 78
     2
 67
     7
 79
     3
170
     0
171
     0
290
     0
174
     0
 93
        1
 44
0.0
173
     0
291
     0
 45
0.0
1001
ACAD
1000
AcDbSavedByObjectVersion
1070
     0
  0
VISUALSTYLE
  5
D1A4
102
{ACAD_XDICTIONARY
360
D207
102
}
102
{ACAD_REACTORS
330
D199
102
}
330
D199
100
AcDbVisualStyle
  2
Dim
 70
    11
 71
     2
 72
     2
 73
     0
 90
        0
 40
-0.6
 41
-30.0
 62
     5
 63
     7
 74
     1
 91
        4
 64
     7
 65
   257
 75
     1
175
     1
 42
1.0
 92
        8
 66
     7
 43
1.0
 76
     1
 77
     6
 78
     2
 67
     7
 79
     5
170
     0
171
     0
290
     0
174
     0
 93
        1
 44
-50.0
173
     0
291
     1
 45
0.0
1001
ACAD
1000
AcDbSavedByObjectVersion
1070
     0
  0
VISUALSTYLE
  5
D1B1
102
{ACAD_XDICTIONARY
360
D221
102
}
102
{ACAD_REACTORS
330
D199
102
}
330
D199
100
AcDbVisualStyle
  2
EdgeColorOff
 70
    22
 71
     2
 72
     2
 73
     0
 90
        0
 40
-0.6
 41
-30.0
 62
     5
 63
     7
 74
     1
 91
        4
 64
     7
 65
   257
 75
     1
175
     1
 42
1.0
 92
        8
 66
     7
 43
1.0
 76
     1
 77
     6
 78
     2
 67
     7
 79
     5
170
     0
171
     0
290
     0
174
     0
 93
        1
 44
0.0
173
     0
291
     1
 45
0.0
1001
ACAD
1000
AcDbSavedByObjectVersion
1070
     0
  0
VISUALSTYLE
  5
D1A8
102
{ACAD_XDICTIONARY
360
D20F
102
}
102
{ACAD_REACTORS
330
D199
102
}
330
D199
100
AcDbVisualStyle
  2
Facepattern
 70
    15
 71
     2
 72
     2
 73
     0
 90
        0
 40
-0.6
 41
-30.0
 62
     5
 63
     7
 74
     1
 91
        4
 64
     7
 65
   257
 75
     1
175
     1
 42
1.0
 92
        8
 66
     7
 43
1.0
 76
     1
 77
     6
 78
     2
 67
     7
 79
     5
170
     0
171
     0
290
     0
174
     0
 93
        1
 44
0.0
173
     0
291
     1
 45
0.0
1001
ACAD
1000
AcDbSavedByObjectVersion
1070
     0
  0
VISUALSTYLE
  5
D19A
102
{ACAD_XDICTIONARY
360
D1F3
102
}
102
{ACAD_REACTORS
330
D199
102
}
330
D199
100
AcDbVisualStyle
  2
Flat
 70
     0
 71
     2
 72
     1
 73
     1
 90
        2
 40
-0.6
 41
30.0
 62
     5
 63
     7
 74
     0
 91
        0
 64
     7
 65
   257
 75
     1
175
     1
 42
1.0
 92
        8
 66
     7
 43
1.0
 76
     1
 77
     6
 78
     2
 67
     7
 79
     5
170
     0
171
     0
290
     0
174
     0
 93
       13
 44
0.0
173
     0
291
     1
 45
0.0
1001
ACAD
1000
AcDbSavedByObjectVersion
1070
     0
  0
VISUALSTYLE
  5
D19B
102
{ACAD_XDICTIONARY
360
D1F5
102
}
102
{ACAD_REACTORS
330
D199
102
}
330
D199
100
AcDbVisualStyle
  2
FlatWithEdges
 70
     1
 71
     2
 72
     1
 73
     1
 90
        2
 40
-0.6
 41
30.0
 62
     5
 63
     7
 74
     1
 91
        0
 64
     7
 65
   257
 75
     1
175
     1
 42
1.0
 92
        0
 66
   257
 43
1.0
 76
     1
 77
     6
 78
     2
 67
     7
 79
     5
170
     0
171
     0
290
     0
174
     0
 93
       13
 44
0.0
173
     0
291
     1
 45
0.0
1001
ACAD
1000
AcDbSavedByObjectVersion
1070
     0
  0
VISUALSTYLE
  5
D19C
102
{ACAD_XDICTIONARY
360
D1F7
102
}
102
{ACAD_REACTORS
330
D199
102
}
330
D199
100
AcDbVisualStyle
  2
Gouraud
 70
     2
 71
     2
 72
     2
 73
     1
 90
        2
 40
-0.6
 41
30.0
 62
     5
 63
     7
 74
     0
 91
        0
 64
     7
 65
   257
 75
     1
175
     1
 42
1.0
 92
        0
 66
     7
 43
1.0
 76
     1
 77
     6
 78
     2
 67
     7
 79
     5
170
     0
171
     0
290
     0
174
     0
 93
       13
 44
0.0
173
     0
291
     1
 45
0.0
1001
ACAD
1000
AcDbSavedByObjectVersion
1070
     0
  0
VISUALSTYLE
  5
D19D
102
{ACAD_XDICTIONARY
360
D1F9
102
}
102
{ACAD_REACTORS
330
D199
102
}
330
D199
100
AcDbVisualStyle
  2
GouraudWithEdges
 70
     3
 71
     2
 72
     2
 73
     1
 90
        2
 40
-0.6
 41
30.0
 62
     5
 63
     7
 74
     1
 91
        0
 64
     7
 65
   257
 75
     1
175
     1
 42
1.0
 92
        0
 66
   257
 43
1.0
 76
     1
 77
     6
 78
     2
 67
     7
 79
     5
170
     0
171
     0
290
     0
174
     0
 93
       13
 44
0.0
173
     0
291
     1
 45
0.0
1001
ACAD
1000
AcDbSavedByObjectVersion
1070
     0
  0
VISUALSTYLE
  5
D1A1
102
{ACAD_XDICTIONARY
360
D201
102
}
102
{ACAD_REACTORS
330
D199
102
}
330
D199
100
AcDbVisualStyle
  2
Hidden
 70
     6
 71
     1
 72
     2
 73
     2
 90
        0
 40
-0.6
 41
-30.0
 62
     5
 63
     7
 74
     2
 91
        2
 64
     7
 65
   257
 75
     2
175
     1
 42
40.0
 92
        0
 66
   257
 43
1.0
 76
     1
 77
     6
 78
     2
 67
     7
 79
     3
170
     0
171
     0
290
     0
174
     0
 93
        1
 44
0.0
173
     0
291
     0
 45
0.0
1001
ACAD
1000
AcDbSavedByObjectVersion
1070
     0
  0
VISUALSTYLE
  5
D1AF
102
{ACAD_XDICTIONARY
360
D21D
102
}
102
{ACAD_REACTORS
330
D199
102
}
330
D199
100
AcDbVisualStyle
  2
JitterOff
 70
    20
 71
     2
 72
     2
 73
     0
 90
        0
 40
-0.6
 41
-30.0
 62
     5
 63
     7
 74
     1
 91
        4
 64
     7
 65
   257
 75
     1
175
     1
 42
1.0
 92
       10
 66
     7
 43
1.0
 76
     1
 77
     6
 78
     2
 67
     7
 79
     5
170
     0
171
     0
290
     0
174
     0
 93
        1
 44
0.0
173
     0
291
     1
 45
0.0
1001
ACAD
1000
AcDbSavedByObjectVersion
1070
     0
  0
VISUALSTYLE
  5
D1A7
102
{ACAD_XDICTIONARY
360
D20D
102
}
102
{ACAD_REACTORS
330
D199
102
}
330
D199
100
AcDbVisualStyle
  2
Linepattern
 70
    14
 71
     2
 72
     2
 73
     0
 90
        0
 40
-0.6
 41
-30.0
 62
     5
 63
     7
 74
     1
 91
        4
 64
     7
 65
   257
 75
     7
175
     7
 42
1.0
 92
        8
 66
     7
 43
1.0
 76
     1
 77
     6
 78
     2
 67
     7
 79
     5
170
     0
171
     0
290
     0
174
     0
 93
        1
 44
0.0
173
     0
291
     1
 45
0.0
1001
ACAD
1000
AcDbSavedByObjectVersion
1070
     0
  0
VISUALSTYLE
  5
D1B0
102
{ACAD_XDICTIONARY
360
D21F
102
}
102
{ACAD_REACTORS
330
D199
102
}
330
D199
100
AcDbVisualStyle
  2
OverhangOff
 70
    21
 71
     2
 72
     2
 73
     0
 90
        0
 40
-0.6
 41
-30.0
 62
     5
 63
     7
 74
     1
 91
        4
 64
     7
 65
   257
 75
     1
175
     1
 42
1.0
 92
        9
 66
     7
 43
1.0
 76
     1
 77
     6
 78
     2
 67
     7
 79
     5
170
     0
171
     0
290
     0
174
     0
 93
        1
 44
0.0
173
     0
291
     1
 45
0.0
1001
ACAD
1000
AcDbSavedByObjectVersion
1070
     0
  0
VISUALSTYLE
  5
D1A3
102
{ACAD_XDICTIONARY
360
D205
102
}
102
{ACAD_REACTORS
330
D199
102
}
330
D199
100
AcDbVisualStyle
  2
Realistic
 70
     8
 71
     2
 72
     3
 73
     0
 90
        2
 40
-0.6
 41
30.0
 62
     5
 63
     7
 74
     0
 91
        0
 64
     7
 65
   257
 75
     1
175
     1
 42
1.0
 92
        8
 66
   257
 43
1.0
 76
     1
 77
     6
 78
     2
 67
     7
 79
     3
170
     0
171
     0
290
     0
174
     0
 93
       13
 44
0.0
173
     0
291
     0
 45
0.0
1001
ACAD
1000
AcDbSavedByObjectVersion
1070
     0
  0
VISUALSTYLE
  5
D1AE
102
{ACAD_XDICTIONARY
360
D21B
102
}
102
{ACAD_REACTORS
330
D199
102
}
330
D199
100
AcDbVisualStyle
  2
Shaded
 70
    27
 71
     2
 72
     2
 73
     1
 90
        2
 40
-0.6
 41
30.0
 62
     5
 63
     7
 74
     0
 91
        4
 64
     7
 65
   257
 75
     1
175
     1
 42
1.0
 92
        8
 66
   257
 43
1.0
 76
     1
 77
     6
 78
     2
 67
     8
 79
     3
170
     0
171
     0
290
     0
174
     0
 93
        5
 44
0.0
173
     0
291
     0
 45
0.0
1001
ACAD
1000
AcDbSavedByObjectVersion
1070
     0
  0
VISUALSTYLE
  5
D1AD
102
{ACAD_XDICTIONARY
360
D219
102
}
102
{ACAD_REACTORS
330
D199
102
}
330
D199
100
AcDbVisualStyle
  2
Shaded with edges
 70
    26
 71
     2
 72
     2
 73
     1
 90
        2
 40
-0.6
 41
30.0
 62
     5
 63
     7
 74
     1
 91
       10
 64
     7
 65
   257
 75
     2
175
     1
 42
1.0
 92
        8
 66
   257
 43
1.0
 76
     1
 77
     6
 78
     2
 67
     7
 79
     3
170
     0
171
     0
290
     0
174
     0
 93
        5
 44
0.0
173
     0
291
     0
 45
0.0
1001
ACAD
1000
AcDbSavedByObjectVersion
1070
     0
  0
VISUALSTYLE
  5
D1AA
102
{ACAD_XDICTIONARY
360
D213
102
}
102
{ACAD_REACTORS
330
D199
102
}
330
D199
100
AcDbVisualStyle
  2
Shades of Gray
 70
    23
 71
     2
 72
     2
 73
     3
 90
        0
 40
-0.6
 41
-30.0
 62
     5
 63
     7
 74
     2
 91
        2
 64
     7
 65
     7
 75
     1
175
     1
 42
40.0
 92
        8
 66
     7
 43
1.0
 76
     1
 77
     6
 78
     2
 67
     7
 79
     3
170
     0
171
     0
290
     0
174
     0
 93
        1
 44
0.0
173
     0
291
     0
 45
0.0
1001
ACAD
1000
AcDbSavedByObjectVersion
1070
     0
  0
VISUALSTYLE
  5
D1AB
102
{ACAD_XDICTIONARY
360
D215
102
}
102
{ACAD_REACTORS
330
D199
102
}
330
D199
100
AcDbVisualStyle
  2
Sketchy
 70
    24
 71
     1
 72
     2
 73
     2
 90
        0
 40
-0.6
 41
-30.0
 62
     5
 63
     7
 74
     2
 91
        2
 64
     7
 65
     7
 75
     1
175
     1
 42
40.0
 92
       11
 66
     7
 43
1.0
 76
     1
 77
     6
 78
     2
 67
     7
 79
     6
170
     0
171
     0
290
     0
174
     0
 93
        1
 44
0.0
173
     0
291
     0
 45
0.0
1001
ACAD
1000
AcDbSavedByObjectVersion
1070
     0
  0
VISUALSTYLE
  5
D1A6
102
{ACAD_XDICTIONARY
360
D20B
102
}
102
{ACAD_REACTORS
330
D199
102
}
330
D199
100
AcDbVisualStyle
  2
Thicken
 70
    13
 71
     2
 72
     2
 73
     0
 90
        0
 40
-0.6
 41
-30.0
 62
     5
 63
     7
 74
     1
 91
        4
 64
     7
 65
   257
 75
     1
175
     1
 42
1.0
 92
       12
 66
     7
 43
1.0
 76
     1
 77
     6
 78
     2
 67
     7
 79
     5
170
     0
171
     0
290
     0
174
     0
 93
        1
 44
0.0
173
     0
291
     1
 45
0.0
1001
ACAD
1000
AcDbSavedByObjectVersion
1070
     0
  0
VISUALSTYLE
  5
D1A0
102
{ACAD_XDICTIONARY
360
D1FF
102
}
102
{ACAD_REACTORS
330
D199
102
}
330
D199
100
AcDbVisualStyle
  2
Wireframe
 70
     5
 71
     0
 72
     2
 73
     0
 90
        0
 40
-0.6
 41
-30.0
 62
     5
 63
     7
 74
     1
 91
        4
 64
     7
 65
   257
 75
     1
175
     1
 42
1.0
 92
        0
 66
   257
 43
1.0
 76
     1
 77
     6
 78
     2
 67
     7
 79
     3
170
     0
171
     0
290
     0
174
     0
 93
        1
 44
0.0
173
     0
291
     0
 45
0.0
1001
ACAD
1000
AcDbSavedByObjectVersion
1070
     0
  0
VISUALSTYLE
  5
D1AC
102
{ACAD_XDICTIONARY
360
D217
102
}
102
{ACAD_REACTORS
330
D199
102
}
330
D199
100
AcDbVisualStyle
  2
X-Ray
 70
    25
 71
     2
 72
     2
 73
     1
 90
        1
 40
0.5
 41
-30.0
 62
     5
 63
     7
 74
     1
 91
        0
 64
     7
 65
   257
 75
     1
175
     1
 42
1.0
 92
        8
 66
     7
 43
1.0
 76
     1
 77
     6
 78
     2
 67
     7
 79
     3
170
     0
171
     0
290
     0
174
     0
 93
       13
 44
0.0
173
     0
291
     0
 45
0.0
1001
ACAD
1000
AcDbSavedByObjectVersion
1070
     0
  0
DICTIONARYVAR
  5
D1E6
102
{ACAD_REACTORS
330
D1E1
102
}
330
D1E1
100
DictionaryVariables
280
     0
  1
1:1
  0
DICTIONARYVAR
  5
D1E3
102
{ACAD_REACTORS
330
D1E1
102
}
330
D1E1
100
DictionaryVariables
280
     0
  1
STANDARD
  0
DICTIONARYVAR
  5
D1E2
102
{ACAD_REACTORS
330
D1E1
102
}
330
D1E1
100
DictionaryVariables
280
     0
  1
STANDARD
  0
DICTIONARYVAR
  5
D1E4
102
{ACAD_REACTORS
330
D1E1
102
}
330
D1E1
100
DictionaryVariables
280
     0
  1
Imperial24
  0
DICTIONARYVAR
  5
D1E5
102
{ACAD_REACTORS
330
D1E1
102
}
330
D1E1
100
DictionaryVariables
280
     0
  1
Imperial24
  0
DICTIONARYVAR
  5
D1E9
102
{ACAD_REACTORS
330
D1E1
102
}
330
D1E1
100
DictionaryVariables
280
     0
  1
1
  0
DICTIONARYVAR
  5
D1E8
102
{ACAD_REACTORS
330
D1E1
102
}
330
D1E1
100
DictionaryVariables
280
     0
  1
0
  0
DICTIONARYVAR
  5
D1E7
102
{ACAD_REACTORS
330
D1E1
102
}
330
D1E1
100
DictionaryVariables
280
     0
  1
127
  0
DICTIONARYVAR
  5
D1EA
102
{ACAD_REACTORS
330
D1E1
102
}
330
D1E1
100
DictionaryVariables
280
     0
  1
2
  0
DICTIONARY
  5
D227
330
D1CC
100
AcDbDictionary
280
     1
281
     1
  3
ACAD_XREC_ROUNDTRIP
360
D228
  0
DICTIONARY
  5
D229
330
D1CD
100
AcDbDictionary
280
     1
281
     1
  3
ACAD_XREC_ROUNDTRIP
360
D22A
  0
DICTIONARY
  5
D22B
330
D1CE
100
AcDbDictionary
280
     1
281
     1
  3
ACAD_XREC_ROUNDTRIP
360
D22C
  0
DICTIONARY
  5
D18A
330
D189
100
AcDbDictionary
280
     1
281
     1
  3
ACAD_XREC_ROUNDTRIP
360
D1F1
  3
BUMPTILE
360
D18C
  3
DIFFUSETILE
360
D18B
  3
OPACITYTILE
360
D18F
  3
REFLECTIONTILE
360
D18E
  3
REFRACTIONTILE
360
D190
  3
SPECULARTILE
360
D18D
  0
DICTIONARY
  5
D182
330
D181
100
AcDbDictionary
280
     1
281
     1
  3
ACAD_XREC_ROUNDTRIP
360
D1F0
  3
BUMPTILE
360
D184
  3
DIFFUSETILE
360
D183
  3
OPACITYTILE
360
D187
  3
REFLECTIONTILE
360
D186
  3
REFRACTIONTILE
360
D188
  3
SPECULARTILE
360
D185
  0
DICTIONARY
  5
D192
330
D191
100
AcDbDictionary
280
     1
281
     1
  3
ACAD_XREC_ROUNDTRIP
360
D1F2
  3
BUMPTILE
360
D194
  3
DIFFUSETILE
360
D193
  3
OPACITYTILE
360
D197
  3
REFLECTIONTILE
360
D196
  3
REFRACTIONTILE
360
D198
  3
SPECULARTILE
360
D195
  0
DICTIONARY
  5
D225
330
D1CA
100
AcDbDictionary
280
     1
281
     1
  3
ACAD_XREC_ROUNDTRIP
360
D226
  0
DICTIONARY
  5
D1EC
330
D1B4
100
AcDbDictionary
280
     1
281
     1
  3
ACAD_ROUNDTRIP_2008_TABLESTYLE_CELLSTYLEMAP
360
D1ED
  3
ACAD_XREC_ROUNDTRIP
360
D223
  0
DICTIONARY
  5
D1FD
330
D19F
100
AcDbDictionary
280
     1
281
     1
  3
ACAD_XREC_ROUNDTRIP
360
D1FE
  0
DICTIONARY
  5
D1FB
330
D19E
100
AcDbDictionary
280
     1
281
     1
  3
ACAD_XREC_ROUNDTRIP
360
D1FC
  0
DICTIONARY
  5
D209
330
D1A5
100
AcDbDictionary
280
     1
281
     1
  3
ACAD_XREC_ROUNDTRIP
360
D20A
  0
DICTIONARY
  5
D211
330
D1A9
100
AcDbDictionary
280
     1
281
     1
  3
ACAD_XREC_ROUNDTRIP
360
D212
  0
DICTIONARY
  5
D203
330
D1A2
100
AcDbDictionary
280
     1
281
     1
  3
ACAD_XREC_ROUNDTRIP
360
D204
  0
DICTIONARY
  5
D207
330
D1A4
100
AcDbDictionary
280
     1
281
     1
  3
ACAD_XREC_ROUNDTRIP
360
D208
  0
DICTIONARY
  5
D221
330
D1B1
100
AcDbDictionary
280
     1
281
     1
  3
ACAD_XREC_ROUNDTRIP
360
D222
  0
DICTIONARY
  5
D20F
330
D1A8
100
AcDbDictionary
280
     1
281
     1
  3
ACAD_XREC_ROUNDTRIP
360
D210
  0
DICTIONARY
  5
D1F3
330
D19A
100
AcDbDictionary
280
     1
281
     1
  3
ACAD_XREC_ROUNDTRIP
360
D1F4
  0
DICTIONARY
  5
D1F5
330
D19B
100
AcDbDictionary
280
     1
281
     1
  3
ACAD_XREC_ROUNDTRIP
360
D1F6
  0
DICTIONARY
  5
D1F7
330
D19C
100
AcDbDictionary
280
     1
281
     1
  3
ACAD_XREC_ROUNDTRIP
360
D1F8
  0
DICTIONARY
  5
D1F9
330
D19D
100
AcDbDictionary
280
     1
281
     1
  3
ACAD_XREC_ROUNDTRIP
360
D1FA
  0
DICTIONARY
  5
D201
330
D1A1
100
AcDbDictionary
280
     1
281
     1
  3
ACAD_XREC_ROUNDTRIP
360
D202
  0
DICTIONARY
  5
D21D
330
D1AF
100
AcDbDictionary
280
     1
281
     1
  3
ACAD_XREC_ROUNDTRIP
360
D21E
  0
DICTIONARY
  5
D20D
330
D1A7
100
AcDbDictionary
280
     1
281
     1
  3
ACAD_XREC_ROUNDTRIP
360
D20E
  0
DICTIONARY
  5
D21F
330
D1B0
100
AcDbDictionary
280
     1
281
     1
  3
ACAD_XREC_ROUNDTRIP
360
D220
  0
DICTIONARY
  5
D205
330
D1A3
100
AcDbDictionary
280
     1
281
     1
  3
ACAD_XREC_ROUNDTRIP
360
D206
  0
DICTIONARY
  5
D21B
330
D1AE
100
AcDbDictionary
280
     1
281
     1
  3
ACAD_XREC_ROUNDTRIP
360
D21C
  0
DICTIONARY
  5
D219
330
D1AD
100
AcDbDictionary
280
     1
281
     1
  3
ACAD_XREC_ROUNDTRIP
360
D21A
  0
DICTIONARY
  5
D213
330
D1AA
100
AcDbDictionary
280
     1
281
     1
  3
ACAD_XREC_ROUNDTRIP
360
D214
  0
DICTIONARY
  5
D215
330
D1AB
100
AcDbDictionary
280
     1
281
     1
  3
ACAD_XREC_ROUNDTRIP
360
D216
  0
DICTIONARY
  5
D20B
330
D1A6
100
AcDbDictionary
280
     1
281
     1
  3
ACAD_XREC_ROUNDTRIP
360
D20C
  0
DICTIONARY
  5
D1FF
330
D1A0
100
AcDbDictionary
280
     1
281
     1
  3
ACAD_XREC_ROUNDTRIP
360
D200
  0
DICTIONARY
  5
D217
330
D1AC
100
AcDbDictionary
280
     1
281
     1
  3
ACAD_XREC_ROUNDTRIP
360
D218
  0
XRECORD
  5
D228
102
{ACAD_REACTORS
330
D227
102
}
330
D227
100
AcDbXrecord
280
     1
102
DISPLAYNAME
  1
Imperial24
102
FLAGS
 90
        0
  0
XRECORD
  5
D22A
102
{ACAD_REACTORS
330
D229
102
}
330
D229
100
AcDbXrecord
280
     1
102
SHADEPLOT
 70
     0
102
SHADEPLOTRESLEVEL
 70
     2
102
SHADEPLOTCUSTOMDPI
 70
   300
  0
XRECORD
  5
D22C
102
{ACAD_REACTORS
330
D22B
102
}
330
D22B
100
AcDbXrecord
280
     1
102
SHADEPLOT
 70
     0
102
SHADEPLOTRESLEVEL
 70
     2
102
SHADEPLOTCUSTOMDPI
 70
   300
  0
XRECORD
  5
D1F1
102
{ACAD_REACTORS
330
D18A
102
}
330
D18A
100
AcDbXrecord
280
     1
102
MATERIAL
148
0.0
149
0.0
149
0.0
 93
        0
 94
      127
282
     0
 72
     0
 77
     0
171
     0
175
     0
179
     0
273
     0
  0
XRECORD
  5
D18C
102
{ACAD_REACTORS
330
D18A
102
}
330
D18A
100
AcDbXrecord
280
     1
270
     1
271
     1
  0
XRECORD
  5
D18B
102
{ACAD_REACTORS
330
D18A
102
}
330
D18A
100
AcDbXrecord
280
     1
270
     1
271
     1
  0
XRECORD
  5
D18F
102
{ACAD_REACTORS
330
D18A
102
}
330
D18A
100
AcDbXrecord
280
     1
270
     1
271
     1
  0
XRECORD
  5
D18E
102
{ACAD_REACTORS
330
D18A
102
}
330
D18A
100
AcDbXrecord
280
     1
270
     1
271
     1
  0
XRECORD
  5
D190
102
{ACAD_REACTORS
330
D18A
102
}
330
D18A
100
AcDbXrecord
280
     1
270
     1
271
     1
  0
XRECORD
  5
D18D
102
{ACAD_REACTORS
330
D18A
102
}
330
D18A
100
AcDbXrecord
280
     1
270
     1
271
     1
  0
XRECORD
  5
D1F0
102
{ACAD_REACTORS
330
D182
102
}
330
D182
100
AcDbXrecord
280
     1
102
MATERIAL
148
0.0
149
0.0
149
0.0
 93
        0
 94
      127
282
     0
 72
     0
 77
     0
171
     0
175
     0
179
     0
273
     0
  0
XRECORD
  5
D184
102
{ACAD_REACTORS
330
D182
102
}
330
D182
100
AcDbXrecord
280
     1
270
     1
271
     1
  0
XRECORD
  5
D183
102
{ACAD_REACTORS
330
D182
102
}
330
D182
100
AcDbXrecord
280
     1
270
     1
271
     1
  0
XRECORD
  5
D187
102
{ACAD_REACTORS
330
D182
102
}
330
D182
100
AcDbXrecord
280
     1
270
     1
271
     1
  0
XRECORD
  5
D186
102
{ACAD_REACTORS
330
D182
102
}
330
D182
100
AcDbXrecord
280
     1
270
     1
271
     1
  0
XRECORD
  5
D188
102
{ACAD_REACTORS
330
D182
102
}
330
D182
100
AcDbXrecord
280
     1
270
     1
271
     1
  0
XRECORD
  5
D185
102
{ACAD_REACTORS
330
D182
102
}
330
D182
100
AcDbXrecord
280
     1
270
     1
271
     1
  0
XRECORD
  5
D1F2
102
{ACAD_REACTORS
330
D192
102
}
330
D192
100
AcDbXrecord
280
     1
102
MATERIAL
148
0.0
149
0.0
149
0.0
 93
        0
 94
      127
282
     0
 72
     0
 77
     0
171
     0
175
     0
179
     0
273
     0
  0
XRECORD
  5
D194
102
{ACAD_REACTORS
330
D192
102
}
330
D192
100
AcDbXrecord
280
     1
270
     1
271
     1
  0
XRECORD
  5
D193
102
{ACAD_REACTORS
330
D192
102
}
330
D192
100
AcDbXrecord
280
     1
270
     1
271
     1
  0
XRECORD
  5
D197
102
{ACAD_REACTORS
330
D192
102
}
330
D192
100
AcDbXrecord
280
     1
270
     1
271
     1
  0
XRECORD
  5
D196
102
{ACAD_REACTORS
330
D192
102
}
330
D192
100
AcDbXrecord
280
     1
270
     1
271
     1
  0
XRECORD
  5
D198
102
{ACAD_REACTORS
330
D192
102
}
330
D192
100
AcDbXrecord
280
     1
270
     1
271
     1
  0
XRECORD
  5
D195
102
{ACAD_REACTORS
330
D192
102
}
330
D192
100
AcDbXrecord
280
     1
270
     1
271
     1
  0
XRECORD
  5
D226
102
{ACAD_REACTORS
330
D225
102
}
330
D225
100
AcDbXrecord
280
     1
102
DISPLAYNAME
  1
Imperial24
102
FLAGS
 90
        0
  0
CELLSTYLEMAP
  5
D1ED
102
{ACAD_REACTORS
330
D1EC
102
}
330
D1EC
100
AcDbCellStyleMap
 90
        3
300
CELLSTYLE
  1
TABLEFORMAT_BEGIN
 90
        5
170
     1
 91
        0
 92
    32768
 62
   257
 93
        1
300
CONTENTFORMAT
  1
CONTENTFORMAT_BEGIN
 90
        0
 91
        0
 92
      512
 93
        0
300

 40
0.0
140
1.0
 94
        5
 62
     0
340
CD67
144
0.25
309
CONTENTFORMAT_END
171
     0
 94
        0
309
TABLEFORMAT_END
  1
CELLSTYLE_BEGIN
 90
        1
 91
        1
300
_TITLE
309
CELLSTYLE_END
300
CELLSTYLE
  1
TABLEFORMAT_BEGIN
 90
        5
170
     1
 91
        0
 92
        0
 62
   257
 93
        1
300
CONTENTFORMAT
  1
CONTENTFORMAT_BEGIN
 90
        0
 91
        0
 92
      512
 93
        0
300

 40
0.0
140
1.0
 94
        5
 62
     0
340
CD67
144
0.18
309
CONTENTFORMAT_END
171
     0
 94
        0
309
TABLEFORMAT_END
  1
CELLSTYLE_BEGIN
 90
        2
 91
        1
300
_HEADER
309
CELLSTYLE_END
300
CELLSTYLE
  1
TABLEFORMAT_BEGIN
 90
        5
170
     1
 91
        0
 92
        0
 62
   257
 93
        1
300
CONTENTFORMAT
  1
CONTENTFORMAT_BEGIN
 90
        0
 91
        0
 92
      512
 93
        0
300

 40
0.0
140
1.0
 94
        2
 62
     0
340
CD67
144
0.18
309
CONTENTFORMAT_END
171
     0
 94
        0
309
TABLEFORMAT_END
  1
CELLSTYLE_BEGIN
 90
        3
 91
        2
300
_DATA
309
CELLSTYLE_END
  0
XRECORD
  5
D223
102
{ACAD_REACTORS
330
D1EC
102
}
330
D1EC
100
AcDbXrecord
280
     1
102
ACAD_ROUNDTRIP_PRE2007_TABLESTYLE
 90
      512
 91
        0
  1

 92
      512
 93
        0
  2

 94
      512
 95
        0
  3

  0
XRECORD
  5
D1FE
102
{ACAD_REACTORS
330
D1FD
102
}
330
D1FD
100
AcDbXrecord
280
     1
102
RTVSPost2010Prop28
280
     1
102
RTVSPost2010PropOp28
 70
     1
102
RTVSPost2010Prop29
280
     1
102
RTVSPost2010PropOp29
 70
     1
102
RTVSPost2010Prop30
280
     0
102
RTVSPost2010PropOp30
 70
     1
102
RTVSPost2010Prop31
280
     0
102
RTVSPost2010PropOp31
 70
     1
102
RTVSPost2010Prop32
280
     0
102
RTVSPost2010PropOp32
 70
     1
102
RTVSPost2010Prop33
280
     0
102
RTVSPost2010PropOp33
 70
     1
102
RTVSPost2010Prop34
280
     0
102
RTVSPost2010PropOp34
 70
     1
102
RTVSPost2010Prop35
280
     0
102
RTVSPost2010PropOp35
 70
     1
102
RTVSPost2010Prop36
280
     0
102
RTVSPost2010PropOp36
 70
     1
102
RTVSPost2010Prop37
 90
       50
102
RTVSPost2010PropOp37
 70
     1
102
RTVSPost2010Prop38
140
0.0
102
RTVSPost2010PropOp38
 70
     1
102
RTVSPost2010Prop39
140
1.0
102
RTVSPost2010PropOp39
 70
     1
102
RTVSPost2010Prop40
 90
        0
102
RTVSPost2010PropOp40
 70
     1
102
RTVSPost2010Prop41ColorIndex
 90
       18
102
RTVSPost2010Prop41ColorRGB
 90
        0
102
RTVSPost2010PropOp41
 70
     1
102
RTVSPost2010Prop42
 90
       50
102
RTVSPost2010PropOp42
 70
     1
102
RTVSPost2010Prop43
 90
        3
102
RTVSPost2010PropOp43
 70
     1
102
RTVSPost2010Prop44ColorIndex
 90
        5
102
RTVSPost2010Prop44ColorRGB
 90
      255
102
RTVSPost2010PropOp44
 70
     1
102
RTVSPost2010Prop45
280
     0
102
RTVSPost2010PropOp45
 70
     1
102
RTVSPost2010Prop46
 90
       50
102
RTVSPost2010PropOp46
 70
     1
102
RTVSPost2010Prop47
 90
       50
102
RTVSPost2010PropOp47
 70
     1
102
RTVSPost2010Prop48
 90
       50
102
RTVSPost2010PropOp48
 70
     1
102
RTVSPost2010Prop49
280
     0
102
RTVSPost2010PropOp49
 70
     1
102
RTVSPost2010Prop50
 90
       50
102
RTVSPost2010PropOp50
 70
     1
102
RTVSPost2010Prop51ColorIndex
 90
      256
102
RTVSPost2010Prop51ColorRGB
 90
-16777216
102
RTVSPost2010PropOp51
 70
     0
102
RTVSPost2010Prop52
140
1.0
102
RTVSPost2010PropOp52
 70
     0
102
RTVSPost2010Prop53
 90
        2
102
RTVSPost2010PropOp53
 70
     1
102
RTVSPost2010Prop54
  1
strokes_ogs.tif
102
RTVSPost2010PropOp54
 70
     1
102
RTVSPost2010Prop55
280
     0
102
RTVSPost2010PropOp55
 70
     1
102
RTVSPost2010Prop56
140
1.0
102
RTVSPost2010PropOp56
 70
     1
102
RTVSPost2010Prop57
140
1.0
102
RTVSPost2010PropOp57
 70
     1
102
RTVSPropertyOp0
 70
     1
102
RTVSPropertyOp1
 70
     1
102
RTVSPropertyOp2
 70
     1
102
RTVSPropertyOp3
 70
     1
102
RTVSPropertyOp4
 70
     1
102
RTVSPropertyOp5
 70
     1
102
RTVSPropertyOp6
 70
     1
102
RTVSPropertyOp7
 70
     1
102
RTVSPropertyOp8
 70
     1
102
RTVSPropertyOp9
 70
     1
102
RTVSPropertyOp10
 70
     1
102
RTVSPropertyOp11
 70
     1
102
RTVSPropertyOp12
 70
     1
102
RTVSPropertyOp13
 70
     1
102
RTVSPropertyOp14
 70
     1
102
RTVSPropertyOp15
 70
     1
102
RTVSPropertyOp16
 70
     1
102
RTVSPropertyOp17
 70
     1
102
RTVSPropertyOp18
 70
     1
102
RTVSPropertyOp19
 70
     1
102
RTVSPropertyOp20
 70
     1
102
RTVSPropertyOp21
 70
     1
102
RTVSPropertyOp22
 70
     1
102
RTVSPropertyOp23
 70
     1
102
RTVSPropertyOp24
 70
     1
102
RTVSPropertyOp25
 70
     1
102
RTVSPropertyOp26
 70
     1
102
RTVSPropertyOp27
 70
     1
102
RTVSPropertyOp28
 70
     1
102
RTVSPropertyOp29
 70
     1
102
RTVSPropertyOp30
 70
     1
102
RTVSPropertyOp31
 70
     1
102
RTVSPropertyOp32
 70
     1
102
RTVSPropertyOp33
 70
     1
102
RTVSPropertyOp34
 70
     1
102
RTVSPropertyOp35
 70
     1
102
RTVSPropertyOp36
 70
     1
102
RTVSPropertyOp37
 70
     1
102
RTVSPropertyOp38
 70
     1
102
RTVSPropertyOp39
 70
     1
102
RTVSPropertyOp40
 70
     1
102
RTVSPropertyOp41
 70
     1
102
RTVSPropertyOp42
 70
     1
102
RTVSPropertyOp43
 70
     1
102
RTVSPropertyOp44
 70
     1
102
RTVSPropertyOp45
 70
     1
102
RTVSPropertyOp46
 70
     1
102
RTVSPropertyOp47
 70
     1
102
RTVSPropertyOp48
 70
     1
102
RTVSPropertyOp49
 70
     1
102
RTVSPropertyOp50
 70
     1
102
RTVSPropertyOp51
 70
     0
102
RTVSPropertyOp52
 70
     0
102
RTVSPropertyOp53
 70
     1
102
RTVSPropertyOp54
 70
     1
102
RTVSPropertyOp55
 70
     1
102
RTVSPropertyOp56
 70
     1
102
RTVSPropertyOp57
 70
     1
102
RTVSPropertyOp58
 70
     1
102
RTVSPropertyOp59
 70
     1
102
RTVSPropertyOp60
 70
     1
102
RTVSPropertyOp61
 70
     1
102
RTVSPropertyOp62
 70
     1
  0
XRECORD
  5
D1FC
102
{ACAD_REACTORS
330
D1FB
102
}
330
D1FB
100
AcDbXrecord
280
     1
102
RTVSPost2010Prop28
280
     0
102
RTVSPost2010PropOp28
 70
     1
102
RTVSPost2010Prop29
280
     1
102
RTVSPost2010PropOp29
 70
     1
102
RTVSPost2010Prop30
280
     1
102
RTVSPost2010PropOp30
 70
     1
102
RTVSPost2010Prop31
280
     0
102
RTVSPost2010PropOp31
 70
     1
102
RTVSPost2010Prop32
280
     0
102
RTVSPost2010PropOp32
 70
     1
102
RTVSPost2010Prop33
280
     0
102
RTVSPost2010PropOp33
 70
     1
102
RTVSPost2010Prop34
280
     0
102
RTVSPost2010PropOp34
 70
     1
102
RTVSPost2010Prop35
280
     0
102
RTVSPost2010PropOp35
 70
     1
102
RTVSPost2010Prop36
280
     0
102
RTVSPost2010PropOp36
 70
     1
102
RTVSPost2010Prop37
 90
       50
102
RTVSPost2010PropOp37
 70
     1
102
RTVSPost2010Prop38
140
0.0
102
RTVSPost2010PropOp38
 70
     1
102
RTVSPost2010Prop39
140
1.0
102
RTVSPost2010PropOp39
 70
     1
102
RTVSPost2010Prop40
 90
        0
102
RTVSPost2010PropOp40
 70
     1
102
RTVSPost2010Prop41ColorIndex
 90
       18
102
RTVSPost2010Prop41ColorRGB
 90
        0
102
RTVSPost2010PropOp41
 70
     1
102
RTVSPost2010Prop42
 90
       50
102
RTVSPost2010PropOp42
 70
     1
102
RTVSPost2010Prop43
 90
        3
102
RTVSPost2010PropOp43
 70
     1
102
RTVSPost2010Prop44ColorIndex
 90
        5
102
RTVSPost2010Prop44ColorRGB
 90
      255
102
RTVSPost2010PropOp44
 70
     1
102
RTVSPost2010Prop45
280
     0
102
RTVSPost2010PropOp45
 70
     1
102
RTVSPost2010Prop46
 90
       50
102
RTVSPost2010PropOp46
 70
     1
102
RTVSPost2010Prop47
 90
       50
102
RTVSPost2010PropOp47
 70
     1
102
RTVSPost2010Prop48
 90
       50
102
RTVSPost2010PropOp48
 70
     1
102
RTVSPost2010Prop49
280
     0
102
RTVSPost2010PropOp49
 70
     1
102
RTVSPost2010Prop50
 90
       50
102
RTVSPost2010PropOp50
 70
     1
102
RTVSPost2010Prop51ColorIndex
 90
      256
102
RTVSPost2010Prop51ColorRGB
 90
-16777216
102
RTVSPost2010PropOp51
 70
     0
102
RTVSPost2010Prop52
140
1.0
102
RTVSPost2010PropOp52
 70
     0
102
RTVSPost2010Prop53
 90
        2
102
RTVSPost2010PropOp53
 70
     1
102
RTVSPost2010Prop54
  1
strokes_ogs.tif
102
RTVSPost2010PropOp54
 70
     1
102
RTVSPost2010Prop55
280
     0
102
RTVSPost2010PropOp55
 70
     1
102
RTVSPost2010Prop56
140
1.0
102
RTVSPost2010PropOp56
 70
     1
102
RTVSPost2010Prop57
140
1.0
102
RTVSPost2010PropOp57
 70
     1
102
RTVSPropertyOp0
 70
     1
102
RTVSPropertyOp1
 70
     1
102
RTVSPropertyOp2
 70
     1
102
RTVSPropertyOp3
 70
     1
102
RTVSPropertyOp4
 70
     1
102
RTVSPropertyOp5
 70
     1
102
RTVSPropertyOp6
 70
     1
102
RTVSPropertyOp7
 70
     1
102
RTVSPropertyOp8
 70
     1
102
RTVSPropertyOp9
 70
     1
102
RTVSPropertyOp10
 70
     1
102
RTVSPropertyOp11
 70
     1
102
RTVSPropertyOp12
 70
     1
102
RTVSPropertyOp13
 70
     1
102
RTVSPropertyOp14
 70
     1
102
RTVSPropertyOp15
 70
     1
102
RTVSPropertyOp16
 70
     1
102
RTVSPropertyOp17
 70
     1
102
RTVSPropertyOp18
 70
     1
102
RTVSPropertyOp19
 70
     1
102
RTVSPropertyOp20
 70
     1
102
RTVSPropertyOp21
 70
     1
102
RTVSPropertyOp22
 70
     1
102
RTVSPropertyOp23
 70
     1
102
RTVSPropertyOp24
 70
     1
102
RTVSPropertyOp25
 70
     1
102
RTVSPropertyOp26
 70
     1
102
RTVSPropertyOp27
 70
     1
102
RTVSPropertyOp28
 70
     1
102
RTVSPropertyOp29
 70
     1
102
RTVSPropertyOp30
 70
     1
102
RTVSPropertyOp31
 70
     1
102
RTVSPropertyOp32
 70
     1
102
RTVSPropertyOp33
 70
     1
102
RTVSPropertyOp34
 70
     1
102
RTVSPropertyOp35
 70
     1
102
RTVSPropertyOp36
 70
     1
102
RTVSPropertyOp37
 70
     1
102
RTVSPropertyOp38
 70
     1
102
RTVSPropertyOp39
 70
     1
102
RTVSPropertyOp40
 70
     1
102
RTVSPropertyOp41
 70
     1
102
RTVSPropertyOp42
 70
     1
102
RTVSPropertyOp43
 70
     1
102
RTVSPropertyOp44
 70
     1
102
RTVSPropertyOp45
 70
     1
102
RTVSPropertyOp46
 70
     1
102
RTVSPropertyOp47
 70
     1
102
RTVSPropertyOp48
 70
     1
102
RTVSPropertyOp49
 70
     1
102
RTVSPropertyOp50
 70
     1
102
RTVSPropertyOp51
 70
     0
102
RTVSPropertyOp52
 70
     0
102
RTVSPropertyOp53
 70
     1
102
RTVSPropertyOp54
 70
     1
102
RTVSPropertyOp55
 70
     1
102
RTVSPropertyOp56
 70
     1
102
RTVSPropertyOp57
 70
     1
102
RTVSPropertyOp58
 70
     1
102
RTVSPropertyOp59
 70
     1
102
RTVSPropertyOp60
 70
     1
102
RTVSPropertyOp61
 70
     1
102
RTVSPropertyOp62
 70
     1
  0
XRECORD
  5
D20A
102
{ACAD_REACTORS
330
D209
102
}
330
D209
100
AcDbXrecord
280
     1
102
RTVSPost2010Prop28
280
     0
102
RTVSPost2010PropOp28
 70
     1
102
RTVSPost2010Prop29
280
     1
102
RTVSPost2010PropOp29
 70
     1
102
RTVSPost2010Prop30
280
     1
102
RTVSPost2010PropOp30
 70
     1
102
RTVSPost2010Prop31
280
     0
102
RTVSPost2010PropOp31
 70
     1
102
RTVSPost2010Prop32
280
     0
102
RTVSPost2010PropOp32
 70
     1
102
RTVSPost2010Prop33
280
     0
102
RTVSPost2010PropOp33
 70
     1
102
RTVSPost2010Prop34
280
     0
102
RTVSPost2010PropOp34
 70
     1
102
RTVSPost2010Prop35
280
     0
102
RTVSPost2010PropOp35
 70
     1
102
RTVSPost2010Prop36
280
     0
102
RTVSPost2010PropOp36
 70
     1
102
RTVSPost2010Prop37
 90
       50
102
RTVSPost2010PropOp37
 70
     1
102
RTVSPost2010Prop38
140
0.0
102
RTVSPost2010PropOp38
 70
     1
102
RTVSPost2010Prop39
140
1.0
102
RTVSPost2010PropOp39
 70
     1
102
RTVSPost2010Prop40
 90
        0
102
RTVSPost2010PropOp40
 70
     1
102
RTVSPost2010Prop41ColorIndex
 90
       18
102
RTVSPost2010Prop41ColorRGB
 90
        0
102
RTVSPost2010PropOp41
 70
     1
102
RTVSPost2010Prop42
 90
       50
102
RTVSPost2010PropOp42
 70
     1
102
RTVSPost2010Prop43
 90
        3
102
RTVSPost2010PropOp43
 70
     1
102
RTVSPost2010Prop44ColorIndex
 90
        5
102
RTVSPost2010Prop44ColorRGB
 90
      255
102
RTVSPost2010PropOp44
 70
     1
102
RTVSPost2010Prop45
280
     0
102
RTVSPost2010PropOp45
 70
     1
102
RTVSPost2010Prop46
 90
       50
102
RTVSPost2010PropOp46
 70
     1
102
RTVSPost2010Prop47
 90
       50
102
RTVSPost2010PropOp47
 70
     1
102
RTVSPost2010Prop48
 90
       50
102
RTVSPost2010PropOp48
 70
     1
102
RTVSPost2010Prop49
280
     0
102
RTVSPost2010PropOp49
 70
     1
102
RTVSPost2010Prop50
 90
       50
102
RTVSPost2010PropOp50
 70
     1
102
RTVSPost2010Prop51ColorIndex
 90
      256
102
RTVSPost2010Prop51ColorRGB
 90
-16777216
102
RTVSPost2010PropOp51
 70
     0
102
RTVSPost2010Prop52
140
1.0
102
RTVSPost2010PropOp52
 70
     0
102
RTVSPost2010Prop53
 90
        2
102
RTVSPost2010PropOp53
 70
     1
102
RTVSPost2010Prop54
  1
strokes_ogs.tif
102
RTVSPost2010PropOp54
 70
     1
102
RTVSPost2010Prop55
280
     0
102
RTVSPost2010PropOp55
 70
     1
102
RTVSPost2010Prop56
140
1.0
102
RTVSPost2010PropOp56
 70
     1
102
RTVSPost2010Prop57
140
1.0
102
RTVSPost2010PropOp57
 70
     1
102
RTVSPropertyOp0
 70
     1
102
RTVSPropertyOp1
 70
     1
102
RTVSPropertyOp2
 70
     1
102
RTVSPropertyOp3
 70
     1
102
RTVSPropertyOp4
 70
     1
102
RTVSPropertyOp5
 70
     1
102
RTVSPropertyOp6
 70
     1
102
RTVSPropertyOp7
 70
     1
102
RTVSPropertyOp8
 70
     1
102
RTVSPropertyOp9
 70
     1
102
RTVSPropertyOp10
 70
     1
102
RTVSPropertyOp11
 70
     1
102
RTVSPropertyOp12
 70
     1
102
RTVSPropertyOp13
 70
     1
102
RTVSPropertyOp14
 70
     1
102
RTVSPropertyOp15
 70
     1
102
RTVSPropertyOp16
 70
     1
102
RTVSPropertyOp17
 70
     1
102
RTVSPropertyOp18
 70
     1
102
RTVSPropertyOp19
 70
     1
102
RTVSPropertyOp20
 70
     1
102
RTVSPropertyOp21
 70
     1
102
RTVSPropertyOp22
 70
     1
102
RTVSPropertyOp23
 70
     1
102
RTVSPropertyOp24
 70
     1
102
RTVSPropertyOp25
 70
     1
102
RTVSPropertyOp26
 70
     1
102
RTVSPropertyOp27
 70
     1
102
RTVSPropertyOp28
 70
     1
102
RTVSPropertyOp29
 70
     1
102
RTVSPropertyOp30
 70
     1
102
RTVSPropertyOp31
 70
     1
102
RTVSPropertyOp32
 70
     1
102
RTVSPropertyOp33
 70
     1
102
RTVSPropertyOp34
 70
     1
102
RTVSPropertyOp35
 70
     1
102
RTVSPropertyOp36
 70
     1
102
RTVSPropertyOp37
 70
     1
102
RTVSPropertyOp38
 70
     1
102
RTVSPropertyOp39
 70
     1
102
RTVSPropertyOp40
 70
     1
102
RTVSPropertyOp41
 70
     1
102
RTVSPropertyOp42
 70
     1
102
RTVSPropertyOp43
 70
     1
102
RTVSPropertyOp44
 70
     1
102
RTVSPropertyOp45
 70
     1
102
RTVSPropertyOp46
 70
     1
102
RTVSPropertyOp47
 70
     1
102
RTVSPropertyOp48
 70
     1
102
RTVSPropertyOp49
 70
     1
102
RTVSPropertyOp50
 70
     1
102
RTVSPropertyOp51
 70
     0
102
RTVSPropertyOp52
 70
     0
102
RTVSPropertyOp53
 70
     1
102
RTVSPropertyOp54
 70
     1
102
RTVSPropertyOp55
 70
     1
102
RTVSPropertyOp56
 70
     1
102
RTVSPropertyOp57
 70
     1
102
RTVSPropertyOp58
 70
     1
102
RTVSPropertyOp59
 70
     1
102
RTVSPropertyOp60
 70
     1
102
RTVSPropertyOp61
 70
     1
102
RTVSPropertyOp62
 70
     1
  0
XRECORD
  5
D212
102
{ACAD_REACTORS
330
D211
102
}
330
D211
100
AcDbXrecord
280
     1
102
RTVSPost2010Prop28
280
     0
102
RTVSPost2010PropOp28
 70
     1
102
RTVSPost2010Prop29
280
     1
102
RTVSPost2010PropOp29
 70
     1
102
RTVSPost2010Prop30
280
     1
102
RTVSPost2010PropOp30
 70
     1
102
RTVSPost2010Prop31
280
     0
102
RTVSPost2010PropOp31
 70
     1
102
RTVSPost2010Prop32
280
     0
102
RTVSPost2010PropOp32
 70
     1
102
RTVSPost2010Prop33
280
     0
102
RTVSPost2010PropOp33
 70
     1
102
RTVSPost2010Prop34
280
     0
102
RTVSPost2010PropOp34
 70
     1
102
RTVSPost2010Prop35
280
     0
102
RTVSPost2010PropOp35
 70
     1
102
RTVSPost2010Prop36
280
     0
102
RTVSPost2010PropOp36
 70
     1
102
RTVSPost2010Prop37
 90
       50
102
RTVSPost2010PropOp37
 70
     1
102
RTVSPost2010Prop38
140
0.0
102
RTVSPost2010PropOp38
 70
     1
102
RTVSPost2010Prop39
140
1.0
102
RTVSPost2010PropOp39
 70
     1
102
RTVSPost2010Prop40
 90
        0
102
RTVSPost2010PropOp40
 70
     1
102
RTVSPost2010Prop41ColorIndex
 90
       18
102
RTVSPost2010Prop41ColorRGB
 90
        0
102
RTVSPost2010PropOp41
 70
     1
102
RTVSPost2010Prop42
 90
       50
102
RTVSPost2010PropOp42
 70
     1
102
RTVSPost2010Prop43
 90
        3
102
RTVSPost2010PropOp43
 70
     1
102
RTVSPost2010Prop44ColorIndex
 90
        5
102
RTVSPost2010Prop44ColorRGB
 90
      255
102
RTVSPost2010PropOp44
 70
     1
102
RTVSPost2010Prop45
280
     0
102
RTVSPost2010PropOp45
 70
     1
102
RTVSPost2010Prop46
 90
       50
102
RTVSPost2010PropOp46
 70
     1
102
RTVSPost2010Prop47
 90
       50
102
RTVSPost2010PropOp47
 70
     1
102
RTVSPost2010Prop48
 90
       50
102
RTVSPost2010PropOp48
 70
     1
102
RTVSPost2010Prop49
280
     0
102
RTVSPost2010PropOp49
 70
     1
102
RTVSPost2010Prop50
 90
       50
102
RTVSPost2010PropOp50
 70
     1
102
RTVSPost2010Prop51ColorIndex
 90
      256
102
RTVSPost2010Prop51ColorRGB
 90
-16777216
102
RTVSPost2010PropOp51
 70
     0
102
RTVSPost2010Prop52
140
1.0
102
RTVSPost2010PropOp52
 70
     0
102
RTVSPost2010Prop53
 90
        2
102
RTVSPost2010PropOp53
 70
     1
102
RTVSPost2010Prop54
  1
strokes_ogs.tif
102
RTVSPost2010PropOp54
 70
     1
102
RTVSPost2010Prop55
280
     0
102
RTVSPost2010PropOp55
 70
     1
102
RTVSPost2010Prop56
140
1.0
102
RTVSPost2010PropOp56
 70
     1
102
RTVSPost2010Prop57
140
1.0
102
RTVSPost2010PropOp57
 70
     1
102
RTVSPropertyOp0
 70
     1
102
RTVSPropertyOp1
 70
     1
102
RTVSPropertyOp2
 70
     1
102
RTVSPropertyOp3
 70
     1
102
RTVSPropertyOp4
 70
     1
102
RTVSPropertyOp5
 70
     1
102
RTVSPropertyOp6
 70
     1
102
RTVSPropertyOp7
 70
     1
102
RTVSPropertyOp8
 70
     1
102
RTVSPropertyOp9
 70
     1
102
RTVSPropertyOp10
 70
     1
102
RTVSPropertyOp11
 70
     1
102
RTVSPropertyOp12
 70
     1
102
RTVSPropertyOp13
 70
     1
102
RTVSPropertyOp14
 70
     1
102
RTVSPropertyOp15
 70
     1
102
RTVSPropertyOp16
 70
     1
102
RTVSPropertyOp17
 70
     1
102
RTVSPropertyOp18
 70
     1
102
RTVSPropertyOp19
 70
     1
102
RTVSPropertyOp20
 70
     1
102
RTVSPropertyOp21
 70
     1
102
RTVSPropertyOp22
 70
     1
102
RTVSPropertyOp23
 70
     1
102
RTVSPropertyOp24
 70
     1
102
RTVSPropertyOp25
 70
     1
102
RTVSPropertyOp26
 70
     1
102
RTVSPropertyOp27
 70
     1
102
RTVSPropertyOp28
 70
     1
102
RTVSPropertyOp29
 70
     1
102
RTVSPropertyOp30
 70
     1
102
RTVSPropertyOp31
 70
     1
102
RTVSPropertyOp32
 70
     1
102
RTVSPropertyOp33
 70
     1
102
RTVSPropertyOp34
 70
     1
102
RTVSPropertyOp35
 70
     1
102
RTVSPropertyOp36
 70
     1
102
RTVSPropertyOp37
 70
     1
102
RTVSPropertyOp38
 70
     1
102
RTVSPropertyOp39
 70
     1
102
RTVSPropertyOp40
 70
     1
102
RTVSPropertyOp41
 70
     1
102
RTVSPropertyOp42
 70
     1
102
RTVSPropertyOp43
 70
     1
102
RTVSPropertyOp44
 70
     1
102
RTVSPropertyOp45
 70
     1
102
RTVSPropertyOp46
 70
     1
102
RTVSPropertyOp47
 70
     1
102
RTVSPropertyOp48
 70
     1
102
RTVSPropertyOp49
 70
     1
102
RTVSPropertyOp50
 70
     1
102
RTVSPropertyOp51
 70
     0
102
RTVSPropertyOp52
 70
     0
102
RTVSPropertyOp53
 70
     1
102
RTVSPropertyOp54
 70
     1
102
RTVSPropertyOp55
 70
     1
102
RTVSPropertyOp56
 70
     1
102
RTVSPropertyOp57
 70
     1
102
RTVSPropertyOp58
 70
     1
102
RTVSPropertyOp59
 70
     1
102
RTVSPropertyOp60
 70
     1
102
RTVSPropertyOp61
 70
     1
102
RTVSPropertyOp62
 70
     1
  0
XRECORD
  5
D204
102
{ACAD_REACTORS
330
D203
102
}
330
D203
100
AcDbXrecord
280
     1
102
RTVSPost2010Prop28
280
     0
102
RTVSPost2010PropOp28
 70
     1
102
RTVSPost2010Prop29
280
     1
102
RTVSPost2010PropOp29
 70
     1
102
RTVSPost2010Prop30
280
     1
102
RTVSPost2010PropOp30
 70
     1
102
RTVSPost2010Prop31
280
     0
102
RTVSPost2010PropOp31
 70
     1
102
RTVSPost2010Prop32
280
     0
102
RTVSPost2010PropOp32
 70
     1
102
RTVSPost2010Prop33
280
     0
102
RTVSPost2010PropOp33
 70
     1
102
RTVSPost2010Prop34
280
     0
102
RTVSPost2010PropOp34
 70
     1
102
RTVSPost2010Prop35
280
     0
102
RTVSPost2010PropOp35
 70
     1
102
RTVSPost2010Prop36
280
     0
102
RTVSPost2010PropOp36
 70
     1
102
RTVSPost2010Prop37
 90
       50
102
RTVSPost2010PropOp37
 70
     1
102
RTVSPost2010Prop38
140
0.0
102
RTVSPost2010PropOp38
 70
     1
102
RTVSPost2010Prop39
140
1.0
102
RTVSPost2010PropOp39
 70
     1
102
RTVSPost2010Prop40
 90
        0
102
RTVSPost2010PropOp40
 70
     1
102
RTVSPost2010Prop41ColorIndex
 90
       18
102
RTVSPost2010Prop41ColorRGB
 90
        0
102
RTVSPost2010PropOp41
 70
     1
102
RTVSPost2010Prop42
 90
       50
102
RTVSPost2010PropOp42
 70
     1
102
RTVSPost2010Prop43
 90
        3
102
RTVSPost2010PropOp43
 70
     1
102
RTVSPost2010Prop44ColorIndex
 90
        5
102
RTVSPost2010Prop44ColorRGB
 90
      255
102
RTVSPost2010PropOp44
 70
     1
102
RTVSPost2010Prop45
280
     0
102
RTVSPost2010PropOp45
 70
     1
102
RTVSPost2010Prop46
 90
       50
102
RTVSPost2010PropOp46
 70
     1
102
RTVSPost2010Prop47
 90
       50
102
RTVSPost2010PropOp47
 70
     1
102
RTVSPost2010Prop48
 90
       50
102
RTVSPost2010PropOp48
 70
     1
102
RTVSPost2010Prop49
280
     0
102
RTVSPost2010PropOp49
 70
     1
102
RTVSPost2010Prop50
 90
       50
102
RTVSPost2010PropOp50
 70
     1
102
RTVSPost2010Prop51ColorIndex
 90
      256
102
RTVSPost2010Prop51ColorRGB
 90
-16777216
102
RTVSPost2010PropOp51
 70
     0
102
RTVSPost2010Prop52
140
1.0
102
RTVSPost2010PropOp52
 70
     0
102
RTVSPost2010Prop53
 90
        2
102
RTVSPost2010PropOp53
 70
     1
102
RTVSPost2010Prop54
  1
strokes_ogs.tif
102
RTVSPost2010PropOp54
 70
     1
102
RTVSPost2010Prop55
280
     0
102
RTVSPost2010PropOp55
 70
     1
102
RTVSPost2010Prop56
140
1.0
102
RTVSPost2010PropOp56
 70
     1
102
RTVSPost2010Prop57
140
1.0
102
RTVSPost2010PropOp57
 70
     1
102
RTVSPropertyOp0
 70
     1
102
RTVSPropertyOp1
 70
     1
102
RTVSPropertyOp2
 70
     1
102
RTVSPropertyOp3
 70
     1
102
RTVSPropertyOp4
 70
     1
102
RTVSPropertyOp5
 70
     1
102
RTVSPropertyOp6
 70
     1
102
RTVSPropertyOp7
 70
     1
102
RTVSPropertyOp8
 70
     1
102
RTVSPropertyOp9
 70
     1
102
RTVSPropertyOp10
 70
     1
102
RTVSPropertyOp11
 70
     1
102
RTVSPropertyOp12
 70
     1
102
RTVSPropertyOp13
 70
     1
102
RTVSPropertyOp14
 70
     1
102
RTVSPropertyOp15
 70
     1
102
RTVSPropertyOp16
 70
     1
102
RTVSPropertyOp17
 70
     1
102
RTVSPropertyOp18
 70
     1
102
RTVSPropertyOp19
 70
     1
102
RTVSPropertyOp20
 70
     1
102
RTVSPropertyOp21
 70
     1
102
RTVSPropertyOp22
 70
     1
102
RTVSPropertyOp23
 70
     1
102
RTVSPropertyOp24
 70
     1
102
RTVSPropertyOp25
 70
     1
102
RTVSPropertyOp26
 70
     1
102
RTVSPropertyOp27
 70
     1
102
RTVSPropertyOp28
 70
     1
102
RTVSPropertyOp29
 70
     1
102
RTVSPropertyOp30
 70
     1
102
RTVSPropertyOp31
 70
     1
102
RTVSPropertyOp32
 70
     1
102
RTVSPropertyOp33
 70
     1
102
RTVSPropertyOp34
 70
     1
102
RTVSPropertyOp35
 70
     1
102
RTVSPropertyOp36
 70
     1
102
RTVSPropertyOp37
 70
     1
102
RTVSPropertyOp38
 70
     1
102
RTVSPropertyOp39
 70
     1
102
RTVSPropertyOp40
 70
     1
102
RTVSPropertyOp41
 70
     1
102
RTVSPropertyOp42
 70
     1
102
RTVSPropertyOp43
 70
     1
102
RTVSPropertyOp44
 70
     1
102
RTVSPropertyOp45
 70
     1
102
RTVSPropertyOp46
 70
     1
102
RTVSPropertyOp47
 70
     1
102
RTVSPropertyOp48
 70
     1
102
RTVSPropertyOp49
 70
     1
102
RTVSPropertyOp50
 70
     1
102
RTVSPropertyOp51
 70
     0
102
RTVSPropertyOp52
 70
     0
102
RTVSPropertyOp53
 70
     1
102
RTVSPropertyOp54
 70
     1
102
RTVSPropertyOp55
 70
     1
102
RTVSPropertyOp56
 70
     1
102
RTVSPropertyOp57
 70
     1
102
RTVSPropertyOp58
 70
     1
102
RTVSPropertyOp59
 70
     1
102
RTVSPropertyOp60
 70
     1
102
RTVSPropertyOp61
 70
     1
102
RTVSPropertyOp62
 70
     1
  0
XRECORD
  5
D208
102
{ACAD_REACTORS
330
D207
102
}
330
D207
100
AcDbXrecord
280
     1
102
RTVSPost2010Prop28
280
     0
102
RTVSPost2010PropOp28
 70
     1
102
RTVSPost2010Prop29
280
     1
102
RTVSPost2010PropOp29
 70
     1
102
RTVSPost2010Prop30
280
     1
102
RTVSPost2010PropOp30
 70
     1
102
RTVSPost2010Prop31
280
     0
102
RTVSPost2010PropOp31
 70
     1
102
RTVSPost2010Prop32
280
     0
102
RTVSPost2010PropOp32
 70
     1
102
RTVSPost2010Prop33
280
     0
102
RTVSPost2010PropOp33
 70
     1
102
RTVSPost2010Prop34
280
     0
102
RTVSPost2010PropOp34
 70
     1
102
RTVSPost2010Prop35
280
     0
102
RTVSPost2010PropOp35
 70
     1
102
RTVSPost2010Prop36
280
     0
102
RTVSPost2010PropOp36
 70
     1
102
RTVSPost2010Prop37
 90
       50
102
RTVSPost2010PropOp37
 70
     1
102
RTVSPost2010Prop38
140
0.0
102
RTVSPost2010PropOp38
 70
     1
102
RTVSPost2010Prop39
140
1.0
102
RTVSPost2010PropOp39
 70
     1
102
RTVSPost2010Prop40
 90
        0
102
RTVSPost2010PropOp40
 70
     1
102
RTVSPost2010Prop41ColorIndex
 90
       18
102
RTVSPost2010Prop41ColorRGB
 90
        0
102
RTVSPost2010PropOp41
 70
     1
102
RTVSPost2010Prop42
 90
       50
102
RTVSPost2010PropOp42
 70
     1
102
RTVSPost2010Prop43
 90
        3
102
RTVSPost2010PropOp43
 70
     1
102
RTVSPost2010Prop44ColorIndex
 90
        5
102
RTVSPost2010Prop44ColorRGB
 90
      255
102
RTVSPost2010PropOp44
 70
     1
102
RTVSPost2010Prop45
280
     0
102
RTVSPost2010PropOp45
 70
     1
102
RTVSPost2010Prop46
 90
       50
102
RTVSPost2010PropOp46
 70
     1
102
RTVSPost2010Prop47
 90
       50
102
RTVSPost2010PropOp47
 70
     1
102
RTVSPost2010Prop48
 90
       50
102
RTVSPost2010PropOp48
 70
     1
102
RTVSPost2010Prop49
280
     0
102
RTVSPost2010PropOp49
 70
     1
102
RTVSPost2010Prop50
 90
       50
102
RTVSPost2010PropOp50
 70
     1
102
RTVSPost2010Prop51ColorIndex
 90
      256
102
RTVSPost2010Prop51ColorRGB
 90
-16777216
102
RTVSPost2010PropOp51
 70
     0
102
RTVSPost2010Prop52
140
1.0
102
RTVSPost2010PropOp52
 70
     0
102
RTVSPost2010Prop53
 90
        2
102
RTVSPost2010PropOp53
 70
     1
102
RTVSPost2010Prop54
  1
strokes_ogs.tif
102
RTVSPost2010PropOp54
 70
     1
102
RTVSPost2010Prop55
280
     0
102
RTVSPost2010PropOp55
 70
     1
102
RTVSPost2010Prop56
140
1.0
102
RTVSPost2010PropOp56
 70
     1
102
RTVSPost2010Prop57
140
1.0
102
RTVSPost2010PropOp57
 70
     1
102
RTVSPropertyOp0
 70
     1
102
RTVSPropertyOp1
 70
     1
102
RTVSPropertyOp2
 70
     1
102
RTVSPropertyOp3
 70
     1
102
RTVSPropertyOp4
 70
     1
102
RTVSPropertyOp5
 70
     1
102
RTVSPropertyOp6
 70
     1
102
RTVSPropertyOp7
 70
     1
102
RTVSPropertyOp8
 70
     1
102
RTVSPropertyOp9
 70
     1
102
RTVSPropertyOp10
 70
     1
102
RTVSPropertyOp11
 70
     1
102
RTVSPropertyOp12
 70
     1
102
RTVSPropertyOp13
 70
     1
102
RTVSPropertyOp14
 70
     1
102
RTVSPropertyOp15
 70
     1
102
RTVSPropertyOp16
 70
     1
102
RTVSPropertyOp17
 70
     1
102
RTVSPropertyOp18
 70
     1
102
RTVSPropertyOp19
 70
     1
102
RTVSPropertyOp20
 70
     1
102
RTVSPropertyOp21
 70
     1
102
RTVSPropertyOp22
 70
     1
102
RTVSPropertyOp23
 70
     1
102
RTVSPropertyOp24
 70
     1
102
RTVSPropertyOp25
 70
     1
102
RTVSPropertyOp26
 70
     1
102
RTVSPropertyOp27
 70
     1
102
RTVSPropertyOp28
 70
     1
102
RTVSPropertyOp29
 70
     1
102
RTVSPropertyOp30
 70
     1
102
RTVSPropertyOp31
 70
     1
102
RTVSPropertyOp32
 70
     1
102
RTVSPropertyOp33
 70
     1
102
RTVSPropertyOp34
 70
     1
102
RTVSPropertyOp35
 70
     1
102
RTVSPropertyOp36
 70
     1
102
RTVSPropertyOp37
 70
     1
102
RTVSPropertyOp38
 70
     1
102
RTVSPropertyOp39
 70
     1
102
RTVSPropertyOp40
 70
     1
102
RTVSPropertyOp41
 70
     1
102
RTVSPropertyOp42
 70
     1
102
RTVSPropertyOp43
 70
     1
102
RTVSPropertyOp44
 70
     1
102
RTVSPropertyOp45
 70
     1
102
RTVSPropertyOp46
 70
     1
102
RTVSPropertyOp47
 70
     1
102
RTVSPropertyOp48
 70
     1
102
RTVSPropertyOp49
 70
     1
102
RTVSPropertyOp50
 70
     1
102
RTVSPropertyOp51
 70
     0
102
RTVSPropertyOp52
 70
     0
102
RTVSPropertyOp53
 70
     1
102
RTVSPropertyOp54
 70
     1
102
RTVSPropertyOp55
 70
     1
102
RTVSPropertyOp56
 70
     1
102
RTVSPropertyOp57
 70
     1
102
RTVSPropertyOp58
 70
     1
102
RTVSPropertyOp59
 70
     1
102
RTVSPropertyOp60
 70
     1
102
RTVSPropertyOp61
 70
     1
102
RTVSPropertyOp62
 70
     1
  0
XRECORD
  5
D222
102
{ACAD_REACTORS
330
D221
102
}
330
D221
100
AcDbXrecord
280
     1
102
RTVSPost2010Prop28
280
     0
102
RTVSPost2010PropOp28
 70
     1
102
RTVSPost2010Prop29
280
     1
102
RTVSPost2010PropOp29
 70
     1
102
RTVSPost2010Prop30
280
     1
102
RTVSPost2010PropOp30
 70
     1
102
RTVSPost2010Prop31
280
     0
102
RTVSPost2010PropOp31
 70
     1
102
RTVSPost2010Prop32
280
     0
102
RTVSPost2010PropOp32
 70
     1
102
RTVSPost2010Prop33
280
     0
102
RTVSPost2010PropOp33
 70
     1
102
RTVSPost2010Prop34
280
     0
102
RTVSPost2010PropOp34
 70
     1
102
RTVSPost2010Prop35
280
     0
102
RTVSPost2010PropOp35
 70
     1
102
RTVSPost2010Prop36
280
     0
102
RTVSPost2010PropOp36
 70
     1
102
RTVSPost2010Prop37
 90
       50
102
RTVSPost2010PropOp37
 70
     0
102
RTVSPost2010Prop38
140
0.0
102
RTVSPost2010PropOp38
 70
     0
102
RTVSPost2010Prop39
140
1.0
102
RTVSPost2010PropOp39
 70
     0
102
RTVSPost2010Prop40
 90
        0
102
RTVSPost2010PropOp40
 70
     0
102
RTVSPost2010Prop41ColorIndex
 90
       18
102
RTVSPost2010Prop41ColorRGB
 90
        0
102
RTVSPost2010PropOp41
 70
     0
102
RTVSPost2010Prop42
 90
       50
102
RTVSPost2010PropOp42
 70
     0
102
RTVSPost2010Prop43
 90
        3
102
RTVSPost2010PropOp43
 70
     0
102
RTVSPost2010Prop44ColorIndex
 90
        5
102
RTVSPost2010Prop44ColorRGB
 90
      255
102
RTVSPost2010PropOp44
 70
     0
102
RTVSPost2010Prop45
280
     0
102
RTVSPost2010PropOp45
 70
     1
102
RTVSPost2010Prop46
 90
       50
102
RTVSPost2010PropOp46
 70
     0
102
RTVSPost2010Prop47
 90
       50
102
RTVSPost2010PropOp47
 70
     0
102
RTVSPost2010Prop48
 90
       50
102
RTVSPost2010PropOp48
 70
     0
102
RTVSPost2010Prop49
280
     0
102
RTVSPost2010PropOp49
 70
     1
102
RTVSPost2010Prop50
 90
       50
102
RTVSPost2010PropOp50
 70
     0
102
RTVSPost2010Prop51ColorIndex
 90
      256
102
RTVSPost2010Prop51ColorRGB
 90
-16777216
102
RTVSPost2010PropOp51
 70
     0
102
RTVSPost2010Prop52
140
1.0
102
RTVSPost2010PropOp52
 70
     0
102
RTVSPost2010Prop53
 90
        2
102
RTVSPost2010PropOp53
 70
     0
102
RTVSPost2010Prop54
  1
strokes_ogs.tif
102
RTVSPost2010PropOp54
 70
     0
102
RTVSPost2010Prop55
280
     0
102
RTVSPost2010PropOp55
 70
     1
102
RTVSPost2010Prop56
140
1.0
102
RTVSPost2010PropOp56
 70
     0
102
RTVSPost2010Prop57
140
1.0
102
RTVSPost2010PropOp57
 70
     0
102
RTVSPropertyOp0
 70
     0
102
RTVSPropertyOp1
 70
     0
102
RTVSPropertyOp2
 70
     0
102
RTVSPropertyOp3
 70
     0
102
RTVSPropertyOp4
 70
     0
102
RTVSPropertyOp5
 70
     0
102
RTVSPropertyOp6
 70
     0
102
RTVSPropertyOp7
 70
     0
102
RTVSPropertyOp8
 70
     0
102
RTVSPropertyOp9
 70
     0
102
RTVSPropertyOp10
 70
     0
102
RTVSPropertyOp11
 70
     0
102
RTVSPropertyOp12
 70
     0
102
RTVSPropertyOp13
 70
     0
102
RTVSPropertyOp14
 70
     2
102
RTVSPropertyOp15
 70
     0
102
RTVSPropertyOp16
 70
     0
102
RTVSPropertyOp17
 70
     0
102
RTVSPropertyOp18
 70
     0
102
RTVSPropertyOp19
 70
     0
102
RTVSPropertyOp20
 70
     0
102
RTVSPropertyOp21
 70
     0
102
RTVSPropertyOp22
 70
     0
102
RTVSPropertyOp23
 70
     0
102
RTVSPropertyOp24
 70
     0
102
RTVSPropertyOp25
 70
     0
102
RTVSPropertyOp26
 70
     0
102
RTVSPropertyOp27
 70
     0
102
RTVSPropertyOp28
 70
     1
102
RTVSPropertyOp29
 70
     1
102
RTVSPropertyOp30
 70
     1
102
RTVSPropertyOp31
 70
     1
102
RTVSPropertyOp32
 70
     1
102
RTVSPropertyOp33
 70
     1
102
RTVSPropertyOp34
 70
     1
102
RTVSPropertyOp35
 70
     1
102
RTVSPropertyOp36
 70
     1
102
RTVSPropertyOp37
 70
     0
102
RTVSPropertyOp38
 70
     0
102
RTVSPropertyOp39
 70
     0
102
RTVSPropertyOp40
 70
     0
102
RTVSPropertyOp41
 70
     0
102
RTVSPropertyOp42
 70
     0
102
RTVSPropertyOp43
 70
     0
102
RTVSPropertyOp44
 70
     0
102
RTVSPropertyOp45
 70
     1
102
RTVSPropertyOp46
 70
     0
102
RTVSPropertyOp47
 70
     0
102
RTVSPropertyOp48
 70
     0
102
RTVSPropertyOp49
 70
     1
102
RTVSPropertyOp50
 70
     0
102
RTVSPropertyOp51
 70
     0
102
RTVSPropertyOp52
 70
     0
102
RTVSPropertyOp53
 70
     0
102
RTVSPropertyOp54
 70
     0
102
RTVSPropertyOp55
 70
     1
102
RTVSPropertyOp56
 70
     0
102
RTVSPropertyOp57
 70
     0
102
RTVSPropertyOp58
 70
     0
102
RTVSPropertyOp59
 70
     0
102
RTVSPropertyOp60
 70
     0
102
RTVSPropertyOp61
 70
     0
102
RTVSPropertyOp62
 70
     0
  0
XRECORD
  5
D210
102
{ACAD_REACTORS
330
D20F
102
}
330
D20F
100
AcDbXrecord
280
     1
102
RTVSPost2010Prop28
280
     0
102
RTVSPost2010PropOp28
 70
     1
102
RTVSPost2010Prop29
280
     1
102
RTVSPost2010PropOp29
 70
     1
102
RTVSPost2010Prop30
280
     1
102
RTVSPost2010PropOp30
 70
     1
102
RTVSPost2010Prop31
280
     0
102
RTVSPost2010PropOp31
 70
     1
102
RTVSPost2010Prop32
280
     0
102
RTVSPost2010PropOp32
 70
     1
102
RTVSPost2010Prop33
280
     0
102
RTVSPost2010PropOp33
 70
     1
102
RTVSPost2010Prop34
280
     0
102
RTVSPost2010PropOp34
 70
     1
102
RTVSPost2010Prop35
280
     0
102
RTVSPost2010PropOp35
 70
     1
102
RTVSPost2010Prop36
280
     0
102
RTVSPost2010PropOp36
 70
     1
102
RTVSPost2010Prop37
 90
       50
102
RTVSPost2010PropOp37
 70
     1
102
RTVSPost2010Prop38
140
0.0
102
RTVSPost2010PropOp38
 70
     1
102
RTVSPost2010Prop39
140
1.0
102
RTVSPost2010PropOp39
 70
     1
102
RTVSPost2010Prop40
 90
        0
102
RTVSPost2010PropOp40
 70
     1
102
RTVSPost2010Prop41ColorIndex
 90
       18
102
RTVSPost2010Prop41ColorRGB
 90
        0
102
RTVSPost2010PropOp41
 70
     1
102
RTVSPost2010Prop42
 90
       50
102
RTVSPost2010PropOp42
 70
     1
102
RTVSPost2010Prop43
 90
        3
102
RTVSPost2010PropOp43
 70
     1
102
RTVSPost2010Prop44ColorIndex
 90
        5
102
RTVSPost2010Prop44ColorRGB
 90
      255
102
RTVSPost2010PropOp44
 70
     1
102
RTVSPost2010Prop45
280
     0
102
RTVSPost2010PropOp45
 70
     1
102
RTVSPost2010Prop46
 90
       50
102
RTVSPost2010PropOp46
 70
     1
102
RTVSPost2010Prop47
 90
       50
102
RTVSPost2010PropOp47
 70
     1
102
RTVSPost2010Prop48
 90
       50
102
RTVSPost2010PropOp48
 70
     1
102
RTVSPost2010Prop49
280
     0
102
RTVSPost2010PropOp49
 70
     1
102
RTVSPost2010Prop50
 90
       50
102
RTVSPost2010PropOp50
 70
     1
102
RTVSPost2010Prop51ColorIndex
 90
      256
102
RTVSPost2010Prop51ColorRGB
 90
-16777216
102
RTVSPost2010PropOp51
 70
     0
102
RTVSPost2010Prop52
140
1.0
102
RTVSPost2010PropOp52
 70
     0
102
RTVSPost2010Prop53
 90
        2
102
RTVSPost2010PropOp53
 70
     1
102
RTVSPost2010Prop54
  1
strokes_ogs.tif
102
RTVSPost2010PropOp54
 70
     1
102
RTVSPost2010Prop55
280
     0
102
RTVSPost2010PropOp55
 70
     1
102
RTVSPost2010Prop56
140
1.0
102
RTVSPost2010PropOp56
 70
     1
102
RTVSPost2010Prop57
140
1.0
102
RTVSPost2010PropOp57
 70
     1
102
RTVSPropertyOp0
 70
     1
102
RTVSPropertyOp1
 70
     1
102
RTVSPropertyOp2
 70
     1
102
RTVSPropertyOp3
 70
     1
102
RTVSPropertyOp4
 70
     1
102
RTVSPropertyOp5
 70
     1
102
RTVSPropertyOp6
 70
     1
102
RTVSPropertyOp7
 70
     1
102
RTVSPropertyOp8
 70
     1
102
RTVSPropertyOp9
 70
     1
102
RTVSPropertyOp10
 70
     1
102
RTVSPropertyOp11
 70
     1
102
RTVSPropertyOp12
 70
     1
102
RTVSPropertyOp13
 70
     1
102
RTVSPropertyOp14
 70
     1
102
RTVSPropertyOp15
 70
     1
102
RTVSPropertyOp16
 70
     1
102
RTVSPropertyOp17
 70
     1
102
RTVSPropertyOp18
 70
     1
102
RTVSPropertyOp19
 70
     1
102
RTVSPropertyOp20
 70
     1
102
RTVSPropertyOp21
 70
     1
102
RTVSPropertyOp22
 70
     1
102
RTVSPropertyOp23
 70
     1
102
RTVSPropertyOp24
 70
     1
102
RTVSPropertyOp25
 70
     1
102
RTVSPropertyOp26
 70
     1
102
RTVSPropertyOp27
 70
     1
102
RTVSPropertyOp28
 70
     1
102
RTVSPropertyOp29
 70
     1
102
RTVSPropertyOp30
 70
     1
102
RTVSPropertyOp31
 70
     1
102
RTVSPropertyOp32
 70
     1
102
RTVSPropertyOp33
 70
     1
102
RTVSPropertyOp34
 70
     1
102
RTVSPropertyOp35
 70
     1
102
RTVSPropertyOp36
 70
     1
102
RTVSPropertyOp37
 70
     1
102
RTVSPropertyOp38
 70
     1
102
RTVSPropertyOp39
 70
     1
102
RTVSPropertyOp40
 70
     1
102
RTVSPropertyOp41
 70
     1
102
RTVSPropertyOp42
 70
     1
102
RTVSPropertyOp43
 70
     1
102
RTVSPropertyOp44
 70
     1
102
RTVSPropertyOp45
 70
     1
102
RTVSPropertyOp46
 70
     1
102
RTVSPropertyOp47
 70
     1
102
RTVSPropertyOp48
 70
     1
102
RTVSPropertyOp49
 70
     1
102
RTVSPropertyOp50
 70
     1
102
RTVSPropertyOp51
 70
     0
102
RTVSPropertyOp52
 70
     0
102
RTVSPropertyOp53
 70
     1
102
RTVSPropertyOp54
 70
     1
102
RTVSPropertyOp55
 70
     1
102
RTVSPropertyOp56
 70
     1
102
RTVSPropertyOp57
 70
     1
102
RTVSPropertyOp58
 70
     1
102
RTVSPropertyOp59
 70
     1
102
RTVSPropertyOp60
 70
     1
102
RTVSPropertyOp61
 70
     1
102
RTVSPropertyOp62
 70
     1
  0
XRECORD
  5
D1F4
102
{ACAD_REACTORS
330
D1F3
102
}
330
D1F3
100
AcDbXrecord
280
     1
102
RTVSPost2010Prop28
280
     0
102
RTVSPost2010PropOp28
 70
     1
102
RTVSPost2010Prop29
280
     1
102
RTVSPost2010PropOp29
 70
     1
102
RTVSPost2010Prop30
280
     1
102
RTVSPost2010PropOp30
 70
     1
102
RTVSPost2010Prop31
280
     0
102
RTVSPost2010PropOp31
 70
     1
102
RTVSPost2010Prop32
280
     0
102
RTVSPost2010PropOp32
 70
     1
102
RTVSPost2010Prop33
280
     0
102
RTVSPost2010PropOp33
 70
     1
102
RTVSPost2010Prop34
280
     0
102
RTVSPost2010PropOp34
 70
     1
102
RTVSPost2010Prop35
280
     0
102
RTVSPost2010PropOp35
 70
     1
102
RTVSPost2010Prop36
280
     0
102
RTVSPost2010PropOp36
 70
     1
102
RTVSPost2010Prop37
 90
       50
102
RTVSPost2010PropOp37
 70
     1
102
RTVSPost2010Prop38
140
0.0
102
RTVSPost2010PropOp38
 70
     1
102
RTVSPost2010Prop39
140
1.0
102
RTVSPost2010PropOp39
 70
     1
102
RTVSPost2010Prop40
 90
        0
102
RTVSPost2010PropOp40
 70
     1
102
RTVSPost2010Prop41ColorIndex
 90
       18
102
RTVSPost2010Prop41ColorRGB
 90
        0
102
RTVSPost2010PropOp41
 70
     1
102
RTVSPost2010Prop42
 90
       50
102
RTVSPost2010PropOp42
 70
     1
102
RTVSPost2010Prop43
 90
        3
102
RTVSPost2010PropOp43
 70
     1
102
RTVSPost2010Prop44ColorIndex
 90
        5
102
RTVSPost2010Prop44ColorRGB
 90
      255
102
RTVSPost2010PropOp44
 70
     1
102
RTVSPost2010Prop45
280
     0
102
RTVSPost2010PropOp45
 70
     1
102
RTVSPost2010Prop46
 90
       50
102
RTVSPost2010PropOp46
 70
     1
102
RTVSPost2010Prop47
 90
       50
102
RTVSPost2010PropOp47
 70
     1
102
RTVSPost2010Prop48
 90
       50
102
RTVSPost2010PropOp48
 70
     1
102
RTVSPost2010Prop49
280
     0
102
RTVSPost2010PropOp49
 70
     1
102
RTVSPost2010Prop50
 90
       50
102
RTVSPost2010PropOp50
 70
     1
102
RTVSPost2010Prop51ColorIndex
 90
      256
102
RTVSPost2010Prop51ColorRGB
 90
-16777216
102
RTVSPost2010PropOp51
 70
     0
102
RTVSPost2010Prop52
140
1.0
102
RTVSPost2010PropOp52
 70
     0
102
RTVSPost2010Prop53
 90
        2
102
RTVSPost2010PropOp53
 70
     1
102
RTVSPost2010Prop54
  1
strokes_ogs.tif
102
RTVSPost2010PropOp54
 70
     1
102
RTVSPost2010Prop55
280
     0
102
RTVSPost2010PropOp55
 70
     1
102
RTVSPost2010Prop56
140
1.0
102
RTVSPost2010PropOp56
 70
     1
102
RTVSPost2010Prop57
140
1.0
102
RTVSPost2010PropOp57
 70
     1
102
RTVSPropertyOp0
 70
     1
102
RTVSPropertyOp1
 70
     1
102
RTVSPropertyOp2
 70
     1
102
RTVSPropertyOp3
 70
     1
102
RTVSPropertyOp4
 70
     1
102
RTVSPropertyOp5
 70
     1
102
RTVSPropertyOp6
 70
     1
102
RTVSPropertyOp7
 70
     1
102
RTVSPropertyOp8
 70
     1
102
RTVSPropertyOp9
 70
     1
102
RTVSPropertyOp10
 70
     1
102
RTVSPropertyOp11
 70
     1
102
RTVSPropertyOp12
 70
     1
102
RTVSPropertyOp13
 70
     1
102
RTVSPropertyOp14
 70
     1
102
RTVSPropertyOp15
 70
     1
102
RTVSPropertyOp16
 70
     1
102
RTVSPropertyOp17
 70
     1
102
RTVSPropertyOp18
 70
     1
102
RTVSPropertyOp19
 70
     1
102
RTVSPropertyOp20
 70
     1
102
RTVSPropertyOp21
 70
     1
102
RTVSPropertyOp22
 70
     1
102
RTVSPropertyOp23
 70
     1
102
RTVSPropertyOp24
 70
     1
102
RTVSPropertyOp25
 70
     1
102
RTVSPropertyOp26
 70
     1
102
RTVSPropertyOp27
 70
     1
102
RTVSPropertyOp28
 70
     1
102
RTVSPropertyOp29
 70
     1
102
RTVSPropertyOp30
 70
     1
102
RTVSPropertyOp31
 70
     1
102
RTVSPropertyOp32
 70
     1
102
RTVSPropertyOp33
 70
     1
102
RTVSPropertyOp34
 70
     1
102
RTVSPropertyOp35
 70
     1
102
RTVSPropertyOp36
 70
     1
102
RTVSPropertyOp37
 70
     1
102
RTVSPropertyOp38
 70
     1
102
RTVSPropertyOp39
 70
     1
102
RTVSPropertyOp40
 70
     1
102
RTVSPropertyOp41
 70
     1
102
RTVSPropertyOp42
 70
     1
102
RTVSPropertyOp43
 70
     1
102
RTVSPropertyOp44
 70
     1
102
RTVSPropertyOp45
 70
     1
102
RTVSPropertyOp46
 70
     1
102
RTVSPropertyOp47
 70
     1
102
RTVSPropertyOp48
 70
     1
102
RTVSPropertyOp49
 70
     1
102
RTVSPropertyOp50
 70
     1
102
RTVSPropertyOp51
 70
     0
102
RTVSPropertyOp52
 70
     0
102
RTVSPropertyOp53
 70
     1
102
RTVSPropertyOp54
 70
     1
102
RTVSPropertyOp55
 70
     1
102
RTVSPropertyOp56
 70
     1
102
RTVSPropertyOp57
 70
     1
102
RTVSPropertyOp58
 70
     1
102
RTVSPropertyOp59
 70
     1
102
RTVSPropertyOp60
 70
     1
102
RTVSPropertyOp61
 70
     1
102
RTVSPropertyOp62
 70
     1
  0
XRECORD
  5
D1F6
102
{ACAD_REACTORS
330
D1F5
102
}
330
D1F5
100
AcDbXrecord
280
     1
102
RTVSPost2010Prop28
280
     0
102
RTVSPost2010PropOp28
 70
     1
102
RTVSPost2010Prop29
280
     1
102
RTVSPost2010PropOp29
 70
     1
102
RTVSPost2010Prop30
280
     1
102
RTVSPost2010PropOp30
 70
     1
102
RTVSPost2010Prop31
280
     0
102
RTVSPost2010PropOp31
 70
     1
102
RTVSPost2010Prop32
280
     0
102
RTVSPost2010PropOp32
 70
     1
102
RTVSPost2010Prop33
280
     0
102
RTVSPost2010PropOp33
 70
     1
102
RTVSPost2010Prop34
280
     0
102
RTVSPost2010PropOp34
 70
     1
102
RTVSPost2010Prop35
280
     0
102
RTVSPost2010PropOp35
 70
     1
102
RTVSPost2010Prop36
280
     0
102
RTVSPost2010PropOp36
 70
     1
102
RTVSPost2010Prop37
 90
       50
102
RTVSPost2010PropOp37
 70
     1
102
RTVSPost2010Prop38
140
0.0
102
RTVSPost2010PropOp38
 70
     1
102
RTVSPost2010Prop39
140
1.0
102
RTVSPost2010PropOp39
 70
     1
102
RTVSPost2010Prop40
 90
        0
102
RTVSPost2010PropOp40
 70
     1
102
RTVSPost2010Prop41ColorIndex
 90
       18
102
RTVSPost2010Prop41ColorRGB
 90
        0
102
RTVSPost2010PropOp41
 70
     1
102
RTVSPost2010Prop42
 90
       50
102
RTVSPost2010PropOp42
 70
     1
102
RTVSPost2010Prop43
 90
        3
102
RTVSPost2010PropOp43
 70
     1
102
RTVSPost2010Prop44ColorIndex
 90
        5
102
RTVSPost2010Prop44ColorRGB
 90
      255
102
RTVSPost2010PropOp44
 70
     1
102
RTVSPost2010Prop45
280
     0
102
RTVSPost2010PropOp45
 70
     1
102
RTVSPost2010Prop46
 90
       50
102
RTVSPost2010PropOp46
 70
     1
102
RTVSPost2010Prop47
 90
       50
102
RTVSPost2010PropOp47
 70
     1
102
RTVSPost2010Prop48
 90
       50
102
RTVSPost2010PropOp48
 70
     1
102
RTVSPost2010Prop49
280
     0
102
RTVSPost2010PropOp49
 70
     1
102
RTVSPost2010Prop50
 90
       50
102
RTVSPost2010PropOp50
 70
     1
102
RTVSPost2010Prop51ColorIndex
 90
      256
102
RTVSPost2010Prop51ColorRGB
 90
-16777216
102
RTVSPost2010PropOp51
 70
     0
102
RTVSPost2010Prop52
140
1.0
102
RTVSPost2010PropOp52
 70
     0
102
RTVSPost2010Prop53
 90
        2
102
RTVSPost2010PropOp53
 70
     1
102
RTVSPost2010Prop54
  1
strokes_ogs.tif
102
RTVSPost2010PropOp54
 70
     1
102
RTVSPost2010Prop55
280
     0
102
RTVSPost2010PropOp55
 70
     1
102
RTVSPost2010Prop56
140
1.0
102
RTVSPost2010PropOp56
 70
     1
102
RTVSPost2010Prop57
140
1.0
102
RTVSPost2010PropOp57
 70
     1
102
RTVSPropertyOp0
 70
     1
102
RTVSPropertyOp1
 70
     1
102
RTVSPropertyOp2
 70
     1
102
RTVSPropertyOp3
 70
     1
102
RTVSPropertyOp4
 70
     1
102
RTVSPropertyOp5
 70
     1
102
RTVSPropertyOp6
 70
     1
102
RTVSPropertyOp7
 70
     1
102
RTVSPropertyOp8
 70
     1
102
RTVSPropertyOp9
 70
     1
102
RTVSPropertyOp10
 70
     1
102
RTVSPropertyOp11
 70
     1
102
RTVSPropertyOp12
 70
     1
102
RTVSPropertyOp13
 70
     1
102
RTVSPropertyOp14
 70
     1
102
RTVSPropertyOp15
 70
     1
102
RTVSPropertyOp16
 70
     1
102
RTVSPropertyOp17
 70
     1
102
RTVSPropertyOp18
 70
     1
102
RTVSPropertyOp19
 70
     1
102
RTVSPropertyOp20
 70
     1
102
RTVSPropertyOp21
 70
     1
102
RTVSPropertyOp22
 70
     1
102
RTVSPropertyOp23
 70
     1
102
RTVSPropertyOp24
 70
     1
102
RTVSPropertyOp25
 70
     1
102
RTVSPropertyOp26
 70
     1
102
RTVSPropertyOp27
 70
     1
102
RTVSPropertyOp28
 70
     1
102
RTVSPropertyOp29
 70
     1
102
RTVSPropertyOp30
 70
     1
102
RTVSPropertyOp31
 70
     1
102
RTVSPropertyOp32
 70
     1
102
RTVSPropertyOp33
 70
     1
102
RTVSPropertyOp34
 70
     1
102
RTVSPropertyOp35
 70
     1
102
RTVSPropertyOp36
 70
     1
102
RTVSPropertyOp37
 70
     1
102
RTVSPropertyOp38
 70
     1
102
RTVSPropertyOp39
 70
     1
102
RTVSPropertyOp40
 70
     1
102
RTVSPropertyOp41
 70
     1
102
RTVSPropertyOp42
 70
     1
102
RTVSPropertyOp43
 70
     1
102
RTVSPropertyOp44
 70
     1
102
RTVSPropertyOp45
 70
     1
102
RTVSPropertyOp46
 70
     1
102
RTVSPropertyOp47
 70
     1
102
RTVSPropertyOp48
 70
     1
102
RTVSPropertyOp49
 70
     1
102
RTVSPropertyOp50
 70
     1
102
RTVSPropertyOp51
 70
     0
102
RTVSPropertyOp52
 70
     0
102
RTVSPropertyOp53
 70
     1
102
RTVSPropertyOp54
 70
     1
102
RTVSPropertyOp55
 70
     1
102
RTVSPropertyOp56
 70
     1
102
RTVSPropertyOp57
 70
     1
102
RTVSPropertyOp58
 70
     1
102
RTVSPropertyOp59
 70
     1
102
RTVSPropertyOp60
 70
     1
102
RTVSPropertyOp61
 70
     1
102
RTVSPropertyOp62
 70
     1
  0
XRECORD
  5
D1F8
102
{ACAD_REACTORS
330
D1F7
102
}
330
D1F7
100
AcDbXrecord
280
     1
102
RTVSPost2010Prop28
280
     0
102
RTVSPost2010PropOp28
 70
     1
102
RTVSPost2010Prop29
280
     1
102
RTVSPost2010PropOp29
 70
     1
102
RTVSPost2010Prop30
280
     1
102
RTVSPost2010PropOp30
 70
     1
102
RTVSPost2010Prop31
280
     0
102
RTVSPost2010PropOp31
 70
     1
102
RTVSPost2010Prop32
280
     0
102
RTVSPost2010PropOp32
 70
     1
102
RTVSPost2010Prop33
280
     0
102
RTVSPost2010PropOp33
 70
     1
102
RTVSPost2010Prop34
280
     0
102
RTVSPost2010PropOp34
 70
     1
102
RTVSPost2010Prop35
280
     0
102
RTVSPost2010PropOp35
 70
     1
102
RTVSPost2010Prop36
280
     0
102
RTVSPost2010PropOp36
 70
     1
102
RTVSPost2010Prop37
 90
       50
102
RTVSPost2010PropOp37
 70
     1
102
RTVSPost2010Prop38
140
0.0
102
RTVSPost2010PropOp38
 70
     1
102
RTVSPost2010Prop39
140
1.0
102
RTVSPost2010PropOp39
 70
     1
102
RTVSPost2010Prop40
 90
        0
102
RTVSPost2010PropOp40
 70
     1
102
RTVSPost2010Prop41ColorIndex
 90
       18
102
RTVSPost2010Prop41ColorRGB
 90
        0
102
RTVSPost2010PropOp41
 70
     1
102
RTVSPost2010Prop42
 90
       50
102
RTVSPost2010PropOp42
 70
     1
102
RTVSPost2010Prop43
 90
        3
102
RTVSPost2010PropOp43
 70
     1
102
RTVSPost2010Prop44ColorIndex
 90
        5
102
RTVSPost2010Prop44ColorRGB
 90
      255
102
RTVSPost2010PropOp44
 70
     1
102
RTVSPost2010Prop45
280
     0
102
RTVSPost2010PropOp45
 70
     1
102
RTVSPost2010Prop46
 90
       50
102
RTVSPost2010PropOp46
 70
     1
102
RTVSPost2010Prop47
 90
       50
102
RTVSPost2010PropOp47
 70
     1
102
RTVSPost2010Prop48
 90
       50
102
RTVSPost2010PropOp48
 70
     1
102
RTVSPost2010Prop49
280
     0
102
RTVSPost2010PropOp49
 70
     1
102
RTVSPost2010Prop50
 90
       50
102
RTVSPost2010PropOp50
 70
     1
102
RTVSPost2010Prop51ColorIndex
 90
      256
102
RTVSPost2010Prop51ColorRGB
 90
-16777216
102
RTVSPost2010PropOp51
 70
     0
102
RTVSPost2010Prop52
140
1.0
102
RTVSPost2010PropOp52
 70
     0
102
RTVSPost2010Prop53
 90
        2
102
RTVSPost2010PropOp53
 70
     1
102
RTVSPost2010Prop54
  1
strokes_ogs.tif
102
RTVSPost2010PropOp54
 70
     1
102
RTVSPost2010Prop55
280
     0
102
RTVSPost2010PropOp55
 70
     1
102
RTVSPost2010Prop56
140
1.0
102
RTVSPost2010PropOp56
 70
     1
102
RTVSPost2010Prop57
140
1.0
102
RTVSPost2010PropOp57
 70
     1
102
RTVSPropertyOp0
 70
     1
102
RTVSPropertyOp1
 70
     1
102
RTVSPropertyOp2
 70
     1
102
RTVSPropertyOp3
 70
     1
102
RTVSPropertyOp4
 70
     1
102
RTVSPropertyOp5
 70
     1
102
RTVSPropertyOp6
 70
     1
102
RTVSPropertyOp7
 70
     1
102
RTVSPropertyOp8
 70
     1
102
RTVSPropertyOp9
 70
     1
102
RTVSPropertyOp10
 70
     1
102
RTVSPropertyOp11
 70
     1
102
RTVSPropertyOp12
 70
     1
102
RTVSPropertyOp13
 70
     1
102
RTVSPropertyOp14
 70
     1
102
RTVSPropertyOp15
 70
     1
102
RTVSPropertyOp16
 70
     1
102
RTVSPropertyOp17
 70
     1
102
RTVSPropertyOp18
 70
     1
102
RTVSPropertyOp19
 70
     1
102
RTVSPropertyOp20
 70
     1
102
RTVSPropertyOp21
 70
     1
102
RTVSPropertyOp22
 70
     1
102
RTVSPropertyOp23
 70
     1
102
RTVSPropertyOp24
 70
     1
102
RTVSPropertyOp25
 70
     1
102
RTVSPropertyOp26
 70
     1
102
RTVSPropertyOp27
 70
     1
102
RTVSPropertyOp28
 70
     1
102
RTVSPropertyOp29
 70
     1
102
RTVSPropertyOp30
 70
     1
102
RTVSPropertyOp31
 70
     1
102
RTVSPropertyOp32
 70
     1
102
RTVSPropertyOp33
 70
     1
102
RTVSPropertyOp34
 70
     1
102
RTVSPropertyOp35
 70
     1
102
RTVSPropertyOp36
 70
     1
102
RTVSPropertyOp37
 70
     1
102
RTVSPropertyOp38
 70
     1
102
RTVSPropertyOp39
 70
     1
102
RTVSPropertyOp40
 70
     1
102
RTVSPropertyOp41
 70
     1
102
RTVSPropertyOp42
 70
     1
102
RTVSPropertyOp43
 70
     1
102
RTVSPropertyOp44
 70
     1
102
RTVSPropertyOp45
 70
     1
102
RTVSPropertyOp46
 70
     1
102
RTVSPropertyOp47
 70
     1
102
RTVSPropertyOp48
 70
     1
102
RTVSPropertyOp49
 70
     1
102
RTVSPropertyOp50
 70
     1
102
RTVSPropertyOp51
 70
     0
102
RTVSPropertyOp52
 70
     0
102
RTVSPropertyOp53
 70
     1
102
RTVSPropertyOp54
 70
     1
102
RTVSPropertyOp55
 70
     1
102
RTVSPropertyOp56
 70
     1
102
RTVSPropertyOp57
 70
     1
102
RTVSPropertyOp58
 70
     1
102
RTVSPropertyOp59
 70
     1
102
RTVSPropertyOp60
 70
     1
102
RTVSPropertyOp61
 70
     1
102
RTVSPropertyOp62
 70
     1
  0
XRECORD
  5
D1FA
102
{ACAD_REACTORS
330
D1F9
102
}
330
D1F9
100
AcDbXrecord
280
     1
102
RTVSPost2010Prop28
280
     0
102
RTVSPost2010PropOp28
 70
     1
102
RTVSPost2010Prop29
280
     1
102
RTVSPost2010PropOp29
 70
     1
102
RTVSPost2010Prop30
280
     1
102
RTVSPost2010PropOp30
 70
     1
102
RTVSPost2010Prop31
280
     0
102
RTVSPost2010PropOp31
 70
     1
102
RTVSPost2010Prop32
280
     0
102
RTVSPost2010PropOp32
 70
     1
102
RTVSPost2010Prop33
280
     0
102
RTVSPost2010PropOp33
 70
     1
102
RTVSPost2010Prop34
280
     0
102
RTVSPost2010PropOp34
 70
     1
102
RTVSPost2010Prop35
280
     0
102
RTVSPost2010PropOp35
 70
     1
102
RTVSPost2010Prop36
280
     0
102
RTVSPost2010PropOp36
 70
     1
102
RTVSPost2010Prop37
 90
       50
102
RTVSPost2010PropOp37
 70
     1
102
RTVSPost2010Prop38
140
0.0
102
RTVSPost2010PropOp38
 70
     1
102
RTVSPost2010Prop39
140
1.0
102
RTVSPost2010PropOp39
 70
     1
102
RTVSPost2010Prop40
 90
        0
102
RTVSPost2010PropOp40
 70
     1
102
RTVSPost2010Prop41ColorIndex
 90
       18
102
RTVSPost2010Prop41ColorRGB
 90
        0
102
RTVSPost2010PropOp41
 70
     1
102
RTVSPost2010Prop42
 90
       50
102
RTVSPost2010PropOp42
 70
     1
102
RTVSPost2010Prop43
 90
        3
102
RTVSPost2010PropOp43
 70
     1
102
RTVSPost2010Prop44ColorIndex
 90
        5
102
RTVSPost2010Prop44ColorRGB
 90
      255
102
RTVSPost2010PropOp44
 70
     1
102
RTVSPost2010Prop45
280
     0
102
RTVSPost2010PropOp45
 70
     1
102
RTVSPost2010Prop46
 90
       50
102
RTVSPost2010PropOp46
 70
     1
102
RTVSPost2010Prop47
 90
       50
102
RTVSPost2010PropOp47
 70
     1
102
RTVSPost2010Prop48
 90
       50
102
RTVSPost2010PropOp48
 70
     1
102
RTVSPost2010Prop49
280
     0
102
RTVSPost2010PropOp49
 70
     1
102
RTVSPost2010Prop50
 90
       50
102
RTVSPost2010PropOp50
 70
     1
102
RTVSPost2010Prop51ColorIndex
 90
      256
102
RTVSPost2010Prop51ColorRGB
 90
-16777216
102
RTVSPost2010PropOp51
 70
     0
102
RTVSPost2010Prop52
140
1.0
102
RTVSPost2010PropOp52
 70
     0
102
RTVSPost2010Prop53
 90
        2
102
RTVSPost2010PropOp53
 70
     1
102
RTVSPost2010Prop54
  1
strokes_ogs.tif
102
RTVSPost2010PropOp54
 70
     1
102
RTVSPost2010Prop55
280
     0
102
RTVSPost2010PropOp55
 70
     1
102
RTVSPost2010Prop56
140
1.0
102
RTVSPost2010PropOp56
 70
     1
102
RTVSPost2010Prop57
140
1.0
102
RTVSPost2010PropOp57
 70
     1
102
RTVSPropertyOp0
 70
     1
102
RTVSPropertyOp1
 70
     1
102
RTVSPropertyOp2
 70
     1
102
RTVSPropertyOp3
 70
     1
102
RTVSPropertyOp4
 70
     1
102
RTVSPropertyOp5
 70
     1
102
RTVSPropertyOp6
 70
     1
102
RTVSPropertyOp7
 70
     1
102
RTVSPropertyOp8
 70
     1
102
RTVSPropertyOp9
 70
     1
102
RTVSPropertyOp10
 70
     1
102
RTVSPropertyOp11
 70
     1
102
RTVSPropertyOp12
 70
     1
102
RTVSPropertyOp13
 70
     1
102
RTVSPropertyOp14
 70
     1
102
RTVSPropertyOp15
 70
     1
102
RTVSPropertyOp16
 70
     1
102
RTVSPropertyOp17
 70
     1
102
RTVSPropertyOp18
 70
     1
102
RTVSPropertyOp19
 70
     1
102
RTVSPropertyOp20
 70
     1
102
RTVSPropertyOp21
 70
     1
102
RTVSPropertyOp22
 70
     1
102
RTVSPropertyOp23
 70
     1
102
RTVSPropertyOp24
 70
     1
102
RTVSPropertyOp25
 70
     1
102
RTVSPropertyOp26
 70
     1
102
RTVSPropertyOp27
 70
     1
102
RTVSPropertyOp28
 70
     1
102
RTVSPropertyOp29
 70
     1
102
RTVSPropertyOp30
 70
     1
102
RTVSPropertyOp31
 70
     1
102
RTVSPropertyOp32
 70
     1
102
RTVSPropertyOp33
 70
     1
102
RTVSPropertyOp34
 70
     1
102
RTVSPropertyOp35
 70
     1
102
RTVSPropertyOp36
 70
     1
102
RTVSPropertyOp37
 70
     1
102
RTVSPropertyOp38
 70
     1
102
RTVSPropertyOp39
 70
     1
102
RTVSPropertyOp40
 70
     1
102
RTVSPropertyOp41
 70
     1
102
RTVSPropertyOp42
 70
     1
102
RTVSPropertyOp43
 70
     1
102
RTVSPropertyOp44
 70
     1
102
RTVSPropertyOp45
 70
     1
102
RTVSPropertyOp46
 70
     1
102
RTVSPropertyOp47
 70
     1
102
RTVSPropertyOp48
 70
     1
102
RTVSPropertyOp49
 70
     1
102
RTVSPropertyOp50
 70
     1
102
RTVSPropertyOp51
 70
     0
102
RTVSPropertyOp52
 70
     0
102
RTVSPropertyOp53
 70
     1
102
RTVSPropertyOp54
 70
     1
102
RTVSPropertyOp55
 70
     1
102
RTVSPropertyOp56
 70
     1
102
RTVSPropertyOp57
 70
     1
102
RTVSPropertyOp58
 70
     1
102
RTVSPropertyOp59
 70
     1
102
RTVSPropertyOp60
 70
     1
102
RTVSPropertyOp61
 70
     1
102
RTVSPropertyOp62
 70
     1
  0
XRECORD
  5
D202
102
{ACAD_REACTORS
330
D201
102
}
330
D201
100
AcDbXrecord
280
     1
102
RTVSPost2010Prop28
280
     0
102
RTVSPost2010PropOp28
 70
     1
102
RTVSPost2010Prop29
280
     1
102
RTVSPost2010PropOp29
 70
     1
102
RTVSPost2010Prop30
280
     1
102
RTVSPost2010PropOp30
 70
     1
102
RTVSPost2010Prop31
280
     0
102
RTVSPost2010PropOp31
 70
     1
102
RTVSPost2010Prop32
280
     0
102
RTVSPost2010PropOp32
 70
     1
102
RTVSPost2010Prop33
280
     0
102
RTVSPost2010PropOp33
 70
     1
102
RTVSPost2010Prop34
280
     0
102
RTVSPost2010PropOp34
 70
     1
102
RTVSPost2010Prop35
280
     0
102
RTVSPost2010PropOp35
 70
     1
102
RTVSPost2010Prop36
280
     0
102
RTVSPost2010PropOp36
 70
     1
102
RTVSPost2010Prop37
 90
       50
102
RTVSPost2010PropOp37
 70
     1
102
RTVSPost2010Prop38
140
0.0
102
RTVSPost2010PropOp38
 70
     1
102
RTVSPost2010Prop39
140
1.0
102
RTVSPost2010PropOp39
 70
     1
102
RTVSPost2010Prop40
 90
        0
102
RTVSPost2010PropOp40
 70
     1
102
RTVSPost2010Prop41ColorIndex
 90
       18
102
RTVSPost2010Prop41ColorRGB
 90
        0
102
RTVSPost2010PropOp41
 70
     1
102
RTVSPost2010Prop42
 90
       50
102
RTVSPost2010PropOp42
 70
     1
102
RTVSPost2010Prop43
 90
        3
102
RTVSPost2010PropOp43
 70
     1
102
RTVSPost2010Prop44ColorIndex
 90
        5
102
RTVSPost2010Prop44ColorRGB
 90
      255
102
RTVSPost2010PropOp44
 70
     1
102
RTVSPost2010Prop45
280
     0
102
RTVSPost2010PropOp45
 70
     1
102
RTVSPost2010Prop46
 90
       50
102
RTVSPost2010PropOp46
 70
     1
102
RTVSPost2010Prop47
 90
       50
102
RTVSPost2010PropOp47
 70
     1
102
RTVSPost2010Prop48
 90
       50
102
RTVSPost2010PropOp48
 70
     1
102
RTVSPost2010Prop49
280
     0
102
RTVSPost2010PropOp49
 70
     1
102
RTVSPost2010Prop50
 90
       50
102
RTVSPost2010PropOp50
 70
     1
102
RTVSPost2010Prop51ColorIndex
 90
      256
102
RTVSPost2010Prop51ColorRGB
 90
-16777216
102
RTVSPost2010PropOp51
 70
     0
102
RTVSPost2010Prop52
140
1.0
102
RTVSPost2010PropOp52
 70
     0
102
RTVSPost2010Prop53
 90
        2
102
RTVSPost2010PropOp53
 70
     1
102
RTVSPost2010Prop54
  1
strokes_ogs.tif
102
RTVSPost2010PropOp54
 70
     1
102
RTVSPost2010Prop55
280
     0
102
RTVSPost2010PropOp55
 70
     1
102
RTVSPost2010Prop56
140
1.0
102
RTVSPost2010PropOp56
 70
     1
102
RTVSPost2010Prop57
140
1.0
102
RTVSPost2010PropOp57
 70
     1
102
RTVSPropertyOp0
 70
     1
102
RTVSPropertyOp1
 70
     1
102
RTVSPropertyOp2
 70
     1
102
RTVSPropertyOp3
 70
     1
102
RTVSPropertyOp4
 70
     1
102
RTVSPropertyOp5
 70
     1
102
RTVSPropertyOp6
 70
     1
102
RTVSPropertyOp7
 70
     1
102
RTVSPropertyOp8
 70
     1
102
RTVSPropertyOp9
 70
     1
102
RTVSPropertyOp10
 70
     1
102
RTVSPropertyOp11
 70
     1
102
RTVSPropertyOp12
 70
     1
102
RTVSPropertyOp13
 70
     1
102
RTVSPropertyOp14
 70
     1
102
RTVSPropertyOp15
 70
     1
102
RTVSPropertyOp16
 70
     1
102
RTVSPropertyOp17
 70
     1
102
RTVSPropertyOp18
 70
     1
102
RTVSPropertyOp19
 70
     1
102
RTVSPropertyOp20
 70
     1
102
RTVSPropertyOp21
 70
     1
102
RTVSPropertyOp22
 70
     1
102
RTVSPropertyOp23
 70
     1
102
RTVSPropertyOp24
 70
     1
102
RTVSPropertyOp25
 70
     1
102
RTVSPropertyOp26
 70
     1
102
RTVSPropertyOp27
 70
     1
102
RTVSPropertyOp28
 70
     1
102
RTVSPropertyOp29
 70
     1
102
RTVSPropertyOp30
 70
     1
102
RTVSPropertyOp31
 70
     1
102
RTVSPropertyOp32
 70
     1
102
RTVSPropertyOp33
 70
     1
102
RTVSPropertyOp34
 70
     1
102
RTVSPropertyOp35
 70
     1
102
RTVSPropertyOp36
 70
     1
102
RTVSPropertyOp37
 70
     1
102
RTVSPropertyOp38
 70
     1
102
RTVSPropertyOp39
 70
     1
102
RTVSPropertyOp40
 70
     1
102
RTVSPropertyOp41
 70
     1
102
RTVSPropertyOp42
 70
     1
102
RTVSPropertyOp43
 70
     1
102
RTVSPropertyOp44
 70
     1
102
RTVSPropertyOp45
 70
     1
102
RTVSPropertyOp46
 70
     1
102
RTVSPropertyOp47
 70
     1
102
RTVSPropertyOp48
 70
     1
102
RTVSPropertyOp49
 70
     1
102
RTVSPropertyOp50
 70
     1
102
RTVSPropertyOp51
 70
     0
102
RTVSPropertyOp52
 70
     0
102
RTVSPropertyOp53
 70
     1
102
RTVSPropertyOp54
 70
     1
102
RTVSPropertyOp55
 70
     1
102
RTVSPropertyOp56
 70
     1
102
RTVSPropertyOp57
 70
     1
102
RTVSPropertyOp58
 70
     1
102
RTVSPropertyOp59
 70
     1
102
RTVSPropertyOp60
 70
     1
102
RTVSPropertyOp61
 70
     1
102
RTVSPropertyOp62
 70
     1
  0
XRECORD
  5
D21E
102
{ACAD_REACTORS
330
D21D
102
}
330
D21D
100
AcDbXrecord
280
     1
102
RTVSPost2010Prop28
280
     0
102
RTVSPost2010PropOp28
 70
     1
102
RTVSPost2010Prop29
280
     1
102
RTVSPost2010PropOp29
 70
     1
102
RTVSPost2010Prop30
280
     1
102
RTVSPost2010PropOp30
 70
     1
102
RTVSPost2010Prop31
280
     0
102
RTVSPost2010PropOp31
 70
     1
102
RTVSPost2010Prop32
280
     0
102
RTVSPost2010PropOp32
 70
     1
102
RTVSPost2010Prop33
280
     0
102
RTVSPost2010PropOp33
 70
     1
102
RTVSPost2010Prop34
280
     0
102
RTVSPost2010PropOp34
 70
     1
102
RTVSPost2010Prop35
280
     0
102
RTVSPost2010PropOp35
 70
     1
102
RTVSPost2010Prop36
280
     0
102
RTVSPost2010PropOp36
 70
     1
102
RTVSPost2010Prop37
 90
       50
102
RTVSPost2010PropOp37
 70
     0
102
RTVSPost2010Prop38
140
0.0
102
RTVSPost2010PropOp38
 70
     0
102
RTVSPost2010Prop39
140
1.0
102
RTVSPost2010PropOp39
 70
     0
102
RTVSPost2010Prop40
 90
        0
102
RTVSPost2010PropOp40
 70
     0
102
RTVSPost2010Prop41ColorIndex
 90
       18
102
RTVSPost2010Prop41ColorRGB
 90
        0
102
RTVSPost2010PropOp41
 70
     0
102
RTVSPost2010Prop42
 90
       50
102
RTVSPost2010PropOp42
 70
     0
102
RTVSPost2010Prop43
 90
        3
102
RTVSPost2010PropOp43
 70
     0
102
RTVSPost2010Prop44ColorIndex
 90
        5
102
RTVSPost2010Prop44ColorRGB
 90
      255
102
RTVSPost2010PropOp44
 70
     0
102
RTVSPost2010Prop45
280
     0
102
RTVSPost2010PropOp45
 70
     1
102
RTVSPost2010Prop46
 90
       50
102
RTVSPost2010PropOp46
 70
     0
102
RTVSPost2010Prop47
 90
       50
102
RTVSPost2010PropOp47
 70
     0
102
RTVSPost2010Prop48
 90
       50
102
RTVSPost2010PropOp48
 70
     0
102
RTVSPost2010Prop49
280
     0
102
RTVSPost2010PropOp49
 70
     1
102
RTVSPost2010Prop50
 90
       50
102
RTVSPost2010PropOp50
 70
     0
102
RTVSPost2010Prop51ColorIndex
 90
      256
102
RTVSPost2010Prop51ColorRGB
 90
-16777216
102
RTVSPost2010PropOp51
 70
     0
102
RTVSPost2010Prop52
140
1.0
102
RTVSPost2010PropOp52
 70
     0
102
RTVSPost2010Prop53
 90
        2
102
RTVSPost2010PropOp53
 70
     0
102
RTVSPost2010Prop54
  1
strokes_ogs.tif
102
RTVSPost2010PropOp54
 70
     0
102
RTVSPost2010Prop55
280
     0
102
RTVSPost2010PropOp55
 70
     1
102
RTVSPost2010Prop56
140
1.0
102
RTVSPost2010PropOp56
 70
     0
102
RTVSPost2010Prop57
140
1.0
102
RTVSPost2010PropOp57
 70
     0
102
RTVSPropertyOp0
 70
     0
102
RTVSPropertyOp1
 70
     0
102
RTVSPropertyOp2
 70
     0
102
RTVSPropertyOp3
 70
     0
102
RTVSPropertyOp4
 70
     0
102
RTVSPropertyOp5
 70
     0
102
RTVSPropertyOp6
 70
     0
102
RTVSPropertyOp7
 70
     0
102
RTVSPropertyOp8
 70
     0
102
RTVSPropertyOp9
 70
     0
102
RTVSPropertyOp10
 70
     0
102
RTVSPropertyOp11
 70
     0
102
RTVSPropertyOp12
 70
     0
102
RTVSPropertyOp13
 70
     0
102
RTVSPropertyOp14
 70
     2
102
RTVSPropertyOp15
 70
     0
102
RTVSPropertyOp16
 70
     0
102
RTVSPropertyOp17
 70
     0
102
RTVSPropertyOp18
 70
     0
102
RTVSPropertyOp19
 70
     0
102
RTVSPropertyOp20
 70
     0
102
RTVSPropertyOp21
 70
     0
102
RTVSPropertyOp22
 70
     0
102
RTVSPropertyOp23
 70
     0
102
RTVSPropertyOp24
 70
     0
102
RTVSPropertyOp25
 70
     0
102
RTVSPropertyOp26
 70
     0
102
RTVSPropertyOp27
 70
     0
102
RTVSPropertyOp28
 70
     1
102
RTVSPropertyOp29
 70
     1
102
RTVSPropertyOp30
 70
     1
102
RTVSPropertyOp31
 70
     1
102
RTVSPropertyOp32
 70
     1
102
RTVSPropertyOp33
 70
     1
102
RTVSPropertyOp34
 70
     1
102
RTVSPropertyOp35
 70
     1
102
RTVSPropertyOp36
 70
     1
102
RTVSPropertyOp37
 70
     0
102
RTVSPropertyOp38
 70
     0
102
RTVSPropertyOp39
 70
     0
102
RTVSPropertyOp40
 70
     0
102
RTVSPropertyOp41
 70
     0
102
RTVSPropertyOp42
 70
     0
102
RTVSPropertyOp43
 70
     0
102
RTVSPropertyOp44
 70
     0
102
RTVSPropertyOp45
 70
     1
102
RTVSPropertyOp46
 70
     0
102
RTVSPropertyOp47
 70
     0
102
RTVSPropertyOp48
 70
     0
102
RTVSPropertyOp49
 70
     1
102
RTVSPropertyOp50
 70
     0
102
RTVSPropertyOp51
 70
     0
102
RTVSPropertyOp52
 70
     0
102
RTVSPropertyOp53
 70
     0
102
RTVSPropertyOp54
 70
     0
102
RTVSPropertyOp55
 70
     1
102
RTVSPropertyOp56
 70
     0
102
RTVSPropertyOp57
 70
     0
102
RTVSPropertyOp58
 70
     0
102
RTVSPropertyOp59
 70
     0
102
RTVSPropertyOp60
 70
     0
102
RTVSPropertyOp61
 70
     0
102
RTVSPropertyOp62
 70
     0
  0
XRECORD
  5
D20E
102
{ACAD_REACTORS
330
D20D
102
}
330
D20D
100
AcDbXrecord
280
     1
102
RTVSPost2010Prop28
280
     0
102
RTVSPost2010PropOp28
 70
     1
102
RTVSPost2010Prop29
280
     1
102
RTVSPost2010PropOp29
 70
     1
102
RTVSPost2010Prop30
280
     1
102
RTVSPost2010PropOp30
 70
     1
102
RTVSPost2010Prop31
280
     0
102
RTVSPost2010PropOp31
 70
     1
102
RTVSPost2010Prop32
280
     0
102
RTVSPost2010PropOp32
 70
     1
102
RTVSPost2010Prop33
280
     0
102
RTVSPost2010PropOp33
 70
     1
102
RTVSPost2010Prop34
280
     0
102
RTVSPost2010PropOp34
 70
     1
102
RTVSPost2010Prop35
280
     0
102
RTVSPost2010PropOp35
 70
     1
102
RTVSPost2010Prop36
280
     0
102
RTVSPost2010PropOp36
 70
     1
102
RTVSPost2010Prop37
 90
       50
102
RTVSPost2010PropOp37
 70
     1
102
RTVSPost2010Prop38
140
0.0
102
RTVSPost2010PropOp38
 70
     1
102
RTVSPost2010Prop39
140
1.0
102
RTVSPost2010PropOp39
 70
     1
102
RTVSPost2010Prop40
 90
        0
102
RTVSPost2010PropOp40
 70
     1
102
RTVSPost2010Prop41ColorIndex
 90
       18
102
RTVSPost2010Prop41ColorRGB
 90
        0
102
RTVSPost2010PropOp41
 70
     1
102
RTVSPost2010Prop42
 90
       50
102
RTVSPost2010PropOp42
 70
     1
102
RTVSPost2010Prop43
 90
        3
102
RTVSPost2010PropOp43
 70
     1
102
RTVSPost2010Prop44ColorIndex
 90
        5
102
RTVSPost2010Prop44ColorRGB
 90
      255
102
RTVSPost2010PropOp44
 70
     1
102
RTVSPost2010Prop45
280
     0
102
RTVSPost2010PropOp45
 70
     1
102
RTVSPost2010Prop46
 90
       50
102
RTVSPost2010PropOp46
 70
     1
102
RTVSPost2010Prop47
 90
       50
102
RTVSPost2010PropOp47
 70
     1
102
RTVSPost2010Prop48
 90
       50
102
RTVSPost2010PropOp48
 70
     1
102
RTVSPost2010Prop49
280
     0
102
RTVSPost2010PropOp49
 70
     1
102
RTVSPost2010Prop50
 90
       50
102
RTVSPost2010PropOp50
 70
     1
102
RTVSPost2010Prop51ColorIndex
 90
      256
102
RTVSPost2010Prop51ColorRGB
 90
-16777216
102
RTVSPost2010PropOp51
 70
     0
102
RTVSPost2010Prop52
140
1.0
102
RTVSPost2010PropOp52
 70
     0
102
RTVSPost2010Prop53
 90
        2
102
RTVSPost2010PropOp53
 70
     1
102
RTVSPost2010Prop54
  1
strokes_ogs.tif
102
RTVSPost2010PropOp54
 70
     1
102
RTVSPost2010Prop55
280
     0
102
RTVSPost2010PropOp55
 70
     1
102
RTVSPost2010Prop56
140
1.0
102
RTVSPost2010PropOp56
 70
     1
102
RTVSPost2010Prop57
140
1.0
102
RTVSPost2010PropOp57
 70
     1
102
RTVSPropertyOp0
 70
     1
102
RTVSPropertyOp1
 70
     1
102
RTVSPropertyOp2
 70
     1
102
RTVSPropertyOp3
 70
     1
102
RTVSPropertyOp4
 70
     1
102
RTVSPropertyOp5
 70
     1
102
RTVSPropertyOp6
 70
     1
102
RTVSPropertyOp7
 70
     1
102
RTVSPropertyOp8
 70
     1
102
RTVSPropertyOp9
 70
     1
102
RTVSPropertyOp10
 70
     1
102
RTVSPropertyOp11
 70
     1
102
RTVSPropertyOp12
 70
     1
102
RTVSPropertyOp13
 70
     1
102
RTVSPropertyOp14
 70
     1
102
RTVSPropertyOp15
 70
     1
102
RTVSPropertyOp16
 70
     1
102
RTVSPropertyOp17
 70
     1
102
RTVSPropertyOp18
 70
     1
102
RTVSPropertyOp19
 70
     1
102
RTVSPropertyOp20
 70
     1
102
RTVSPropertyOp21
 70
     1
102
RTVSPropertyOp22
 70
     1
102
RTVSPropertyOp23
 70
     1
102
RTVSPropertyOp24
 70
     1
102
RTVSPropertyOp25
 70
     1
102
RTVSPropertyOp26
 70
     1
102
RTVSPropertyOp27
 70
     1
102
RTVSPropertyOp28
 70
     1
102
RTVSPropertyOp29
 70
     1
102
RTVSPropertyOp30
 70
     1
102
RTVSPropertyOp31
 70
     1
102
RTVSPropertyOp32
 70
     1
102
RTVSPropertyOp33
 70
     1
102
RTVSPropertyOp34
 70
     1
102
RTVSPropertyOp35
 70
     1
102
RTVSPropertyOp36
 70
     1
102
RTVSPropertyOp37
 70
     1
102
RTVSPropertyOp38
 70
     1
102
RTVSPropertyOp39
 70
     1
102
RTVSPropertyOp40
 70
     1
102
RTVSPropertyOp41
 70
     1
102
RTVSPropertyOp42
 70
     1
102
RTVSPropertyOp43
 70
     1
102
RTVSPropertyOp44
 70
     1
102
RTVSPropertyOp45
 70
     1
102
RTVSPropertyOp46
 70
     1
102
RTVSPropertyOp47
 70
     1
102
RTVSPropertyOp48
 70
     1
102
RTVSPropertyOp49
 70
     1
102
RTVSPropertyOp50
 70
     1
102
RTVSPropertyOp51
 70
     0
102
RTVSPropertyOp52
 70
     0
102
RTVSPropertyOp53
 70
     1
102
RTVSPropertyOp54
 70
     1
102
RTVSPropertyOp55
 70
     1
102
RTVSPropertyOp56
 70
     1
102
RTVSPropertyOp57
 70
     1
102
RTVSPropertyOp58
 70
     1
102
RTVSPropertyOp59
 70
     1
102
RTVSPropertyOp60
 70
     1
102
RTVSPropertyOp61
 70
     1
102
RTVSPropertyOp62
 70
     1
  0
XRECORD
  5
D220
102
{ACAD_REACTORS
330
D21F
102
}
330
D21F
100
AcDbXrecord
280
     1
102
RTVSPost2010Prop28
280
     0
102
RTVSPost2010PropOp28
 70
     1
102
RTVSPost2010Prop29
280
     1
102
RTVSPost2010PropOp29
 70
     1
102
RTVSPost2010Prop30
280
     1
102
RTVSPost2010PropOp30
 70
     1
102
RTVSPost2010Prop31
280
     0
102
RTVSPost2010PropOp31
 70
     1
102
RTVSPost2010Prop32
280
     0
102
RTVSPost2010PropOp32
 70
     1
102
RTVSPost2010Prop33
280
     0
102
RTVSPost2010PropOp33
 70
     1
102
RTVSPost2010Prop34
280
     0
102
RTVSPost2010PropOp34
 70
     1
102
RTVSPost2010Prop35
280
     0
102
RTVSPost2010PropOp35
 70
     1
102
RTVSPost2010Prop36
280
     0
102
RTVSPost2010PropOp36
 70
     1
102
RTVSPost2010Prop37
 90
       50
102
RTVSPost2010PropOp37
 70
     0
102
RTVSPost2010Prop38
140
0.0
102
RTVSPost2010PropOp38
 70
     0
102
RTVSPost2010Prop39
140
1.0
102
RTVSPost2010PropOp39
 70
     0
102
RTVSPost2010Prop40
 90
        0
102
RTVSPost2010PropOp40
 70
     0
102
RTVSPost2010Prop41ColorIndex
 90
       18
102
RTVSPost2010Prop41ColorRGB
 90
        0
102
RTVSPost2010PropOp41
 70
     0
102
RTVSPost2010Prop42
 90
       50
102
RTVSPost2010PropOp42
 70
     0
102
RTVSPost2010Prop43
 90
        3
102
RTVSPost2010PropOp43
 70
     0
102
RTVSPost2010Prop44ColorIndex
 90
        5
102
RTVSPost2010Prop44ColorRGB
 90
      255
102
RTVSPost2010PropOp44
 70
     0
102
RTVSPost2010Prop45
280
     0
102
RTVSPost2010PropOp45
 70
     1
102
RTVSPost2010Prop46
 90
       50
102
RTVSPost2010PropOp46
 70
     0
102
RTVSPost2010Prop47
 90
       50
102
RTVSPost2010PropOp47
 70
     0
102
RTVSPost2010Prop48
 90
       50
102
RTVSPost2010PropOp48
 70
     0
102
RTVSPost2010Prop49
280
     0
102
RTVSPost2010PropOp49
 70
     1
102
RTVSPost2010Prop50
 90
       50
102
RTVSPost2010PropOp50
 70
     0
102
RTVSPost2010Prop51ColorIndex
 90
      256
102
RTVSPost2010Prop51ColorRGB
 90
-16777216
102
RTVSPost2010PropOp51
 70
     0
102
RTVSPost2010Prop52
140
1.0
102
RTVSPost2010PropOp52
 70
     0
102
RTVSPost2010Prop53
 90
        2
102
RTVSPost2010PropOp53
 70
     0
102
RTVSPost2010Prop54
  1
strokes_ogs.tif
102
RTVSPost2010PropOp54
 70
     0
102
RTVSPost2010Prop55
280
     0
102
RTVSPost2010PropOp55
 70
     1
102
RTVSPost2010Prop56
140
1.0
102
RTVSPost2010PropOp56
 70
     0
102
RTVSPost2010Prop57
140
1.0
102
RTVSPost2010PropOp57
 70
     0
102
RTVSPropertyOp0
 70
     0
102
RTVSPropertyOp1
 70
     0
102
RTVSPropertyOp2
 70
     0
102
RTVSPropertyOp3
 70
     0
102
RTVSPropertyOp4
 70
     0
102
RTVSPropertyOp5
 70
     0
102
RTVSPropertyOp6
 70
     0
102
RTVSPropertyOp7
 70
     0
102
RTVSPropertyOp8
 70
     0
102
RTVSPropertyOp9
 70
     0
102
RTVSPropertyOp10
 70
     0
102
RTVSPropertyOp11
 70
     0
102
RTVSPropertyOp12
 70
     0
102
RTVSPropertyOp13
 70
     0
102
RTVSPropertyOp14
 70
     2
102
RTVSPropertyOp15
 70
     0
102
RTVSPropertyOp16
 70
     0
102
RTVSPropertyOp17
 70
     0
102
RTVSPropertyOp18
 70
     0
102
RTVSPropertyOp19
 70
     0
102
RTVSPropertyOp20
 70
     0
102
RTVSPropertyOp21
 70
     0
102
RTVSPropertyOp22
 70
     0
102
RTVSPropertyOp23
 70
     0
102
RTVSPropertyOp24
 70
     0
102
RTVSPropertyOp25
 70
     0
102
RTVSPropertyOp26
 70
     0
102
RTVSPropertyOp27
 70
     0
102
RTVSPropertyOp28
 70
     1
102
RTVSPropertyOp29
 70
     1
102
RTVSPropertyOp30
 70
     1
102
RTVSPropertyOp31
 70
     1
102
RTVSPropertyOp32
 70
     1
102
RTVSPropertyOp33
 70
     1
102
RTVSPropertyOp34
 70
     1
102
RTVSPropertyOp35
 70
     1
102
RTVSPropertyOp36
 70
     1
102
RTVSPropertyOp37
 70
     0
102
RTVSPropertyOp38
 70
     0
102
RTVSPropertyOp39
 70
     0
102
RTVSPropertyOp40
 70
     0
102
RTVSPropertyOp41
 70
     0
102
RTVSPropertyOp42
 70
     0
102
RTVSPropertyOp43
 70
     0
102
RTVSPropertyOp44
 70
     0
102
RTVSPropertyOp45
 70
     1
102
RTVSPropertyOp46
 70
     0
102
RTVSPropertyOp47
 70
     0
102
RTVSPropertyOp48
 70
     0
102
RTVSPropertyOp49
 70
     1
102
RTVSPropertyOp50
 70
     0
102
RTVSPropertyOp51
 70
     0
102
RTVSPropertyOp52
 70
     0
102
RTVSPropertyOp53
 70
     0
102
RTVSPropertyOp54
 70
     0
102
RTVSPropertyOp55
 70
     1
102
RTVSPropertyOp56
 70
     0
102
RTVSPropertyOp57
 70
     0
102
RTVSPropertyOp58
 70
     0
102
RTVSPropertyOp59
 70
     0
102
RTVSPropertyOp60
 70
     0
102
RTVSPropertyOp61
 70
     0
102
RTVSPropertyOp62
 70
     0
  0
XRECORD
  5
D206
102
{ACAD_REACTORS
330
D205
102
}
330
D205
100
AcDbXrecord
280
     1
102
RTVSPost2010Prop28
280
     0
102
RTVSPost2010PropOp28
 70
     1
102
RTVSPost2010Prop29
280
     1
102
RTVSPost2010PropOp29
 70
     1
102
RTVSPost2010Prop30
280
     1
102
RTVSPost2010PropOp30
 70
     1
102
RTVSPost2010Prop31
280
     0
102
RTVSPost2010PropOp31
 70
     1
102
RTVSPost2010Prop32
280
     0
102
RTVSPost2010PropOp32
 70
     1
102
RTVSPost2010Prop33
280
     0
102
RTVSPost2010PropOp33
 70
     1
102
RTVSPost2010Prop34
280
     0
102
RTVSPost2010PropOp34
 70
     1
102
RTVSPost2010Prop35
280
     0
102
RTVSPost2010PropOp35
 70
     1
102
RTVSPost2010Prop36
280
     0
102
RTVSPost2010PropOp36
 70
     1
102
RTVSPost2010Prop37
 90
       50
102
RTVSPost2010PropOp37
 70
     1
102
RTVSPost2010Prop38
140
0.0
102
RTVSPost2010PropOp38
 70
     1
102
RTVSPost2010Prop39
140
1.0
102
RTVSPost2010PropOp39
 70
     1
102
RTVSPost2010Prop40
 90
        0
102
RTVSPost2010PropOp40
 70
     1
102
RTVSPost2010Prop41ColorIndex
 90
       18
102
RTVSPost2010Prop41ColorRGB
 90
        0
102
RTVSPost2010PropOp41
 70
     1
102
RTVSPost2010Prop42
 90
       50
102
RTVSPost2010PropOp42
 70
     1
102
RTVSPost2010Prop43
 90
        3
102
RTVSPost2010PropOp43
 70
     1
102
RTVSPost2010Prop44ColorIndex
 90
        5
102
RTVSPost2010Prop44ColorRGB
 90
      255
102
RTVSPost2010PropOp44
 70
     1
102
RTVSPost2010Prop45
280
     0
102
RTVSPost2010PropOp45
 70
     1
102
RTVSPost2010Prop46
 90
       50
102
RTVSPost2010PropOp46
 70
     1
102
RTVSPost2010Prop47
 90
       50
102
RTVSPost2010PropOp47
 70
     1
102
RTVSPost2010Prop48
 90
       50
102
RTVSPost2010PropOp48
 70
     1
102
RTVSPost2010Prop49
280
     0
102
RTVSPost2010PropOp49
 70
     1
102
RTVSPost2010Prop50
 90
       50
102
RTVSPost2010PropOp50
 70
     1
102
RTVSPost2010Prop51ColorIndex
 90
      256
102
RTVSPost2010Prop51ColorRGB
 90
-16777216
102
RTVSPost2010PropOp51
 70
     0
102
RTVSPost2010Prop52
140
1.0
102
RTVSPost2010PropOp52
 70
     0
102
RTVSPost2010Prop53
 90
        2
102
RTVSPost2010PropOp53
 70
     1
102
RTVSPost2010Prop54
  1
strokes_ogs.tif
102
RTVSPost2010PropOp54
 70
     1
102
RTVSPost2010Prop55
280
     0
102
RTVSPost2010PropOp55
 70
     1
102
RTVSPost2010Prop56
140
1.0
102
RTVSPost2010PropOp56
 70
     1
102
RTVSPost2010Prop57
140
1.0
102
RTVSPost2010PropOp57
 70
     1
102
RTVSPropertyOp0
 70
     1
102
RTVSPropertyOp1
 70
     1
102
RTVSPropertyOp2
 70
     1
102
RTVSPropertyOp3
 70
     1
102
RTVSPropertyOp4
 70
     1
102
RTVSPropertyOp5
 70
     1
102
RTVSPropertyOp6
 70
     1
102
RTVSPropertyOp7
 70
     1
102
RTVSPropertyOp8
 70
     1
102
RTVSPropertyOp9
 70
     1
102
RTVSPropertyOp10
 70
     1
102
RTVSPropertyOp11
 70
     1
102
RTVSPropertyOp12
 70
     1
102
RTVSPropertyOp13
 70
     1
102
RTVSPropertyOp14
 70
     1
102
RTVSPropertyOp15
 70
     1
102
RTVSPropertyOp16
 70
     1
102
RTVSPropertyOp17
 70
     1
102
RTVSPropertyOp18
 70
     1
102
RTVSPropertyOp19
 70
     1
102
RTVSPropertyOp20
 70
     1
102
RTVSPropertyOp21
 70
     1
102
RTVSPropertyOp22
 70
     1
102
RTVSPropertyOp23
 70
     1
102
RTVSPropertyOp24
 70
     1
102
RTVSPropertyOp25
 70
     1
102
RTVSPropertyOp26
 70
     1
102
RTVSPropertyOp27
 70
     1
102
RTVSPropertyOp28
 70
     1
102
RTVSPropertyOp29
 70
     1
102
RTVSPropertyOp30
 70
     1
102
RTVSPropertyOp31
 70
     1
102
RTVSPropertyOp32
 70
     1
102
RTVSPropertyOp33
 70
     1
102
RTVSPropertyOp34
 70
     1
102
RTVSPropertyOp35
 70
     1
102
RTVSPropertyOp36
 70
     1
102
RTVSPropertyOp37
 70
     1
102
RTVSPropertyOp38
 70
     1
102
RTVSPropertyOp39
 70
     1
102
RTVSPropertyOp40
 70
     1
102
RTVSPropertyOp41
 70
     1
102
RTVSPropertyOp42
 70
     1
102
RTVSPropertyOp43
 70
     1
102
RTVSPropertyOp44
 70
     1
102
RTVSPropertyOp45
 70
     1
102
RTVSPropertyOp46
 70
     1
102
RTVSPropertyOp47
 70
     1
102
RTVSPropertyOp48
 70
     1
102
RTVSPropertyOp49
 70
     1
102
RTVSPropertyOp50
 70
     1
102
RTVSPropertyOp51
 70
     0
102
RTVSPropertyOp52
 70
     0
102
RTVSPropertyOp53
 70
     1
102
RTVSPropertyOp54
 70
     1
102
RTVSPropertyOp55
 70
     1
102
RTVSPropertyOp56
 70
     1
102
RTVSPropertyOp57
 70
     1
102
RTVSPropertyOp58
 70
     1
102
RTVSPropertyOp59
 70
     1
102
RTVSPropertyOp60
 70
     1
102
RTVSPropertyOp61
 70
     1
102
RTVSPropertyOp62
 70
     1
  0
XRECORD
  5
D21C
102
{ACAD_REACTORS
330
D21B
102
}
330
D21B
100
AcDbXrecord
280
     1
102
RTVSPost2010Prop28
280
     0
102
RTVSPost2010PropOp28
 70
     1
102
RTVSPost2010Prop29
280
     1
102
RTVSPost2010PropOp29
 70
     1
102
RTVSPost2010Prop30
280
     1
102
RTVSPost2010PropOp30
 70
     1
102
RTVSPost2010Prop31
280
     0
102
RTVSPost2010PropOp31
 70
     1
102
RTVSPost2010Prop32
280
     0
102
RTVSPost2010PropOp32
 70
     1
102
RTVSPost2010Prop33
280
     0
102
RTVSPost2010PropOp33
 70
     1
102
RTVSPost2010Prop34
280
     0
102
RTVSPost2010PropOp34
 70
     1
102
RTVSPost2010Prop35
280
     0
102
RTVSPost2010PropOp35
 70
     1
102
RTVSPost2010Prop36
280
     0
102
RTVSPost2010PropOp36
 70
     1
102
RTVSPost2010Prop37
 90
       50
102
RTVSPost2010PropOp37
 70
     1
102
RTVSPost2010Prop38
140
0.0
102
RTVSPost2010PropOp38
 70
     1
102
RTVSPost2010Prop39
140
1.0
102
RTVSPost2010PropOp39
 70
     1
102
RTVSPost2010Prop40
 90
        0
102
RTVSPost2010PropOp40
 70
     1
102
RTVSPost2010Prop41ColorIndex
 90
       18
102
RTVSPost2010Prop41ColorRGB
 90
        0
102
RTVSPost2010PropOp41
 70
     1
102
RTVSPost2010Prop42
 90
       50
102
RTVSPost2010PropOp42
 70
     1
102
RTVSPost2010Prop43
 90
        3
102
RTVSPost2010PropOp43
 70
     1
102
RTVSPost2010Prop44ColorIndex
 90
        5
102
RTVSPost2010Prop44ColorRGB
 90
      255
102
RTVSPost2010PropOp44
 70
     1
102
RTVSPost2010Prop45
280
     0
102
RTVSPost2010PropOp45
 70
     1
102
RTVSPost2010Prop46
 90
       50
102
RTVSPost2010PropOp46
 70
     1
102
RTVSPost2010Prop47
 90
       50
102
RTVSPost2010PropOp47
 70
     1
102
RTVSPost2010Prop48
 90
       50
102
RTVSPost2010PropOp48
 70
     1
102
RTVSPost2010Prop49
280
     0
102
RTVSPost2010PropOp49
 70
     1
102
RTVSPost2010Prop50
 90
       50
102
RTVSPost2010PropOp50
 70
     1
102
RTVSPost2010Prop51ColorIndex
 90
      256
102
RTVSPost2010Prop51ColorRGB
 90
-16777216
102
RTVSPost2010PropOp51
 70
     0
102
RTVSPost2010Prop52
140
1.0
102
RTVSPost2010PropOp52
 70
     0
102
RTVSPost2010Prop53
 90
        2
102
RTVSPost2010PropOp53
 70
     1
102
RTVSPost2010Prop54
  1
strokes_ogs.tif
102
RTVSPost2010PropOp54
 70
     1
102
RTVSPost2010Prop55
280
     0
102
RTVSPost2010PropOp55
 70
     1
102
RTVSPost2010Prop56
140
1.0
102
RTVSPost2010PropOp56
 70
     1
102
RTVSPost2010Prop57
140
1.0
102
RTVSPost2010PropOp57
 70
     1
102
RTVSPropertyOp0
 70
     1
102
RTVSPropertyOp1
 70
     1
102
RTVSPropertyOp2
 70
     1
102
RTVSPropertyOp3
 70
     1
102
RTVSPropertyOp4
 70
     1
102
RTVSPropertyOp5
 70
     1
102
RTVSPropertyOp6
 70
     1
102
RTVSPropertyOp7
 70
     1
102
RTVSPropertyOp8
 70
     1
102
RTVSPropertyOp9
 70
     1
102
RTVSPropertyOp10
 70
     1
102
RTVSPropertyOp11
 70
     1
102
RTVSPropertyOp12
 70
     1
102
RTVSPropertyOp13
 70
     1
102
RTVSPropertyOp14
 70
     1
102
RTVSPropertyOp15
 70
     1
102
RTVSPropertyOp16
 70
     1
102
RTVSPropertyOp17
 70
     1
102
RTVSPropertyOp18
 70
     1
102
RTVSPropertyOp19
 70
     1
102
RTVSPropertyOp20
 70
     1
102
RTVSPropertyOp21
 70
     1
102
RTVSPropertyOp22
 70
     1
102
RTVSPropertyOp23
 70
     1
102
RTVSPropertyOp24
 70
     1
102
RTVSPropertyOp25
 70
     1
102
RTVSPropertyOp26
 70
     1
102
RTVSPropertyOp27
 70
     1
102
RTVSPropertyOp28
 70
     1
102
RTVSPropertyOp29
 70
     1
102
RTVSPropertyOp30
 70
     1
102
RTVSPropertyOp31
 70
     1
102
RTVSPropertyOp32
 70
     1
102
RTVSPropertyOp33
 70
     1
102
RTVSPropertyOp34
 70
     1
102
RTVSPropertyOp35
 70
     1
102
RTVSPropertyOp36
 70
     1
102
RTVSPropertyOp37
 70
     1
102
RTVSPropertyOp38
 70
     1
102
RTVSPropertyOp39
 70
     1
102
RTVSPropertyOp40
 70
     1
102
RTVSPropertyOp41
 70
     1
102
RTVSPropertyOp42
 70
     1
102
RTVSPropertyOp43
 70
     1
102
RTVSPropertyOp44
 70
     1
102
RTVSPropertyOp45
 70
     1
102
RTVSPropertyOp46
 70
     1
102
RTVSPropertyOp47
 70
     1
102
RTVSPropertyOp48
 70
     1
102
RTVSPropertyOp49
 70
     1
102
RTVSPropertyOp50
 70
     1
102
RTVSPropertyOp51
 70
     0
102
RTVSPropertyOp52
 70
     0
102
RTVSPropertyOp53
 70
     1
102
RTVSPropertyOp54
 70
     1
102
RTVSPropertyOp55
 70
     1
102
RTVSPropertyOp56
 70
     1
102
RTVSPropertyOp57
 70
     1
102
RTVSPropertyOp58
 70
     1
102
RTVSPropertyOp59
 70
     1
102
RTVSPropertyOp60
 70
     1
102
RTVSPropertyOp61
 70
     1
102
RTVSPropertyOp62
 70
     1
  0
XRECORD
  5
D21A
102
{ACAD_REACTORS
330
D219
102
}
330
D219
100
AcDbXrecord
280
     1
102
RTVSPost2010Prop28
280
     0
102
RTVSPost2010PropOp28
 70
     1
102
RTVSPost2010Prop29
280
     1
102
RTVSPost2010PropOp29
 70
     1
102
RTVSPost2010Prop30
280
     1
102
RTVSPost2010PropOp30
 70
     1
102
RTVSPost2010Prop31
280
     0
102
RTVSPost2010PropOp31
 70
     1
102
RTVSPost2010Prop32
280
     0
102
RTVSPost2010PropOp32
 70
     1
102
RTVSPost2010Prop33
280
     0
102
RTVSPost2010PropOp33
 70
     1
102
RTVSPost2010Prop34
280
     0
102
RTVSPost2010PropOp34
 70
     1
102
RTVSPost2010Prop35
280
     0
102
RTVSPost2010PropOp35
 70
     1
102
RTVSPost2010Prop36
280
     0
102
RTVSPost2010PropOp36
 70
     1
102
RTVSPost2010Prop37
 90
       50
102
RTVSPost2010PropOp37
 70
     1
102
RTVSPost2010Prop38
140
0.0
102
RTVSPost2010PropOp38
 70
     1
102
RTVSPost2010Prop39
140
1.0
102
RTVSPost2010PropOp39
 70
     1
102
RTVSPost2010Prop40
 90
        0
102
RTVSPost2010PropOp40
 70
     1
102
RTVSPost2010Prop41ColorIndex
 90
       18
102
RTVSPost2010Prop41ColorRGB
 90
        0
102
RTVSPost2010PropOp41
 70
     1
102
RTVSPost2010Prop42
 90
       50
102
RTVSPost2010PropOp42
 70
     1
102
RTVSPost2010Prop43
 90
        3
102
RTVSPost2010PropOp43
 70
     1
102
RTVSPost2010Prop44ColorIndex
 90
        5
102
RTVSPost2010Prop44ColorRGB
 90
      255
102
RTVSPost2010PropOp44
 70
     1
102
RTVSPost2010Prop45
280
     0
102
RTVSPost2010PropOp45
 70
     1
102
RTVSPost2010Prop46
 90
       50
102
RTVSPost2010PropOp46
 70
     1
102
RTVSPost2010Prop47
 90
       50
102
RTVSPost2010PropOp47
 70
     1
102
RTVSPost2010Prop48
 90
       50
102
RTVSPost2010PropOp48
 70
     1
102
RTVSPost2010Prop49
280
     0
102
RTVSPost2010PropOp49
 70
     1
102
RTVSPost2010Prop50
 90
       50
102
RTVSPost2010PropOp50
 70
     1
102
RTVSPost2010Prop51ColorIndex
 90
      256
102
RTVSPost2010Prop51ColorRGB
 90
-16777216
102
RTVSPost2010PropOp51
 70
     0
102
RTVSPost2010Prop52
140
1.0
102
RTVSPost2010PropOp52
 70
     0
102
RTVSPost2010Prop53
 90
        2
102
RTVSPost2010PropOp53
 70
     1
102
RTVSPost2010Prop54
  1
strokes_ogs.tif
102
RTVSPost2010PropOp54
 70
     1
102
RTVSPost2010Prop55
280
     0
102
RTVSPost2010PropOp55
 70
     1
102
RTVSPost2010Prop56
140
1.0
102
RTVSPost2010PropOp56
 70
     1
102
RTVSPost2010Prop57
140
1.0
102
RTVSPost2010PropOp57
 70
     1
102
RTVSPropertyOp0
 70
     1
102
RTVSPropertyOp1
 70
     1
102
RTVSPropertyOp2
 70
     1
102
RTVSPropertyOp3
 70
     1
102
RTVSPropertyOp4
 70
     1
102
RTVSPropertyOp5
 70
     1
102
RTVSPropertyOp6
 70
     1
102
RTVSPropertyOp7
 70
     1
102
RTVSPropertyOp8
 70
     1
102
RTVSPropertyOp9
 70
     1
102
RTVSPropertyOp10
 70
     1
102
RTVSPropertyOp11
 70
     1
102
RTVSPropertyOp12
 70
     1
102
RTVSPropertyOp13
 70
     1
102
RTVSPropertyOp14
 70
     1
102
RTVSPropertyOp15
 70
     1
102
RTVSPropertyOp16
 70
     1
102
RTVSPropertyOp17
 70
     1
102
RTVSPropertyOp18
 70
     1
102
RTVSPropertyOp19
 70
     1
102
RTVSPropertyOp20
 70
     1
102
RTVSPropertyOp21
 70
     1
102
RTVSPropertyOp22
 70
     1
102
RTVSPropertyOp23
 70
     1
102
RTVSPropertyOp24
 70
     1
102
RTVSPropertyOp25
 70
     1
102
RTVSPropertyOp26
 70
     1
102
RTVSPropertyOp27
 70
     1
102
RTVSPropertyOp28
 70
     1
102
RTVSPropertyOp29
 70
     1
102
RTVSPropertyOp30
 70
     1
102
RTVSPropertyOp31
 70
     1
102
RTVSPropertyOp32
 70
     1
102
RTVSPropertyOp33
 70
     1
102
RTVSPropertyOp34
 70
     1
102
RTVSPropertyOp35
 70
     1
102
RTVSPropertyOp36
 70
     1
102
RTVSPropertyOp37
 70
     1
102
RTVSPropertyOp38
 70
     1
102
RTVSPropertyOp39
 70
     1
102
RTVSPropertyOp40
 70
     1
102
RTVSPropertyOp41
 70
     1
102
RTVSPropertyOp42
 70
     1
102
RTVSPropertyOp43
 70
     1
102
RTVSPropertyOp44
 70
     1
102
RTVSPropertyOp45
 70
     1
102
RTVSPropertyOp46
 70
     1
102
RTVSPropertyOp47
 70
     1
102
RTVSPropertyOp48
 70
     1
102
RTVSPropertyOp49
 70
     1
102
RTVSPropertyOp50
 70
     1
102
RTVSPropertyOp51
 70
     0
102
RTVSPropertyOp52
 70
     0
102
RTVSPropertyOp53
 70
     1
102
RTVSPropertyOp54
 70
     1
102
RTVSPropertyOp55
 70
     1
102
RTVSPropertyOp56
 70
     1
102
RTVSPropertyOp57
 70
     1
102
RTVSPropertyOp58
 70
     1
102
RTVSPropertyOp59
 70
     1
102
RTVSPropertyOp60
 70
     1
102
RTVSPropertyOp61
 70
     1
102
RTVSPropertyOp62
 70
     1
  0
XRECORD
  5
D214
102
{ACAD_REACTORS
330
D213
102
}
330
D213
100
AcDbXrecord
280
     1
102
RTVSPost2010Prop28
280
     0
102
RTVSPost2010PropOp28
 70
     1
102
RTVSPost2010Prop29
280
     1
102
RTVSPost2010PropOp29
 70
     1
102
RTVSPost2010Prop30
280
     1
102
RTVSPost2010PropOp30
 70
     1
102
RTVSPost2010Prop31
280
     0
102
RTVSPost2010PropOp31
 70
     1
102
RTVSPost2010Prop32
280
     0
102
RTVSPost2010PropOp32
 70
     1
102
RTVSPost2010Prop33
280
     0
102
RTVSPost2010PropOp33
 70
     1
102
RTVSPost2010Prop34
280
     0
102
RTVSPost2010PropOp34
 70
     1
102
RTVSPost2010Prop35
280
     0
102
RTVSPost2010PropOp35
 70
     1
102
RTVSPost2010Prop36
280
     0
102
RTVSPost2010PropOp36
 70
     1
102
RTVSPost2010Prop37
 90
       50
102
RTVSPost2010PropOp37
 70
     1
102
RTVSPost2010Prop38
140
0.0
102
RTVSPost2010PropOp38
 70
     1
102
RTVSPost2010Prop39
140
1.0
102
RTVSPost2010PropOp39
 70
     1
102
RTVSPost2010Prop40
 90
        0
102
RTVSPost2010PropOp40
 70
     1
102
RTVSPost2010Prop41ColorIndex
 90
       18
102
RTVSPost2010Prop41ColorRGB
 90
        0
102
RTVSPost2010PropOp41
 70
     1
102
RTVSPost2010Prop42
 90
       50
102
RTVSPost2010PropOp42
 70
     1
102
RTVSPost2010Prop43
 90
        3
102
RTVSPost2010PropOp43
 70
     1
102
RTVSPost2010Prop44ColorIndex
 90
        5
102
RTVSPost2010Prop44ColorRGB
 90
      255
102
RTVSPost2010PropOp44
 70
     1
102
RTVSPost2010Prop45
280
     0
102
RTVSPost2010PropOp45
 70
     1
102
RTVSPost2010Prop46
 90
       50
102
RTVSPost2010PropOp46
 70
     1
102
RTVSPost2010Prop47
 90
       50
102
RTVSPost2010PropOp47
 70
     1
102
RTVSPost2010Prop48
 90
       50
102
RTVSPost2010PropOp48
 70
     1
102
RTVSPost2010Prop49
280
     0
102
RTVSPost2010PropOp49
 70
     1
102
RTVSPost2010Prop50
 90
       50
102
RTVSPost2010PropOp50
 70
     1
102
RTVSPost2010Prop51ColorIndex
 90
      256
102
RTVSPost2010Prop51ColorRGB
 90
-16777216
102
RTVSPost2010PropOp51
 70
     0
102
RTVSPost2010Prop52
140
1.0
102
RTVSPost2010PropOp52
 70
     0
102
RTVSPost2010Prop53
 90
        2
102
RTVSPost2010PropOp53
 70
     1
102
RTVSPost2010Prop54
  1
strokes_ogs.tif
102
RTVSPost2010PropOp54
 70
     1
102
RTVSPost2010Prop55
280
     0
102
RTVSPost2010PropOp55
 70
     1
102
RTVSPost2010Prop56
140
1.0
102
RTVSPost2010PropOp56
 70
     1
102
RTVSPost2010Prop57
140
1.0
102
RTVSPost2010PropOp57
 70
     1
102
RTVSPropertyOp0
 70
     1
102
RTVSPropertyOp1
 70
     1
102
RTVSPropertyOp2
 70
     1
102
RTVSPropertyOp3
 70
     1
102
RTVSPropertyOp4
 70
     1
102
RTVSPropertyOp5
 70
     1
102
RTVSPropertyOp6
 70
     1
102
RTVSPropertyOp7
 70
     1
102
RTVSPropertyOp8
 70
     1
102
RTVSPropertyOp9
 70
     1
102
RTVSPropertyOp10
 70
     1
102
RTVSPropertyOp11
 70
     1
102
RTVSPropertyOp12
 70
     1
102
RTVSPropertyOp13
 70
     1
102
RTVSPropertyOp14
 70
     1
102
RTVSPropertyOp15
 70
     1
102
RTVSPropertyOp16
 70
     1
102
RTVSPropertyOp17
 70
     1
102
RTVSPropertyOp18
 70
     1
102
RTVSPropertyOp19
 70
     1
102
RTVSPropertyOp20
 70
     1
102
RTVSPropertyOp21
 70
     1
102
RTVSPropertyOp22
 70
     1
102
RTVSPropertyOp23
 70
     1
102
RTVSPropertyOp24
 70
     1
102
RTVSPropertyOp25
 70
     1
102
RTVSPropertyOp26
 70
     1
102
RTVSPropertyOp27
 70
     1
102
RTVSPropertyOp28
 70
     1
102
RTVSPropertyOp29
 70
     1
102
RTVSPropertyOp30
 70
     1
102
RTVSPropertyOp31
 70
     1
102
RTVSPropertyOp32
 70
     1
102
RTVSPropertyOp33
 70
     1
102
RTVSPropertyOp34
 70
     1
102
RTVSPropertyOp35
 70
     1
102
RTVSPropertyOp36
 70
     1
102
RTVSPropertyOp37
 70
     1
102
RTVSPropertyOp38
 70
     1
102
RTVSPropertyOp39
 70
     1
102
RTVSPropertyOp40
 70
     1
102
RTVSPropertyOp41
 70
     1
102
RTVSPropertyOp42
 70
     1
102
RTVSPropertyOp43
 70
     1
102
RTVSPropertyOp44
 70
     1
102
RTVSPropertyOp45
 70
     1
102
RTVSPropertyOp46
 70
     1
102
RTVSPropertyOp47
 70
     1
102
RTVSPropertyOp48
 70
     1
102
RTVSPropertyOp49
 70
     1
102
RTVSPropertyOp50
 70
     1
102
RTVSPropertyOp51
 70
     0
102
RTVSPropertyOp52
 70
     0
102
RTVSPropertyOp53
 70
     1
102
RTVSPropertyOp54
 70
     1
102
RTVSPropertyOp55
 70
     1
102
RTVSPropertyOp56
 70
     1
102
RTVSPropertyOp57
 70
     1
102
RTVSPropertyOp58
 70
     1
102
RTVSPropertyOp59
 70
     1
102
RTVSPropertyOp60
 70
     1
102
RTVSPropertyOp61
 70
     1
102
RTVSPropertyOp62
 70
     1
  0
XRECORD
  5
D216
102
{ACAD_REACTORS
330
D215
102
}
330
D215
100
AcDbXrecord
280
     1
102
RTVSPost2010Prop28
280
     0
102
RTVSPost2010PropOp28
 70
     1
102
RTVSPost2010Prop29
280
     1
102
RTVSPost2010PropOp29
 70
     1
102
RTVSPost2010Prop30
280
     1
102
RTVSPost2010PropOp30
 70
     1
102
RTVSPost2010Prop31
280
     0
102
RTVSPost2010PropOp31
 70
     1
102
RTVSPost2010Prop32
280
     0
102
RTVSPost2010PropOp32
 70
     1
102
RTVSPost2010Prop33
280
     0
102
RTVSPost2010PropOp33
 70
     1
102
RTVSPost2010Prop34
280
     0
102
RTVSPost2010PropOp34
 70
     1
102
RTVSPost2010Prop35
280
     0
102
RTVSPost2010PropOp35
 70
     1
102
RTVSPost2010Prop36
280
     0
102
RTVSPost2010PropOp36
 70
     1
102
RTVSPost2010Prop37
 90
       50
102
RTVSPost2010PropOp37
 70
     1
102
RTVSPost2010Prop38
140
0.0
102
RTVSPost2010PropOp38
 70
     1
102
RTVSPost2010Prop39
140
1.0
102
RTVSPost2010PropOp39
 70
     1
102
RTVSPost2010Prop40
 90
        0
102
RTVSPost2010PropOp40
 70
     1
102
RTVSPost2010Prop41ColorIndex
 90
       18
102
RTVSPost2010Prop41ColorRGB
 90
        0
102
RTVSPost2010PropOp41
 70
     1
102
RTVSPost2010Prop42
 90
       50
102
RTVSPost2010PropOp42
 70
     1
102
RTVSPost2010Prop43
 90
        3
102
RTVSPost2010PropOp43
 70
     1
102
RTVSPost2010Prop44ColorIndex
 90
        5
102
RTVSPost2010Prop44ColorRGB
 90
      255
102
RTVSPost2010PropOp44
 70
     1
102
RTVSPost2010Prop45
280
     0
102
RTVSPost2010PropOp45
 70
     1
102
RTVSPost2010Prop46
 90
       50
102
RTVSPost2010PropOp46
 70
     1
102
RTVSPost2010Prop47
 90
       50
102
RTVSPost2010PropOp47
 70
     1
102
RTVSPost2010Prop48
 90
       50
102
RTVSPost2010PropOp48
 70
     1
102
RTVSPost2010Prop49
280
     0
102
RTVSPost2010PropOp49
 70
     1
102
RTVSPost2010Prop50
 90
       50
102
RTVSPost2010PropOp50
 70
     1
102
RTVSPost2010Prop51ColorIndex
 90
      256
102
RTVSPost2010Prop51ColorRGB
 90
-16777216
102
RTVSPost2010PropOp51
 70
     0
102
RTVSPost2010Prop52
140
1.0
102
RTVSPost2010PropOp52
 70
     0
102
RTVSPost2010Prop53
 90
        2
102
RTVSPost2010PropOp53
 70
     1
102
RTVSPost2010Prop54
  1
strokes_ogs.tif
102
RTVSPost2010PropOp54
 70
     1
102
RTVSPost2010Prop55
280
     0
102
RTVSPost2010PropOp55
 70
     1
102
RTVSPost2010Prop56
140
1.0
102
RTVSPost2010PropOp56
 70
     1
102
RTVSPost2010Prop57
140
1.0
102
RTVSPost2010PropOp57
 70
     1
102
RTVSPropertyOp0
 70
     1
102
RTVSPropertyOp1
 70
     1
102
RTVSPropertyOp2
 70
     1
102
RTVSPropertyOp3
 70
     1
102
RTVSPropertyOp4
 70
     1
102
RTVSPropertyOp5
 70
     1
102
RTVSPropertyOp6
 70
     1
102
RTVSPropertyOp7
 70
     1
102
RTVSPropertyOp8
 70
     1
102
RTVSPropertyOp9
 70
     1
102
RTVSPropertyOp10
 70
     1
102
RTVSPropertyOp11
 70
     1
102
RTVSPropertyOp12
 70
     1
102
RTVSPropertyOp13
 70
     1
102
RTVSPropertyOp14
 70
     1
102
RTVSPropertyOp15
 70
     1
102
RTVSPropertyOp16
 70
     1
102
RTVSPropertyOp17
 70
     1
102
RTVSPropertyOp18
 70
     1
102
RTVSPropertyOp19
 70
     1
102
RTVSPropertyOp20
 70
     1
102
RTVSPropertyOp21
 70
     1
102
RTVSPropertyOp22
 70
     1
102
RTVSPropertyOp23
 70
     1
102
RTVSPropertyOp24
 70
     1
102
RTVSPropertyOp25
 70
     1
102
RTVSPropertyOp26
 70
     1
102
RTVSPropertyOp27
 70
     1
102
RTVSPropertyOp28
 70
     1
102
RTVSPropertyOp29
 70
     1
102
RTVSPropertyOp30
 70
     1
102
RTVSPropertyOp31
 70
     1
102
RTVSPropertyOp32
 70
     1
102
RTVSPropertyOp33
 70
     1
102
RTVSPropertyOp34
 70
     1
102
RTVSPropertyOp35
 70
     1
102
RTVSPropertyOp36
 70
     1
102
RTVSPropertyOp37
 70
     1
102
RTVSPropertyOp38
 70
     1
102
RTVSPropertyOp39
 70
     1
102
RTVSPropertyOp40
 70
     1
102
RTVSPropertyOp41
 70
     1
102
RTVSPropertyOp42
 70
     1
102
RTVSPropertyOp43
 70
     1
102
RTVSPropertyOp44
 70
     1
102
RTVSPropertyOp45
 70
     1
102
RTVSPropertyOp46
 70
     1
102
RTVSPropertyOp47
 70
     1
102
RTVSPropertyOp48
 70
     1
102
RTVSPropertyOp49
 70
     1
102
RTVSPropertyOp50
 70
     1
102
RTVSPropertyOp51
 70
     0
102
RTVSPropertyOp52
 70
     0
102
RTVSPropertyOp53
 70
     1
102
RTVSPropertyOp54
 70
     1
102
RTVSPropertyOp55
 70
     1
102
RTVSPropertyOp56
 70
     1
102
RTVSPropertyOp57
 70
     1
102
RTVSPropertyOp58
 70
     1
102
RTVSPropertyOp59
 70
     1
102
RTVSPropertyOp60
 70
     1
102
RTVSPropertyOp61
 70
     1
102
RTVSPropertyOp62
 70
     1
  0
XRECORD
  5
D20C
102
{ACAD_REACTORS
330
D20B
102
}
330
D20B
100
AcDbXrecord
280
     1
102
RTVSPost2010Prop28
280
     0
102
RTVSPost2010PropOp28
 70
     1
102
RTVSPost2010Prop29
280
     1
102
RTVSPost2010PropOp29
 70
     1
102
RTVSPost2010Prop30
280
     1
102
RTVSPost2010PropOp30
 70
     1
102
RTVSPost2010Prop31
280
     0
102
RTVSPost2010PropOp31
 70
     1
102
RTVSPost2010Prop32
280
     0
102
RTVSPost2010PropOp32
 70
     1
102
RTVSPost2010Prop33
280
     0
102
RTVSPost2010PropOp33
 70
     1
102
RTVSPost2010Prop34
280
     0
102
RTVSPost2010PropOp34
 70
     1
102
RTVSPost2010Prop35
280
     0
102
RTVSPost2010PropOp35
 70
     1
102
RTVSPost2010Prop36
280
     0
102
RTVSPost2010PropOp36
 70
     1
102
RTVSPost2010Prop37
 90
       50
102
RTVSPost2010PropOp37
 70
     1
102
RTVSPost2010Prop38
140
0.0
102
RTVSPost2010PropOp38
 70
     1
102
RTVSPost2010Prop39
140
1.0
102
RTVSPost2010PropOp39
 70
     1
102
RTVSPost2010Prop40
 90
        0
102
RTVSPost2010PropOp40
 70
     1
102
RTVSPost2010Prop41ColorIndex
 90
       18
102
RTVSPost2010Prop41ColorRGB
 90
        0
102
RTVSPost2010PropOp41
 70
     1
102
RTVSPost2010Prop42
 90
       50
102
RTVSPost2010PropOp42
 70
     1
102
RTVSPost2010Prop43
 90
        3
102
RTVSPost2010PropOp43
 70
     1
102
RTVSPost2010Prop44ColorIndex
 90
        5
102
RTVSPost2010Prop44ColorRGB
 90
      255
102
RTVSPost2010PropOp44
 70
     1
102
RTVSPost2010Prop45
280
     0
102
RTVSPost2010PropOp45
 70
     1
102
RTVSPost2010Prop46
 90
       50
102
RTVSPost2010PropOp46
 70
     1
102
RTVSPost2010Prop47
 90
       50
102
RTVSPost2010PropOp47
 70
     1
102
RTVSPost2010Prop48
 90
       50
102
RTVSPost2010PropOp48
 70
     1
102
RTVSPost2010Prop49
280
     0
102
RTVSPost2010PropOp49
 70
     1
102
RTVSPost2010Prop50
 90
       50
102
RTVSPost2010PropOp50
 70
     1
102
RTVSPost2010Prop51ColorIndex
 90
      256
102
RTVSPost2010Prop51ColorRGB
 90
-16777216
102
RTVSPost2010PropOp51
 70
     0
102
RTVSPost2010Prop52
140
1.0
102
RTVSPost2010PropOp52
 70
     0
102
RTVSPost2010Prop53
 90
        2
102
RTVSPost2010PropOp53
 70
     1
102
RTVSPost2010Prop54
  1
strokes_ogs.tif
102
RTVSPost2010PropOp54
 70
     1
102
RTVSPost2010Prop55
280
     0
102
RTVSPost2010PropOp55
 70
     1
102
RTVSPost2010Prop56
140
1.0
102
RTVSPost2010PropOp56
 70
     1
102
RTVSPost2010Prop57
140
1.0
102
RTVSPost2010PropOp57
 70
     1
102
RTVSPropertyOp0
 70
     1
102
RTVSPropertyOp1
 70
     1
102
RTVSPropertyOp2
 70
     1
102
RTVSPropertyOp3
 70
     1
102
RTVSPropertyOp4
 70
     1
102
RTVSPropertyOp5
 70
     1
102
RTVSPropertyOp6
 70
     1
102
RTVSPropertyOp7
 70
     1
102
RTVSPropertyOp8
 70
     1
102
RTVSPropertyOp9
 70
     1
102
RTVSPropertyOp10
 70
     1
102
RTVSPropertyOp11
 70
     1
102
RTVSPropertyOp12
 70
     1
102
RTVSPropertyOp13
 70
     1
102
RTVSPropertyOp14
 70
     1
102
RTVSPropertyOp15
 70
     1
102
RTVSPropertyOp16
 70
     1
102
RTVSPropertyOp17
 70
     1
102
RTVSPropertyOp18
 70
     1
102
RTVSPropertyOp19
 70
     1
102
RTVSPropertyOp20
 70
     1
102
RTVSPropertyOp21
 70
     1
102
RTVSPropertyOp22
 70
     1
102
RTVSPropertyOp23
 70
     1
102
RTVSPropertyOp24
 70
     1
102
RTVSPropertyOp25
 70
     1
102
RTVSPropertyOp26
 70
     1
102
RTVSPropertyOp27
 70
     1
102
RTVSPropertyOp28
 70
     1
102
RTVSPropertyOp29
 70
     1
102
RTVSPropertyOp30
 70
     1
102
RTVSPropertyOp31
 70
     1
102
RTVSPropertyOp32
 70
     1
102
RTVSPropertyOp33
 70
     1
102
RTVSPropertyOp34
 70
     1
102
RTVSPropertyOp35
 70
     1
102
RTVSPropertyOp36
 70
     1
102
RTVSPropertyOp37
 70
     1
102
RTVSPropertyOp38
 70
     1
102
RTVSPropertyOp39
 70
     1
102
RTVSPropertyOp40
 70
     1
102
RTVSPropertyOp41
 70
     1
102
RTVSPropertyOp42
 70
     1
102
RTVSPropertyOp43
 70
     1
102
RTVSPropertyOp44
 70
     1
102
RTVSPropertyOp45
 70
     1
102
RTVSPropertyOp46
 70
     1
102
RTVSPropertyOp47
 70
     1
102
RTVSPropertyOp48
 70
     1
102
RTVSPropertyOp49
 70
     1
102
RTVSPropertyOp50
 70
     1
102
RTVSPropertyOp51
 70
     0
102
RTVSPropertyOp52
 70
     0
102
RTVSPropertyOp53
 70
     1
102
RTVSPropertyOp54
 70
     1
102
RTVSPropertyOp55
 70
     1
102
RTVSPropertyOp56
 70
     1
102
RTVSPropertyOp57
 70
     1
102
RTVSPropertyOp58
 70
     1
102
RTVSPropertyOp59
 70
     1
102
RTVSPropertyOp60
 70
     1
102
RTVSPropertyOp61
 70
     1
102
RTVSPropertyOp62
 70
     1
  0
XRECORD
  5
D200
102
{ACAD_REACTORS
330
D1FF
102
}
330
D1FF
100
AcDbXrecord
280
     1
102
RTVSPost2010Prop28
280
     0
102
RTVSPost2010PropOp28
 70
     1
102
RTVSPost2010Prop29
280
     1
102
RTVSPost2010PropOp29
 70
     1
102
RTVSPost2010Prop30
280
     1
102
RTVSPost2010PropOp30
 70
     1
102
RTVSPost2010Prop31
280
     0
102
RTVSPost2010PropOp31
 70
     1
102
RTVSPost2010Prop32
280
     0
102
RTVSPost2010PropOp32
 70
     1
102
RTVSPost2010Prop33
280
     0
102
RTVSPost2010PropOp33
 70
     1
102
RTVSPost2010Prop34
280
     0
102
RTVSPost2010PropOp34
 70
     1
102
RTVSPost2010Prop35
280
     0
102
RTVSPost2010PropOp35
 70
     1
102
RTVSPost2010Prop36
280
     0
102
RTVSPost2010PropOp36
 70
     1
102
RTVSPost2010Prop37
 90
       50
102
RTVSPost2010PropOp37
 70
     1
102
RTVSPost2010Prop38
140
0.0
102
RTVSPost2010PropOp38
 70
     1
102
RTVSPost2010Prop39
140
1.0
102
RTVSPost2010PropOp39
 70
     1
102
RTVSPost2010Prop40
 90
        0
102
RTVSPost2010PropOp40
 70
     1
102
RTVSPost2010Prop41ColorIndex
 90
       18
102
RTVSPost2010Prop41ColorRGB
 90
        0
102
RTVSPost2010PropOp41
 70
     1
102
RTVSPost2010Prop42
 90
       50
102
RTVSPost2010PropOp42
 70
     1
102
RTVSPost2010Prop43
 90
        3
102
RTVSPost2010PropOp43
 70
     1
102
RTVSPost2010Prop44ColorIndex
 90
        5
102
RTVSPost2010Prop44ColorRGB
 90
      255
102
RTVSPost2010PropOp44
 70
     1
102
RTVSPost2010Prop45
280
     0
102
RTVSPost2010PropOp45
 70
     1
102
RTVSPost2010Prop46
 90
       50
102
RTVSPost2010PropOp46
 70
     1
102
RTVSPost2010Prop47
 90
       50
102
RTVSPost2010PropOp47
 70
     1
102
RTVSPost2010Prop48
 90
       50
102
RTVSPost2010PropOp48
 70
     1
102
RTVSPost2010Prop49
280
     0
102
RTVSPost2010PropOp49
 70
     1
102
RTVSPost2010Prop50
 90
       50
102
RTVSPost2010PropOp50
 70
     1
102
RTVSPost2010Prop51ColorIndex
 90
      256
102
RTVSPost2010Prop51ColorRGB
 90
-16777216
102
RTVSPost2010PropOp51
 70
     0
102
RTVSPost2010Prop52
140
1.0
102
RTVSPost2010PropOp52
 70
     0
102
RTVSPost2010Prop53
 90
        2
102
RTVSPost2010PropOp53
 70
     1
102
RTVSPost2010Prop54
  1
strokes_ogs.tif
102
RTVSPost2010PropOp54
 70
     1
102
RTVSPost2010Prop55
280
     0
102
RTVSPost2010PropOp55
 70
     1
102
RTVSPost2010Prop56
140
1.0
102
RTVSPost2010PropOp56
 70
     1
102
RTVSPost2010Prop57
140
1.0
102
RTVSPost2010PropOp57
 70
     1
102
RTVSPropertyOp0
 70
     1
102
RTVSPropertyOp1
 70
     1
102
RTVSPropertyOp2
 70
     1
102
RTVSPropertyOp3
 70
     1
102
RTVSPropertyOp4
 70
     1
102
RTVSPropertyOp5
 70
     1
102
RTVSPropertyOp6
 70
     1
102
RTVSPropertyOp7
 70
     1
102
RTVSPropertyOp8
 70
     1
102
RTVSPropertyOp9
 70
     1
102
RTVSPropertyOp10
 70
     1
102
RTVSPropertyOp11
 70
     1
102
RTVSPropertyOp12
 70
     1
102
RTVSPropertyOp13
 70
     1
102
RTVSPropertyOp14
 70
     1
102
RTVSPropertyOp15
 70
     1
102
RTVSPropertyOp16
 70
     1
102
RTVSPropertyOp17
 70
     1
102
RTVSPropertyOp18
 70
     1
102
RTVSPropertyOp19
 70
     1
102
RTVSPropertyOp20
 70
     1
102
RTVSPropertyOp21
 70
     1
102
RTVSPropertyOp22
 70
     1
102
RTVSPropertyOp23
 70
     1
102
RTVSPropertyOp24
 70
     1
102
RTVSPropertyOp25
 70
     1
102
RTVSPropertyOp26
 70
     1
102
RTVSPropertyOp27
 70
     1
102
RTVSPropertyOp28
 70
     1
102
RTVSPropertyOp29
 70
     1
102
RTVSPropertyOp30
 70
     1
102
RTVSPropertyOp31
 70
     1
102
RTVSPropertyOp32
 70
     1
102
RTVSPropertyOp33
 70
     1
102
RTVSPropertyOp34
 70
     1
102
RTVSPropertyOp35
 70
     1
102
RTVSPropertyOp36
 70
     1
102
RTVSPropertyOp37
 70
     1
102
RTVSPropertyOp38
 70
     1
102
RTVSPropertyOp39
 70
     1
102
RTVSPropertyOp40
 70
     1
102
RTVSPropertyOp41
 70
     1
102
RTVSPropertyOp42
 70
     1
102
RTVSPropertyOp43
 70
     1
102
RTVSPropertyOp44
 70
     1
102
RTVSPropertyOp45
 70
     1
102
RTVSPropertyOp46
 70
     1
102
RTVSPropertyOp47
 70
     1
102
RTVSPropertyOp48
 70
     1
102
RTVSPropertyOp49
 70
     1
102
RTVSPropertyOp50
 70
     1
102
RTVSPropertyOp51
 70
     0
102
RTVSPropertyOp52
 70
     0
102
RTVSPropertyOp53
 70
     1
102
RTVSPropertyOp54
 70
     1
102
RTVSPropertyOp55
 70
     1
102
RTVSPropertyOp56
 70
     1
102
RTVSPropertyOp57
 70
     1
102
RTVSPropertyOp58
 70
     1
102
RTVSPropertyOp59
 70
     1
102
RTVSPropertyOp60
 70
     1
102
RTVSPropertyOp61
 70
     1
102
RTVSPropertyOp62
 70
     1
  0
XRECORD
  5
D218
102
{ACAD_REACTORS
330
D217
102
}
330
D217
100
AcDbXrecord
280
     1
102
RTVSPost2010Prop28
280
     0
102
RTVSPost2010PropOp28
 70
     1
102
RTVSPost2010Prop29
280
     1
102
RTVSPost2010PropOp29
 70
     1
102
RTVSPost2010Prop30
280
     1
102
RTVSPost2010PropOp30
 70
     1
102
RTVSPost2010Prop31
280
     0
102
RTVSPost2010PropOp31
 70
     1
102
RTVSPost2010Prop32
280
     0
102
RTVSPost2010PropOp32
 70
     1
102
RTVSPost2010Prop33
280
     0
102
RTVSPost2010PropOp33
 70
     1
102
RTVSPost2010Prop34
280
     0
102
RTVSPost2010PropOp34
 70
     1
102
RTVSPost2010Prop35
280
     0
102
RTVSPost2010PropOp35
 70
     1
102
RTVSPost2010Prop36
280
     0
102
RTVSPost2010PropOp36
 70
     1
102
RTVSPost2010Prop37
 90
       50
102
RTVSPost2010PropOp37
 70
     1
102
RTVSPost2010Prop38
140
0.0
102
RTVSPost2010PropOp38
 70
     1
102
RTVSPost2010Prop39
140
1.0
102
RTVSPost2010PropOp39
 70
     1
102
RTVSPost2010Prop40
 90
        0
102
RTVSPost2010PropOp40
 70
     1
102
RTVSPost2010Prop41ColorIndex
 90
       18
102
RTVSPost2010Prop41ColorRGB
 90
        0
102
RTVSPost2010PropOp41
 70
     1
102
RTVSPost2010Prop42
 90
       50
102
RTVSPost2010PropOp42
 70
     1
102
RTVSPost2010Prop43
 90
        3
102
RTVSPost2010PropOp43
 70
     1
102
RTVSPost2010Prop44ColorIndex
 90
        5
102
RTVSPost2010Prop44ColorRGB
 90
      255
102
RTVSPost2010PropOp44
 70
     1
102
RTVSPost2010Prop45
280
     0
102
RTVSPost2010PropOp45
 70
     1
102
RTVSPost2010Prop46
 90
       50
102
RTVSPost2010PropOp46
 70
     1
102
RTVSPost2010Prop47
 90
       50
102
RTVSPost2010PropOp47
 70
     1
102
RTVSPost2010Prop48
 90
       50
102
RTVSPost2010PropOp48
 70
     1
102
RTVSPost2010Prop49
280
     0
102
RTVSPost2010PropOp49
 70
     1
102
RTVSPost2010Prop50
 90
       50
102
RTVSPost2010PropOp50
 70
     1
102
RTVSPost2010Prop51ColorIndex
 90
      256
102
RTVSPost2010Prop51ColorRGB
 90
-16777216
102
RTVSPost2010PropOp51
 70
     0
102
RTVSPost2010Prop52
140
1.0
102
RTVSPost2010PropOp52
 70
     0
102
RTVSPost2010Prop53
 90
        2
102
RTVSPost2010PropOp53
 70
     1
102
RTVSPost2010Prop54
  1
strokes_ogs.tif
102
RTVSPost2010PropOp54
 70
     1
102
RTVSPost2010Prop55
280
     0
102
RTVSPost2010PropOp55
 70
     1
102
RTVSPost2010Prop56
140
1.0
102
RTVSPost2010PropOp56
 70
     1
102
RTVSPost2010Prop57
140
1.0
102
RTVSPost2010PropOp57
 70
     1
102
RTVSPropertyOp0
 70
     1
102
RTVSPropertyOp1
 70
     1
102
RTVSPropertyOp2
 70
     1
102
RTVSPropertyOp3
 70
     1
102
RTVSPropertyOp4
 70
     1
102
RTVSPropertyOp5
 70
     1
102
RTVSPropertyOp6
 70
     1
102
RTVSPropertyOp7
 70
     1
102
RTVSPropertyOp8
 70
     1
102
RTVSPropertyOp9
 70
     1
102
RTVSPropertyOp10
 70
     1
102
RTVSPropertyOp11
 70
     1
102
RTVSPropertyOp12
 70
     1
102
RTVSPropertyOp13
 70
     1
102
RTVSPropertyOp14
 70
     1
102
RTVSPropertyOp15
 70
     1
102
RTVSPropertyOp16
 70
     1
102
RTVSPropertyOp17
 70
     1
102
RTVSPropertyOp18
 70
     1
102
RTVSPropertyOp19
 70
     1
102
RTVSPropertyOp20
 70
     1
102
RTVSPropertyOp21
 70
     1
102
RTVSPropertyOp22
 70
     1
102
RTVSPropertyOp23
 70
     1
102
RTVSPropertyOp24
 70
     1
102
RTVSPropertyOp25
 70
     1
102
RTVSPropertyOp26
 70
     1
102
RTVSPropertyOp27
 70
     1
102
RTVSPropertyOp28
 70
     1
102
RTVSPropertyOp29
 70
     1
102
RTVSPropertyOp30
 70
     1
102
RTVSPropertyOp31
 70
     1
102
RTVSPropertyOp32
 70
     1
102
RTVSPropertyOp33
 70
     1
102
RTVSPropertyOp34
 70
     1
102
RTVSPropertyOp35
 70
     1
102
RTVSPropertyOp36
 70
     1
102
RTVSPropertyOp37
 70
     1
102
RTVSPropertyOp38
 70
     1
102
RTVSPropertyOp39
 70
     1
102
RTVSPropertyOp40
 70
     1
102
RTVSPropertyOp41
 70
     1
102
RTVSPropertyOp42
 70
     1
102
RTVSPropertyOp43
 70
     1
102
RTVSPropertyOp44
 70
     1
102
RTVSPropertyOp45
 70
     1
102
RTVSPropertyOp46
 70
     1
102
RTVSPropertyOp47
 70
     1
102
RTVSPropertyOp48
 70
     1
102
RTVSPropertyOp49
 70
     1
102
RTVSPropertyOp50
 70
     1
102
RTVSPropertyOp51
 70
     0
102
RTVSPropertyOp52
 70
     0
102
RTVSPropertyOp53
 70
     1
102
RTVSPropertyOp54
 70
     1
102
RTVSPropertyOp55
 70
     1
102
RTVSPropertyOp56
 70
     1
102
RTVSPropertyOp57
 70
     1
102
RTVSPropertyOp58
 70
     1
102
RTVSPropertyOp59
 70
     1
102
RTVSPropertyOp60
 70
     1
102
RTVSPropertyOp61
 70
     1
102
RTVSPropertyOp62
 70
     1
  0
ENDSEC
  0
EOF
