  0
SECTION
  2
HEADER
  9
$ACADVER
  1
AC1015
  9
$ACADMAINTVER
 70
    20
  9
$DWGCODEPAGE
  3
ANSI_932
  9
$INSBASE
 10
0.0
 20
0.0
 30
0.0
  9
$EXTMIN
 10
10.0
 20
9.999999999999998
 30
0.0
  9
$EXTMAX
 10
1051.6
 20
464.8
 30
0.0
  9
$LIMMIN
 10
0.0
 20
0.0
  9
$LIMMAX
 10
1069.2
 20
737.1
  9
$ORTHOMODE
 70
     1
  9
$REGENMODE
 70
     1
  9
$FILLMODE
 70
     1
  9
$QTEXTMODE
 70
     0
  9
$MIRRTEXT
 70
     1
  9
$LTSCALE
 40
20.0
  9
$ATTMODE
 70
     1
  9
$TEXTSIZE
 40
5.0
  9
$TRACEWID
 40
1.0
  9
$TEXTSTYLE
  7
STANDARD
  9
$CLAYER
  8
0
  9
$CELTYPE
  6
BYLAYER
  9
$CECOLOR
 62
   256
  9
$CELTSCALE
 40
1.0
  9
$DISPSILH
 70
     0
  9
$DIMSCALE
 40
1.0
  9
$DIMASZ
 40
3.0
  9
$DIMEXO
 40
1.0
  9
$DIMDLI
 40
10.0
  9
$DIMRND
 40
0.0
  9
$DIMDLE
 40
0.0
  9
$DIMEXE
 40
1.0
  9
$DIMTP
 40
0.0
  9
$DIMTM
 40
0.0
  9
$DIMTXT
 40
2.5
  9
$DIMCEN
 40
0.0
  9
$DIMTSZ
 40
0.0
  9
$DIMTOL
 70
     0
  9
$DIMLIM
 70
     0
  9
$DIMTIH
 70
     0
  9
$DIMTOH
 70
     0
  9
$DIMSE1
 70
     1
  9
$DIMSE2
 70
     1
  9
$DIMTAD
 70
     3
  9
$DIMZIN
 70
     8
  9
$DIMBLK
  1

  9
$DIMASO
 70
     1
  9
$DIMSHO
 70
     1
  9
$DIMPOST
  1

  9
$DIMAPOST
  1

  9
$DIMALT
 70
     0
  9
$DIMALTD
 70
     2
  9
$DIMALTF
 40
25.4
  9
$DIMLFAC
 40
1.0
  9
$DIMTOFL
 70
     1
  9
$DIMTVP
 40
0.0
  9
$DIMTIX
 70
     0
  9
$DIMSOXD
 70
     0
  9
$DIMSAH
 70
     1
  9
$DIMBLK1
  1

  9
$DIMBLK2
  1

  9
$DIMSTYLE
  2
STANDARD
  9
$DIMCLRD
 70
     0
  9
$DIMCLRE
 70
     0
  9
$DIMCLRT
 70
     0
  9
$DIMTFAC
 40
1.0
  9
$DIMGAP
 40
1.0
  9
$DIMJUST
 70
     0
  9
$DIMSD1
 70
     0
  9
$DIMSD2
 70
     0
  9
$DIMTOLJ
 70
     1
  9
$DIMTZIN
 70
     0
  9
$DIMALTZ
 70
     0
  9
$DIMALTTZ
 70
     0
  9
$DIMUPT
 70
     0
  9
$DIMDEC
 70
     4
  9
$DIMTDEC
 70
     4
  9
$DIMALTU
 70
     2
  9
$DIMALTTD
 70
     2
  9
$DIMTXSTY
  7
STANDARD
  9
$DIMAUNIT
 70
     0
  9
$DIMADEC
 70
     0
  9
$DIMALTRND
 40
0.0
  9
$DIMAZIN
 70
     0
  9
$DIMDSEP
 70
    46
  9
$DIMATFIT
 70
     3
  9
$DIMFRAC
 70
     0
  9
$DIMLDRBLK
  1

  9
$DIMLUNIT
 70
     2
  9
$DIMLWD
 70
    -2
  9
$DIMLWE
 70
    -2
  9
$DIMTMOVE
 70
     0
  9
$LUNITS
 70
     2
  9
$LUPREC
 70
     4
  9
$SKETCHINC
 40
1.0
  9
$FILLETRAD
 40
0.0
  9
$AUNITS
 70
     0
  9
$AUPREC
 70
     2
  9
$MENU
  1
.
  9
$ELEVATION
 40
0.0
  9
$PELEVATION
 40
0.0
  9
$THICKNESS
 40
0.0
  9
$LIMCHECK
 70
     0
  9
$CHAMFERA
 40
10.0
  9
$CHAMFERB
 40
10.0
  9
$CHAMFERC
 40
0.0
  9
$CHAMFERD
 40
0.0
  9
$SKPOLY
 70
     0
  9
$TDCREATE
 40
2451233.361392477
  9
$TDUCREATE
 40
2451232.986392477
  9
$TDUPDATE
 40
2457192.659533160
  9
$TDUUPDATE
 40
2457192.284533160
  9
$TDINDWG
 40
0.0000141667
  9
$TDUSRTIMER
 40
0.0000136690
  9
$USRTIMER
 70
     1
  9
$ANGBASE
 50
0.0
  9
$ANGDIR
 70
     0
  9
$PDMODE
 70
     0
  9
$PDSIZE
 40
0.0
  9
$PLINEWID
 40
0.0
  9
$SPLFRAME
 70
     0
  9
$SPLINETYPE
 70
     6
  9
$SPLINESEGS
 70
     8
  9
$HANDSEED
  5
DB0B
  9
$SURFTAB1
 70
     6
  9
$SURFTAB2
 70
     6
  9
$SURFTYPE
 70
     6
  9
$SURFU
 70
     6
  9
$SURFV
 70
     6
  9
$UCSBASE
  2

  9
$UCSNAME
  2

  9
$UCSORG
 10
0.0
 20
0.0
 30
0.0
  9
$UCSXDIR
 10
1.0
 20
0.0
 30
0.0
  9
$UCSYDIR
 10
0.0
 20
1.0
 30
0.0
  9
$UCSORTHOREF
  2

  9
$UCSORTHOVIEW
 70
     0
  9
$UCSORGTOP
 10
0.0
 20
0.0
 30
0.0
  9
$UCSORGBOTTOM
 10
0.0
 20
0.0
 30
0.0
  9
$UCSORGLEFT
 10
0.0
 20
0.0
 30
0.0
  9
$UCSORGRIGHT
 10
0.0
 20
0.0
 30
0.0
  9
$UCSORGFRONT
 10
0.0
 20
0.0
 30
0.0
  9
$UCSORGBACK
 10
0.0
 20
0.0
 30
0.0
  9
$PUCSBASE
  2

  9
$PUCSNAME
  2

  9
$PUCSORG
 10
0.0
 20
0.0
 30
0.0
  9
$PUCSXDIR
 10
1.0
 20
0.0
 30
0.0
  9
$PUCSYDIR
 10
0.0
 20
1.0
 30
0.0
  9
$PUCSORTHOREF
  2

  9
$PUCSORTHOVIEW
 70
     0
  9
$PUCSORGTOP
 10
0.0
 20
0.0
 30
0.0
  9
$PUCSORGBOTTOM
 10
0.0
 20
0.0
 30
0.0
  9
$PUCSORGLEFT
 10
0.0
 20
0.0
 30
0.0
  9
$PUCSORGRIGHT
 10
0.0
 20
0.0
 30
0.0
  9
$PUCSORGFRONT
 10
0.0
 20
0.0
 30
0.0
  9
$PUCSORGBACK
 10
0.0
 20
0.0
 30
0.0
  9
$USERI1
 70
     0
  9
$USERI2
 70
     0
  9
$USERI3
 70
     0
  9
$USERI4
 70
     0
  9
$USERI5
 70
     0
  9
$USERR1
 40
0.0
  9
$USERR2
 40
0.0
  9
$USERR3
 40
0.0
  9
$USERR4
 40
0.0
  9
$USERR5
 40
0.0
  9
$WORLDVIEW
 70
     1
  9
$SHADEDGE
 70
     3
  9
$SHADEDIF
 70
    70
  9
$TILEMODE
 70
     1
  9
$MAXACTVP
 70
    16
  9
$PINSBASE
 10
0.0
 20
0.0
 30
0.0
  9
$PLIMCHECK
 70
     0
  9
$PEXTMIN
 10
1.000000000000000E+20
 20
1.000000000000000E+20
 30
1.000000000000000E+20
  9
$PEXTMAX
 10
-1.000000000000000E+20
 20
-1.000000000000000E+20
 30
-1.000000000000000E+20
  9
$PLIMMIN
 10
0.0
 20
0.0
  9
$PLIMMAX
 10
420.0
 20
297.0
  9
$UNITMODE
 70
     0
  9
$VISRETAIN
 70
     0
  9
$PLINEGEN
 70
     0
  9
$PSLTSCALE
 70
     0
  9
$TREEDEPTH
 70
  3020
  9
$CMLSTYLE
  2
STANDARD
  9
$CMLJUST
 70
     0
  9
$CMLSCALE
 40
1.0
  9
$PROXYGRAPHICS
 70
     1
  9
$MEASUREMENT
 70
     0
  9
$CELWEIGHT
370
    -1
  9
$ENDCAPS
280
     0
  9
$JOINSTYLE
280
     0
  9
$LWDISPLAY
290
     0
  9
$INSUNITS
 70
     0
  9
$HYPERLINKBASE
  1

  9
$STYLESHEET
  1

  9
$XEDIT
290
     1
  9
$CEPSNTYPE
380
     0
  9
$PSTYLEMODE
290
     1
  9
$FINGERPRINTGUID
  2
{BA6F21DA-33CA-46D3-BF7C-C6DCC97AB095}
  9
$VERSIONGUID
  2
{1FBDD898-AA30-48FA-B6F2-241150FDCB69}
  9
$EXTNAMES
290
     1
  9
$PSVPSCALE
 40
0.0
  9
$OLESTARTUP
290
     0
  0
ENDSEC
  0
SECTION
  2
CLASSES
  0
CLASS
  1
ACDBDICTIONARYWDFLT
  2
AcDbDictionaryWithDefault
  3
ObjectDBX Classes
 90
        0
280
     0
281
     0
  0
CLASS
  1
ACDBPLACEHOLDER
  2
AcDbPlaceHolder
  3
ObjectDBX Classes
 90
        0
280
     0
281
     0
  0
CLASS
  1
LAYOUT
  2
AcDbLayout
  3
ObjectDBX Classes
 90
        0
280
     0
281
     0
  0
CLASS
  1
DICTIONARYVAR
  2
AcDbDictionaryVar
  3
ObjectDBX Classes
 90
        0
280
     0
281
     0
  0
CLASS
  1
MATERIAL
  2
AcDbMaterial
  3
ObjectDBX Classes
 90
     1153
280
     0
281
     0
  0
CLASS
  1
VISUALSTYLE
  2
AcDbVisualStyle
  3
ObjectDBX Classes
 90
     4095
280
     0
281
     0
  0
CLASS
  1
TABLESTYLE
  2
AcDbTableStyle
  3
ObjectDBX Classes
 90
     4095
280
     0
281
     0
  0
CLASS
  1
SCALE
  2
AcDbScale
  3
ObjectDBX Classes
 90
     1153
280
     0
281
     0
  0
CLASS
  1
MLEADERSTYLE
  2
AcDbMLeaderStyle
  3
ACDB_MLEADERSTYLE_CLASS
 90
     4095
280
     0
281
     0
  0
CLASS
  1
ACDBSECTIONVIEWSTYLE
  2
AcDbSectionViewStyle
  3
ObjectDBX Classes
 90
     1025
280
     0
281
     0
  0
CLASS
  1
ACDBDETAILVIEWSTYLE
  2
AcDbDetailViewStyle
  3
ObjectDBX Classes
 90
     1025
280
     0
281
     0
  0
CLASS
  1
CELLSTYLEMAP
  2
AcDbCellStyleMap
  3
ObjectDBX Classes
 90
     1152
280
     0
281
     0
  0
ENDSEC
  0
SECTION
  2
TABLES
  0
TABLE
  2
VPORT
  5
D5FC
330
0
100
AcDbSymbolTable
 70
     1
  0
VPORT
  5
DA54
330
D5FC
100
AcDbSymbolTableRecord
100
AcDbViewportTableRecord
  2
*ACTIVE
 70
     0
 10
0.0
 20
0.0
 11
1.0
 21
1.0
 12
710.1179625194133
 22
237.4070267100084
 13
0.0
 23
0.0
 14
10.0
 24
10.0
 15
10.0
 25
10.0
 16
0.0
 26
0.0
 36
1.0
 17
0.0
 27
0.0
 37
0.0
 40
598.7740673828977
 41
1.899603698811096
 42
50.0
 43
0.0
 44
0.0
 50
0.0
 51
0.0
 71
     0
 72
   100
 73
     1
 74
     0
 75
     0
 76
     0
 77
     0
 78
     0
281
     0
 65
     1
110
0.0
120
0.0
130
0.0
111
1.0
121
0.0
131
0.0
112
0.0
122
1.0
132
0.0
 79
     0
146
0.0
1001
ACAD_NAV_VCDISPLAY
1070
     3
  0
ENDTAB
  0
TABLE
  2
LTYPE
  5
D5F9
330
0
100
AcDbSymbolTable
 70
     4
  0
LTYPE
  5
D607
330
D5F9
100
AcDbSymbolTableRecord
100
AcDbLinetypeTableRecord
  2
BYBLOCK
 70
     0
  3

 72
    65
 73
     0
 40
0.0
  0
LTYPE
  5
D608
330
D5F9
100
AcDbSymbolTableRecord
100
AcDbLinetypeTableRecord
  2
BYLAYER
 70
     0
  3

 72
    65
 73
     0
 40
0.0
  0
LTYPE
  5
D609
330
D5F9
100
AcDbSymbolTableRecord
100
AcDbLinetypeTableRecord
  2
CONTINUOUS
 70
     0
  3
Solid line
 72
    65
 73
     0
 40
0.0
  0
LTYPE
  5
D617
330
D5F9
100
AcDbSymbolTableRecord
100
AcDbLinetypeTableRecord
  2
DASHED
 70
     0
  3
__ __ __ __ __ __ __ __ __ __ __ __ __ __ __ __
 72
    65
 73
     2
 40
0.75
 49
0.5
 74
     0
 49
-0.25
 74
     0
  0
LTYPE
  5
D618
330
D5F9
100
AcDbSymbolTableRecord
100
AcDbLinetypeTableRecord
  2
CENTER
 70
     0
  3
____ _ ____ _ ____ _ ____ _ ____ _ ____ _ ____ 
 72
    65
 73
     4
 40
2.0
 49
1.25
 74
     0
 49
-0.25
 74
     0
 49
0.25
 74
     0
 49
-0.25
 74
     0
  0
LTYPE
  5
D619
330
D5F9
100
AcDbSymbolTableRecord
100
AcDbLinetypeTableRecord
  2
PHANTOM
 70
     0
  3
______  __  __  ______  __  __  ______  __  __ 
 72
    65
 73
     6
 40
2.5
 49
1.25
 74
     0
 49
-0.25
 74
     0
 49
0.25
 74
     0
 49
-0.25
 74
     0
 49
0.25
 74
     0
 49
-0.25
 74
     0
  0
ENDTAB
  0
TABLE
  2
LAYER
  5
D5F6
330
0
100
AcDbSymbolTable
 70
     8
  0
LAYER
  5
D604
102
{ACAD_XDICTIONARY
360
DAAF
102
}
330
D5F6
100
AcDbSymbolTableRecord
100
AcDbLayerTableRecord
  2
0
 70
     0
 62
     7
  6
CONTINUOUS
370
    -3
390
DA5D
  0
LAYER
  5
D61A
102
{ACAD_XDICTIONARY
360
DAB1
102
}
330
D5F6
100
AcDbSymbolTableRecord
100
AcDbLayerTableRecord
  2
4
 70
     0
 62
     1
  6
CENTER
370
    -3
390
DA5D
  0
LAYER
  5
D61B
102
{ACAD_XDICTIONARY
360
DAB3
102
}
330
D5F6
100
AcDbSymbolTableRecord
100
AcDbLayerTableRecord
  2
5
 70
     0
 62
     6
  6
PHANTOM
370
    -3
390
DA5D
  0
LAYER
  5
D61C
102
{ACAD_XDICTIONARY
360
DAB5
102
}
330
D5F6
100
AcDbSymbolTableRecord
100
AcDbLayerTableRecord
  2
1
 70
     0
 62
     7
  6
CONTINUOUS
370
    -3
390
DA5D
  0
LAYER
  5
D61D
102
{ACAD_XDICTIONARY
360
DAB7
102
}
330
D5F6
100
AcDbSymbolTableRecord
100
AcDbLayerTableRecord
  2
2
 70
     0
 62
     4
  6
CONTINUOUS
370
    -3
390
DA5D
  0
LAYER
  5
D61E
102
{ACAD_XDICTIONARY
360
DAB9
102
}
330
D5F6
100
AcDbSymbolTableRecord
100
AcDbLayerTableRecord
  2
3
 70
     0
 62
     2
  6
DASHED
370
    -3
390
DA5D
  0
LAYER
  5
D61F
102
{ACAD_XDICTIONARY
360
DABB
102
}
330
D5F6
100
AcDbSymbolTableRecord
100
AcDbLayerTableRecord
  2
6
 70
     0
 62
     5
  6
CONTINUOUS
370
    -3
390
DA5D
  0
LAYER
  5
D620
102
{ACAD_XDICTIONARY
360
DABD
102
}
330
D5F6
100
AcDbSymbolTableRecord
100
AcDbLayerTableRecord
  2
7
 70
     0
 62
     3
  6
CONTINUOUS
370
    -3
390
DA5D
  0
ENDTAB
  0
TABLE
  2
STYLE
  5
D5F7
330
0
100
AcDbSymbolTable
 70
     1
  0
STYLE
  5
D605
330
D5F7
100
AcDbSymbolTableRecord
100
AcDbTextStyleTableRecord
  2
STANDARD
 70
     0
 40
0.0
 41
1.0
 50
0.0
 71
     0
 42
5.0
  3
txt
  4

  0
ENDTAB
  0
TABLE
  2
VIEW
  5
D5FA
330
0
100
AcDbSymbolTable
 70
     0
  0
ENDTAB
  0
TABLE
  2
UCS
  5
D5FB
330
0
100
AcDbSymbolTable
 70
     0
  0
ENDTAB
  0
TABLE
  2
APPID
  5
D5FD
330
0
100
AcDbSymbolTable
 70
     3
  0
APPID
  5
D606
330
D5FD
100
AcDbSymbolTableRecord
100
AcDbRegAppTableRecord
  2
ACAD
 70
     0
  0
APPID
  5
DAC9
330
D5FD
100
AcDbSymbolTableRecord
100
AcDbRegAppTableRecord
  2
ACAD_NAV_VCDISPLAY
 70
     0
  0
APPID
  5
DB02
330
D5FD
100
AcDbSymbolTableRecord
100
AcDbRegAppTableRecord
  2
ACAD_MLEADERVER
 70
     0
  0
ENDTAB
  0
TABLE
  2
DIMSTYLE
  5
D5FE
330
0
100
AcDbSymbolTable
 70
     1
100
AcDbDimStyleTable
 71
     0
  0
DIMSTYLE
105
D622
330
D5FE
100
AcDbSymbolTableRecord
100
AcDbDimStyleTableRecord
  2
STANDARD
 70
     0
 41
3.0
 42
1.0
 43
10.0
 44
1.0
 73
     0
 74
     0
 77
     3
 78
     8
140
2.5
141
0.0
147
1.0
172
     1
173
     1
284
     8
285
     8
286
     8
340
D605
  0
ENDTAB
  0
TABLE
  2
BLOCK_RECORD
  5
D5F5
330
0
100
AcDbSymbolTable
 70
     0
  0
BLOCK_RECORD
  5
D612
102
{ACAD_XDICTIONARY
360
DA57
102
}
330
D5F5
100
AcDbSymbolTableRecord
100
AcDbBlockTableRecord
  2
*MODEL_SPACE
340
DAAB
  0
BLOCK_RECORD
  5
D60E
102
{ACAD_XDICTIONARY
360
DA55
102
}
330
D5F5
100
AcDbSymbolTableRecord
100
AcDbBlockTableRecord
  2
*PAPER_SPACE
340
DAAC
  0
ENDTAB
  0
ENDSEC
  0
SECTION
  2
BLOCKS
  0
BLOCK
  5
D613
330
D612
100
AcDbEntity
  8
0
100
AcDbBlockBegin
  2
*MODEL_SPACE
 70
     0
 10
0.0
 20
0.0
 30
0.0
  3
*MODEL_SPACE
  1

  0
ENDBLK
  5
D614
330
D612
100
AcDbEntity
  8
0
100
AcDbBlockEnd
  0
BLOCK
  5
D60F
330
D60E
100
AcDbEntity
 67
     1
  8
0
100
AcDbBlockBegin
  2
*PAPER_SPACE
 70
     0
 10
0.0
 20
0.0
 30
0.0
  3
*PAPER_SPACE
  1

  0
ENDBLK
  5
D610
330
D60E
100
AcDbEntity
 67
     1
  8
0
100
AcDbBlockEnd
  0
ENDSEC
  0
SECTION
  2
ENTITIES
  0
TEXT
  5
D62A
330
D612
100
AcDbEntity
  8
7
  6
Continuous
100
AcDbText
 10
10.0
 20
18.0
 30
0.0
 40
3.0
  1
TYPE No.TM-167-16
100
AcDbText
  0
TEXT
  5
D62B
330
D612
100
AcDbEntity
  8
7
  6
Continuous
100
AcDbText
 10
10.0
 20
26.0
 30
0.0
 40
3.0
  1
CODE No.5843
100
AcDbText
  0
TEXT
  5
D62C
330
D612
100
AcDbEntity
  8
1
  6
Continuous
100
AcDbText
 10
10.0
 20
10.0
 30
0.0
 40
1.399999999999999
  1
LAYER
100
AcDbText
  0
TEXT
  5
D62D
330
D612
100
AcDbEntity
  8
1
  6
Continuous
100
AcDbText
 10
17.97951099999998
 20
10.04873699999998
 30
0.0
 40
1.399999999999999
  1
1
100
AcDbText
  0
TEXT
  5
D62E
330
D612
100
AcDbEntity
  8
7
  6
Continuous
100
AcDbText
 10
29.97951099999999
 20
10.04873699999998
 30
0.0
 40
1.399999999999999
  1
7
100
AcDbText
  0
TEXT
  5
D62F
330
D612
100
AcDbEntity
  8
4
  6
CENTER
100
AcDbText
 10
23.97951099999999
 20
10.04873699999998
 30
0.0
 40
1.399999999999999
  1
4
100
AcDbText
  0
TEXT
  5
D630
330
D612
100
AcDbEntity
  8
3
  6
DASHED
100
AcDbText
 10
21.979511
 20
10.04873699999998
 30
0.0
 40
1.399999999999999
  1
3
100
AcDbText
  0
TEXT
  5
D631
330
D612
100
AcDbEntity
  8
2
  6
Continuous
100
AcDbText
 10
19.97951099999999
 20
10.04873699999998
 30
0.0
 40
1.399999999999999
  1
2
100
AcDbText
  0
TEXT
  5
D632
330
D612
100
AcDbEntity
  8
6
  6
Continuous
100
AcDbText
 10
27.979511
 20
10.04873699999998
 30
0.0
 40
1.399999999999999
  1
6
100
AcDbText
  0
TEXT
  5
D633
330
D612
100
AcDbEntity
  8
5
  6
PHANTOM
100
AcDbText
 10
25.97951099999999
 20
10.04873699999998
 30
0.0
 40
1.399999999999999
  1
5
100
AcDbText
  0
LINE
  5
D634
330
D612
100
AcDbEntity
  8
1
  6
Continuous
100
AcDbLine
 10
118.3
 20
165.0999999999999
 30
0.0
 11
118.3
 21
166.602131
 31
0.0
  0
LINE
  5
D635
330
D612
100
AcDbEntity
  8
1
  6
Continuous
100
AcDbLine
 10
118.3
 20
165.0999999999999
 30
0.0
 11
524.2999999999998
 21
165.0999999999999
 31
0.0
  0
LINE
  5
D636
330
D612
100
AcDbEntity
  8
1
  6
Continuous
100
AcDbLine
 10
524.2999999999998
 20
165.0999999999999
 30
0.0
 11
524.2999999999998
 21
175.2499999999998
 31
0.0
  0
LINE
  5
D637
330
D612
100
AcDbEntity
  8
1
  6
Continuous
100
AcDbLine
 10
118.3
 20
200.4
 30
0.0
 11
524.2999999999998
 21
200.4
 31
0.0
  0
LINE
  5
D638
330
D612
100
AcDbEntity
  8
4
  6
CENTER
100
AcDbLine
 10
113.3
 20
182.75
 30
0.0
 11
958.3
 21
182.75
 31
0.0
  0
LINE
  5
D639
330
D612
100
AcDbEntity
  8
1
  6
Continuous
100
AcDbLine
 10
547.2999999999998
 20
165.0999999999999
 30
0.0
 11
547.2999999999998
 21
170.5
 31
0.0
  0
LINE
  5
D63A
330
D612
100
AcDbEntity
  8
1
  6
Continuous
100
AcDbLine
 10
953.2999999999999
 20
165.0999999999999
 30
0.0
 11
953.2999999999999
 21
166.602131
 31
0.0
  0
LINE
  5
D63B
330
D612
100
AcDbEntity
  8
1
  6
Continuous
100
AcDbLine
 10
547.2999999999998
 20
200.4
 30
0.0
 11
953.2999999999999
 21
200.4
 31
0.0
  0
LINE
  5
D63C
330
D612
100
AcDbEntity
  8
1
  6
Continuous
100
AcDbLine
 10
547.2999999999998
 20
165.0999999999999
 30
0.0
 11
953.2999999999999
 21
165.0999999999999
 31
0.0
  0
ARC
  5
D63D
330
D612
100
AcDbEntity
  8
1
  6
Continuous
100
AcDbCircle
 10
508.3999999999998
 20
182.3499999999999
 30
0.0
 40
2.25
100
AcDbArc
 50
180.0
 51
0.0
  0
LINE
  5
D63E
330
D612
100
AcDbEntity
  8
1
  6
Continuous
100
AcDbLine
 10
510.6499999999998
 20
183.15
 30
0.0
 11
510.6499999999998
 21
182.3499999999999
 31
0.0
  0
LINE
  5
D63F
330
D612
100
AcDbEntity
  8
1
  6
Continuous
100
AcDbLine
 10
506.1499999999998
 20
183.15
 30
0.0
 11
506.1499999999998
 21
182.3499999999999
 31
0.0
  0
LINE
  5
D640
330
D612
100
AcDbEntity
  8
4
  6
CENTER
100
AcDbLine
 10
508.3999999999998
 20
188.0
 30
0.0
 11
508.3999999999998
 21
177.5
 31
0.0
  0
ARC
  5
D641
330
D612
100
AcDbEntity
  8
1
  6
Continuous
100
AcDbCircle
 10
508.3999999999998
 20
183.15
 30
0.0
 40
2.25
100
AcDbArc
 50
0.0
 51
180.0
  0
ARC
  5
D642
330
D612
100
AcDbEntity
  8
1
  6
Continuous
100
AcDbCircle
 10
495.6999999999998
 20
183.15
 30
0.0
 40
2.25
100
AcDbArc
 50
0.0
 51
180.0
  0
ARC
  5
D643
330
D612
100
AcDbEntity
  8
1
  6
Continuous
100
AcDbCircle
 10
495.6999999999998
 20
182.3499999999999
 30
0.0
 40
2.25
100
AcDbArc
 50
180.0
 51
0.0
  0
LINE
  5
D644
330
D612
100
AcDbEntity
  8
4
  6
CENTER
100
AcDbLine
 10
495.6999999999998
 20
188.0
 30
0.0
 11
495.6999999999998
 21
177.5
 31
0.0
  0
LINE
  5
D645
330
D612
100
AcDbEntity
  8
1
  6
Continuous
100
AcDbLine
 10
493.4499999999998
 20
183.15
 30
0.0
 11
493.4499999999998
 21
182.3499999999999
 31
0.0
  0
LINE
  5
D646
330
D612
100
AcDbEntity
  8
1
  6
Continuous
100
AcDbLine
 10
497.9499999999998
 20
183.15
 30
0.0
 11
497.9499999999998
 21
182.3499999999999
 31
0.0
  0
ARC
  5
D647
330
D612
100
AcDbEntity
  8
1
  6
Continuous
100
AcDbCircle
 10
483.3999999999998
 20
182.75
 30
0.0
 40
2.25
100
AcDbArc
 50
270.0
 51
90.0
  0
LINE
  5
D648
330
D612
100
AcDbEntity
  8
4
  6
CENTER
100
AcDbLine
 10
483.0
 20
188.0
 30
0.0
 11
483.0
 21
177.5
 31
0.0
  0
ARC
  5
D649
330
D612
100
AcDbEntity
  8
1
  6
Continuous
100
AcDbCircle
 10
482.6
 20
182.75
 30
0.0
 40
2.25
100
AcDbArc
 50
90.0
 51
270.0
  0
LINE
  5
D64A
330
D612
100
AcDbEntity
  8
1
  6
Continuous
100
AcDbLine
 10
483.3999999999998
 20
185.0
 30
0.0
 11
482.6
 21
185.0
 31
0.0
  0
LINE
  5
D64B
330
D612
100
AcDbEntity
  8
1
  6
Continuous
100
AcDbLine
 10
483.3999999999998
 20
180.4999999999998
 30
0.0
 11
482.6
 21
180.4999999999998
 31
0.0
  0
ARC
  5
D64C
330
D612
100
AcDbEntity
  8
1
  6
Continuous
100
AcDbCircle
 10
397.6999999999999
 20
182.75
 30
0.0
 40
2.25
100
AcDbArc
 50
270.0
 51
90.0
  0
ARC
  5
D64D
330
D612
100
AcDbEntity
  8
1
  6
Continuous
100
AcDbCircle
 10
396.8999999999999
 20
182.75
 30
0.0
 40
2.25
100
AcDbArc
 50
90.0
 51
270.0
  0
LINE
  5
D64E
330
D612
100
AcDbEntity
  8
1
  6
Continuous
100
AcDbLine
 10
397.6999999999999
 20
185.0
 30
0.0
 11
396.8999999999999
 21
185.0
 31
0.0
  0
LINE
  5
D64F
330
D612
100
AcDbEntity
  8
4
  6
CENTER
100
AcDbLine
 10
397.3
 20
188.0
 30
0.0
 11
397.3
 21
177.5
 31
0.0
  0
LINE
  5
D650
330
D612
100
AcDbEntity
  8
1
  6
Continuous
100
AcDbLine
 10
397.6999999999999
 20
180.4999999999998
 30
0.0
 11
396.8999999999999
 21
180.4999999999998
 31
0.0
  0
LINE
  5
D651
330
D612
100
AcDbEntity
  8
1
  6
Continuous
100
AcDbLine
 10
258.0
 20
180.4999999999998
 30
0.0
 11
257.2
 21
180.4999999999998
 31
0.0
  0
LINE
  5
D652
330
D612
100
AcDbEntity
  8
4
  6
CENTER
100
AcDbLine
 10
257.6
 20
188.0
 30
0.0
 11
257.6
 21
177.5
 31
0.0
  0
LINE
  5
D653
330
D612
100
AcDbEntity
  8
1
  6
Continuous
100
AcDbLine
 10
258.0
 20
185.0
 30
0.0
 11
257.2
 21
185.0
 31
0.0
  0
ARC
  5
D654
330
D612
100
AcDbEntity
  8
1
  6
Continuous
100
AcDbCircle
 10
257.2
 20
182.75
 30
0.0
 40
2.25
100
AcDbArc
 50
90.0
 51
270.0
  0
ARC
  5
D655
330
D612
100
AcDbEntity
  8
1
  6
Continuous
100
AcDbCircle
 10
258.0
 20
182.75
 30
0.0
 40
2.25
100
AcDbArc
 50
270.0
 51
90.0
  0
ARC
  5
D656
330
D612
100
AcDbEntity
  8
1
  6
Continuous
100
AcDbCircle
 10
146.5
 20
183.15
 30
0.0
 40
2.25
100
AcDbArc
 50
0.0
 51
180.0
  0
ARC
  5
D657
330
D612
100
AcDbEntity
  8
1
  6
Continuous
100
AcDbCircle
 10
146.5
 20
182.3499999999999
 30
0.0
 40
2.25
100
AcDbArc
 50
180.0
 51
0.0
  0
LINE
  5
D658
330
D612
100
AcDbEntity
  8
4
  6
CENTER
100
AcDbLine
 10
146.5
 20
188.0
 30
0.0
 11
146.5
 21
177.5
 31
0.0
  0
LINE
  5
D659
330
D612
100
AcDbEntity
  8
1
  6
Continuous
100
AcDbLine
 10
144.25
 20
183.15
 30
0.0
 11
144.25
 21
182.3499999999999
 31
0.0
  0
LINE
  5
D65A
330
D612
100
AcDbEntity
  8
1
  6
Continuous
100
AcDbLine
 10
148.75
 20
183.15
 30
0.0
 11
148.75
 21
182.3499999999999
 31
0.0
  0
ARC
  5
D65B
330
D612
100
AcDbEntity
  8
1
  6
Continuous
100
AcDbCircle
 10
133.8
 20
183.15
 30
0.0
 40
2.25
100
AcDbArc
 50
0.0
 51
180.0
  0
ARC
  5
D65C
330
D612
100
AcDbEntity
  8
1
  6
Continuous
100
AcDbCircle
 10
133.8
 20
182.3499999999999
 30
0.0
 40
2.25
100
AcDbArc
 50
180.0
 51
0.0
  0
LINE
  5
D65D
330
D612
100
AcDbEntity
  8
4
  6
CENTER
100
AcDbLine
 10
133.8
 20
188.0
 30
0.0
 11
133.8
 21
177.5
 31
0.0
  0
LINE
  5
D65E
330
D612
100
AcDbEntity
  8
1
  6
Continuous
100
AcDbLine
 10
131.55
 20
183.15
 30
0.0
 11
131.55
 21
182.3499999999999
 31
0.0
  0
LINE
  5
D65F
330
D612
100
AcDbEntity
  8
1
  6
Continuous
100
AcDbLine
 10
136.05
 20
183.15
 30
0.0
 11
136.05
 21
182.3499999999999
 31
0.0
  0
LINE
  5
D660
330
D612
100
AcDbEntity
  8
1
  6
Continuous
100
AcDbLine
 10
935.5499999999999
 20
183.15
 30
0.0
 11
935.5499999999999
 21
182.3499999999999
 31
0.0
  0
LINE
  5
D661
330
D612
100
AcDbEntity
  8
1
  6
Continuous
100
AcDbLine
 10
940.0499999999999
 20
183.15
 30
0.0
 11
940.0499999999999
 21
182.3499999999999
 31
0.0
  0
LINE
  5
D662
330
D612
100
AcDbEntity
  8
4
  6
CENTER
100
AcDbLine
 10
937.8
 20
188.0
 30
0.0
 11
937.8
 21
177.5
 31
0.0
  0
ARC
  5
D663
330
D612
100
AcDbEntity
  8
1
  6
Continuous
100
AcDbCircle
 10
937.8
 20
182.3499999999999
 30
0.0
 40
2.25
100
AcDbArc
 50
180.0
 51
0.0
  0
ARC
  5
D664
330
D612
100
AcDbEntity
  8
1
  6
Continuous
100
AcDbCircle
 10
937.8
 20
183.15
 30
0.0
 40
2.25
100
AcDbArc
 50
0.0
 51
180.0
  0
LINE
  5
D665
330
D612
100
AcDbEntity
  8
1
  6
Continuous
100
AcDbLine
 10
922.85
 20
183.15
 30
0.0
 11
922.85
 21
182.3499999999999
 31
0.0
  0
LINE
  5
D666
330
D612
100
AcDbEntity
  8
1
  6
Continuous
100
AcDbLine
 10
927.35
 20
183.15
 30
0.0
 11
927.35
 21
182.3499999999999
 31
0.0
  0
LINE
  5
D667
330
D612
100
AcDbEntity
  8
4
  6
CENTER
100
AcDbLine
 10
925.1000000000001
 20
188.0
 30
0.0
 11
925.1000000000001
 21
177.5
 31
0.0
  0
ARC
  5
D668
330
D612
100
AcDbEntity
  8
1
  6
Continuous
100
AcDbCircle
 10
925.1000000000001
 20
182.3499999999999
 30
0.0
 40
2.25
100
AcDbArc
 50
180.0
 51
0.0
  0
ARC
  5
D669
330
D612
100
AcDbEntity
  8
1
  6
Continuous
100
AcDbCircle
 10
925.1000000000001
 20
183.15
 30
0.0
 40
2.25
100
AcDbArc
 50
0.0
 51
180.0
  0
ARC
  5
D66A
330
D612
100
AcDbEntity
  8
1
  6
Continuous
100
AcDbCircle
 10
814.4
 20
182.75
 30
0.0
 40
2.25
100
AcDbArc
 50
270.0
 51
90.0
  0
ARC
  5
D66B
330
D612
100
AcDbEntity
  8
1
  6
Continuous
100
AcDbCircle
 10
813.6000000000001
 20
182.75
 30
0.0
 40
2.25
100
AcDbArc
 50
90.0
 51
270.0
  0
LINE
  5
D66C
330
D612
100
AcDbEntity
  8
1
  6
Continuous
100
AcDbLine
 10
813.6000000000001
 20
185.0
 30
0.0
 11
814.4
 21
185.0
 31
0.0
  0
LINE
  5
D66D
330
D612
100
AcDbEntity
  8
4
  6
CENTER
100
AcDbLine
 10
814.0
 20
188.0
 30
0.0
 11
814.0
 21
177.5
 31
0.0
  0
LINE
  5
D66E
330
D612
100
AcDbEntity
  8
1
  6
Continuous
100
AcDbLine
 10
813.6000000000001
 20
180.4999999999998
 30
0.0
 11
814.4
 21
180.4999999999998
 31
0.0
  0
LINE
  5
D66F
330
D612
100
AcDbEntity
  8
4
  6
CENTER
100
AcDbLine
 10
674.2999999999998
 20
188.0
 30
0.0
 11
674.2999999999998
 21
177.5
 31
0.0
  0
LINE
  5
D670
330
D612
100
AcDbEntity
  8
4
  6
CENTER
100
AcDbLine
 10
588.6
 20
188.0
 30
0.0
 11
588.6
 21
177.5
 31
0.0
  0
ARC
  5
D671
330
D612
100
AcDbEntity
  8
1
  6
Continuous
100
AcDbCircle
 10
563.2000000000001
 20
183.15
 30
0.0
 40
2.25
100
AcDbArc
 50
0.0
 51
180.0
  0
ARC
  5
D672
330
D612
100
AcDbEntity
  8
1
  6
Continuous
100
AcDbCircle
 10
563.2000000000001
 20
182.3499999999999
 30
0.0
 40
2.25
100
AcDbArc
 50
180.0
 51
0.0
  0
LINE
  5
D673
330
D612
100
AcDbEntity
  8
4
  6
CENTER
100
AcDbLine
 10
575.8999999999997
 20
188.0
 30
0.0
 11
575.8999999999997
 21
177.5
 31
0.0
  0
LINE
  5
D674
330
D612
100
AcDbEntity
  8
4
  6
CENTER
100
AcDbLine
 10
563.2000000000001
 20
189.9566529999999
 30
0.0
 11
563.2000000000001
 21
175.14061
 31
0.0
  0
LINE
  5
D675
330
D612
100
AcDbEntity
  8
1
  6
Continuous
100
AcDbLine
 10
565.4500000000001
 20
183.15
 30
0.0
 11
565.4500000000001
 21
182.3499999999999
 31
0.0
  0
LINE
  5
D676
330
D612
100
AcDbEntity
  8
1
  6
Continuous
100
AcDbLine
 10
560.95
 20
183.15
 30
0.0
 11
560.95
 21
182.3499999999999
 31
0.0
  0
LINE
  5
D677
330
D612
100
AcDbEntity
  8
1
  6
Continuous
100
AcDbLine
 10
25.0
 20
170.171084
 30
0.0
 11
25.0
 21
195.3289159999999
 31
0.0
  0
LINE
  5
D678
330
D612
100
AcDbEntity
  8
1
  6
Continuous
100
AcDbLine
 10
26.6
 20
170.171084
 30
0.0
 11
26.6
 21
175.2499999999998
 31
0.0
  0
LINE
  5
D679
330
D612
100
AcDbEntity
  8
1
  6
Continuous
100
AcDbLine
 10
28.3
 20
191.6375
 30
0.0
 11
28.3
 21
192.8375
 31
0.0
  0
LINE
  5
D67A
330
D612
100
AcDbEntity
  8
1
  6
Continuous
100
AcDbLine
 10
28.3
 20
192.8375
 30
0.0
 11
30.89999999999999
 21
192.8375
 31
0.0
  0
LINE
  5
D67B
330
D612
100
AcDbEntity
  8
1
  6
Continuous
100
AcDbLine
 10
28.3
 20
191.6375
 30
0.0
 11
30.89999999999999
 21
191.6375
 31
0.0
  0
LINE
  5
D67C
330
D612
100
AcDbEntity
  8
1
  6
Continuous
100
AcDbLine
 10
32.1
 20
175.0625
 30
0.0
 11
32.1
 21
190.4374999999998
 31
0.0
  0
ARC
  5
D67D
330
D612
100
AcDbEntity
  8
1
  6
Continuous
100
AcDbCircle
 10
30.89999999999999
 20
190.4374999999998
 30
0.0
 40
1.199999999999999
100
AcDbArc
 50
0.0
 51
90.0
  0
ARC
  5
D67E
330
D612
100
AcDbEntity
  8
1
  6
Continuous
100
AcDbCircle
 10
30.89999999999999
 20
190.4374999999998
 30
0.0
 40
2.399999999999999
100
AcDbArc
 50
0.0
 51
90.0
  0
LINE
  5
D67F
330
D612
100
AcDbEntity
  8
1
  6
Continuous
100
AcDbLine
 10
524.2999999999998
 20
195.0
 30
0.0
 11
739.7
 21
195.0
 31
0.0
  0
LINE
  5
D680
330
D612
100
AcDbEntity
  8
1
  6
Continuous
100
AcDbLine
 10
524.2999999999998
 20
170.5
 30
0.0
 11
739.7
 21
170.5
 31
0.0
  0
LINE
  5
D681
330
D612
100
AcDbEntity
  8
1
  6
Continuous
100
AcDbLine
 10
547.2999999999998
 20
195.0
 30
0.0
 11
547.2999999999998
 21
200.4
 31
0.0
  0
LINE
  5
D682
330
D612
100
AcDbEntity
  8
3
  6
DASHED
100
AcDbLine
 10
547.2999999999998
 20
170.5
 30
0.0
 11
547.2999999999998
 21
175.2499999999998
 31
0.0
  0
LINE
  5
D683
330
D612
100
AcDbEntity
  8
1
  6
Continuous
100
AcDbLine
 10
561.7
 20
187.7499999999998
 30
0.0
 11
564.7000000000002
 21
187.7499999999998
 31
0.0
  0
LINE
  5
D684
330
D612
100
AcDbEntity
  8
1
  6
Continuous
100
AcDbLine
 10
561.7
 20
177.75
 30
0.0
 11
564.7000000000002
 21
177.75
 31
0.0
  0
ARC
  5
D685
330
D612
100
AcDbEntity
  8
1
  6
Continuous
100
AcDbCircle
 10
564.7000000000002
 20
182.75
 30
0.0
 40
5.0
100
AcDbArc
 50
270.0
 51
90.0
  0
ARC
  5
D686
330
D612
100
AcDbEntity
  8
1
  6
Continuous
100
AcDbCircle
 10
561.7
 20
182.75
 30
0.0
 40
5.0
100
AcDbArc
 50
90.0
 51
270.0
  0
LINE
  5
D687
330
D612
100
AcDbEntity
  8
1
  6
Continuous
100
AcDbLine
 10
701.7000000000003
 20
192.8375
 30
0.0
 11
701.7000000000003
 21
172.6625
 31
0.0
  0
LINE
  5
D688
330
D612
100
AcDbEntity
  8
1
  6
Continuous
100
AcDbLine
 10
739.7
 20
195.0
 30
0.0
 11
739.7
 21
170.5
 31
0.0
  0
LINE
  5
D689
330
D612
100
AcDbEntity
  8
4
  6
CENTER
100
AcDbLine
 10
714.7000000000002
 20
189.25
 30
0.0
 11
714.7000000000002
 21
176.25
 31
0.0
  0
CIRCLE
  5
D68A
330
D612
100
AcDbEntity
  8
1
  6
Continuous
100
AcDbCircle
 10
714.7000000000002
 20
182.75
 30
0.0
 40
3.5
  0
LINE
  5
D68B
330
D612
100
AcDbEntity
  8
4
  6
CENTER
100
AcDbLine
 10
20.0
 20
182.75
 30
0.0
 11
49.1
 21
182.75
 31
0.0
  0
ARC
  5
D68C
330
D612
100
AcDbEntity
  8
1
  6
Continuous
100
AcDbCircle
 10
30.0
 20
196.4187499999999
 30
0.0
 40
2.38125
100
AcDbArc
 50
204.844815
 51
343.87833
  0
ARC
  5
D68D
330
D612
100
AcDbEntity
  8
1
  6
Continuous
100
AcDbCircle
 10
30.0
 20
196.4187499999999
 30
0.0
 40
3.98125
100
AcDbArc
 50
21.665296
 51
142.987809
  0
LINE
  5
D68E
330
D612
100
AcDbEntity
  8
1
  6
Continuous
100
AcDbLine
 10
33.7
 20
197.8885629999999
 30
0.0
 11
32.21302999999998
 21
197.2978689999999
 31
0.0
  0
LINE
  5
D68F
330
D612
100
AcDbEntity
  8
1
  6
Continuous
100
AcDbLine
 10
25.644776
 20
197.2552679999998
 30
0.0
 11
26.82094199999999
 21
198.815403
 31
0.0
  0
LINE
  5
D690
330
D612
100
AcDbEntity
  8
1
  6
Continuous
100
AcDbLine
 10
26.922388
 20
196.292092
 30
0.0
 11
28.098554
 21
197.852227
 31
0.0
  0
ARC
  5
D691
330
D612
100
AcDbEntity
  8
1
  6
Continuous
100
AcDbCircle
 10
28.2
 20
195.3289159999999
 30
0.0
 40
1.6
100
AcDbArc
 50
142.987809
 51
180.0
  0
ARC
  5
D692
330
D612
100
AcDbEntity
  8
1
  6
Continuous
100
AcDbCircle
 10
28.2
 20
195.3289159999999
 30
0.0
 40
3.2
100
AcDbArc
 50
142.987809
 51
180.0
  0
ARC
  5
D693
330
D612
100
AcDbEntity
  8
1
  6
Continuous
100
AcDbCircle
 10
30.0
 20
196.4187499999999
 30
0.0
 40
3.581249999999998
100
AcDbArc
 50
236.0503449999999
 51
309.5506789999999
  0
LINE
  5
D694
330
D612
100
AcDbEntity
  8
1
  6
Continuous
100
AcDbLine
 10
34.5
 20
172.322939
 30
0.0
 11
34.5
 21
193.177061
 31
0.0
  0
LINE
  5
D695
330
D612
100
AcDbEntity
  8
1
  6
Continuous
100
AcDbLine
 10
33.3
 20
172.322939
 30
0.0
 11
33.3
 21
193.177061
 31
0.0
  0
ARC
  5
D696
330
D612
100
AcDbEntity
  8
1
  6
Continuous
100
AcDbCircle
 10
32.677061
 20
193.177061
 30
0.0
 40
1.822938999999999
100
AcDbArc
 50
0.0
 51
129.550679
  0
ARC
  5
D697
330
D612
100
AcDbEntity
  8
1
  6
Continuous
100
AcDbCircle
 10
32.677061
 20
193.177061
 30
0.0
 40
0.6229390000000003
100
AcDbArc
 50
0.0
 51
129.550679
  0
LINE
  5
D698
330
D612
100
AcDbEntity
  8
1
  6
Continuous
100
AcDbLine
 10
28.0
 20
193.448001
 30
0.0
 11
28.67015699999999
 21
194.443435
 31
0.0
  0
ARC
  5
D699
330
D612
100
AcDbEntity
  8
1
  6
Continuous
100
AcDbCircle
 10
28.2
 20
170.171084
 30
0.0
 40
3.2
100
AcDbArc
 50
180.0
 51
217.012191
  0
ARC
  5
D69A
330
D612
100
AcDbEntity
  8
1
  6
Continuous
100
AcDbCircle
 10
28.2
 20
170.171084
 30
0.0
 40
1.6
100
AcDbArc
 50
180.0
 51
217.012191
  0
LINE
  5
D69B
330
D612
100
AcDbEntity
  8
1
  6
Continuous
100
AcDbLine
 10
28.3
 20
173.8625
 30
0.0
 11
28.3
 21
172.6625
 31
0.0
  0
LINE
  5
D69C
330
D612
100
AcDbEntity
  8
1
  6
Continuous
100
AcDbLine
 10
28.3
 20
173.8625
 30
0.0
 11
30.89999999999999
 21
173.8625
 31
0.0
  0
LINE
  5
D69D
330
D612
100
AcDbEntity
  8
1
  6
Continuous
100
AcDbLine
 10
28.3
 20
172.6625
 30
0.0
 11
30.89999999999999
 21
172.6625
 31
0.0
  0
ARC
  5
D69E
330
D612
100
AcDbEntity
  8
1
  6
Continuous
100
AcDbCircle
 10
30.89999999999999
 20
175.0625
 30
0.0
 40
2.399999999999999
100
AcDbArc
 50
270.0
 51
0.0
  0
ARC
  5
D69F
330
D612
100
AcDbEntity
  8
1
  6
Continuous
100
AcDbCircle
 10
30.89999999999999
 20
175.0625
 30
0.0
 40
1.199999999999999
100
AcDbArc
 50
270.0
 51
0.0
  0
ARC
  5
D6A0
330
D612
100
AcDbEntity
  8
1
  6
Continuous
100
AcDbCircle
 10
30.0
 20
169.08125
 30
0.0
 40
3.581249999999998
100
AcDbArc
 50
50.449321
 51
123.949655
  0
LINE
  5
D6A1
330
D612
100
AcDbEntity
  8
1
  6
Continuous
100
AcDbLine
 10
28.0
 20
172.0519989999999
 30
0.0
 11
28.67015699999999
 21
171.0565649999998
 31
0.0
  0
ARC
  5
D6A2
330
D612
100
AcDbEntity
  8
1
  6
Continuous
100
AcDbCircle
 10
32.677061
 20
172.322939
 30
0.0
 40
0.6229390000000003
100
AcDbArc
 50
230.4493209999999
 51
0.0
  0
ARC
  5
D6A3
330
D612
100
AcDbEntity
  8
1
  6
Continuous
100
AcDbCircle
 10
32.677061
 20
172.322939
 30
0.0
 40
1.822938999999999
100
AcDbArc
 50
230.4493209999999
 51
0.0
  0
ARC
  5
D6A4
330
D612
100
AcDbEntity
  8
1
  6
Continuous
100
AcDbCircle
 10
30.0
 20
169.08125
 30
0.0
 40
3.98125
100
AcDbArc
 50
217.012191
 51
338.3347039999998
  0
LINE
  5
D6A5
330
D612
100
AcDbEntity
  8
1
  6
Continuous
100
AcDbLine
 10
25.644776
 20
168.244732
 30
0.0
 11
26.82094199999999
 21
166.6845969999999
 31
0.0
  0
LINE
  5
D6A6
330
D612
100
AcDbEntity
  8
1
  6
Continuous
100
AcDbLine
 10
26.922388
 20
169.207908
 30
0.0
 11
28.098554
 21
167.647773
 31
0.0
  0
LINE
  5
D6A7
330
D612
100
AcDbEntity
  8
1
  6
Continuous
100
AcDbLine
 10
33.7
 20
167.611437
 30
0.0
 11
32.21302999999998
 21
168.202131
 31
0.0
  0
LINE
  5
D6A8
330
D612
100
AcDbEntity
  8
1
  6
Continuous
100
AcDbLine
 10
27.1
 20
190.25
 30
0.0
 11
27.1
 21
195.398548
 31
0.0
  0
LINE
  5
D6A9
330
D612
100
AcDbEntity
  8
1
  6
Continuous
100
AcDbLine
 10
27.6
 20
190.25
 30
0.0
 11
27.6
 21
195.4
 31
0.0
  0
LINE
  5
D6AA
330
D612
100
AcDbEntity
  8
1
  6
Continuous
100
AcDbLine
 10
30.1
 20
177.5
 30
0.0
 11
30.1
 21
188.0
 31
0.0
  0
ARC
  5
D6AB
330
D612
100
AcDbEntity
  8
1
  6
Continuous
100
AcDbCircle
 10
29.6
 20
188.0
 30
0.0
 40
0.5
100
AcDbArc
 50
0.0
 51
36.869898
  0
LINE
  5
D6AC
330
D612
100
AcDbEntity
  8
1
  6
Continuous
100
AcDbLine
 10
33.5
 20
195.8499999999999
 30
0.0
 11
33.5
 21
196.3499999999999
 31
0.0
  0
LINE
  5
D6AD
330
D612
100
AcDbEntity
  8
1
  6
Continuous
100
AcDbLine
 10
33.5
 20
195.8499999999999
 30
0.0
 11
27.6
 21
195.4
 31
0.0
  0
ARC
  5
D6AE
330
D612
100
AcDbEntity
  8
1
  6
Continuous
100
AcDbCircle
 10
30.0
 20
196.4187499999999
 30
0.0
 40
2.38125
100
AcDbArc
 50
356.280872
 51
192.4422739999998
  0
LINE
  5
D6AF
330
D612
100
AcDbEntity
  8
1
  6
Continuous
100
AcDbLine
 10
33.5
 20
169.65
 30
0.0
 11
27.6
 21
170.1
 31
0.0
  0
ARC
  5
D6B0
330
D612
100
AcDbEntity
  8
1
  6
Continuous
100
AcDbCircle
 10
30.0
 20
169.08125
 30
0.0
 40
2.38125
100
AcDbArc
 50
167.557726
 51
3.719127999999999
  0
ARC
  5
D6B1
330
D612
100
AcDbEntity
  8
1
  6
Continuous
100
AcDbCircle
 10
30.0
 20
169.08125
 30
0.0
 40
2.38125
100
AcDbArc
 50
16.12167
 51
155.1551849999999
  0
LINE
  5
D6B2
330
D612
100
AcDbEntity
  8
1
  6
Continuous
100
AcDbLine
 10
27.6
 20
175.2499999999998
 30
0.0
 11
27.6
 21
170.1
 31
0.0
  0
ARC
  5
D6B3
330
D612
100
AcDbEntity
  8
1
  6
Continuous
100
AcDbCircle
 10
29.6
 20
177.5
 30
0.0
 40
0.5
100
AcDbArc
 50
323.130102
 51
0.0
  0
LINE
  5
D6B4
330
D612
100
AcDbEntity
  8
1
  6
Continuous
100
AcDbLine
 10
35.6
 20
195.8499999999999
 30
0.0
 11
41.5
 21
195.4
 31
0.0
  0
ARC
  5
D6B5
330
D612
100
AcDbEntity
  8
1
  6
Continuous
100
AcDbCircle
 10
40.89999999999998
 20
195.3289159999999
 30
0.0
 40
3.2
100
AcDbArc
 50
0.0
 51
37.01219099999998
  0
ARC
  5
D6B6
330
D612
100
AcDbEntity
  8
1
  6
Continuous
100
AcDbCircle
 10
40.89999999999998
 20
195.3289159999999
 30
0.0
 40
1.6
100
AcDbArc
 50
0.0
 51
37.01219099999998
  0
LINE
  5
D6B7
330
D612
100
AcDbEntity
  8
1
  6
Continuous
100
AcDbLine
 10
34.6
 20
172.322939
 30
0.0
 11
34.6
 21
193.177061
 31
0.0
  0
LINE
  5
D6B8
330
D612
100
AcDbEntity
  8
1
  6
Continuous
100
AcDbLine
 10
42.5
 20
170.171084
 30
0.0
 11
42.5
 21
171.25
 31
0.0
  0
LINE
  5
D6B9
330
D612
100
AcDbEntity
  8
1
  6
Continuous
100
AcDbLine
 10
44.1
 20
170.171084
 30
0.0
 11
44.1
 21
195.3289159999999
 31
0.0
  0
LINE
  5
D6BA
330
D612
100
AcDbEntity
  8
1
  6
Continuous
100
AcDbLine
 10
41.5
 20
194.25
 30
0.0
 11
41.5
 21
195.4
 31
0.0
  0
LINE
  5
D6BB
330
D612
100
AcDbEntity
  8
1
  6
Continuous
100
AcDbLine
 10
40.56006899999998
 20
194.25
 30
0.0
 11
40.42984299999999
 21
194.443435
 31
0.0
  0
ARC
  5
D6BC
330
D612
100
AcDbEntity
  8
1
  6
Continuous
100
AcDbCircle
 10
36.422939
 20
193.177061
 30
0.0
 40
1.822938999999999
100
AcDbArc
 50
50.449321
 51
180.0
  0
ARC
  5
D6BD
330
D612
100
AcDbEntity
  8
1
  6
Continuous
100
AcDbCircle
 10
39.1
 20
196.4187499999999
 30
0.0
 40
3.98125
100
AcDbArc
 50
37.01219099999998
 51
158.3347039999999
  0
LINE
  5
D6BE
330
D612
100
AcDbEntity
  8
1
  6
Continuous
100
AcDbLine
 10
43.455224
 20
197.2552679999998
 30
0.0
 11
42.279058
 21
198.815403
 31
0.0
  0
LINE
  5
D6BF
330
D612
100
AcDbEntity
  8
1
  6
Continuous
100
AcDbLine
 10
42.17761199999999
 20
196.292092
 30
0.0
 11
41.001446
 21
197.852227
 31
0.0
  0
LINE
  5
D6C0
330
D612
100
AcDbEntity
  8
1
  6
Continuous
100
AcDbLine
 10
35.4
 20
197.8885629999999
 30
0.0
 11
36.88696999999999
 21
197.2978689999999
 31
0.0
  0
LINE
  5
D6C1
330
D612
100
AcDbEntity
  8
1
  6
Continuous
100
AcDbLine
 10
41.5
 20
171.25
 30
0.0
 11
41.5
 21
170.1
 31
0.0
  0
ARC
  5
D6C2
330
D612
100
AcDbEntity
  8
1
  6
Continuous
100
AcDbCircle
 10
39.1
 20
169.08125
 30
0.0
 40
3.98125
100
AcDbArc
 50
201.6652959999999
 51
322.9878089999999
  0
ARC
  5
D6C3
330
D612
100
AcDbEntity
  8
1
  6
Continuous
100
AcDbCircle
 10
40.89999999999998
 20
170.171084
 30
0.0
 40
1.6
100
AcDbArc
 50
322.9878089999999
 51
0.0
  0
LINE
  5
D6C4
330
D612
100
AcDbEntity
  8
1
  6
Continuous
100
AcDbLine
 10
43.455224
 20
168.244732
 30
0.0
 11
42.279058
 21
166.6845969999999
 31
0.0
  0
ARC
  5
D6C5
330
D612
100
AcDbEntity
  8
1
  6
Continuous
100
AcDbCircle
 10
40.89999999999998
 20
170.171084
 30
0.0
 40
3.2
100
AcDbArc
 50
322.9878089999999
 51
0.0
  0
ARC
  5
D6C6
330
D612
100
AcDbEntity
  8
1
  6
Continuous
100
AcDbCircle
 10
39.1
 20
169.08125
 30
0.0
 40
2.38125
100
AcDbArc
 50
24.844815
 51
65.61074999999999
  0
ARC
  5
D6C7
330
D612
100
AcDbEntity
  8
1
  6
Continuous
100
AcDbCircle
 10
39.1
 20
169.08125
 30
0.0
 40
2.38125
100
AcDbArc
 50
176.2808719999999
 51
12.44227399999999
  0
LINE
  5
D6C8
330
D612
100
AcDbEntity
  8
1
  6
Continuous
100
AcDbLine
 10
35.6
 20
169.65
 30
0.0
 11
41.5
 21
170.1
 31
0.0
  0
LINE
  5
D6C9
330
D612
100
AcDbEntity
  8
1
  6
Continuous
100
AcDbLine
 10
35.4
 20
167.611437
 30
0.0
 11
36.88696999999999
 21
168.202131
 31
0.0
  0
LINE
  5
D6CA
330
D612
100
AcDbEntity
  8
1
  6
Continuous
100
AcDbLine
 10
42.17761199999999
 20
169.207908
 30
0.0
 11
41.001446
 21
167.647773
 31
0.0
  0
ARC
  5
D6CB
330
D612
100
AcDbEntity
  8
1
  6
Continuous
100
AcDbCircle
 10
36.422939
 20
172.322939
 30
0.0
 40
1.822938999999999
100
AcDbArc
 50
180.0
 51
309.5506789999999
  0
LINE
  5
D6CC
330
D612
100
AcDbEntity
  8
1
  6
Continuous
100
AcDbLine
 10
40.56006899999998
 20
171.25
 30
0.0
 11
40.42984299999999
 21
171.0565649999998
 31
0.0
  0
LINE
  5
D6CD
330
D612
100
AcDbEntity
  8
1
  6
Continuous
100
AcDbLine
 10
25.0
 20
190.25
 30
0.0
 11
30.0
 21
190.25
 31
0.0
  0
LINE
  5
D6CE
330
D612
100
AcDbEntity
  8
1
  6
Continuous
100
AcDbLine
 10
25.0
 20
175.2499999999998
 30
0.0
 11
30.0
 21
175.2499999999998
 31
0.0
  0
LINE
  5
D6CF
330
D612
100
AcDbEntity
  8
1
  6
Continuous
100
AcDbLine
 10
30.0
 20
175.2499999999998
 30
0.0
 11
30.0
 21
190.25
 31
0.0
  0
LINE
  5
D6D0
330
D612
100
AcDbEntity
  8
1
  6
Continuous
100
AcDbLine
 10
26.6
 20
190.25
 30
0.0
 11
26.6
 21
195.3289159999999
 31
0.0
  0
LINE
  5
D6D1
330
D612
100
AcDbEntity
  8
1
  6
Continuous
100
AcDbLine
 10
35.6
 20
172.75
 30
0.0
 11
35.6
 21
192.75
 31
0.0
  0
LINE
  5
D6D2
330
D612
100
AcDbEntity
  8
1
  6
Continuous
100
AcDbLine
 10
37.1
 20
194.25
 30
0.0
 11
44.1
 21
194.25
 31
0.0
  0
LINE
  5
D6D3
330
D612
100
AcDbEntity
  8
1
  6
Continuous
100
AcDbLine
 10
37.1
 20
171.25
 30
0.0
 11
44.1
 21
171.25
 31
0.0
  0
LINE
  5
D6D4
330
D612
100
AcDbEntity
  8
1
  6
Continuous
100
AcDbLine
 10
42.5
 20
194.25
 30
0.0
 11
42.5
 21
195.3289159999999
 31
0.0
  0
ARC
  5
D6D5
330
D612
100
AcDbEntity
  8
1
  6
Continuous
100
AcDbCircle
 10
37.1
 20
192.75
 30
0.0
 40
1.5
100
AcDbArc
 50
90.0
 51
180.0
  0
ARC
  5
D6D6
330
D612
100
AcDbEntity
  8
1
  6
Continuous
100
AcDbCircle
 10
37.1
 20
172.75
 30
0.0
 40
1.5
100
AcDbArc
 50
180.0
 51
270.0
  0
ARC
  5
D6D7
330
D612
100
AcDbEntity
  8
1
  6
Continuous
100
AcDbCircle
 10
39.1
 20
169.08125
 30
0.0
 40
2.38125
100
AcDbArc
 50
114.3892499999999
 51
163.87833
  0
LINE
  5
D6D8
330
D612
100
AcDbEntity
  8
1
  6
Continuous
100
AcDbLine
 10
548.8999999999998
 20
197.8885629999999
 30
0.0
 11
951.7000000000001
 21
197.8885629999999
 31
0.0
  0
LINE
  5
D6D9
330
D612
100
AcDbEntity
  8
1
  6
Continuous
100
AcDbLine
 10
548.8999999999998
 20
197.2978689999999
 30
0.0
 11
951.7000000000001
 21
197.2978689999999
 31
0.0
  0
LINE
  5
D6DA
330
D612
100
AcDbEntity
  8
1
  6
Continuous
100
AcDbLine
 10
951.7000000000001
 20
194.25
 30
0.0
 11
953.2999999999999
 21
194.25
 31
0.0
  0
LINE
  5
D6DB
330
D612
100
AcDbEntity
  8
1
  6
Continuous
100
AcDbLine
 10
951.7000000000001
 20
171.25
 30
0.0
 11
953.2999999999999
 21
171.25
 31
0.0
  0
LINE
  5
D6DC
330
D612
100
AcDbEntity
  8
1
  6
Continuous
100
AcDbLine
 10
951.7000000000001
 20
171.25
 30
0.0
 11
951.7000000000001
 21
194.25
 31
0.0
  0
ARC
  5
D6DD
330
D612
100
AcDbEntity
  8
1
  6
Continuous
100
AcDbCircle
 10
951.7000000000001
 20
199.4885629999999
 30
0.0
 40
1.6
100
AcDbArc
 50
270.0
 51
0.0
  0
ARC
  5
D6DE
330
D612
100
AcDbEntity
  8
1
  6
Continuous
100
AcDbCircle
 10
951.7000000000001
 20
198.8978689999999
 30
0.0
 40
1.6
100
AcDbArc
 50
270.0
 51
0.0
  0
ARC
  5
D6DF
330
D612
100
AcDbEntity
  8
1
  6
Continuous
100
AcDbCircle
 10
548.8999999999998
 20
199.4885629999999
 30
0.0
 40
1.6
100
AcDbArc
 50
180.0
 51
270.0
  0
ARC
  5
D6E0
330
D612
100
AcDbEntity
  8
1
  6
Continuous
100
AcDbCircle
 10
548.8999999999998
 20
198.8978689999999
 30
0.0
 40
1.6
100
AcDbArc
 50
180.0
 51
270.0
  0
ARC
  5
D6E1
330
D612
100
AcDbEntity
  8
1
  6
Continuous
100
AcDbCircle
 10
951.7000000000001
 20
166.602131
 30
0.0
 40
1.6
100
AcDbArc
 50
0.0
 51
90.0
  0
ARC
  5
D6E2
330
D612
100
AcDbEntity
  8
1
  6
Continuous
100
AcDbCircle
 10
951.7000000000001
 20
166.011437
 30
0.0
 40
1.6
100
AcDbArc
 50
0.0
 51
90.0
  0
LINE
  5
D6E3
330
D612
100
AcDbEntity
  8
1
  6
Continuous
100
AcDbLine
 10
548.8999999999998
 20
168.202131
 30
0.0
 11
951.7000000000001
 21
168.202131
 31
0.0
  0
LINE
  5
D6E4
330
D612
100
AcDbEntity
  8
1
  6
Continuous
100
AcDbLine
 10
548.8999999999998
 20
167.611437
 30
0.0
 11
951.7000000000001
 21
167.611437
 31
0.0
  0
ARC
  5
D6E5
330
D612
100
AcDbEntity
  8
1
  6
Continuous
100
AcDbCircle
 10
548.8999999999998
 20
166.602131
 30
0.0
 40
1.6
100
AcDbArc
 50
90.0
 51
180.0
  0
ARC
  5
D6E6
330
D612
100
AcDbEntity
  8
1
  6
Continuous
100
AcDbCircle
 10
548.8999999999998
 20
166.011437
 30
0.0
 40
1.6
100
AcDbArc
 50
90.0
 51
180.0
  0
LINE
  5
D6E7
330
D612
100
AcDbEntity
  8
1
  6
Continuous
100
AcDbLine
 10
551.2999999999998
 20
195.8499999999999
 30
0.0
 11
561.7999999999998
 21
195.8499999999999
 31
0.0
  0
ARC
  5
D6E8
330
D612
100
AcDbEntity
  8
1
  6
Continuous
100
AcDbCircle
 10
556.5499999999998
 20
196.4187499999999
 30
0.0
 40
2.38125
100
AcDbArc
 50
158.3347039999999
 51
181.6544389999999
  0
ARC
  5
D6E9
330
D612
100
AcDbEntity
  8
1
  6
Continuous
100
AcDbCircle
 10
556.5499999999998
 20
196.4187499999999
 30
0.0
 40
2.38125
100
AcDbArc
 50
193.81839
 51
216.5697209999999
  0
LINE
  5
D6EA
330
D612
100
AcDbEntity
  8
1
  6
Continuous
100
AcDbLine
 10
551.2999999999998
 20
196.3499999999999
 30
0.0
 11
551.2999999999998
 21
195.0
 31
0.0
  0
ARC
  5
D6EB
330
D612
100
AcDbEntity
  8
1
  6
Continuous
100
AcDbCircle
 10
556.5499999999998
 20
196.4187499999999
 30
0.0
 40
2.38125
100
AcDbArc
 50
323.430279
 51
346.18161
  0
ARC
  5
D6EC
330
D612
100
AcDbEntity
  8
1
  6
Continuous
100
AcDbCircle
 10
556.5499999999998
 20
196.4187499999999
 30
0.0
 40
2.38125
100
AcDbArc
 50
358.3455609999999
 51
21.665296
  0
LINE
  5
D6ED
330
D612
100
AcDbEntity
  8
1
  6
Continuous
100
AcDbLine
 10
561.7999999999998
 20
196.3499999999999
 30
0.0
 11
561.7999999999998
 21
195.0
 31
0.0
  0
LINE
  5
D6EE
330
D612
100
AcDbEntity
  8
1
  6
Continuous
100
AcDbLine
 10
524.2999999999998
 20
192.8375
 30
0.0
 11
739.7
 21
192.8375
 31
0.0
  0
LINE
  5
D6EF
330
D612
100
AcDbEntity
  8
1
  6
Continuous
100
AcDbLine
 10
524.2999999999998
 20
191.6375
 30
0.0
 11
701.7000000000003
 21
191.6375
 31
0.0
  0
LINE
  5
D6F0
330
D612
100
AcDbEntity
  8
1
  6
Continuous
100
AcDbLine
 10
524.2999999999998
 20
172.6625
 30
0.0
 11
739.7
 21
172.6625
 31
0.0
  0
LINE
  5
D6F1
330
D612
100
AcDbEntity
  8
1
  6
Continuous
100
AcDbLine
 10
524.2999999999998
 20
173.8625
 30
0.0
 11
701.7000000000003
 21
173.8625
 31
0.0
  0
LINE
  5
D6F2
330
D612
100
AcDbEntity
  8
1
  6
Continuous
100
AcDbLine
 10
521.7999999999998
 20
190.25
 30
0.0
 11
524.2999999999998
 21
190.25
 31
0.0
  0
LINE
  5
D6F3
330
D612
100
AcDbEntity
  8
1
  6
Continuous
100
AcDbLine
 10
521.7999999999998
 20
175.2499999999998
 30
0.0
 11
524.2999999999998
 21
175.2499999999998
 31
0.0
  0
LINE
  5
D6F4
330
D612
100
AcDbEntity
  8
1
  6
Continuous
100
AcDbLine
 10
521.7999999999998
 20
175.2499999999998
 30
0.0
 11
521.7999999999998
 21
190.25
 31
0.0
  0
LINE
  5
D6F5
330
D612
100
AcDbEntity
  8
1
  6
Continuous
100
AcDbLine
 10
524.2999999999998
 20
190.25
 30
0.0
 11
524.2999999999998
 21
200.4
 31
0.0
  0
LINE
  5
D6F6
330
D612
100
AcDbEntity
  8
3
  6
DASHED
100
AcDbLine
 10
549.7999999999998
 20
190.25
 30
0.0
 11
547.2999999999998
 21
190.25
 31
0.0
  0
LINE
  5
D6F7
330
D612
100
AcDbEntity
  8
3
  6
DASHED
100
AcDbLine
 10
549.7999999999998
 20
175.2499999999998
 30
0.0
 11
549.7999999999998
 21
190.25
 31
0.0
  0
LINE
  5
D6F8
330
D612
100
AcDbEntity
  8
3
  6
DASHED
100
AcDbLine
 10
549.7999999999998
 20
175.2499999999998
 30
0.0
 11
547.2999999999998
 21
175.2499999999998
 31
0.0
  0
LINE
  5
D6F9
330
D612
100
AcDbEntity
  8
3
  6
DASHED
100
AcDbLine
 10
547.2999999999998
 20
190.25
 30
0.0
 11
547.2999999999998
 21
195.0
 31
0.0
  0
LINE
  5
D6FA
330
D612
100
AcDbEntity
  8
3
  6
DASHED
100
AcDbLine
 10
736.7
 20
195.0
 30
0.0
 11
736.7
 21
170.5
 31
0.0
  0
LINE
  5
D6FB
330
D612
100
AcDbEntity
  8
3
  6
DASHED
100
AcDbLine
 10
331.8999999999999
 20
195.0
 30
0.0
 11
331.8999999999999
 21
170.5
 31
0.0
  0
LINE
  5
D6FC
330
D612
100
AcDbEntity
  8
3
  6
DASHED
100
AcDbLine
 10
334.8999999999999
 20
195.0
 30
0.0
 11
334.8999999999999
 21
170.5
 31
0.0
  0
LINE
  5
D6FD
330
D612
100
AcDbEntity
  8
3
  6
DASHED
100
AcDbLine
 10
331.8999999999999
 20
195.0
 30
0.0
 11
524.2999999999998
 21
195.0
 31
0.0
  0
LINE
  5
D6FE
330
D612
100
AcDbEntity
  8
3
  6
DASHED
100
AcDbLine
 10
331.8999999999999
 20
170.5
 30
0.0
 11
524.2999999999998
 21
170.5
 31
0.0
  0
LINE
  5
D6FF
330
D612
100
AcDbEntity
  8
1
  6
Continuous
100
AcDbLine
 10
33.5
 20
196.3499999999999
 30
0.0
 11
27.561975
 21
195.8971
 31
0.0
  0
ARC
  5
D700
330
D612
100
AcDbEntity
  8
1
  6
Continuous
100
AcDbCircle
 10
27.6
 20
195.398548
 30
0.0
 40
0.5
100
AcDbArc
 50
94.36157300000001
 51
180.0
  0
LINE
  5
D701
330
D612
100
AcDbEntity
  8
1
  6
Continuous
100
AcDbLine
 10
35.6
 20
196.3499999999999
 30
0.0
 11
41.538025
 21
195.8971
 31
0.0
  0
LINE
  5
D702
330
D612
100
AcDbEntity
  8
1
  6
Continuous
100
AcDbLine
 10
35.6
 20
195.8499999999999
 30
0.0
 11
35.6
 21
196.3499999999999
 31
0.0
  0
ARC
  5
D703
330
D612
100
AcDbEntity
  8
1
  6
Continuous
100
AcDbCircle
 10
41.5
 20
195.398548
 30
0.0
 40
0.5
100
AcDbArc
 50
0.0
 51
85.63842699999998
  0
LINE
  5
D704
330
D612
100
AcDbEntity
  8
1
  6
Continuous
100
AcDbLine
 10
42.0
 20
194.25
 30
0.0
 11
42.0
 21
195.398548
 31
0.0
  0
ARC
  5
D705
330
D612
100
AcDbEntity
  8
1
  6
Continuous
100
AcDbCircle
 10
39.1
 20
196.4187499999999
 30
0.0
 40
2.38125
100
AcDbArc
 50
347.557726
 51
183.719128
  0
ARC
  5
D706
330
D612
100
AcDbEntity
  8
1
  6
Continuous
100
AcDbCircle
 10
39.1
 20
196.4187499999999
 30
0.0
 40
2.38125
100
AcDbArc
 50
196.12167
 51
245.6107499999998
  0
ARC
  5
D707
330
D612
100
AcDbEntity
  8
1
  6
Continuous
100
AcDbCircle
 10
39.1
 20
196.4187499999999
 30
0.0
 40
2.38125
100
AcDbArc
 50
294.38925
 51
335.155185
  0
LINE
  5
D708
330
D612
100
AcDbEntity
  8
1
  6
Continuous
100
AcDbLine
 10
42.0
 20
171.25
 30
0.0
 11
42.0
 21
170.101452
 31
0.0
  0
ARC
  5
D709
330
D612
100
AcDbEntity
  8
1
  6
Continuous
100
AcDbCircle
 10
41.5
 20
170.101452
 30
0.0
 40
0.5
100
AcDbArc
 50
274.361573
 51
0.0
  0
LINE
  5
D70A
330
D612
100
AcDbEntity
  8
1
  6
Continuous
100
AcDbLine
 10
35.6
 20
169.15
 30
0.0
 11
41.538025
 21
169.6029
 31
0.0
  0
LINE
  5
D70B
330
D612
100
AcDbEntity
  8
1
  6
Continuous
100
AcDbLine
 10
35.6
 20
169.65
 30
0.0
 11
35.6
 21
169.15
 31
0.0
  0
LINE
  5
D70C
330
D612
100
AcDbEntity
  8
1
  6
Continuous
100
AcDbLine
 10
33.5
 20
169.65
 30
0.0
 11
33.5
 21
169.15
 31
0.0
  0
LINE
  5
D70D
330
D612
100
AcDbEntity
  8
1
  6
Continuous
100
AcDbLine
 10
33.5
 20
169.15
 30
0.0
 11
27.561975
 21
169.6029
 31
0.0
  0
ARC
  5
D70E
330
D612
100
AcDbEntity
  8
1
  6
Continuous
100
AcDbCircle
 10
27.6
 20
170.101452
 30
0.0
 40
0.5
100
AcDbArc
 50
180.0
 51
265.6384269999999
  0
LINE
  5
D70F
330
D612
100
AcDbEntity
  8
1
  6
Continuous
100
AcDbLine
 10
27.1
 20
175.2499999999998
 30
0.0
 11
27.1
 21
170.101452
 31
0.0
  0
LINE
  5
D710
330
D612
100
AcDbEntity
  8
1
  6
Continuous
100
AcDbLine
 10
551.2999999999998
 20
196.3499999999999
 30
0.0
 11
561.7999999999998
 21
196.3499999999999
 31
0.0
  0
LINE
  5
D711
330
D612
100
AcDbEntity
  8
1
  6
Continuous
100
AcDbLine
 10
574.2999999999998
 20
196.3499999999999
 30
0.0
 11
574.2999999999998
 21
195.0
 31
0.0
  0
LINE
  5
D712
330
D612
100
AcDbEntity
  8
1
  6
Continuous
100
AcDbLine
 10
563.7999999999998
 20
196.3499999999999
 30
0.0
 11
563.7999999999998
 21
195.0
 31
0.0
  0
ARC
  5
D713
330
D612
100
AcDbEntity
  8
1
  6
Continuous
100
AcDbCircle
 10
569.0499999999998
 20
196.4187499999999
 30
0.0
 40
2.38125
100
AcDbArc
 50
323.430279
 51
346.18161
  0
ARC
  5
D714
330
D612
100
AcDbEntity
  8
1
  6
Continuous
100
AcDbCircle
 10
569.0499999999998
 20
196.4187499999999
 30
0.0
 40
2.38125
100
AcDbArc
 50
193.81839
 51
216.5697209999999
  0
LINE
  5
D715
330
D612
100
AcDbEntity
  8
1
  6
Continuous
100
AcDbLine
 10
563.7999999999998
 20
196.3499999999999
 30
0.0
 11
574.2999999999998
 21
196.3499999999999
 31
0.0
  0
LINE
  5
D716
330
D612
100
AcDbEntity
  8
1
  6
Continuous
100
AcDbLine
 10
563.7999999999998
 20
195.8499999999999
 30
0.0
 11
574.2999999999998
 21
195.8499999999999
 31
0.0
  0
ARC
  5
D717
330
D612
100
AcDbEntity
  8
1
  6
Continuous
100
AcDbCircle
 10
569.0499999999998
 20
196.4187499999999
 30
0.0
 40
2.38125
100
AcDbArc
 50
158.3347039999999
 51
181.6544389999999
  0
ARC
  5
D718
330
D612
100
AcDbEntity
  8
1
  6
Continuous
100
AcDbCircle
 10
569.0499999999998
 20
196.4187499999999
 30
0.0
 40
2.38125
100
AcDbArc
 50
358.3455609999999
 51
21.665296
  0
ARC
  5
D719
330
D612
100
AcDbEntity
  8
1
  6
Continuous
100
AcDbCircle
 10
581.5499999999998
 20
196.4187499999999
 30
0.0
 40
2.38125
100
AcDbArc
 50
193.81839
 51
216.5697209999999
  0
ARC
  5
D71A
330
D612
100
AcDbEntity
  8
1
  6
Continuous
100
AcDbCircle
 10
581.5499999999998
 20
196.4187499999999
 30
0.0
 40
2.38125
100
AcDbArc
 50
323.430279
 51
346.18161
  0
LINE
  5
D71B
330
D612
100
AcDbEntity
  8
1
  6
Continuous
100
AcDbLine
 10
576.2999999999998
 20
196.3499999999999
 30
0.0
 11
576.2999999999998
 21
195.0
 31
0.0
  0
LINE
  5
D71C
330
D612
100
AcDbEntity
  8
1
  6
Continuous
100
AcDbLine
 10
586.7999999999998
 20
196.3499999999999
 30
0.0
 11
586.7999999999998
 21
195.0
 31
0.0
  0
LINE
  5
D71D
330
D612
100
AcDbEntity
  8
1
  6
Continuous
100
AcDbLine
 10
576.2999999999998
 20
195.8499999999999
 30
0.0
 11
586.7999999999998
 21
195.8499999999999
 31
0.0
  0
LINE
  5
D71E
330
D612
100
AcDbEntity
  8
1
  6
Continuous
100
AcDbLine
 10
576.2999999999998
 20
196.3499999999999
 30
0.0
 11
586.7999999999998
 21
196.3499999999999
 31
0.0
  0
ARC
  5
D71F
330
D612
100
AcDbEntity
  8
1
  6
Continuous
100
AcDbCircle
 10
581.5499999999998
 20
196.4187499999999
 30
0.0
 40
2.38125
100
AcDbArc
 50
358.3455609999999
 51
21.665296
  0
ARC
  5
D720
330
D612
100
AcDbEntity
  8
1
  6
Continuous
100
AcDbCircle
 10
581.5499999999998
 20
196.4187499999999
 30
0.0
 40
2.38125
100
AcDbArc
 50
158.3347039999999
 51
181.6544389999999
  0
LINE
  5
D721
330
D612
100
AcDbEntity
  8
1
  6
Continuous
100
AcDbLine
 10
599.2999999999998
 20
196.3499999999999
 30
0.0
 11
599.2999999999998
 21
195.0
 31
0.0
  0
LINE
  5
D722
330
D612
100
AcDbEntity
  8
1
  6
Continuous
100
AcDbLine
 10
588.7999999999998
 20
196.3499999999999
 30
0.0
 11
588.7999999999998
 21
195.0
 31
0.0
  0
ARC
  5
D723
330
D612
100
AcDbEntity
  8
1
  6
Continuous
100
AcDbCircle
 10
594.0499999999998
 20
196.4187499999999
 30
0.0
 40
2.38125
100
AcDbArc
 50
323.430279
 51
346.18161
  0
ARC
  5
D724
330
D612
100
AcDbEntity
  8
1
  6
Continuous
100
AcDbCircle
 10
594.0499999999998
 20
196.4187499999999
 30
0.0
 40
2.38125
100
AcDbArc
 50
193.81839
 51
216.5697209999999
  0
ARC
  5
D725
330
D612
100
AcDbEntity
  8
1
  6
Continuous
100
AcDbCircle
 10
594.0499999999998
 20
196.4187499999999
 30
0.0
 40
2.38125
100
AcDbArc
 50
158.3347039999999
 51
181.6544389999999
  0
ARC
  5
D726
330
D612
100
AcDbEntity
  8
1
  6
Continuous
100
AcDbCircle
 10
594.0499999999998
 20
196.4187499999999
 30
0.0
 40
2.38125
100
AcDbArc
 50
358.3455609999999
 51
21.665296
  0
LINE
  5
D727
330
D612
100
AcDbEntity
  8
1
  6
Continuous
100
AcDbLine
 10
588.7999999999998
 20
196.3499999999999
 30
0.0
 11
599.2999999999998
 21
196.3499999999999
 31
0.0
  0
LINE
  5
D728
330
D612
100
AcDbEntity
  8
1
  6
Continuous
100
AcDbLine
 10
588.7999999999998
 20
195.8499999999999
 30
0.0
 11
599.2999999999998
 21
195.8499999999999
 31
0.0
  0
ARC
  5
D729
330
D612
100
AcDbEntity
  8
1
  6
Continuous
100
AcDbCircle
 10
606.55
 20
196.4187499999999
 30
0.0
 40
2.38125
100
AcDbArc
 50
193.81839
 51
216.5697209999999
  0
ARC
  5
D72A
330
D612
100
AcDbEntity
  8
1
  6
Continuous
100
AcDbCircle
 10
606.55
 20
196.4187499999999
 30
0.0
 40
2.38125
100
AcDbArc
 50
323.430279
 51
346.18161
  0
LINE
  5
D72B
330
D612
100
AcDbEntity
  8
1
  6
Continuous
100
AcDbLine
 10
601.2999999999998
 20
196.3499999999999
 30
0.0
 11
601.2999999999998
 21
195.0
 31
0.0
  0
LINE
  5
D72C
330
D612
100
AcDbEntity
  8
1
  6
Continuous
100
AcDbLine
 10
611.7999999999998
 20
196.3499999999999
 30
0.0
 11
611.7999999999998
 21
195.0
 31
0.0
  0
LINE
  5
D72D
330
D612
100
AcDbEntity
  8
1
  6
Continuous
100
AcDbLine
 10
601.2999999999998
 20
195.8499999999999
 30
0.0
 11
611.7999999999998
 21
195.8499999999999
 31
0.0
  0
LINE
  5
D72E
330
D612
100
AcDbEntity
  8
1
  6
Continuous
100
AcDbLine
 10
601.2999999999998
 20
196.3499999999999
 30
0.0
 11
611.7999999999998
 21
196.3499999999999
 31
0.0
  0
ARC
  5
D72F
330
D612
100
AcDbEntity
  8
1
  6
Continuous
100
AcDbCircle
 10
606.55
 20
196.4187499999999
 30
0.0
 40
2.38125
100
AcDbArc
 50
358.3455609999999
 51
21.665296
  0
ARC
  5
D730
330
D612
100
AcDbEntity
  8
1
  6
Continuous
100
AcDbCircle
 10
606.55
 20
196.4187499999999
 30
0.0
 40
2.38125
100
AcDbArc
 50
158.3347039999999
 51
181.6544389999999
  0
LINE
  5
D731
330
D612
100
AcDbEntity
  8
1
  6
Continuous
100
AcDbLine
 10
613.7999999999998
 20
196.3499999999999
 30
0.0
 11
624.2999999999998
 21
196.3499999999999
 31
0.0
  0
LINE
  5
D732
330
D612
100
AcDbEntity
  8
1
  6
Continuous
100
AcDbLine
 10
613.7999999999998
 20
195.8499999999999
 30
0.0
 11
624.2999999999998
 21
195.8499999999999
 31
0.0
  0
LINE
  5
D733
330
D612
100
AcDbEntity
  8
1
  6
Continuous
100
AcDbLine
 10
613.7999999999998
 20
196.3499999999999
 30
0.0
 11
613.7999999999998
 21
195.0
 31
0.0
  0
ARC
  5
D734
330
D612
100
AcDbEntity
  8
1
  6
Continuous
100
AcDbCircle
 10
619.05
 20
196.4187499999999
 30
0.0
 40
2.38125
100
AcDbArc
 50
193.81839
 51
216.5697209999999
  0
ARC
  5
D735
330
D612
100
AcDbEntity
  8
1
  6
Continuous
100
AcDbCircle
 10
619.05
 20
196.4187499999999
 30
0.0
 40
2.38125
100
AcDbArc
 50
158.3347039999999
 51
181.6544389999999
  0
LINE
  5
D736
330
D612
100
AcDbEntity
  8
1
  6
Continuous
100
AcDbLine
 10
624.2999999999998
 20
196.3499999999999
 30
0.0
 11
624.2999999999998
 21
195.0
 31
0.0
  0
ARC
  5
D737
330
D612
100
AcDbEntity
  8
1
  6
Continuous
100
AcDbCircle
 10
619.05
 20
196.4187499999999
 30
0.0
 40
2.38125
100
AcDbArc
 50
323.430279
 51
346.18161
  0
ARC
  5
D738
330
D612
100
AcDbEntity
  8
1
  6
Continuous
100
AcDbCircle
 10
619.05
 20
196.4187499999999
 30
0.0
 40
2.38125
100
AcDbArc
 50
358.3455609999999
 51
21.665296
  0
ARC
  5
D739
330
D612
100
AcDbEntity
  8
1
  6
Continuous
100
AcDbCircle
 10
631.55
 20
196.4187499999999
 30
0.0
 40
2.38125
100
AcDbArc
 50
323.430279
 51
346.18161
  0
LINE
  5
D73A
330
D612
100
AcDbEntity
  8
1
  6
Continuous
100
AcDbLine
 10
636.7999999999998
 20
196.3499999999999
 30
0.0
 11
636.7999999999998
 21
195.0
 31
0.0
  0
ARC
  5
D73B
330
D612
100
AcDbEntity
  8
1
  6
Continuous
100
AcDbCircle
 10
631.55
 20
196.4187499999999
 30
0.0
 40
2.38125
100
AcDbArc
 50
193.81839
 51
216.5697209999999
  0
LINE
  5
D73C
330
D612
100
AcDbEntity
  8
1
  6
Continuous
100
AcDbLine
 10
626.2999999999998
 20
196.3499999999999
 30
0.0
 11
626.2999999999998
 21
195.0
 31
0.0
  0
LINE
  5
D73D
330
D612
100
AcDbEntity
  8
1
  6
Continuous
100
AcDbLine
 10
626.2999999999998
 20
195.8499999999999
 30
0.0
 11
636.7999999999998
 21
195.8499999999999
 31
0.0
  0
LINE
  5
D73E
330
D612
100
AcDbEntity
  8
1
  6
Continuous
100
AcDbLine
 10
626.2999999999998
 20
196.3499999999999
 30
0.0
 11
636.7999999999998
 21
196.3499999999999
 31
0.0
  0
ARC
  5
D73F
330
D612
100
AcDbEntity
  8
1
  6
Continuous
100
AcDbCircle
 10
631.55
 20
196.4187499999999
 30
0.0
 40
2.38125
100
AcDbArc
 50
358.3455609999999
 51
21.665296
  0
ARC
  5
D740
330
D612
100
AcDbEntity
  8
1
  6
Continuous
100
AcDbCircle
 10
631.55
 20
196.4187499999999
 30
0.0
 40
2.38125
100
AcDbArc
 50
158.3347039999999
 51
181.6544389999999
  0
LINE
  5
D741
330
D612
100
AcDbEntity
  8
1
  6
Continuous
100
AcDbLine
 10
638.7999999999998
 20
196.3499999999999
 30
0.0
 11
638.7999999999998
 21
195.0
 31
0.0
  0
ARC
  5
D742
330
D612
100
AcDbEntity
  8
1
  6
Continuous
100
AcDbCircle
 10
644.05
 20
196.4187499999999
 30
0.0
 40
2.38125
100
AcDbArc
 50
193.81839
 51
216.5697209999999
  0
LINE
  5
D743
330
D612
100
AcDbEntity
  8
1
  6
Continuous
100
AcDbLine
 10
649.2999999999998
 20
196.3499999999999
 30
0.0
 11
649.2999999999998
 21
195.0
 31
0.0
  0
ARC
  5
D744
330
D612
100
AcDbEntity
  8
1
  6
Continuous
100
AcDbCircle
 10
644.05
 20
196.4187499999999
 30
0.0
 40
2.38125
100
AcDbArc
 50
323.430279
 51
346.18161
  0
ARC
  5
D745
330
D612
100
AcDbEntity
  8
1
  6
Continuous
100
AcDbCircle
 10
644.05
 20
196.4187499999999
 30
0.0
 40
2.38125
100
AcDbArc
 50
158.3347039999999
 51
181.6544389999999
  0
ARC
  5
D746
330
D612
100
AcDbEntity
  8
1
  6
Continuous
100
AcDbCircle
 10
644.05
 20
196.4187499999999
 30
0.0
 40
2.38125
100
AcDbArc
 50
358.3455609999999
 51
21.665296
  0
LINE
  5
D747
330
D612
100
AcDbEntity
  8
1
  6
Continuous
100
AcDbLine
 10
638.7999999999998
 20
196.3499999999999
 30
0.0
 11
649.2999999999998
 21
196.3499999999999
 31
0.0
  0
LINE
  5
D748
330
D612
100
AcDbEntity
  8
1
  6
Continuous
100
AcDbLine
 10
638.7999999999998
 20
195.8499999999999
 30
0.0
 11
649.2999999999998
 21
195.8499999999999
 31
0.0
  0
ARC
  5
D749
330
D612
100
AcDbEntity
  8
1
  6
Continuous
100
AcDbCircle
 10
656.55
 20
196.4187499999999
 30
0.0
 40
2.38125
100
AcDbArc
 50
323.430279
 51
346.18161
  0
LINE
  5
D74A
330
D612
100
AcDbEntity
  8
1
  6
Continuous
100
AcDbLine
 10
661.7999999999998
 20
196.3499999999999
 30
0.0
 11
661.7999999999998
 21
195.0
 31
0.0
  0
ARC
  5
D74B
330
D612
100
AcDbEntity
  8
1
  6
Continuous
100
AcDbCircle
 10
656.55
 20
196.4187499999999
 30
0.0
 40
2.38125
100
AcDbArc
 50
193.81839
 51
216.5697209999999
  0
LINE
  5
D74C
330
D612
100
AcDbEntity
  8
1
  6
Continuous
100
AcDbLine
 10
651.2999999999998
 20
196.3499999999999
 30
0.0
 11
651.2999999999998
 21
195.0
 31
0.0
  0
LINE
  5
D74D
330
D612
100
AcDbEntity
  8
1
  6
Continuous
100
AcDbLine
 10
651.2999999999998
 20
195.8499999999999
 30
0.0
 11
661.7999999999998
 21
195.8499999999999
 31
0.0
  0
LINE
  5
D74E
330
D612
100
AcDbEntity
  8
1
  6
Continuous
100
AcDbLine
 10
651.2999999999998
 20
196.3499999999999
 30
0.0
 11
661.7999999999998
 21
196.3499999999999
 31
0.0
  0
ARC
  5
D74F
330
D612
100
AcDbEntity
  8
1
  6
Continuous
100
AcDbCircle
 10
656.55
 20
196.4187499999999
 30
0.0
 40
2.38125
100
AcDbArc
 50
358.3455609999999
 51
21.665296
  0
ARC
  5
D750
330
D612
100
AcDbEntity
  8
1
  6
Continuous
100
AcDbCircle
 10
656.55
 20
196.4187499999999
 30
0.0
 40
2.38125
100
AcDbArc
 50
158.3347039999999
 51
181.6544389999999
  0
LINE
  5
D751
330
D612
100
AcDbEntity
  8
1
  6
Continuous
100
AcDbLine
 10
663.7999999999998
 20
196.3499999999999
 30
0.0
 11
663.7999999999998
 21
195.0
 31
0.0
  0
ARC
  5
D752
330
D612
100
AcDbEntity
  8
1
  6
Continuous
100
AcDbCircle
 10
669.05
 20
196.4187499999999
 30
0.0
 40
2.38125
100
AcDbArc
 50
193.81839
 51
216.5697209999999
  0
LINE
  5
D753
330
D612
100
AcDbEntity
  8
1
  6
Continuous
100
AcDbLine
 10
674.2999999999998
 20
196.3499999999999
 30
0.0
 11
674.2999999999998
 21
195.0
 31
0.0
  0
ARC
  5
D754
330
D612
100
AcDbEntity
  8
1
  6
Continuous
100
AcDbCircle
 10
669.05
 20
196.4187499999999
 30
0.0
 40
2.38125
100
AcDbArc
 50
323.430279
 51
346.18161
  0
LINE
  5
D755
330
D612
100
AcDbEntity
  8
1
  6
Continuous
100
AcDbLine
 10
663.7999999999998
 20
196.3499999999999
 30
0.0
 11
674.2999999999998
 21
196.3499999999999
 31
0.0
  0
LINE
  5
D756
330
D612
100
AcDbEntity
  8
1
  6
Continuous
100
AcDbLine
 10
663.7999999999998
 20
195.8499999999999
 30
0.0
 11
674.2999999999998
 21
195.8499999999999
 31
0.0
  0
ARC
  5
D757
330
D612
100
AcDbEntity
  8
1
  6
Continuous
100
AcDbCircle
 10
669.05
 20
196.4187499999999
 30
0.0
 40
2.38125
100
AcDbArc
 50
158.3347039999999
 51
181.6544389999999
  0
ARC
  5
D758
330
D612
100
AcDbEntity
  8
1
  6
Continuous
100
AcDbCircle
 10
669.05
 20
196.4187499999999
 30
0.0
 40
2.38125
100
AcDbArc
 50
358.3455609999999
 51
21.665296
  0
LINE
  5
D759
330
D612
100
AcDbEntity
  8
1
  6
Continuous
100
AcDbLine
 10
676.2999999999998
 20
195.8499999999999
 30
0.0
 11
686.7999999999998
 21
195.8499999999999
 31
0.0
  0
LINE
  5
D75A
330
D612
100
AcDbEntity
  8
1
  6
Continuous
100
AcDbLine
 10
676.2999999999998
 20
196.3499999999999
 30
0.0
 11
686.7999999999998
 21
196.3499999999999
 31
0.0
  0
ARC
  5
D75B
330
D612
100
AcDbEntity
  8
1
  6
Continuous
100
AcDbCircle
 10
681.55
 20
196.4187499999999
 30
0.0
 40
2.38125
100
AcDbArc
 50
323.430279
 51
346.18161
  0
ARC
  5
D75C
330
D612
100
AcDbEntity
  8
1
  6
Continuous
100
AcDbCircle
 10
681.55
 20
196.4187499999999
 30
0.0
 40
2.38125
100
AcDbArc
 50
193.81839
 51
216.5697209999999
  0
LINE
  5
D75D
330
D612
100
AcDbEntity
  8
1
  6
Continuous
100
AcDbLine
 10
676.2999999999998
 20
196.3499999999999
 30
0.0
 11
676.2999999999998
 21
195.0
 31
0.0
  0
ARC
  5
D75E
330
D612
100
AcDbEntity
  8
1
  6
Continuous
100
AcDbCircle
 10
681.55
 20
196.4187499999999
 30
0.0
 40
2.38125
100
AcDbArc
 50
358.3455609999999
 51
21.665296
  0
ARC
  5
D75F
330
D612
100
AcDbEntity
  8
1
  6
Continuous
100
AcDbCircle
 10
681.55
 20
196.4187499999999
 30
0.0
 40
2.38125
100
AcDbArc
 50
158.3347039999999
 51
181.6544389999999
  0
LINE
  5
D760
330
D612
100
AcDbEntity
  8
1
  6
Continuous
100
AcDbLine
 10
686.7999999999998
 20
196.3499999999999
 30
0.0
 11
686.7999999999998
 21
195.0
 31
0.0
  0
LINE
  5
D761
330
D612
100
AcDbEntity
  8
1
  6
Continuous
100
AcDbLine
 10
663.7999999999998
 20
169.65
 30
0.0
 11
674.2999999999998
 21
169.65
 31
0.0
  0
LINE
  5
D762
330
D612
100
AcDbEntity
  8
1
  6
Continuous
100
AcDbLine
 10
663.7999999999998
 20
169.15
 30
0.0
 11
674.2999999999998
 21
169.15
 31
0.0
  0
LINE
  5
D763
330
D612
100
AcDbEntity
  8
1
  6
Continuous
100
AcDbLine
 10
601.2999999999998
 20
169.15
 30
0.0
 11
611.7999999999998
 21
169.15
 31
0.0
  0
LINE
  5
D764
330
D612
100
AcDbEntity
  8
1
  6
Continuous
100
AcDbLine
 10
601.2999999999998
 20
169.65
 30
0.0
 11
611.7999999999998
 21
169.65
 31
0.0
  0
LINE
  5
D765
330
D612
100
AcDbEntity
  8
1
  6
Continuous
100
AcDbLine
 10
601.2999999999998
 20
169.15
 30
0.0
 11
601.2999999999998
 21
170.5
 31
0.0
  0
ARC
  5
D766
330
D612
100
AcDbEntity
  8
1
  6
Continuous
100
AcDbCircle
 10
606.55
 20
169.08125
 30
0.0
 40
2.38125
100
AcDbArc
 50
143.430279
 51
166.18161
  0
ARC
  5
D767
330
D612
100
AcDbEntity
  8
1
  6
Continuous
100
AcDbCircle
 10
594.0499999999998
 20
169.08125
 30
0.0
 40
2.38125
100
AcDbArc
 50
143.430279
 51
166.18161
  0
ARC
  5
D768
330
D612
100
AcDbEntity
  8
1
  6
Continuous
100
AcDbCircle
 10
594.0499999999998
 20
169.08125
 30
0.0
 40
2.38125
100
AcDbArc
 50
13.81839
 51
36.569721
  0
LINE
  5
D769
330
D612
100
AcDbEntity
  8
1
  6
Continuous
100
AcDbLine
 10
588.7999999999998
 20
169.15
 30
0.0
 11
588.7999999999998
 21
170.5
 31
0.0
  0
LINE
  5
D76A
330
D612
100
AcDbEntity
  8
1
  6
Continuous
100
AcDbLine
 10
599.2999999999998
 20
169.15
 30
0.0
 11
599.2999999999998
 21
170.5
 31
0.0
  0
LINE
  5
D76B
330
D612
100
AcDbEntity
  8
1
  6
Continuous
100
AcDbLine
 10
586.7999999999998
 20
169.15
 30
0.0
 11
586.7999999999998
 21
170.5
 31
0.0
  0
LINE
  5
D76C
330
D612
100
AcDbEntity
  8
1
  6
Continuous
100
AcDbLine
 10
576.2999999999998
 20
169.15
 30
0.0
 11
576.2999999999998
 21
170.5
 31
0.0
  0
ARC
  5
D76D
330
D612
100
AcDbEntity
  8
1
  6
Continuous
100
AcDbCircle
 10
581.5499999999998
 20
169.08125
 30
0.0
 40
2.38125
100
AcDbArc
 50
13.81839
 51
36.569721
  0
ARC
  5
D76E
330
D612
100
AcDbEntity
  8
1
  6
Continuous
100
AcDbCircle
 10
581.5499999999998
 20
169.08125
 30
0.0
 40
2.38125
100
AcDbArc
 50
143.430279
 51
166.18161
  0
ARC
  5
D76F
330
D612
100
AcDbEntity
  8
1
  6
Continuous
100
AcDbCircle
 10
569.0499999999998
 20
169.08125
 30
0.0
 40
2.38125
100
AcDbArc
 50
143.430279
 51
166.18161
  0
ARC
  5
D770
330
D612
100
AcDbEntity
  8
1
  6
Continuous
100
AcDbCircle
 10
569.0499999999998
 20
169.08125
 30
0.0
 40
2.38125
100
AcDbArc
 50
13.81839
 51
36.569721
  0
LINE
  5
D771
330
D612
100
AcDbEntity
  8
1
  6
Continuous
100
AcDbLine
 10
563.7999999999998
 20
169.15
 30
0.0
 11
563.7999999999998
 21
170.5
 31
0.0
  0
LINE
  5
D772
330
D612
100
AcDbEntity
  8
1
  6
Continuous
100
AcDbLine
 10
574.2999999999998
 20
169.15
 30
0.0
 11
574.2999999999998
 21
170.5
 31
0.0
  0
LINE
  5
D773
330
D612
100
AcDbEntity
  8
1
  6
Continuous
100
AcDbLine
 10
561.7999999999998
 20
169.15
 30
0.0
 11
561.7999999999998
 21
170.5
 31
0.0
  0
LINE
  5
D774
330
D612
100
AcDbEntity
  8
1
  6
Continuous
100
AcDbLine
 10
551.2999999999998
 20
169.15
 30
0.0
 11
551.2999999999998
 21
170.5
 31
0.0
  0
ARC
  5
D775
330
D612
100
AcDbEntity
  8
1
  6
Continuous
100
AcDbCircle
 10
556.5499999999998
 20
169.08125
 30
0.0
 40
2.38125
100
AcDbArc
 50
13.81839
 51
36.569721
  0
ARC
  5
D776
330
D612
100
AcDbEntity
  8
1
  6
Continuous
100
AcDbCircle
 10
556.5499999999998
 20
169.08125
 30
0.0
 40
2.38125
100
AcDbArc
 50
143.430279
 51
166.18161
  0
LINE
  5
D777
330
D612
100
AcDbEntity
  8
1
  6
Continuous
100
AcDbLine
 10
563.7999999999998
 20
169.65
 30
0.0
 11
574.2999999999998
 21
169.65
 31
0.0
  0
LINE
  5
D778
330
D612
100
AcDbEntity
  8
1
  6
Continuous
100
AcDbLine
 10
563.7999999999998
 20
169.15
 30
0.0
 11
574.2999999999998
 21
169.15
 31
0.0
  0
LINE
  5
D779
330
D612
100
AcDbEntity
  8
1
  6
Continuous
100
AcDbLine
 10
551.2999999999998
 20
169.15
 30
0.0
 11
561.7999999999998
 21
169.15
 31
0.0
  0
LINE
  5
D77A
330
D612
100
AcDbEntity
  8
1
  6
Continuous
100
AcDbLine
 10
551.2999999999998
 20
169.65
 30
0.0
 11
561.7999999999998
 21
169.65
 31
0.0
  0
ARC
  5
D77B
330
D612
100
AcDbEntity
  8
1
  6
Continuous
100
AcDbCircle
 10
556.5499999999998
 20
169.08125
 30
0.0
 40
2.38125
100
AcDbArc
 50
178.345561
 51
201.6652959999999
  0
ARC
  5
D77C
330
D612
100
AcDbEntity
  8
1
  6
Continuous
100
AcDbCircle
 10
569.0499999999998
 20
169.08125
 30
0.0
 40
2.38125
100
AcDbArc
 50
338.3347039999998
 51
1.654438999999999
  0
ARC
  5
D77D
330
D612
100
AcDbEntity
  8
1
  6
Continuous
100
AcDbCircle
 10
569.0499999999998
 20
169.08125
 30
0.0
 40
2.38125
100
AcDbArc
 50
178.345561
 51
201.6652959999999
  0
ARC
  5
D77E
330
D612
100
AcDbEntity
  8
1
  6
Continuous
100
AcDbCircle
 10
556.5499999999998
 20
169.08125
 30
0.0
 40
2.38125
100
AcDbArc
 50
338.3347039999998
 51
1.654438999999999
  0
ARC
  5
D77F
330
D612
100
AcDbEntity
  8
1
  6
Continuous
100
AcDbCircle
 10
581.5499999999998
 20
169.08125
 30
0.0
 40
2.38125
100
AcDbArc
 50
178.345561
 51
201.6652959999999
  0
ARC
  5
D780
330
D612
100
AcDbEntity
  8
1
  6
Continuous
100
AcDbCircle
 10
581.5499999999998
 20
169.08125
 30
0.0
 40
2.38125
100
AcDbArc
 50
338.3347039999998
 51
1.654438999999999
  0
LINE
  5
D781
330
D612
100
AcDbEntity
  8
1
  6
Continuous
100
AcDbLine
 10
576.2999999999998
 20
169.15
 30
0.0
 11
586.7999999999998
 21
169.15
 31
0.0
  0
LINE
  5
D782
330
D612
100
AcDbEntity
  8
1
  6
Continuous
100
AcDbLine
 10
576.2999999999998
 20
169.65
 30
0.0
 11
586.7999999999998
 21
169.65
 31
0.0
  0
ARC
  5
D783
330
D612
100
AcDbEntity
  8
1
  6
Continuous
100
AcDbCircle
 10
606.55
 20
169.08125
 30
0.0
 40
2.38125
100
AcDbArc
 50
178.345561
 51
201.6652959999999
  0
LINE
  5
D784
330
D612
100
AcDbEntity
  8
1
  6
Continuous
100
AcDbLine
 10
588.7999999999998
 20
169.65
 30
0.0
 11
599.2999999999998
 21
169.65
 31
0.0
  0
LINE
  5
D785
330
D612
100
AcDbEntity
  8
1
  6
Continuous
100
AcDbLine
 10
588.7999999999998
 20
169.15
 30
0.0
 11
599.2999999999998
 21
169.15
 31
0.0
  0
ARC
  5
D786
330
D612
100
AcDbEntity
  8
1
  6
Continuous
100
AcDbCircle
 10
594.0499999999998
 20
169.08125
 30
0.0
 40
2.38125
100
AcDbArc
 50
338.3347039999998
 51
1.654438999999999
  0
ARC
  5
D787
330
D612
100
AcDbEntity
  8
1
  6
Continuous
100
AcDbCircle
 10
594.0499999999998
 20
169.08125
 30
0.0
 40
2.38125
100
AcDbArc
 50
178.345561
 51
201.6652959999999
  0
ARC
  5
D788
330
D612
100
AcDbEntity
  8
1
  6
Continuous
100
AcDbCircle
 10
669.05
 20
169.08125
 30
0.0
 40
2.38125
100
AcDbArc
 50
13.81839
 51
36.569721
  0
ARC
  5
D789
330
D612
100
AcDbEntity
  8
1
  6
Continuous
100
AcDbCircle
 10
669.05
 20
169.08125
 30
0.0
 40
2.38125
100
AcDbArc
 50
143.430279
 51
166.18161
  0
LINE
  5
D78A
330
D612
100
AcDbEntity
  8
1
  6
Continuous
100
AcDbLine
 10
663.7999999999998
 20
169.15
 30
0.0
 11
663.7999999999998
 21
170.5
 31
0.0
  0
LINE
  5
D78B
330
D612
100
AcDbEntity
  8
1
  6
Continuous
100
AcDbLine
 10
651.2999999999998
 20
169.15
 30
0.0
 11
651.2999999999998
 21
170.5
 31
0.0
  0
ARC
  5
D78C
330
D612
100
AcDbEntity
  8
1
  6
Continuous
100
AcDbCircle
 10
656.55
 20
169.08125
 30
0.0
 40
2.38125
100
AcDbArc
 50
143.430279
 51
166.18161
  0
LINE
  5
D78D
330
D612
100
AcDbEntity
  8
1
  6
Continuous
100
AcDbLine
 10
661.7999999999998
 20
169.15
 30
0.0
 11
661.7999999999998
 21
170.5
 31
0.0
  0
ARC
  5
D78E
330
D612
100
AcDbEntity
  8
1
  6
Continuous
100
AcDbCircle
 10
656.55
 20
169.08125
 30
0.0
 40
2.38125
100
AcDbArc
 50
13.81839
 51
36.569721
  0
ARC
  5
D78F
330
D612
100
AcDbEntity
  8
1
  6
Continuous
100
AcDbCircle
 10
644.05
 20
169.08125
 30
0.0
 40
2.38125
100
AcDbArc
 50
13.81839
 51
36.569721
  0
LINE
  5
D790
330
D612
100
AcDbEntity
  8
1
  6
Continuous
100
AcDbLine
 10
649.2999999999998
 20
169.15
 30
0.0
 11
649.2999999999998
 21
170.5
 31
0.0
  0
ARC
  5
D791
330
D612
100
AcDbEntity
  8
1
  6
Continuous
100
AcDbCircle
 10
644.05
 20
169.08125
 30
0.0
 40
2.38125
100
AcDbArc
 50
143.430279
 51
166.18161
  0
LINE
  5
D792
330
D612
100
AcDbEntity
  8
1
  6
Continuous
100
AcDbLine
 10
638.7999999999998
 20
169.15
 30
0.0
 11
638.7999999999998
 21
170.5
 31
0.0
  0
LINE
  5
D793
330
D612
100
AcDbEntity
  8
1
  6
Continuous
100
AcDbLine
 10
626.2999999999998
 20
169.15
 30
0.0
 11
626.2999999999998
 21
170.5
 31
0.0
  0
ARC
  5
D794
330
D612
100
AcDbEntity
  8
1
  6
Continuous
100
AcDbCircle
 10
631.55
 20
169.08125
 30
0.0
 40
2.38125
100
AcDbArc
 50
143.430279
 51
166.18161
  0
LINE
  5
D795
330
D612
100
AcDbEntity
  8
1
  6
Continuous
100
AcDbLine
 10
636.7999999999998
 20
169.15
 30
0.0
 11
636.7999999999998
 21
170.5
 31
0.0
  0
ARC
  5
D796
330
D612
100
AcDbEntity
  8
1
  6
Continuous
100
AcDbCircle
 10
631.55
 20
169.08125
 30
0.0
 40
2.38125
100
AcDbArc
 50
13.81839
 51
36.569721
  0
ARC
  5
D797
330
D612
100
AcDbEntity
  8
1
  6
Continuous
100
AcDbCircle
 10
619.05
 20
169.08125
 30
0.0
 40
2.38125
100
AcDbArc
 50
13.81839
 51
36.569721
  0
LINE
  5
D798
330
D612
100
AcDbEntity
  8
1
  6
Continuous
100
AcDbLine
 10
624.2999999999998
 20
169.15
 30
0.0
 11
624.2999999999998
 21
170.5
 31
0.0
  0
ARC
  5
D799
330
D612
100
AcDbEntity
  8
1
  6
Continuous
100
AcDbCircle
 10
619.05
 20
169.08125
 30
0.0
 40
2.38125
100
AcDbArc
 50
143.430279
 51
166.18161
  0
LINE
  5
D79A
330
D612
100
AcDbEntity
  8
1
  6
Continuous
100
AcDbLine
 10
613.7999999999998
 20
169.15
 30
0.0
 11
613.7999999999998
 21
170.5
 31
0.0
  0
LINE
  5
D79B
330
D612
100
AcDbEntity
  8
1
  6
Continuous
100
AcDbLine
 10
611.7999999999998
 20
169.15
 30
0.0
 11
611.7999999999998
 21
170.5
 31
0.0
  0
ARC
  5
D79C
330
D612
100
AcDbEntity
  8
1
  6
Continuous
100
AcDbCircle
 10
606.55
 20
169.08125
 30
0.0
 40
2.38125
100
AcDbArc
 50
13.81839
 51
36.569721
  0
LINE
  5
D79D
330
D612
100
AcDbEntity
  8
1
  6
Continuous
100
AcDbLine
 10
613.7999999999998
 20
169.65
 30
0.0
 11
624.2999999999998
 21
169.65
 31
0.0
  0
LINE
  5
D79E
330
D612
100
AcDbEntity
  8
1
  6
Continuous
100
AcDbLine
 10
613.7999999999998
 20
169.15
 30
0.0
 11
624.2999999999998
 21
169.15
 31
0.0
  0
ARC
  5
D79F
330
D612
100
AcDbEntity
  8
1
  6
Continuous
100
AcDbCircle
 10
619.05
 20
169.08125
 30
0.0
 40
2.38125
100
AcDbArc
 50
338.3347039999998
 51
1.654438999999999
  0
ARC
  5
D7A0
330
D612
100
AcDbEntity
  8
1
  6
Continuous
100
AcDbCircle
 10
619.05
 20
169.08125
 30
0.0
 40
2.38125
100
AcDbArc
 50
178.345561
 51
201.6652959999999
  0
ARC
  5
D7A1
330
D612
100
AcDbEntity
  8
1
  6
Continuous
100
AcDbCircle
 10
606.55
 20
169.08125
 30
0.0
 40
2.38125
100
AcDbArc
 50
338.3347039999998
 51
1.654438999999999
  0
ARC
  5
D7A2
330
D612
100
AcDbEntity
  8
1
  6
Continuous
100
AcDbCircle
 10
631.55
 20
169.08125
 30
0.0
 40
2.38125
100
AcDbArc
 50
178.345561
 51
201.6652959999999
  0
ARC
  5
D7A3
330
D612
100
AcDbEntity
  8
1
  6
Continuous
100
AcDbCircle
 10
631.55
 20
169.08125
 30
0.0
 40
2.38125
100
AcDbArc
 50
338.3347039999998
 51
1.654438999999999
  0
LINE
  5
D7A4
330
D612
100
AcDbEntity
  8
1
  6
Continuous
100
AcDbLine
 10
626.2999999999998
 20
169.15
 30
0.0
 11
636.7999999999998
 21
169.15
 31
0.0
  0
LINE
  5
D7A5
330
D612
100
AcDbEntity
  8
1
  6
Continuous
100
AcDbLine
 10
626.2999999999998
 20
169.65
 30
0.0
 11
636.7999999999998
 21
169.65
 31
0.0
  0
LINE
  5
D7A6
330
D612
100
AcDbEntity
  8
1
  6
Continuous
100
AcDbLine
 10
651.2999999999998
 20
169.15
 30
0.0
 11
661.7999999999998
 21
169.15
 31
0.0
  0
LINE
  5
D7A7
330
D612
100
AcDbEntity
  8
1
  6
Continuous
100
AcDbLine
 10
651.2999999999998
 20
169.65
 30
0.0
 11
661.7999999999998
 21
169.65
 31
0.0
  0
ARC
  5
D7A8
330
D612
100
AcDbEntity
  8
1
  6
Continuous
100
AcDbCircle
 10
656.55
 20
169.08125
 30
0.0
 40
2.38125
100
AcDbArc
 50
178.345561
 51
201.6652959999999
  0
LINE
  5
D7A9
330
D612
100
AcDbEntity
  8
1
  6
Continuous
100
AcDbLine
 10
638.7999999999998
 20
169.65
 30
0.0
 11
649.2999999999998
 21
169.65
 31
0.0
  0
LINE
  5
D7AA
330
D612
100
AcDbEntity
  8
1
  6
Continuous
100
AcDbLine
 10
638.7999999999998
 20
169.15
 30
0.0
 11
649.2999999999998
 21
169.15
 31
0.0
  0
ARC
  5
D7AB
330
D612
100
AcDbEntity
  8
1
  6
Continuous
100
AcDbCircle
 10
644.05
 20
169.08125
 30
0.0
 40
2.38125
100
AcDbArc
 50
338.3347039999998
 51
1.654438999999999
  0
ARC
  5
D7AC
330
D612
100
AcDbEntity
  8
1
  6
Continuous
100
AcDbCircle
 10
644.05
 20
169.08125
 30
0.0
 40
2.38125
100
AcDbArc
 50
178.345561
 51
201.6652959999999
  0
ARC
  5
D7AD
330
D612
100
AcDbEntity
  8
1
  6
Continuous
100
AcDbCircle
 10
669.05
 20
169.08125
 30
0.0
 40
2.38125
100
AcDbArc
 50
338.3347039999998
 51
1.654438999999999
  0
ARC
  5
D7AE
330
D612
100
AcDbEntity
  8
1
  6
Continuous
100
AcDbCircle
 10
669.05
 20
169.08125
 30
0.0
 40
2.38125
100
AcDbArc
 50
178.345561
 51
201.6652959999999
  0
ARC
  5
D7AF
330
D612
100
AcDbEntity
  8
1
  6
Continuous
100
AcDbCircle
 10
656.55
 20
169.08125
 30
0.0
 40
2.38125
100
AcDbArc
 50
338.3347039999998
 51
1.654438999999999
  0
LINE
  5
D7B0
330
D612
100
AcDbEntity
  8
1
  6
Continuous
100
AcDbLine
 10
686.7999999999998
 20
169.15
 30
0.0
 11
686.7999999999998
 21
170.5
 31
0.0
  0
LINE
  5
D7B1
330
D612
100
AcDbEntity
  8
1
  6
Continuous
100
AcDbLine
 10
676.2999999999998
 20
169.15
 30
0.0
 11
676.2999999999998
 21
170.5
 31
0.0
  0
ARC
  5
D7B2
330
D612
100
AcDbEntity
  8
1
  6
Continuous
100
AcDbCircle
 10
681.55
 20
169.08125
 30
0.0
 40
2.38125
100
AcDbArc
 50
143.430279
 51
166.18161
  0
ARC
  5
D7B3
330
D612
100
AcDbEntity
  8
1
  6
Continuous
100
AcDbCircle
 10
681.55
 20
169.08125
 30
0.0
 40
2.38125
100
AcDbArc
 50
13.81839
 51
36.569721
  0
LINE
  5
D7B4
330
D612
100
AcDbEntity
  8
1
  6
Continuous
100
AcDbLine
 10
674.2999999999998
 20
169.15
 30
0.0
 11
674.2999999999998
 21
170.5
 31
0.0
  0
ARC
  5
D7B5
330
D612
100
AcDbEntity
  8
1
  6
Continuous
100
AcDbCircle
 10
681.55
 20
169.08125
 30
0.0
 40
2.38125
100
AcDbArc
 50
178.345561
 51
201.6652959999999
  0
ARC
  5
D7B6
330
D612
100
AcDbEntity
  8
1
  6
Continuous
100
AcDbCircle
 10
681.55
 20
169.08125
 30
0.0
 40
2.38125
100
AcDbArc
 50
338.3347039999998
 51
1.654438999999999
  0
LINE
  5
D7B7
330
D612
100
AcDbEntity
  8
1
  6
Continuous
100
AcDbLine
 10
676.2999999999998
 20
169.15
 30
0.0
 11
686.7999999999998
 21
169.15
 31
0.0
  0
LINE
  5
D7B8
330
D612
100
AcDbEntity
  8
1
  6
Continuous
100
AcDbLine
 10
676.2999999999998
 20
169.65
 30
0.0
 11
686.7999999999998
 21
169.65
 31
0.0
  0
ARC
  5
D7B9
330
D612
100
AcDbEntity
  8
1
  6
Continuous
100
AcDbCircle
 10
951.7000000000001
 20
195.057229
 30
0.0
 40
0.8072289999999997
100
AcDbArc
 50
141.1871849999998
 51
270.0
  0
LINE
  5
D7BA
330
D612
100
AcDbEntity
  8
1
  6
Continuous
100
AcDbLine
 10
951.0710089999999
 20
195.563183
 30
0.0
 11
952.9467160000001
 21
197.8950239999998
 31
0.0
  0
LINE
  5
D7BB
330
D612
100
AcDbEntity
  8
1
  6
Continuous
100
AcDbLine
 10
953.2999999999999
 20
198.8978689999999
 30
0.0
 11
953.2999999999999
 21
200.4
 31
0.0
  0
LINE
  5
D7BC
330
D612
100
AcDbEntity
  8
1
  6
Continuous
100
AcDbLine
 10
951.0710089999999
 20
169.9368169999999
 30
0.0
 11
952.9467160000001
 21
167.6049759999999
 31
0.0
  0
ARC
  5
D7BD
330
D612
100
AcDbEntity
  8
1
  6
Continuous
100
AcDbCircle
 10
951.7000000000001
 20
170.442771
 30
0.0
 40
0.8072289999999997
100
AcDbArc
 50
90.0
 51
218.812815
  0
LINE
  5
D7BE
330
D612
100
AcDbEntity
  8
1
  6
Continuous
100
AcDbLine
 10
953.2999999999999
 20
171.25
 30
0.0
 11
953.2999999999999
 21
194.25
 31
0.0
  0
LINE
  5
D7BF
330
D612
100
AcDbEntity
  8
1
  6
Continuous
100
AcDbLine
 10
120.5289909999999
 20
195.563183
 30
0.0
 11
118.653284
 21
197.8950239999998
 31
0.0
  0
LINE
  5
D7C0
330
D612
100
AcDbEntity
  8
1
  6
Continuous
100
AcDbLine
 10
119.9
 20
171.25
 30
0.0
 11
119.9
 21
194.25
 31
0.0
  0
ARC
  5
D7C1
330
D612
100
AcDbEntity
  8
1
  6
Continuous
100
AcDbCircle
 10
119.9
 20
170.442771
 30
0.0
 40
0.8072289999999997
100
AcDbArc
 50
321.187185
 51
90.0
  0
LINE
  5
D7C2
330
D612
100
AcDbEntity
  8
1
  6
Continuous
100
AcDbLine
 10
120.5289909999999
 20
169.9368169999999
 30
0.0
 11
118.653284
 21
167.6049759999999
 31
0.0
  0
ARC
  5
D7C3
330
D612
100
AcDbEntity
  8
1
  6
Continuous
100
AcDbCircle
 10
119.9
 20
166.602131
 30
0.0
 40
1.6
100
AcDbArc
 50
141.1871849999998
 51
180.0
  0
ARC
  5
D7C4
330
D612
100
AcDbEntity
  8
1
  6
Continuous
100
AcDbCircle
 10
119.9
 20
195.057229
 30
0.0
 40
0.8072289999999997
100
AcDbArc
 50
270.0
 51
38.812815
  0
ARC
  5
D7C5
330
D612
100
AcDbEntity
  8
1
  6
Continuous
100
AcDbCircle
 10
119.9
 20
198.8978689999999
 30
0.0
 40
1.6
100
AcDbArc
 50
180.0
 51
218.812815
  0
LINE
  5
D7C6
330
D612
100
AcDbEntity
  8
1
  6
Continuous
100
AcDbLine
 10
118.3
 20
198.8978689999999
 30
0.0
 11
118.3
 21
200.4
 31
0.0
  0
LINE
  5
D7C7
330
D612
100
AcDbEntity
  8
1
  6
Continuous
100
AcDbLine
 10
118.3
 20
305.3999999999998
 30
0.0
 11
118.3
 21
314.1
 31
0.0
  0
LINE
  5
D7C8
330
D612
100
AcDbEntity
  8
1
  6
Continuous
100
AcDbLine
 10
524.2999999999998
 20
305.3999999999998
 30
0.0
 11
524.2999999999998
 21
314.1
 31
0.0
  0
LINE
  5
D7C9
330
D612
100
AcDbEntity
  8
1
  6
Continuous
100
AcDbLine
 10
118.3
 20
305.3999999999998
 30
0.0
 11
524.2999999999998
 21
305.3999999999998
 31
0.0
  0
LINE
  5
D7CA
330
D612
100
AcDbEntity
  8
1
  6
Continuous
100
AcDbLine
 10
118.3
 20
314.1
 30
0.0
 11
524.2999999999998
 21
314.1
 31
0.0
  0
LINE
  5
D7CB
330
D612
100
AcDbEntity
  8
4
  6
CENTER
100
AcDbLine
 10
133.8
 20
310.471691
 30
0.0
 11
133.8
 21
299.971691
 31
0.0
  0
LINE
  5
D7CC
330
D612
100
AcDbEntity
  8
4
  6
CENTER
100
AcDbLine
 10
146.5
 20
310.471691
 30
0.0
 11
146.5
 21
299.971691
 31
0.0
  0
LINE
  5
D7CD
330
D612
100
AcDbEntity
  8
4
  6
CENTER
100
AcDbLine
 10
257.6
 20
310.471691
 30
0.0
 11
257.6
 21
299.971691
 31
0.0
  0
LINE
  5
D7CE
330
D612
100
AcDbEntity
  8
4
  6
CENTER
100
AcDbLine
 10
397.3
 20
310.471691
 30
0.0
 11
397.3
 21
299.971691
 31
0.0
  0
LINE
  5
D7CF
330
D612
100
AcDbEntity
  8
4
  6
CENTER
100
AcDbLine
 10
483.0
 20
310.471691
 30
0.0
 11
483.0
 21
299.971691
 31
0.0
  0
LINE
  5
D7D0
330
D612
100
AcDbEntity
  8
4
  6
CENTER
100
AcDbLine
 10
495.6999999999998
 20
310.471691
 30
0.0
 11
495.6999999999998
 21
299.971691
 31
0.0
  0
LINE
  5
D7D1
330
D612
100
AcDbEntity
  8
4
  6
CENTER
100
AcDbLine
 10
508.3999999999998
 20
324.933485
 30
0.0
 11
508.3999999999998
 21
299.971691
 31
0.0
  0
LINE
  5
D7D2
330
D612
100
AcDbEntity
  8
1
  6
Continuous
100
AcDbLine
 10
334.8999999999999
 20
314.9
 30
0.0
 11
334.8999999999999
 21
314.1
 31
0.0
  0
LINE
  5
D7D3
330
D612
100
AcDbEntity
  8
1
  6
Continuous
100
AcDbLine
 10
331.8999999999999
 20
321.4999999999998
 30
0.0
 11
331.8999999999999
 21
315.0
 31
0.0
  0
LINE
  5
D7D4
330
D612
100
AcDbEntity
  8
1
  6
Continuous
100
AcDbLine
 10
334.8999999999999
 20
314.9
 30
0.0
 11
739.7
 21
314.9
 31
0.0
  0
LINE
  5
D7D5
330
D612
100
AcDbEntity
  8
3
  6
DASHED
100
AcDbLine
 10
334.8999999999999
 20
308.3999999999999
 30
0.0
 11
524.2999999999998
 21
308.3999999999999
 31
0.0
  0
LINE
  5
D7D6
330
D612
100
AcDbEntity
  8
3
  6
DASHED
100
AcDbLine
 10
334.8999999999999
 20
314.1
 30
0.0
 11
334.8999999999999
 21
308.3999999999999
 31
0.0
  0
LINE
  5
D7D7
330
D612
100
AcDbEntity
  8
1
  6
Continuous
100
AcDbLine
 10
739.7
 20
314.9
 30
0.0
 11
739.7
 21
308.3999999999999
 31
0.0
  0
LINE
  5
D7D8
330
D612
100
AcDbEntity
  8
3
  6
DASHED
100
AcDbLine
 10
736.7
 20
321.4999999999998
 30
0.0
 11
736.7
 21
315.8
 31
0.0
  0
LINE
  5
D7D9
330
D612
100
AcDbEntity
  8
1
  6
Continuous
100
AcDbLine
 10
524.2999999999998
 20
308.3999999999999
 30
0.0
 11
739.7
 21
308.3999999999999
 31
0.0
  0
LINE
  5
D7DA
330
D612
100
AcDbEntity
  8
1
  6
Continuous
100
AcDbLine
 10
331.8999999999999
 20
315.0
 30
0.0
 11
736.7
 21
315.0
 31
0.0
  0
LINE
  5
D7DB
330
D612
100
AcDbEntity
  8
1
  6
Continuous
100
AcDbLine
 10
331.8999999999999
 20
321.4999999999998
 30
0.0
 11
547.2999999999998
 21
321.4999999999998
 31
0.0
  0
LINE
  5
D7DC
330
D612
100
AcDbEntity
  8
1
  6
Continuous
100
AcDbLine
 10
547.2999999999998
 20
315.8
 30
0.0
 11
547.2999999999998
 21
324.5
 31
0.0
  0
LINE
  5
D7DD
330
D612
100
AcDbEntity
  8
1
  6
Continuous
100
AcDbLine
 10
547.2999999999998
 20
324.5
 30
0.0
 11
953.2999999999999
 21
324.5
 31
0.0
  0
LINE
  5
D7DE
330
D612
100
AcDbEntity
  8
1
  6
Continuous
100
AcDbLine
 10
953.2999999999999
 20
315.8
 30
0.0
 11
953.2999999999999
 21
324.5
 31
0.0
  0
LINE
  5
D7DF
330
D612
100
AcDbEntity
  8
1
  6
Continuous
100
AcDbLine
 10
547.2999999999998
 20
315.8
 30
0.0
 11
953.2999999999999
 21
315.8
 31
0.0
  0
LINE
  5
D7E0
330
D612
100
AcDbEntity
  8
3
  6
DASHED
100
AcDbLine
 10
547.2999999999998
 20
321.4999999999998
 30
0.0
 11
736.7
 21
321.4999999999998
 31
0.0
  0
LINE
  5
D7E1
330
D612
100
AcDbEntity
  8
1
  6
Continuous
100
AcDbLine
 10
736.7
 20
315.8
 30
0.0
 11
736.7
 21
315.0
 31
0.0
  0
LINE
  5
D7E2
330
D612
100
AcDbEntity
  8
4
  6
CENTER
100
AcDbLine
 10
937.8
 20
328.9955889999998
 30
0.0
 11
937.8
 21
318.4955889999999
 31
0.0
  0
LINE
  5
D7E3
330
D612
100
AcDbEntity
  8
4
  6
CENTER
100
AcDbLine
 10
925.1000000000001
 20
328.9955889999998
 30
0.0
 11
925.1000000000001
 21
318.4955889999999
 31
0.0
  0
LINE
  5
D7E4
330
D612
100
AcDbEntity
  8
4
  6
CENTER
100
AcDbLine
 10
814.0
 20
328.9955889999998
 30
0.0
 11
814.0
 21
318.4955889999999
 31
0.0
  0
LINE
  5
D7E5
330
D612
100
AcDbEntity
  8
4
  6
CENTER
100
AcDbLine
 10
674.2999999999998
 20
328.9955889999998
 30
0.0
 11
674.2999999999998
 21
318.4955889999999
 31
0.0
  0
LINE
  5
D7E6
330
D612
100
AcDbEntity
  8
4
  6
CENTER
100
AcDbLine
 10
575.8999999999997
 20
328.9955889999998
 30
0.0
 11
575.8999999999997
 21
318.4955889999999
 31
0.0
  0
LINE
  5
D7E7
330
D612
100
AcDbEntity
  8
4
  6
CENTER
100
AcDbLine
 10
588.6
 20
328.9955889999998
 30
0.0
 11
588.6
 21
318.4955889999999
 31
0.0
  0
LINE
  5
D7E8
330
D612
100
AcDbEntity
  8
4
  6
CENTER
100
AcDbLine
 10
563.2000000000001
 20
328.9955889999998
 30
0.0
 11
563.2000000000001
 21
305.465795
 31
0.0
  0
LINE
  5
D7E9
330
D612
100
AcDbEntity
  8
3
  6
DASHED
100
AcDbLine
 10
521.7999999999998
 20
454.6499999999999
 30
0.0
 11
524.2999999999998
 21
454.6499999999999
 31
0.0
  0
LINE
  5
D7EA
330
D612
100
AcDbEntity
  8
3
  6
DASHED
100
AcDbLine
 10
521.7999999999998
 20
439.6499999999998
 30
0.0
 11
524.2999999999998
 21
439.6499999999998
 31
0.0
  0
LINE
  5
D7EB
330
D612
100
AcDbEntity
  8
1
  6
Continuous
100
AcDbLine
 10
522.7
 20
462.2885629999998
 30
0.0
 11
119.9
 21
462.2885629999998
 31
0.0
  0
LINE
  5
D7EC
330
D612
100
AcDbEntity
  8
1
  6
Continuous
100
AcDbLine
 10
522.7
 20
461.697869
 30
0.0
 11
119.9
 21
461.697869
 31
0.0
  0
LINE
  5
D7ED
330
D612
100
AcDbEntity
  8
1
  6
Continuous
100
AcDbLine
 10
522.7
 20
432.6021309999998
 30
0.0
 11
119.9
 21
432.6021309999998
 31
0.0
  0
LINE
  5
D7EE
330
D612
100
AcDbEntity
  8
1
  6
Continuous
100
AcDbLine
 10
522.7
 20
432.0114369999997
 30
0.0
 11
119.9
 21
432.0114369999997
 31
0.0
  0
LINE
  5
D7EF
330
D612
100
AcDbEntity
  8
1
  6
Continuous
100
AcDbLine
 10
524.2999999999998
 20
464.8
 30
0.0
 11
118.3
 21
464.8
 31
0.0
  0
LINE
  5
D7F0
330
D612
100
AcDbEntity
  8
1
  6
Continuous
100
AcDbLine
 10
524.2999999999998
 20
429.4999999999998
 30
0.0
 11
118.3
 21
429.4999999999998
 31
0.0
  0
LINE
  5
D7F1
330
D612
100
AcDbEntity
  8
1
  6
Continuous
100
AcDbLine
 10
547.2999999999998
 20
456.0375
 30
0.0
 11
369.8999999999998
 21
456.0375
 31
0.0
  0
LINE
  5
D7F2
330
D612
100
AcDbEntity
  8
1
  6
Continuous
100
AcDbLine
 10
547.2999999999998
 20
457.2375
 30
0.0
 11
331.8999999999999
 21
457.2375
 31
0.0
  0
LINE
  5
D7F3
330
D612
100
AcDbEntity
  8
1
  6
Continuous
100
AcDbLine
 10
547.2999999999998
 20
438.2624999999999
 30
0.0
 11
369.8999999999998
 21
438.2624999999999
 31
0.0
  0
LINE
  5
D7F4
330
D612
100
AcDbEntity
  8
1
  6
Continuous
100
AcDbLine
 10
547.2999999999998
 20
437.0625
 30
0.0
 11
331.8999999999999
 21
437.0625
 31
0.0
  0
LINE
  5
D7F5
330
D612
100
AcDbEntity
  8
1
  6
Continuous
100
AcDbLine
 10
547.2999999999998
 20
459.4
 30
0.0
 11
331.8999999999999
 21
459.4
 31
0.0
  0
LINE
  5
D7F6
330
D612
100
AcDbEntity
  8
1
  6
Continuous
100
AcDbLine
 10
547.2999999999998
 20
434.9
 30
0.0
 11
331.8999999999999
 21
434.9
 31
0.0
  0
LINE
  5
D7F7
330
D612
100
AcDbEntity
  8
4
  6
CENTER
100
AcDbLine
 10
958.3
 20
447.1499999999998
 30
0.0
 11
113.3
 21
447.1499999999998
 31
0.0
  0
LINE
  5
D7F8
330
D612
100
AcDbEntity
  8
1
  6
Continuous
100
AcDbLine
 10
953.2999999999999
 20
429.4999999999998
 30
0.0
 11
547.2999999999998
 21
429.4999999999998
 31
0.0
  0
LINE
  5
D7F9
330
D612
100
AcDbEntity
  8
1
  6
Continuous
100
AcDbLine
 10
953.2999999999999
 20
464.8
 30
0.0
 11
547.2999999999998
 21
464.8
 31
0.0
  0
LINE
  5
D7FA
330
D612
100
AcDbEntity
  8
1
  6
Continuous
100
AcDbLine
 10
951.0710089999999
 20
434.3368169999997
 30
0.0
 11
952.9467160000001
 21
432.0049759999998
 31
0.0
  0
ARC
  5
D7FB
330
D612
100
AcDbEntity
  8
1
  6
Continuous
100
AcDbCircle
 10
925.1000000000001
 20
447.55
 30
0.0
 40
2.25
100
AcDbArc
 50
0.0
 51
180.0
  0
ARC
  5
D7FC
330
D612
100
AcDbEntity
  8
1
  6
Continuous
100
AcDbCircle
 10
925.1000000000001
 20
446.75
 30
0.0
 40
2.25
100
AcDbArc
 50
180.0
 51
0.0
  0
LINE
  5
D7FD
330
D612
100
AcDbEntity
  8
1
  6
Continuous
100
AcDbLine
 10
951.7000000000001
 20
458.65
 30
0.0
 11
951.7000000000001
 21
435.6499999999998
 31
0.0
  0
LINE
  5
D7FE
330
D612
100
AcDbEntity
  8
1
  6
Continuous
100
AcDbLine
 10
953.2999999999999
 20
464.8
 30
0.0
 11
953.2999999999999
 21
463.2978689999998
 31
0.0
  0
LINE
  5
D7FF
330
D612
100
AcDbEntity
  8
1
  6
Continuous
100
AcDbLine
 10
951.0710089999999
 20
459.9631829999998
 30
0.0
 11
952.9467160000001
 21
462.295024
 31
0.0
  0
ARC
  5
D800
330
D612
100
AcDbEntity
  8
1
  6
Continuous
100
AcDbCircle
 10
951.7000000000001
 20
459.457229
 30
0.0
 40
0.8072289999999997
100
AcDbArc
 50
141.1871849999998
 51
270.0
  0
ARC
  5
D801
330
D612
100
AcDbEntity
  8
1
  6
Continuous
100
AcDbCircle
 10
951.7000000000001
 20
463.2978689999998
 30
0.0
 40
1.6
100
AcDbArc
 50
321.187185
 51
0.0
  0
ARC
  5
D802
330
D612
100
AcDbEntity
  8
1
  6
Continuous
100
AcDbCircle
 10
951.7000000000001
 20
434.842771
 30
0.0
 40
0.8072289999999997
100
AcDbArc
 50
90.0
 51
218.812815
  0
LINE
  5
D803
330
D612
100
AcDbEntity
  8
1
  6
Continuous
100
AcDbLine
 10
927.35
 20
446.75
 30
0.0
 11
927.35
 21
447.55
 31
0.0
  0
LINE
  5
D804
330
D612
100
AcDbEntity
  8
1
  6
Continuous
100
AcDbLine
 10
935.5499999999999
 20
446.75
 30
0.0
 11
935.5499999999999
 21
447.55
 31
0.0
  0
LINE
  5
D805
330
D612
100
AcDbEntity
  8
1
  6
Continuous
100
AcDbLine
 10
940.0499999999999
 20
446.75
 30
0.0
 11
940.0499999999999
 21
447.55
 31
0.0
  0
LINE
  5
D806
330
D612
100
AcDbEntity
  8
4
  6
CENTER
100
AcDbLine
 10
937.8
 20
441.8999999999998
 30
0.0
 11
937.8
 21
452.4
 31
0.0
  0
ARC
  5
D807
330
D612
100
AcDbEntity
  8
1
  6
Continuous
100
AcDbCircle
 10
937.8
 20
447.55
 30
0.0
 40
2.25
100
AcDbArc
 50
0.0
 51
180.0
  0
ARC
  5
D808
330
D612
100
AcDbEntity
  8
1
  6
Continuous
100
AcDbCircle
 10
937.8
 20
446.75
 30
0.0
 40
2.25
100
AcDbArc
 50
180.0
 51
0.0
  0
LINE
  5
D809
330
D612
100
AcDbEntity
  8
1
  6
Continuous
100
AcDbLine
 10
922.85
 20
446.75
 30
0.0
 11
922.85
 21
447.55
 31
0.0
  0
LINE
  5
D80A
330
D612
100
AcDbEntity
  8
4
  6
CENTER
100
AcDbLine
 10
925.1000000000001
 20
441.8999999999998
 30
0.0
 11
925.1000000000001
 21
452.4
 31
0.0
  0
LINE
  5
D80B
330
D612
100
AcDbEntity
  8
1
  6
Continuous
100
AcDbLine
 10
953.2999999999999
 20
431.0021309999998
 30
0.0
 11
953.2999999999999
 21
429.4999999999998
 31
0.0
  0
ARC
  5
D80C
330
D612
100
AcDbEntity
  8
1
  6
Continuous
100
AcDbCircle
 10
951.7000000000001
 20
431.0021309999998
 30
0.0
 40
1.6
100
AcDbArc
 50
0.0
 51
38.812815
  0
LINE
  5
D80D
330
D612
100
AcDbEntity
  8
3
  6
DASHED
100
AcDbLine
 10
739.7
 20
459.4
 30
0.0
 11
547.2999999999998
 21
459.4
 31
0.0
  0
LINE
  5
D80E
330
D612
100
AcDbEntity
  8
3
  6
DASHED
100
AcDbLine
 10
739.7
 20
434.9
 30
0.0
 11
547.2999999999998
 21
434.9
 31
0.0
  0
ARC
  5
D80F
330
D612
100
AcDbEntity
  8
1
  6
Continuous
100
AcDbCircle
 10
813.6000000000001
 20
447.1499999999998
 30
0.0
 40
2.25
100
AcDbArc
 50
90.0
 51
270.0
  0
ARC
  5
D810
330
D612
100
AcDbEntity
  8
1
  6
Continuous
100
AcDbCircle
 10
814.4
 20
447.1499999999998
 30
0.0
 40
2.25
100
AcDbArc
 50
270.0
 51
90.0
  0
LINE
  5
D811
330
D612
100
AcDbEntity
  8
1
  6
Continuous
100
AcDbLine
 10
813.6000000000001
 20
444.8999999999998
 30
0.0
 11
814.4
 21
444.8999999999998
 31
0.0
  0
LINE
  5
D812
330
D612
100
AcDbEntity
  8
4
  6
CENTER
100
AcDbLine
 10
814.0
 20
441.8999999999998
 30
0.0
 11
814.0
 21
452.4
 31
0.0
  0
LINE
  5
D813
330
D612
100
AcDbEntity
  8
1
  6
Continuous
100
AcDbLine
 10
813.6000000000001
 20
449.3999999999998
 30
0.0
 11
814.4
 21
449.3999999999998
 31
0.0
  0
LINE
  5
D814
330
D612
100
AcDbEntity
  8
3
  6
DASHED
100
AcDbLine
 10
736.7
 20
434.9
 30
0.0
 11
736.7
 21
459.4
 31
0.0
  0
LINE
  5
D815
330
D612
100
AcDbEntity
  8
3
  6
DASHED
100
AcDbLine
 10
739.7
 20
434.9
 30
0.0
 11
739.7
 21
459.4
 31
0.0
  0
ARC
  5
D816
330
D612
100
AcDbEntity
  8
1
  6
Continuous
100
AcDbCircle
 10
673.8999999999997
 20
447.1499999999998
 30
0.0
 40
2.25
100
AcDbArc
 50
90.0
 51
270.0
  0
LINE
  5
D817
330
D612
100
AcDbEntity
  8
1
  6
Continuous
100
AcDbLine
 10
673.8999999999997
 20
449.3999999999998
 30
0.0
 11
674.7000000000001
 21
449.3999999999998
 31
0.0
  0
LINE
  5
D818
330
D612
100
AcDbEntity
  8
4
  6
CENTER
100
AcDbLine
 10
674.2999999999998
 20
441.8999999999998
 30
0.0
 11
674.2999999999998
 21
452.4
 31
0.0
  0
LINE
  5
D819
330
D612
100
AcDbEntity
  8
1
  6
Continuous
100
AcDbLine
 10
673.8999999999997
 20
444.8999999999998
 30
0.0
 11
674.7000000000001
 21
444.8999999999998
 31
0.0
  0
ARC
  5
D81A
330
D612
100
AcDbEntity
  8
1
  6
Continuous
100
AcDbCircle
 10
674.7000000000001
 20
447.1499999999998
 30
0.0
 40
2.25
100
AcDbArc
 50
270.0
 51
90.0
  0
ARC
  5
D81B
330
D612
100
AcDbEntity
  8
1
  6
Continuous
100
AcDbCircle
 10
589.0
 20
447.1499999999998
 30
0.0
 40
2.25
100
AcDbArc
 50
270.0
 51
90.0
  0
LINE
  5
D81C
330
D612
100
AcDbEntity
  8
1
  6
Continuous
100
AcDbLine
 10
524.2999999999998
 20
434.9
 30
0.0
 11
524.2999999999998
 21
429.4999999999998
 31
0.0
  0
LINE
  5
D81D
330
D612
100
AcDbEntity
  8
1
  6
Continuous
100
AcDbLine
 10
547.2999999999998
 20
439.6499999999998
 30
0.0
 11
547.2999999999998
 21
429.4999999999998
 31
0.0
  0
LINE
  5
D81E
330
D612
100
AcDbEntity
  8
1
  6
Continuous
100
AcDbLine
 10
573.6499999999997
 20
446.75
 30
0.0
 11
573.6499999999997
 21
447.55
 31
0.0
  0
LINE
  5
D81F
330
D612
100
AcDbEntity
  8
1
  6
Continuous
100
AcDbLine
 10
578.15
 20
446.75
 30
0.0
 11
578.15
 21
447.55
 31
0.0
  0
LINE
  5
D820
330
D612
100
AcDbEntity
  8
4
  6
CENTER
100
AcDbLine
 10
575.8999999999997
 20
441.8999999999998
 30
0.0
 11
575.8999999999997
 21
452.4
 31
0.0
  0
ARC
  5
D821
330
D612
100
AcDbEntity
  8
1
  6
Continuous
100
AcDbCircle
 10
575.8999999999997
 20
447.55
 30
0.0
 40
2.25
100
AcDbArc
 50
0.0
 51
180.0
  0
ARC
  5
D822
330
D612
100
AcDbEntity
  8
1
  6
Continuous
100
AcDbCircle
 10
575.8999999999997
 20
446.75
 30
0.0
 40
2.25
100
AcDbArc
 50
180.0
 51
0.0
  0
LINE
  5
D823
330
D612
100
AcDbEntity
  8
4
  6
CENTER
100
AcDbLine
 10
588.6
 20
441.8999999999998
 30
0.0
 11
588.6
 21
452.4
 31
0.0
  0
ARC
  5
D824
330
D612
100
AcDbEntity
  8
1
  6
Continuous
100
AcDbCircle
 10
588.2000000000001
 20
447.1499999999998
 30
0.0
 40
2.25
100
AcDbArc
 50
90.0
 51
270.0
  0
LINE
  5
D825
330
D612
100
AcDbEntity
  8
1
  6
Continuous
100
AcDbLine
 10
588.2000000000001
 20
449.3999999999998
 30
0.0
 11
589.0
 21
449.3999999999998
 31
0.0
  0
LINE
  5
D826
330
D612
100
AcDbEntity
  8
1
  6
Continuous
100
AcDbLine
 10
588.2000000000001
 20
444.8999999999998
 30
0.0
 11
589.0
 21
444.8999999999998
 31
0.0
  0
ARC
  5
D827
330
D612
100
AcDbEntity
  8
1
  6
Continuous
100
AcDbCircle
 10
563.2000000000001
 20
446.75
 30
0.0
 40
2.25
100
AcDbArc
 50
180.0
 51
0.0
  0
LINE
  5
D828
330
D612
100
AcDbEntity
  8
4
  6
CENTER
100
AcDbLine
 10
563.2000000000001
 20
441.8999999999998
 30
0.0
 11
563.2000000000001
 21
452.4
 31
0.0
  0
LINE
  5
D829
330
D612
100
AcDbEntity
  8
1
  6
Continuous
100
AcDbLine
 10
565.4500000000001
 20
446.75
 30
0.0
 11
565.4500000000001
 21
447.55
 31
0.0
  0
LINE
  5
D82A
330
D612
100
AcDbEntity
  8
1
  6
Continuous
100
AcDbLine
 10
560.95
 20
446.75
 30
0.0
 11
560.95
 21
447.55
 31
0.0
  0
ARC
  5
D82B
330
D612
100
AcDbEntity
  8
1
  6
Continuous
100
AcDbCircle
 10
563.2000000000001
 20
447.55
 30
0.0
 40
2.25
100
AcDbArc
 50
0.0
 51
180.0
  0
LINE
  5
D82C
330
D612
100
AcDbEntity
  8
3
  6
DASHED
100
AcDbLine
 10
524.2999999999998
 20
459.4
 30
0.0
 11
524.2999999999998
 21
454.6499999999999
 31
0.0
  0
LINE
  5
D82D
330
D612
100
AcDbEntity
  8
1
  6
Continuous
100
AcDbLine
 10
547.2999999999998
 20
464.8
 30
0.0
 11
547.2999999999998
 21
454.6499999999999
 31
0.0
  0
ARC
  5
D82E
330
D612
100
AcDbEntity
  8
1
  6
Continuous
100
AcDbCircle
 10
522.7
 20
463.8885629999998
 30
0.0
 40
1.6
100
AcDbArc
 50
270.0
 51
0.0
  0
ARC
  5
D82F
330
D612
100
AcDbEntity
  8
1
  6
Continuous
100
AcDbCircle
 10
522.7
 20
463.2978689999998
 30
0.0
 40
1.6
100
AcDbArc
 50
270.0
 51
0.0
  0
LINE
  5
D830
330
D612
100
AcDbEntity
  8
1
  6
Continuous
100
AcDbLine
 10
524.2999999999998
 20
464.8
 30
0.0
 11
524.2999999999998
 21
459.4
 31
0.0
  0
LINE
  5
D831
330
D612
100
AcDbEntity
  8
1
  6
Continuous
100
AcDbLine
 10
549.7999999999998
 20
439.6499999999998
 30
0.0
 11
547.2999999999998
 21
439.6499999999998
 31
0.0
  0
LINE
  5
D832
330
D612
100
AcDbEntity
  8
1
  6
Continuous
100
AcDbLine
 10
549.7999999999998
 20
454.6499999999999
 30
0.0
 11
549.7999999999998
 21
439.6499999999998
 31
0.0
  0
LINE
  5
D833
330
D612
100
AcDbEntity
  8
1
  6
Continuous
100
AcDbLine
 10
549.7999999999998
 20
454.6499999999999
 30
0.0
 11
547.2999999999998
 21
454.6499999999999
 31
0.0
  0
LINE
  5
D834
330
D612
100
AcDbEntity
  8
3
  6
DASHED
100
AcDbLine
 10
524.2999999999998
 20
439.6499999999998
 30
0.0
 11
524.2999999999998
 21
434.9
 31
0.0
  0
ARC
  5
D835
330
D612
100
AcDbEntity
  8
1
  6
Continuous
100
AcDbCircle
 10
522.7
 20
431.0021309999998
 30
0.0
 40
1.6
100
AcDbArc
 50
0.0
 51
90.0
  0
ARC
  5
D836
330
D612
100
AcDbEntity
  8
1
  6
Continuous
100
AcDbCircle
 10
522.7
 20
430.4114369999998
 30
0.0
 40
1.6
100
AcDbArc
 50
0.0
 51
90.0
  0
LINE
  5
D837
330
D612
100
AcDbEntity
  8
1
  6
Continuous
100
AcDbLine
 10
395.3
 20
433.55
 30
0.0
 11
384.8
 21
433.55
 31
0.0
  0
LINE
  5
D838
330
D612
100
AcDbEntity
  8
1
  6
Continuous
100
AcDbLine
 10
395.3
 20
434.05
 30
0.0
 11
384.8
 21
434.05
 31
0.0
  0
LINE
  5
D839
330
D612
100
AcDbEntity
  8
1
  6
Continuous
100
AcDbLine
 10
395.3
 20
460.25
 30
0.0
 11
384.8
 21
460.25
 31
0.0
  0
LINE
  5
D83A
330
D612
100
AcDbEntity
  8
1
  6
Continuous
100
AcDbLine
 10
395.3
 20
460.7499999999998
 30
0.0
 11
384.8
 21
460.7499999999998
 31
0.0
  0
LINE
  5
D83B
330
D612
100
AcDbEntity
  8
1
  6
Continuous
100
AcDbLine
 10
457.8
 20
434.05
 30
0.0
 11
447.2999999999998
 21
434.05
 31
0.0
  0
LINE
  5
D83C
330
D612
100
AcDbEntity
  8
1
  6
Continuous
100
AcDbLine
 10
457.8
 20
433.55
 30
0.0
 11
447.2999999999998
 21
433.55
 31
0.0
  0
LINE
  5
D83D
330
D612
100
AcDbEntity
  8
1
  6
Continuous
100
AcDbLine
 10
457.8
 20
460.7499999999998
 30
0.0
 11
447.2999999999998
 21
460.7499999999998
 31
0.0
  0
LINE
  5
D83E
330
D612
100
AcDbEntity
  8
1
  6
Continuous
100
AcDbLine
 10
457.8
 20
460.25
 30
0.0
 11
447.2999999999998
 21
460.25
 31
0.0
  0
LINE
  5
D83F
330
D612
100
AcDbEntity
  8
1
  6
Continuous
100
AcDbLine
 10
457.8
 20
433.55
 30
0.0
 11
457.8
 21
434.9
 31
0.0
  0
LINE
  5
D840
330
D612
100
AcDbEntity
  8
1
  6
Continuous
100
AcDbLine
 10
459.7999999999998
 20
433.55
 30
0.0
 11
459.7999999999998
 21
434.9
 31
0.0
  0
ARC
  5
D841
330
D612
100
AcDbEntity
  8
1
  6
Continuous
100
AcDbCircle
 10
465.05
 20
433.4812499999999
 30
0.0
 40
2.38125
100
AcDbArc
 50
143.430279
 51
166.18161
  0
LINE
  5
D842
330
D612
100
AcDbEntity
  8
1
  6
Continuous
100
AcDbLine
 10
470.3
 20
433.55
 30
0.0
 11
470.3
 21
434.9
 31
0.0
  0
ARC
  5
D843
330
D612
100
AcDbEntity
  8
1
  6
Continuous
100
AcDbCircle
 10
465.05
 20
433.4812499999999
 30
0.0
 40
2.38125
100
AcDbArc
 50
13.81839
 51
36.569721
  0
ARC
  5
D844
330
D612
100
AcDbEntity
  8
1
  6
Continuous
100
AcDbCircle
 10
477.55
 20
433.4812499999999
 30
0.0
 40
2.38125
100
AcDbArc
 50
13.81839
 51
36.569721
  0
ARC
  5
D845
330
D612
100
AcDbEntity
  8
1
  6
Continuous
100
AcDbCircle
 10
477.55
 20
433.4812499999999
 30
0.0
 40
2.38125
100
AcDbArc
 50
143.430279
 51
166.18161
  0
LINE
  5
D846
330
D612
100
AcDbEntity
  8
1
  6
Continuous
100
AcDbLine
 10
482.8
 20
433.55
 30
0.0
 11
482.8
 21
434.9
 31
0.0
  0
LINE
  5
D847
330
D612
100
AcDbEntity
  8
1
  6
Continuous
100
AcDbLine
 10
472.2999999999998
 20
433.55
 30
0.0
 11
472.2999999999998
 21
434.9
 31
0.0
  0
LINE
  5
D848
330
D612
100
AcDbEntity
  8
1
  6
Continuous
100
AcDbLine
 10
484.7999999999998
 20
433.55
 30
0.0
 11
484.7999999999998
 21
434.9
 31
0.0
  0
LINE
  5
D849
330
D612
100
AcDbEntity
  8
1
  6
Continuous
100
AcDbLine
 10
495.3
 20
433.55
 30
0.0
 11
495.3
 21
434.9
 31
0.0
  0
ARC
  5
D84A
330
D612
100
AcDbEntity
  8
1
  6
Continuous
100
AcDbCircle
 10
490.05
 20
433.4812499999999
 30
0.0
 40
2.38125
100
AcDbArc
 50
143.430279
 51
166.18161
  0
ARC
  5
D84B
330
D612
100
AcDbEntity
  8
1
  6
Continuous
100
AcDbCircle
 10
490.05
 20
433.4812499999999
 30
0.0
 40
2.38125
100
AcDbArc
 50
13.81839
 51
36.569721
  0
ARC
  5
D84C
330
D612
100
AcDbEntity
  8
1
  6
Continuous
100
AcDbCircle
 10
502.55
 20
433.4812499999999
 30
0.0
 40
2.38125
100
AcDbArc
 50
13.81839
 51
36.569721
  0
ARC
  5
D84D
330
D612
100
AcDbEntity
  8
1
  6
Continuous
100
AcDbCircle
 10
502.55
 20
433.4812499999999
 30
0.0
 40
2.38125
100
AcDbArc
 50
143.430279
 51
166.18161
  0
LINE
  5
D84E
330
D612
100
AcDbEntity
  8
1
  6
Continuous
100
AcDbLine
 10
507.8
 20
433.55
 30
0.0
 11
507.8
 21
434.9
 31
0.0
  0
LINE
  5
D84F
330
D612
100
AcDbEntity
  8
1
  6
Continuous
100
AcDbLine
 10
497.2999999999998
 20
433.55
 30
0.0
 11
497.2999999999998
 21
434.9
 31
0.0
  0
LINE
  5
D850
330
D612
100
AcDbEntity
  8
1
  6
Continuous
100
AcDbLine
 10
509.7999999999998
 20
433.55
 30
0.0
 11
509.7999999999998
 21
434.9
 31
0.0
  0
LINE
  5
D851
330
D612
100
AcDbEntity
  8
1
  6
Continuous
100
AcDbLine
 10
520.2999999999998
 20
433.55
 30
0.0
 11
520.2999999999998
 21
434.9
 31
0.0
  0
ARC
  5
D852
330
D612
100
AcDbEntity
  8
1
  6
Continuous
100
AcDbCircle
 10
515.05
 20
433.4812499999999
 30
0.0
 40
2.38125
100
AcDbArc
 50
143.430279
 51
166.18161
  0
ARC
  5
D853
330
D612
100
AcDbEntity
  8
1
  6
Continuous
100
AcDbCircle
 10
515.05
 20
433.4812499999999
 30
0.0
 40
2.38125
100
AcDbArc
 50
13.81839
 51
36.569721
  0
LINE
  5
D854
330
D612
100
AcDbEntity
  8
1
  6
Continuous
100
AcDbLine
 10
495.3
 20
460.25
 30
0.0
 11
484.7999999999998
 21
460.25
 31
0.0
  0
LINE
  5
D855
330
D612
100
AcDbEntity
  8
1
  6
Continuous
100
AcDbLine
 10
495.3
 20
460.7499999999998
 30
0.0
 11
484.7999999999998
 21
460.7499999999998
 31
0.0
  0
LINE
  5
D856
330
D612
100
AcDbEntity
  8
1
  6
Continuous
100
AcDbLine
 10
507.8
 20
460.7499999999998
 30
0.0
 11
497.2999999999998
 21
460.7499999999998
 31
0.0
  0
LINE
  5
D857
330
D612
100
AcDbEntity
  8
1
  6
Continuous
100
AcDbLine
 10
507.8
 20
460.25
 30
0.0
 11
497.2999999999998
 21
460.25
 31
0.0
  0
ARC
  5
D858
330
D612
100
AcDbEntity
  8
1
  6
Continuous
100
AcDbCircle
 10
515.05
 20
460.81875
 30
0.0
 40
2.38125
100
AcDbArc
 50
158.3347039999999
 51
181.6544389999999
  0
ARC
  5
D859
330
D612
100
AcDbEntity
  8
1
  6
Continuous
100
AcDbCircle
 10
515.05
 20
460.81875
 30
0.0
 40
2.38125
100
AcDbArc
 50
193.81839
 51
216.5697209999999
  0
LINE
  5
D85A
330
D612
100
AcDbEntity
  8
1
  6
Continuous
100
AcDbLine
 10
509.7999999999998
 20
460.7499999999998
 30
0.0
 11
509.7999999999998
 21
459.4
 31
0.0
  0
LINE
  5
D85B
330
D612
100
AcDbEntity
  8
1
  6
Continuous
100
AcDbLine
 10
507.8
 20
460.7499999999998
 30
0.0
 11
507.8
 21
459.4
 31
0.0
  0
ARC
  5
D85C
330
D612
100
AcDbEntity
  8
1
  6
Continuous
100
AcDbCircle
 10
515.05
 20
460.81875
 30
0.0
 40
2.38125
100
AcDbArc
 50
358.3455609999999
 51
21.665296
  0
ARC
  5
D85D
330
D612
100
AcDbEntity
  8
1
  6
Continuous
100
AcDbCircle
 10
515.05
 20
460.81875
 30
0.0
 40
2.38125
100
AcDbArc
 50
323.430279
 51
346.18161
  0
LINE
  5
D85E
330
D612
100
AcDbEntity
  8
1
  6
Continuous
100
AcDbLine
 10
520.2999999999998
 20
460.7499999999998
 30
0.0
 11
520.2999999999998
 21
459.4
 31
0.0
  0
LINE
  5
D85F
330
D612
100
AcDbEntity
  8
1
  6
Continuous
100
AcDbLine
 10
520.2999999999998
 20
460.25
 30
0.0
 11
509.7999999999998
 21
460.25
 31
0.0
  0
LINE
  5
D860
330
D612
100
AcDbEntity
  8
1
  6
Continuous
100
AcDbLine
 10
520.2999999999998
 20
460.7499999999998
 30
0.0
 11
509.7999999999998
 21
460.7499999999998
 31
0.0
  0
ARC
  5
D861
330
D612
100
AcDbEntity
  8
1
  6
Continuous
100
AcDbCircle
 10
490.05
 20
460.81875
 30
0.0
 40
2.38125
100
AcDbArc
 50
358.3455609999999
 51
21.665296
  0
LINE
  5
D862
330
D612
100
AcDbEntity
  8
1
  6
Continuous
100
AcDbLine
 10
497.2999999999998
 20
460.7499999999998
 30
0.0
 11
497.2999999999998
 21
459.4
 31
0.0
  0
ARC
  5
D863
330
D612
100
AcDbEntity
  8
1
  6
Continuous
100
AcDbCircle
 10
490.05
 20
460.81875
 30
0.0
 40
2.38125
100
AcDbArc
 50
323.430279
 51
346.18161
  0
LINE
  5
D864
330
D612
100
AcDbEntity
  8
1
  6
Continuous
100
AcDbLine
 10
495.3
 20
460.7499999999998
 30
0.0
 11
495.3
 21
459.4
 31
0.0
  0
ARC
  5
D865
330
D612
100
AcDbEntity
  8
1
  6
Continuous
100
AcDbCircle
 10
502.55
 20
460.81875
 30
0.0
 40
2.38125
100
AcDbArc
 50
358.3455609999999
 51
21.665296
  0
ARC
  5
D866
330
D612
100
AcDbEntity
  8
1
  6
Continuous
100
AcDbCircle
 10
502.55
 20
460.81875
 30
0.0
 40
2.38125
100
AcDbArc
 50
158.3347039999999
 51
181.6544389999999
  0
ARC
  5
D867
330
D612
100
AcDbEntity
  8
1
  6
Continuous
100
AcDbCircle
 10
502.55
 20
460.81875
 30
0.0
 40
2.38125
100
AcDbArc
 50
193.81839
 51
216.5697209999999
  0
ARC
  5
D868
330
D612
100
AcDbEntity
  8
1
  6
Continuous
100
AcDbCircle
 10
502.55
 20
460.81875
 30
0.0
 40
2.38125
100
AcDbArc
 50
323.430279
 51
346.18161
  0
ARC
  5
D869
330
D612
100
AcDbEntity
  8
1
  6
Continuous
100
AcDbCircle
 10
506.8999999999999
 20
447.1499999999998
 30
0.0
 40
5.0
100
AcDbArc
 50
90.0
 51
270.0
  0
LINE
  5
D86A
330
D612
100
AcDbEntity
  8
4
  6
CENTER
100
AcDbLine
 10
508.3999999999998
 20
439.9433469999998
 30
0.0
 11
508.3999999999998
 21
454.75939
 31
0.0
  0
ARC
  5
D86B
330
D612
100
AcDbEntity
  8
1
  6
Continuous
100
AcDbCircle
 10
509.9
 20
447.1499999999998
 30
0.0
 40
5.0
100
AcDbArc
 50
270.0
 51
90.0
  0
LINE
  5
D86C
330
D612
100
AcDbEntity
  8
1
  6
Continuous
100
AcDbLine
 10
509.9
 20
452.1499999999998
 30
0.0
 11
506.8999999999999
 21
452.1499999999998
 31
0.0
  0
LINE
  5
D86D
330
D612
100
AcDbEntity
  8
1
  6
Continuous
100
AcDbLine
 10
509.9
 20
442.1499999999999
 30
0.0
 11
506.8999999999999
 21
442.1499999999999
 31
0.0
  0
LINE
  5
D86E
330
D612
100
AcDbEntity
  8
1
  6
Continuous
100
AcDbLine
 10
510.6499999999998
 20
446.75
 30
0.0
 11
510.6499999999998
 21
447.55
 31
0.0
  0
LINE
  5
D86F
330
D612
100
AcDbEntity
  8
1
  6
Continuous
100
AcDbLine
 10
506.1499999999998
 20
446.75
 30
0.0
 11
506.1499999999998
 21
447.55
 31
0.0
  0
ARC
  5
D870
330
D612
100
AcDbEntity
  8
1
  6
Continuous
100
AcDbCircle
 10
508.3999999999998
 20
447.55
 30
0.0
 40
2.25
100
AcDbArc
 50
0.0
 51
180.0
  0
ARC
  5
D871
330
D612
100
AcDbEntity
  8
1
  6
Continuous
100
AcDbCircle
 10
508.3999999999998
 20
446.75
 30
0.0
 40
2.25
100
AcDbArc
 50
180.0
 51
0.0
  0
LINE
  5
D872
330
D612
100
AcDbEntity
  8
3
  6
DASHED
100
AcDbLine
 10
521.7999999999998
 20
454.6499999999999
 30
0.0
 11
521.7999999999998
 21
439.6499999999998
 31
0.0
  0
LINE
  5
D873
330
D612
100
AcDbEntity
  8
4
  6
CENTER
100
AcDbLine
 10
495.6999999999998
 20
441.8999999999998
 30
0.0
 11
495.6999999999998
 21
452.4
 31
0.0
  0
LINE
  5
D874
330
D612
100
AcDbEntity
  8
1
  6
Continuous
100
AcDbLine
 10
482.8
 20
460.7499999999998
 30
0.0
 11
472.2999999999998
 21
460.7499999999998
 31
0.0
  0
LINE
  5
D875
330
D612
100
AcDbEntity
  8
1
  6
Continuous
100
AcDbLine
 10
482.8
 20
460.25
 30
0.0
 11
472.2999999999998
 21
460.25
 31
0.0
  0
ARC
  5
D876
330
D612
100
AcDbEntity
  8
1
  6
Continuous
100
AcDbCircle
 10
477.55
 20
460.81875
 30
0.0
 40
2.38125
100
AcDbArc
 50
358.3455609999999
 51
21.665296
  0
ARC
  5
D877
330
D612
100
AcDbEntity
  8
1
  6
Continuous
100
AcDbCircle
 10
477.55
 20
460.81875
 30
0.0
 40
2.38125
100
AcDbArc
 50
158.3347039999999
 51
181.6544389999999
  0
LINE
  5
D878
330
D612
100
AcDbEntity
  8
1
  6
Continuous
100
AcDbLine
 10
482.8
 20
460.7499999999998
 30
0.0
 11
482.8
 21
459.4
 31
0.0
  0
ARC
  5
D879
330
D612
100
AcDbEntity
  8
1
  6
Continuous
100
AcDbCircle
 10
477.55
 20
460.81875
 30
0.0
 40
2.38125
100
AcDbArc
 50
193.81839
 51
216.5697209999999
  0
ARC
  5
D87A
330
D612
100
AcDbEntity
  8
1
  6
Continuous
100
AcDbCircle
 10
477.55
 20
460.81875
 30
0.0
 40
2.38125
100
AcDbArc
 50
323.430279
 51
346.18161
  0
ARC
  5
D87B
330
D612
100
AcDbEntity
  8
1
  6
Continuous
100
AcDbCircle
 10
490.05
 20
460.81875
 30
0.0
 40
2.38125
100
AcDbArc
 50
158.3347039999999
 51
181.6544389999999
  0
ARC
  5
D87C
330
D612
100
AcDbEntity
  8
1
  6
Continuous
100
AcDbCircle
 10
490.05
 20
460.81875
 30
0.0
 40
2.38125
100
AcDbArc
 50
193.81839
 51
216.5697209999999
  0
LINE
  5
D87D
330
D612
100
AcDbEntity
  8
1
  6
Continuous
100
AcDbLine
 10
484.7999999999998
 20
460.7499999999998
 30
0.0
 11
484.7999999999998
 21
459.4
 31
0.0
  0
ARC
  5
D87E
330
D612
100
AcDbEntity
  8
1
  6
Continuous
100
AcDbCircle
 10
465.05
 20
460.81875
 30
0.0
 40
2.38125
100
AcDbArc
 50
158.3347039999999
 51
181.6544389999999
  0
ARC
  5
D87F
330
D612
100
AcDbEntity
  8
1
  6
Continuous
100
AcDbCircle
 10
465.05
 20
460.81875
 30
0.0
 40
2.38125
100
AcDbArc
 50
193.81839
 51
216.5697209999999
  0
LINE
  5
D880
330
D612
100
AcDbEntity
  8
1
  6
Continuous
100
AcDbLine
 10
459.7999999999998
 20
460.7499999999998
 30
0.0
 11
459.7999999999998
 21
459.4
 31
0.0
  0
LINE
  5
D881
330
D612
100
AcDbEntity
  8
1
  6
Continuous
100
AcDbLine
 10
457.8
 20
460.7499999999998
 30
0.0
 11
457.8
 21
459.4
 31
0.0
  0
ARC
  5
D882
330
D612
100
AcDbEntity
  8
1
  6
Continuous
100
AcDbCircle
 10
465.05
 20
460.81875
 30
0.0
 40
2.38125
100
AcDbArc
 50
358.3455609999999
 51
21.665296
  0
LINE
  5
D883
330
D612
100
AcDbEntity
  8
1
  6
Continuous
100
AcDbLine
 10
472.2999999999998
 20
460.7499999999998
 30
0.0
 11
472.2999999999998
 21
459.4
 31
0.0
  0
ARC
  5
D884
330
D612
100
AcDbEntity
  8
1
  6
Continuous
100
AcDbCircle
 10
465.05
 20
460.81875
 30
0.0
 40
2.38125
100
AcDbArc
 50
323.430279
 51
346.18161
  0
LINE
  5
D885
330
D612
100
AcDbEntity
  8
1
  6
Continuous
100
AcDbLine
 10
470.3
 20
460.7499999999998
 30
0.0
 11
470.3
 21
459.4
 31
0.0
  0
LINE
  5
D886
330
D612
100
AcDbEntity
  8
1
  6
Continuous
100
AcDbLine
 10
470.3
 20
460.25
 30
0.0
 11
459.7999999999998
 21
460.25
 31
0.0
  0
LINE
  5
D887
330
D612
100
AcDbEntity
  8
1
  6
Continuous
100
AcDbLine
 10
470.3
 20
460.7499999999998
 30
0.0
 11
459.7999999999998
 21
460.7499999999998
 31
0.0
  0
LINE
  5
D888
330
D612
100
AcDbEntity
  8
4
  6
CENTER
100
AcDbLine
 10
483.0
 20
441.8999999999998
 30
0.0
 11
483.0
 21
452.4
 31
0.0
  0
LINE
  5
D889
330
D612
100
AcDbEntity
  8
1
  6
Continuous
100
AcDbLine
 10
495.3
 20
433.55
 30
0.0
 11
484.7999999999998
 21
433.55
 31
0.0
  0
LINE
  5
D88A
330
D612
100
AcDbEntity
  8
1
  6
Continuous
100
AcDbLine
 10
495.3
 20
434.05
 30
0.0
 11
484.7999999999998
 21
434.05
 31
0.0
  0
LINE
  5
D88B
330
D612
100
AcDbEntity
  8
1
  6
Continuous
100
AcDbLine
 10
507.8
 20
434.05
 30
0.0
 11
497.2999999999998
 21
434.05
 31
0.0
  0
LINE
  5
D88C
330
D612
100
AcDbEntity
  8
1
  6
Continuous
100
AcDbLine
 10
507.8
 20
433.55
 30
0.0
 11
497.2999999999998
 21
433.55
 31
0.0
  0
ARC
  5
D88D
330
D612
100
AcDbEntity
  8
1
  6
Continuous
100
AcDbCircle
 10
515.05
 20
433.4812499999999
 30
0.0
 40
2.38125
100
AcDbArc
 50
178.345561
 51
201.6652959999999
  0
ARC
  5
D88E
330
D612
100
AcDbEntity
  8
1
  6
Continuous
100
AcDbCircle
 10
515.05
 20
433.4812499999999
 30
0.0
 40
2.38125
100
AcDbArc
 50
338.3347039999998
 51
1.654438999999999
  0
LINE
  5
D88F
330
D612
100
AcDbEntity
  8
1
  6
Continuous
100
AcDbLine
 10
520.2999999999998
 20
433.55
 30
0.0
 11
509.7999999999998
 21
433.55
 31
0.0
  0
LINE
  5
D890
330
D612
100
AcDbEntity
  8
1
  6
Continuous
100
AcDbLine
 10
520.2999999999998
 20
434.05
 30
0.0
 11
509.7999999999998
 21
434.05
 31
0.0
  0
ARC
  5
D891
330
D612
100
AcDbEntity
  8
1
  6
Continuous
100
AcDbCircle
 10
490.05
 20
433.4812499999999
 30
0.0
 40
2.38125
100
AcDbArc
 50
338.3347039999998
 51
1.654438999999999
  0
ARC
  5
D892
330
D612
100
AcDbEntity
  8
1
  6
Continuous
100
AcDbCircle
 10
502.55
 20
433.4812499999999
 30
0.0
 40
2.38125
100
AcDbArc
 50
178.345561
 51
201.6652959999999
  0
ARC
  5
D893
330
D612
100
AcDbEntity
  8
1
  6
Continuous
100
AcDbCircle
 10
502.55
 20
433.4812499999999
 30
0.0
 40
2.38125
100
AcDbArc
 50
338.3347039999998
 51
1.654438999999999
  0
LINE
  5
D894
330
D612
100
AcDbEntity
  8
1
  6
Continuous
100
AcDbLine
 10
482.8
 20
434.05
 30
0.0
 11
472.2999999999998
 21
434.05
 31
0.0
  0
LINE
  5
D895
330
D612
100
AcDbEntity
  8
1
  6
Continuous
100
AcDbLine
 10
482.8
 20
433.55
 30
0.0
 11
472.2999999999998
 21
433.55
 31
0.0
  0
ARC
  5
D896
330
D612
100
AcDbEntity
  8
1
  6
Continuous
100
AcDbCircle
 10
477.55
 20
433.4812499999999
 30
0.0
 40
2.38125
100
AcDbArc
 50
178.345561
 51
201.6652959999999
  0
ARC
  5
D897
330
D612
100
AcDbEntity
  8
1
  6
Continuous
100
AcDbCircle
 10
477.55
 20
433.4812499999999
 30
0.0
 40
2.38125
100
AcDbArc
 50
338.3347039999998
 51
1.654438999999999
  0
ARC
  5
D898
330
D612
100
AcDbEntity
  8
1
  6
Continuous
100
AcDbCircle
 10
490.05
 20
433.4812499999999
 30
0.0
 40
2.38125
100
AcDbArc
 50
178.345561
 51
201.6652959999999
  0
ARC
  5
D899
330
D612
100
AcDbEntity
  8
1
  6
Continuous
100
AcDbCircle
 10
465.05
 20
433.4812499999999
 30
0.0
 40
2.38125
100
AcDbArc
 50
178.345561
 51
201.6652959999999
  0
ARC
  5
D89A
330
D612
100
AcDbEntity
  8
1
  6
Continuous
100
AcDbCircle
 10
465.05
 20
433.4812499999999
 30
0.0
 40
2.38125
100
AcDbArc
 50
338.3347039999998
 51
1.654438999999999
  0
LINE
  5
D89B
330
D612
100
AcDbEntity
  8
1
  6
Continuous
100
AcDbLine
 10
470.3
 20
433.55
 30
0.0
 11
459.7999999999998
 21
433.55
 31
0.0
  0
LINE
  5
D89C
330
D612
100
AcDbEntity
  8
1
  6
Continuous
100
AcDbLine
 10
470.3
 20
434.05
 30
0.0
 11
459.7999999999998
 21
434.05
 31
0.0
  0
LINE
  5
D89D
330
D612
100
AcDbEntity
  8
1
  6
Continuous
100
AcDbLine
 10
395.3
 20
433.55
 30
0.0
 11
395.3
 21
434.9
 31
0.0
  0
ARC
  5
D89E
330
D612
100
AcDbEntity
  8
1
  6
Continuous
100
AcDbCircle
 10
390.05
 20
433.4812499999999
 30
0.0
 40
2.38125
100
AcDbArc
 50
13.81839
 51
36.569721
  0
LINE
  5
D89F
330
D612
100
AcDbEntity
  8
1
  6
Continuous
100
AcDbLine
 10
397.3
 20
433.55
 30
0.0
 11
397.3
 21
434.9
 31
0.0
  0
ARC
  5
D8A0
330
D612
100
AcDbEntity
  8
1
  6
Continuous
100
AcDbCircle
 10
402.55
 20
433.4812499999999
 30
0.0
 40
2.38125
100
AcDbArc
 50
143.430279
 51
166.18161
  0
ARC
  5
D8A1
330
D612
100
AcDbEntity
  8
1
  6
Continuous
100
AcDbCircle
 10
402.55
 20
433.4812499999999
 30
0.0
 40
2.38125
100
AcDbArc
 50
13.81839
 51
36.569721
  0
LINE
  5
D8A2
330
D612
100
AcDbEntity
  8
1
  6
Continuous
100
AcDbLine
 10
407.8
 20
433.55
 30
0.0
 11
407.8
 21
434.9
 31
0.0
  0
LINE
  5
D8A3
330
D612
100
AcDbEntity
  8
1
  6
Continuous
100
AcDbLine
 10
420.3
 20
433.55
 30
0.0
 11
420.3
 21
434.9
 31
0.0
  0
ARC
  5
D8A4
330
D612
100
AcDbEntity
  8
1
  6
Continuous
100
AcDbCircle
 10
415.05
 20
433.4812499999999
 30
0.0
 40
2.38125
100
AcDbArc
 50
13.81839
 51
36.569721
  0
LINE
  5
D8A5
330
D612
100
AcDbEntity
  8
1
  6
Continuous
100
AcDbLine
 10
409.7999999999998
 20
433.55
 30
0.0
 11
409.7999999999998
 21
434.9
 31
0.0
  0
ARC
  5
D8A6
330
D612
100
AcDbEntity
  8
1
  6
Continuous
100
AcDbCircle
 10
415.05
 20
433.4812499999999
 30
0.0
 40
2.38125
100
AcDbArc
 50
143.430279
 51
166.18161
  0
ARC
  5
D8A7
330
D612
100
AcDbEntity
  8
1
  6
Continuous
100
AcDbCircle
 10
427.55
 20
433.4812499999999
 30
0.0
 40
2.38125
100
AcDbArc
 50
143.430279
 51
166.18161
  0
LINE
  5
D8A8
330
D612
100
AcDbEntity
  8
1
  6
Continuous
100
AcDbLine
 10
422.2999999999998
 20
433.55
 30
0.0
 11
422.2999999999998
 21
434.9
 31
0.0
  0
ARC
  5
D8A9
330
D612
100
AcDbEntity
  8
1
  6
Continuous
100
AcDbCircle
 10
427.55
 20
433.4812499999999
 30
0.0
 40
2.38125
100
AcDbArc
 50
13.81839
 51
36.569721
  0
LINE
  5
D8AA
330
D612
100
AcDbEntity
  8
1
  6
Continuous
100
AcDbLine
 10
432.8
 20
433.55
 30
0.0
 11
432.8
 21
434.9
 31
0.0
  0
LINE
  5
D8AB
330
D612
100
AcDbEntity
  8
1
  6
Continuous
100
AcDbLine
 10
445.3
 20
433.55
 30
0.0
 11
445.3
 21
434.9
 31
0.0
  0
ARC
  5
D8AC
330
D612
100
AcDbEntity
  8
1
  6
Continuous
100
AcDbCircle
 10
440.05
 20
433.4812499999999
 30
0.0
 40
2.38125
100
AcDbArc
 50
13.81839
 51
36.569721
  0
LINE
  5
D8AD
330
D612
100
AcDbEntity
  8
1
  6
Continuous
100
AcDbLine
 10
434.7999999999998
 20
433.55
 30
0.0
 11
434.7999999999998
 21
434.9
 31
0.0
  0
ARC
  5
D8AE
330
D612
100
AcDbEntity
  8
1
  6
Continuous
100
AcDbCircle
 10
440.05
 20
433.4812499999999
 30
0.0
 40
2.38125
100
AcDbArc
 50
143.430279
 51
166.18161
  0
ARC
  5
D8AF
330
D612
100
AcDbEntity
  8
1
  6
Continuous
100
AcDbCircle
 10
452.55
 20
433.4812499999999
 30
0.0
 40
2.38125
100
AcDbArc
 50
143.430279
 51
166.18161
  0
LINE
  5
D8B0
330
D612
100
AcDbEntity
  8
1
  6
Continuous
100
AcDbLine
 10
447.2999999999998
 20
433.55
 30
0.0
 11
447.2999999999998
 21
434.9
 31
0.0
  0
ARC
  5
D8B1
330
D612
100
AcDbEntity
  8
1
  6
Continuous
100
AcDbCircle
 10
452.55
 20
433.4812499999999
 30
0.0
 40
2.38125
100
AcDbArc
 50
13.81839
 51
36.569721
  0
LINE
  5
D8B2
330
D612
100
AcDbEntity
  8
1
  6
Continuous
100
AcDbLine
 10
445.3
 20
460.25
 30
0.0
 11
434.7999999999998
 21
460.25
 31
0.0
  0
LINE
  5
D8B3
330
D612
100
AcDbEntity
  8
1
  6
Continuous
100
AcDbLine
 10
445.3
 20
460.7499999999998
 30
0.0
 11
434.7999999999998
 21
460.7499999999998
 31
0.0
  0
ARC
  5
D8B4
330
D612
100
AcDbEntity
  8
1
  6
Continuous
100
AcDbCircle
 10
440.05
 20
460.81875
 30
0.0
 40
2.38125
100
AcDbArc
 50
358.3455609999999
 51
21.665296
  0
LINE
  5
D8B5
330
D612
100
AcDbEntity
  8
1
  6
Continuous
100
AcDbLine
 10
447.2999999999998
 20
460.7499999999998
 30
0.0
 11
447.2999999999998
 21
459.4
 31
0.0
  0
ARC
  5
D8B6
330
D612
100
AcDbEntity
  8
1
  6
Continuous
100
AcDbCircle
 10
440.05
 20
460.81875
 30
0.0
 40
2.38125
100
AcDbArc
 50
323.430279
 51
346.18161
  0
LINE
  5
D8B7
330
D612
100
AcDbEntity
  8
1
  6
Continuous
100
AcDbLine
 10
445.3
 20
460.7499999999998
 30
0.0
 11
445.3
 21
459.4
 31
0.0
  0
ARC
  5
D8B8
330
D612
100
AcDbEntity
  8
1
  6
Continuous
100
AcDbCircle
 10
452.55
 20
460.81875
 30
0.0
 40
2.38125
100
AcDbArc
 50
358.3455609999999
 51
21.665296
  0
ARC
  5
D8B9
330
D612
100
AcDbEntity
  8
1
  6
Continuous
100
AcDbCircle
 10
452.55
 20
460.81875
 30
0.0
 40
2.38125
100
AcDbArc
 50
158.3347039999999
 51
181.6544389999999
  0
ARC
  5
D8BA
330
D612
100
AcDbEntity
  8
1
  6
Continuous
100
AcDbCircle
 10
452.55
 20
460.81875
 30
0.0
 40
2.38125
100
AcDbArc
 50
323.430279
 51
346.18161
  0
ARC
  5
D8BB
330
D612
100
AcDbEntity
  8
1
  6
Continuous
100
AcDbCircle
 10
452.55
 20
460.81875
 30
0.0
 40
2.38125
100
AcDbArc
 50
193.81839
 51
216.5697209999999
  0
ARC
  5
D8BC
330
D612
100
AcDbEntity
  8
1
  6
Continuous
100
AcDbCircle
 10
427.55
 20
460.81875
 30
0.0
 40
2.38125
100
AcDbArc
 50
358.3455609999999
 51
21.665296
  0
ARC
  5
D8BD
330
D612
100
AcDbEntity
  8
1
  6
Continuous
100
AcDbCircle
 10
427.55
 20
460.81875
 30
0.0
 40
2.38125
100
AcDbArc
 50
158.3347039999999
 51
181.6544389999999
  0
LINE
  5
D8BE
330
D612
100
AcDbEntity
  8
1
  6
Continuous
100
AcDbLine
 10
432.8
 20
460.7499999999998
 30
0.0
 11
422.2999999999998
 21
460.7499999999998
 31
0.0
  0
LINE
  5
D8BF
330
D612
100
AcDbEntity
  8
1
  6
Continuous
100
AcDbLine
 10
432.8
 20
460.25
 30
0.0
 11
422.2999999999998
 21
460.25
 31
0.0
  0
LINE
  5
D8C0
330
D612
100
AcDbEntity
  8
1
  6
Continuous
100
AcDbLine
 10
432.8
 20
460.7499999999998
 30
0.0
 11
432.8
 21
459.4
 31
0.0
  0
ARC
  5
D8C1
330
D612
100
AcDbEntity
  8
1
  6
Continuous
100
AcDbCircle
 10
427.55
 20
460.81875
 30
0.0
 40
2.38125
100
AcDbArc
 50
323.430279
 51
346.18161
  0
LINE
  5
D8C2
330
D612
100
AcDbEntity
  8
1
  6
Continuous
100
AcDbLine
 10
422.2999999999998
 20
460.7499999999998
 30
0.0
 11
422.2999999999998
 21
459.4
 31
0.0
  0
ARC
  5
D8C3
330
D612
100
AcDbEntity
  8
1
  6
Continuous
100
AcDbCircle
 10
427.55
 20
460.81875
 30
0.0
 40
2.38125
100
AcDbArc
 50
193.81839
 51
216.5697209999999
  0
ARC
  5
D8C4
330
D612
100
AcDbEntity
  8
1
  6
Continuous
100
AcDbCircle
 10
440.05
 20
460.81875
 30
0.0
 40
2.38125
100
AcDbArc
 50
158.3347039999999
 51
181.6544389999999
  0
ARC
  5
D8C5
330
D612
100
AcDbEntity
  8
1
  6
Continuous
100
AcDbCircle
 10
440.05
 20
460.81875
 30
0.0
 40
2.38125
100
AcDbArc
 50
193.81839
 51
216.5697209999999
  0
LINE
  5
D8C6
330
D612
100
AcDbEntity
  8
1
  6
Continuous
100
AcDbLine
 10
434.7999999999998
 20
460.7499999999998
 30
0.0
 11
434.7999999999998
 21
459.4
 31
0.0
  0
LINE
  5
D8C7
330
D612
100
AcDbEntity
  8
1
  6
Continuous
100
AcDbLine
 10
369.8999999999998
 20
437.0625
 30
0.0
 11
369.8999999999998
 21
457.2375
 31
0.0
  0
LINE
  5
D8C8
330
D612
100
AcDbEntity
  8
1
  6
Continuous
100
AcDbLine
 10
407.8
 20
460.7499999999998
 30
0.0
 11
397.3
 21
460.7499999999998
 31
0.0
  0
LINE
  5
D8C9
330
D612
100
AcDbEntity
  8
1
  6
Continuous
100
AcDbLine
 10
407.8
 20
460.25
 30
0.0
 11
397.3
 21
460.25
 31
0.0
  0
ARC
  5
D8CA
330
D612
100
AcDbEntity
  8
1
  6
Continuous
100
AcDbCircle
 10
415.05
 20
460.81875
 30
0.0
 40
2.38125
100
AcDbArc
 50
158.3347039999999
 51
181.6544389999999
  0
ARC
  5
D8CB
330
D612
100
AcDbEntity
  8
1
  6
Continuous
100
AcDbCircle
 10
415.05
 20
460.81875
 30
0.0
 40
2.38125
100
AcDbArc
 50
193.81839
 51
216.5697209999999
  0
LINE
  5
D8CC
330
D612
100
AcDbEntity
  8
1
  6
Continuous
100
AcDbLine
 10
409.7999999999998
 20
460.7499999999998
 30
0.0
 11
409.7999999999998
 21
459.4
 31
0.0
  0
LINE
  5
D8CD
330
D612
100
AcDbEntity
  8
1
  6
Continuous
100
AcDbLine
 10
407.8
 20
460.7499999999998
 30
0.0
 11
407.8
 21
459.4
 31
0.0
  0
ARC
  5
D8CE
330
D612
100
AcDbEntity
  8
1
  6
Continuous
100
AcDbCircle
 10
415.05
 20
460.81875
 30
0.0
 40
2.38125
100
AcDbArc
 50
358.3455609999999
 51
21.665296
  0
ARC
  5
D8CF
330
D612
100
AcDbEntity
  8
1
  6
Continuous
100
AcDbCircle
 10
415.05
 20
460.81875
 30
0.0
 40
2.38125
100
AcDbArc
 50
323.430279
 51
346.18161
  0
LINE
  5
D8D0
330
D612
100
AcDbEntity
  8
1
  6
Continuous
100
AcDbLine
 10
420.3
 20
460.7499999999998
 30
0.0
 11
420.3
 21
459.4
 31
0.0
  0
LINE
  5
D8D1
330
D612
100
AcDbEntity
  8
1
  6
Continuous
100
AcDbLine
 10
420.3
 20
460.25
 30
0.0
 11
409.7999999999998
 21
460.25
 31
0.0
  0
LINE
  5
D8D2
330
D612
100
AcDbEntity
  8
1
  6
Continuous
100
AcDbLine
 10
420.3
 20
460.7499999999998
 30
0.0
 11
409.7999999999998
 21
460.7499999999998
 31
0.0
  0
ARC
  5
D8D3
330
D612
100
AcDbEntity
  8
1
  6
Continuous
100
AcDbCircle
 10
390.05
 20
460.81875
 30
0.0
 40
2.38125
100
AcDbArc
 50
358.3455609999999
 51
21.665296
  0
LINE
  5
D8D4
330
D612
100
AcDbEntity
  8
1
  6
Continuous
100
AcDbLine
 10
397.3
 20
460.7499999999998
 30
0.0
 11
397.3
 21
459.4
 31
0.0
  0
ARC
  5
D8D5
330
D612
100
AcDbEntity
  8
1
  6
Continuous
100
AcDbCircle
 10
390.05
 20
460.81875
 30
0.0
 40
2.38125
100
AcDbArc
 50
323.430279
 51
346.18161
  0
LINE
  5
D8D6
330
D612
100
AcDbEntity
  8
1
  6
Continuous
100
AcDbLine
 10
395.3
 20
460.7499999999998
 30
0.0
 11
395.3
 21
459.4
 31
0.0
  0
ARC
  5
D8D7
330
D612
100
AcDbEntity
  8
1
  6
Continuous
100
AcDbCircle
 10
402.55
 20
460.81875
 30
0.0
 40
2.38125
100
AcDbArc
 50
358.3455609999999
 51
21.665296
  0
ARC
  5
D8D8
330
D612
100
AcDbEntity
  8
1
  6
Continuous
100
AcDbCircle
 10
402.55
 20
460.81875
 30
0.0
 40
2.38125
100
AcDbArc
 50
158.3347039999999
 51
181.6544389999999
  0
ARC
  5
D8D9
330
D612
100
AcDbEntity
  8
1
  6
Continuous
100
AcDbCircle
 10
402.55
 20
460.81875
 30
0.0
 40
2.38125
100
AcDbArc
 50
323.430279
 51
346.18161
  0
ARC
  5
D8DA
330
D612
100
AcDbEntity
  8
1
  6
Continuous
100
AcDbCircle
 10
402.55
 20
460.81875
 30
0.0
 40
2.38125
100
AcDbArc
 50
193.81839
 51
216.5697209999999
  0
CIRCLE
  5
D8DB
330
D612
100
AcDbEntity
  8
1
  6
Continuous
100
AcDbCircle
 10
356.8999999999999
 20
447.1499999999998
 30
0.0
 40
3.5
  0
LINE
  5
D8DC
330
D612
100
AcDbEntity
  8
4
  6
CENTER
100
AcDbLine
 10
356.8999999999999
 20
440.65
 30
0.0
 11
356.8999999999999
 21
453.65
 31
0.0
  0
LINE
  5
D8DD
330
D612
100
AcDbEntity
  8
4
  6
CENTER
100
AcDbLine
 10
397.3
 20
441.8999999999998
 30
0.0
 11
397.3
 21
452.4
 31
0.0
  0
LINE
  5
D8DE
330
D612
100
AcDbEntity
  8
1
  6
Continuous
100
AcDbLine
 10
445.3
 20
433.55
 30
0.0
 11
434.7999999999998
 21
433.55
 31
0.0
  0
LINE
  5
D8DF
330
D612
100
AcDbEntity
  8
1
  6
Continuous
100
AcDbLine
 10
445.3
 20
434.05
 30
0.0
 11
434.7999999999998
 21
434.05
 31
0.0
  0
ARC
  5
D8E0
330
D612
100
AcDbEntity
  8
1
  6
Continuous
100
AcDbCircle
 10
440.05
 20
433.4812499999999
 30
0.0
 40
2.38125
100
AcDbArc
 50
338.3347039999998
 51
1.654438999999999
  0
ARC
  5
D8E1
330
D612
100
AcDbEntity
  8
1
  6
Continuous
100
AcDbCircle
 10
452.55
 20
433.4812499999999
 30
0.0
 40
2.38125
100
AcDbArc
 50
178.345561
 51
201.6652959999999
  0
ARC
  5
D8E2
330
D612
100
AcDbEntity
  8
1
  6
Continuous
100
AcDbCircle
 10
452.55
 20
433.4812499999999
 30
0.0
 40
2.38125
100
AcDbArc
 50
338.3347039999998
 51
1.654438999999999
  0
LINE
  5
D8E3
330
D612
100
AcDbEntity
  8
1
  6
Continuous
100
AcDbLine
 10
432.8
 20
434.05
 30
0.0
 11
422.2999999999998
 21
434.05
 31
0.0
  0
LINE
  5
D8E4
330
D612
100
AcDbEntity
  8
1
  6
Continuous
100
AcDbLine
 10
432.8
 20
433.55
 30
0.0
 11
422.2999999999998
 21
433.55
 31
0.0
  0
ARC
  5
D8E5
330
D612
100
AcDbEntity
  8
1
  6
Continuous
100
AcDbCircle
 10
427.55
 20
433.4812499999999
 30
0.0
 40
2.38125
100
AcDbArc
 50
178.345561
 51
201.6652959999999
  0
ARC
  5
D8E6
330
D612
100
AcDbEntity
  8
1
  6
Continuous
100
AcDbCircle
 10
427.55
 20
433.4812499999999
 30
0.0
 40
2.38125
100
AcDbArc
 50
338.3347039999998
 51
1.654438999999999
  0
ARC
  5
D8E7
330
D612
100
AcDbEntity
  8
1
  6
Continuous
100
AcDbCircle
 10
440.05
 20
433.4812499999999
 30
0.0
 40
2.38125
100
AcDbArc
 50
178.345561
 51
201.6652959999999
  0
LINE
  5
D8E8
330
D612
100
AcDbEntity
  8
1
  6
Continuous
100
AcDbLine
 10
407.8
 20
434.05
 30
0.0
 11
397.3
 21
434.05
 31
0.0
  0
LINE
  5
D8E9
330
D612
100
AcDbEntity
  8
1
  6
Continuous
100
AcDbLine
 10
407.8
 20
433.55
 30
0.0
 11
397.3
 21
433.55
 31
0.0
  0
ARC
  5
D8EA
330
D612
100
AcDbEntity
  8
1
  6
Continuous
100
AcDbCircle
 10
415.05
 20
433.4812499999999
 30
0.0
 40
2.38125
100
AcDbArc
 50
178.345561
 51
201.6652959999999
  0
ARC
  5
D8EB
330
D612
100
AcDbEntity
  8
1
  6
Continuous
100
AcDbCircle
 10
415.05
 20
433.4812499999999
 30
0.0
 40
2.38125
100
AcDbArc
 50
338.3347039999998
 51
1.654438999999999
  0
LINE
  5
D8EC
330
D612
100
AcDbEntity
  8
1
  6
Continuous
100
AcDbLine
 10
420.3
 20
433.55
 30
0.0
 11
409.7999999999998
 21
433.55
 31
0.0
  0
LINE
  5
D8ED
330
D612
100
AcDbEntity
  8
1
  6
Continuous
100
AcDbLine
 10
420.3
 20
434.05
 30
0.0
 11
409.7999999999998
 21
434.05
 31
0.0
  0
ARC
  5
D8EE
330
D612
100
AcDbEntity
  8
1
  6
Continuous
100
AcDbCircle
 10
390.05
 20
433.4812499999999
 30
0.0
 40
2.38125
100
AcDbArc
 50
338.3347039999998
 51
1.654438999999999
  0
ARC
  5
D8EF
330
D612
100
AcDbEntity
  8
1
  6
Continuous
100
AcDbCircle
 10
402.55
 20
433.4812499999999
 30
0.0
 40
2.38125
100
AcDbArc
 50
178.345561
 51
201.6652959999999
  0
ARC
  5
D8F0
330
D612
100
AcDbEntity
  8
1
  6
Continuous
100
AcDbCircle
 10
402.55
 20
433.4812499999999
 30
0.0
 40
2.38125
100
AcDbArc
 50
338.3347039999998
 51
1.654438999999999
  0
LINE
  5
D8F1
330
D612
100
AcDbEntity
  8
1
  6
Continuous
100
AcDbLine
 10
384.8
 20
433.55
 30
0.0
 11
384.8
 21
434.9
 31
0.0
  0
ARC
  5
D8F2
330
D612
100
AcDbEntity
  8
1
  6
Continuous
100
AcDbCircle
 10
390.05
 20
433.4812499999999
 30
0.0
 40
2.38125
100
AcDbArc
 50
143.430279
 51
166.18161
  0
LINE
  5
D8F3
330
D612
100
AcDbEntity
  8
3
  6
DASHED
100
AcDbLine
 10
334.8999999999999
 20
434.9
 30
0.0
 11
334.8999999999999
 21
459.4
 31
0.0
  0
LINE
  5
D8F4
330
D612
100
AcDbEntity
  8
1
  6
Continuous
100
AcDbLine
 10
331.8999999999999
 20
434.9
 30
0.0
 11
331.8999999999999
 21
459.4
 31
0.0
  0
ARC
  5
D8F5
330
D612
100
AcDbEntity
  8
1
  6
Continuous
100
AcDbCircle
 10
390.05
 20
460.81875
 30
0.0
 40
2.38125
100
AcDbArc
 50
158.3347039999999
 51
181.6544389999999
  0
ARC
  5
D8F6
330
D612
100
AcDbEntity
  8
1
  6
Continuous
100
AcDbCircle
 10
390.05
 20
460.81875
 30
0.0
 40
2.38125
100
AcDbArc
 50
193.81839
 51
216.5697209999999
  0
LINE
  5
D8F7
330
D612
100
AcDbEntity
  8
1
  6
Continuous
100
AcDbLine
 10
384.8
 20
460.7499999999998
 30
0.0
 11
384.8
 21
459.4
 31
0.0
  0
LINE
  5
D8F8
330
D612
100
AcDbEntity
  8
1
  6
Continuous
100
AcDbLine
 10
258.0
 20
449.3999999999998
 30
0.0
 11
257.2
 21
449.3999999999998
 31
0.0
  0
LINE
  5
D8F9
330
D612
100
AcDbEntity
  8
4
  6
CENTER
100
AcDbLine
 10
257.6
 20
441.8999999999998
 30
0.0
 11
257.6
 21
452.4
 31
0.0
  0
LINE
  5
D8FA
330
D612
100
AcDbEntity
  8
1
  6
Continuous
100
AcDbLine
 10
258.0
 20
444.8999999999998
 30
0.0
 11
257.2
 21
444.8999999999998
 31
0.0
  0
ARC
  5
D8FB
330
D612
100
AcDbEntity
  8
1
  6
Continuous
100
AcDbCircle
 10
258.0
 20
447.1499999999998
 30
0.0
 40
2.25
100
AcDbArc
 50
270.0
 51
90.0
  0
ARC
  5
D8FC
330
D612
100
AcDbEntity
  8
1
  6
Continuous
100
AcDbCircle
 10
257.2
 20
447.1499999999998
 30
0.0
 40
2.25
100
AcDbArc
 50
90.0
 51
270.0
  0
ARC
  5
D8FD
330
D612
100
AcDbEntity
  8
1
  6
Continuous
100
AcDbCircle
 10
390.05
 20
433.4812499999999
 30
0.0
 40
2.38125
100
AcDbArc
 50
178.345561
 51
201.6652959999999
  0
LINE
  5
D8FE
330
D612
100
AcDbEntity
  8
1
  6
Continuous
100
AcDbLine
 10
120.5289909999999
 20
434.3368169999997
 30
0.0
 11
118.653284
 21
432.0049759999998
 31
0.0
  0
ARC
  5
D8FF
330
D612
100
AcDbEntity
  8
1
  6
Continuous
100
AcDbCircle
 10
119.9
 20
434.842771
 30
0.0
 40
0.8072289999999997
100
AcDbArc
 50
321.187185
 51
90.0
  0
ARC
  5
D900
330
D612
100
AcDbEntity
  8
1
  6
Continuous
100
AcDbCircle
 10
119.9
 20
459.457229
 30
0.0
 40
0.8072289999999997
100
AcDbArc
 50
270.0
 51
38.812815
  0
ARC
  5
D901
330
D612
100
AcDbEntity
  8
1
  6
Continuous
100
AcDbCircle
 10
146.5
 20
446.75
 30
0.0
 40
2.25
100
AcDbArc
 50
180.0
 51
0.0
  0
ARC
  5
D902
330
D612
100
AcDbEntity
  8
1
  6
Continuous
100
AcDbCircle
 10
146.5
 20
447.55
 30
0.0
 40
2.25
100
AcDbArc
 50
0.0
 51
180.0
  0
LINE
  5
D903
330
D612
100
AcDbEntity
  8
4
  6
CENTER
100
AcDbLine
 10
146.5
 20
441.8999999999998
 30
0.0
 11
146.5
 21
452.4
 31
0.0
  0
LINE
  5
D904
330
D612
100
AcDbEntity
  8
1
  6
Continuous
100
AcDbLine
 10
144.25
 20
446.75
 30
0.0
 11
144.25
 21
447.55
 31
0.0
  0
LINE
  5
D905
330
D612
100
AcDbEntity
  8
1
  6
Continuous
100
AcDbLine
 10
148.75
 20
446.75
 30
0.0
 11
148.75
 21
447.55
 31
0.0
  0
LINE
  5
D906
330
D612
100
AcDbEntity
  8
1
  6
Continuous
100
AcDbLine
 10
131.55
 20
446.75
 30
0.0
 11
131.55
 21
447.55
 31
0.0
  0
LINE
  5
D907
330
D612
100
AcDbEntity
  8
4
  6
CENTER
100
AcDbLine
 10
133.8
 20
441.8999999999998
 30
0.0
 11
133.8
 21
452.4
 31
0.0
  0
LINE
  5
D908
330
D612
100
AcDbEntity
  8
1
  6
Continuous
100
AcDbLine
 10
136.05
 20
446.75
 30
0.0
 11
136.05
 21
447.55
 31
0.0
  0
ARC
  5
D909
330
D612
100
AcDbEntity
  8
1
  6
Continuous
100
AcDbCircle
 10
133.8
 20
446.75
 30
0.0
 40
2.25
100
AcDbArc
 50
180.0
 51
0.0
  0
ARC
  5
D90A
330
D612
100
AcDbEntity
  8
1
  6
Continuous
100
AcDbCircle
 10
133.8
 20
447.55
 30
0.0
 40
2.25
100
AcDbArc
 50
0.0
 51
180.0
  0
LINE
  5
D90B
330
D612
100
AcDbEntity
  8
1
  6
Continuous
100
AcDbLine
 10
118.3
 20
458.65
 30
0.0
 11
118.3
 21
435.6499999999998
 31
0.0
  0
LINE
  5
D90C
330
D612
100
AcDbEntity
  8
1
  6
Continuous
100
AcDbLine
 10
119.9
 20
458.65
 30
0.0
 11
119.9
 21
435.6499999999998
 31
0.0
  0
LINE
  5
D90D
330
D612
100
AcDbEntity
  8
1
  6
Continuous
100
AcDbLine
 10
118.3
 20
464.8
 30
0.0
 11
118.3
 21
463.2978689999998
 31
0.0
  0
LINE
  5
D90E
330
D612
100
AcDbEntity
  8
1
  6
Continuous
100
AcDbLine
 10
120.5289909999999
 20
459.9631829999998
 30
0.0
 11
118.653284
 21
462.295024
 31
0.0
  0
ARC
  5
D90F
330
D612
100
AcDbEntity
  8
1
  6
Continuous
100
AcDbCircle
 10
119.9
 20
463.8885629999998
 30
0.0
 40
1.6
100
AcDbArc
 50
180.0
 51
270.0
  0
ARC
  5
D910
330
D612
100
AcDbEntity
  8
1
  6
Continuous
100
AcDbCircle
 10
119.9
 20
463.2978689999998
 30
0.0
 40
1.6
100
AcDbArc
 50
180.0
 51
270.0
  0
LINE
  5
D911
330
D612
100
AcDbEntity
  8
1
  6
Continuous
100
AcDbLine
 10
119.9
 20
458.65
 30
0.0
 11
118.3
 21
458.65
 31
0.0
  0
LINE
  5
D912
330
D612
100
AcDbEntity
  8
1
  6
Continuous
100
AcDbLine
 10
119.9
 20
435.6499999999998
 30
0.0
 11
118.3
 21
435.6499999999998
 31
0.0
  0
LINE
  5
D913
330
D612
100
AcDbEntity
  8
1
  6
Continuous
100
AcDbLine
 10
118.3
 20
431.0021309999998
 30
0.0
 11
118.3
 21
429.4999999999998
 31
0.0
  0
ARC
  5
D914
330
D612
100
AcDbEntity
  8
1
  6
Continuous
100
AcDbCircle
 10
119.9
 20
431.0021309999998
 30
0.0
 40
1.6
100
AcDbArc
 50
90.0
 51
180.0
  0
ARC
  5
D915
330
D612
100
AcDbEntity
  8
1
  6
Continuous
100
AcDbCircle
 10
119.9
 20
430.4114369999998
 30
0.0
 40
1.6
100
AcDbArc
 50
90.0
 51
180.0
  0
LINE
  5
D916
330
D612
100
AcDbEntity
  8
1
  6
Continuous
100
AcDbLine
 10
524.2999999999998
 20
57.1
 30
0.0
 11
739.7
 21
57.1
 31
0.0
  0
LINE
  5
D917
330
D612
100
AcDbEntity
  8
1
  6
Continuous
100
AcDbLine
 10
334.8999999999999
 20
50.6
 30
0.0
 11
739.7
 21
50.6
 31
0.0
  0
LINE
  5
D918
330
D612
100
AcDbEntity
  8
1
  6
Continuous
100
AcDbLine
 10
331.8999999999999
 20
50.5
 30
0.0
 11
736.7
 21
50.5
 31
0.0
  0
LINE
  5
D919
330
D612
100
AcDbEntity
  8
1
  6
Continuous
100
AcDbLine
 10
547.2999999999998
 20
41.0
 30
0.0
 11
953.2999999999999
 21
41.0
 31
0.0
  0
LINE
  5
D91A
330
D612
100
AcDbEntity
  8
1
  6
Continuous
100
AcDbLine
 10
547.2999999999998
 20
49.7
 30
0.0
 11
953.2999999999999
 21
49.7
 31
0.0
  0
LINE
  5
D91B
330
D612
100
AcDbEntity
  8
3
  6
DASHED
100
AcDbLine
 10
547.2999999999998
 20
44.0
 30
0.0
 11
736.7
 21
44.0
 31
0.0
  0
LINE
  5
D91C
330
D612
100
AcDbEntity
  8
1
  6
Continuous
100
AcDbLine
 10
524.2999999999998
 20
60.1
 30
0.0
 11
524.2999999999998
 21
51.4
 31
0.0
  0
LINE
  5
D91D
330
D612
100
AcDbEntity
  8
4
  6
CENTER
100
AcDbLine
 10
508.3999999999998
 20
40.566515
 30
0.0
 11
508.3999999999998
 21
65.528309
 31
0.0
  0
LINE
  5
D91E
330
D612
100
AcDbEntity
  8
3
  6
DASHED
100
AcDbLine
 10
334.8999999999999
 20
51.4
 30
0.0
 11
334.8999999999999
 21
57.1
 31
0.0
  0
LINE
  5
D91F
330
D612
100
AcDbEntity
  8
1
  6
Continuous
100
AcDbLine
 10
118.3
 20
60.1
 30
0.0
 11
118.3
 21
51.4
 31
0.0
  0
LINE
  5
D920
330
D612
100
AcDbEntity
  8
1
  6
Continuous
100
AcDbLine
 10
118.3
 20
60.1
 30
0.0
 11
524.2999999999998
 21
60.1
 31
0.0
  0
LINE
  5
D921
330
D612
100
AcDbEntity
  8
4
  6
CENTER
100
AcDbLine
 10
146.5
 20
55.028309
 30
0.0
 11
146.5
 21
65.528309
 31
0.0
  0
LINE
  5
D922
330
D612
100
AcDbEntity
  8
4
  6
CENTER
100
AcDbLine
 10
133.8
 20
55.028309
 30
0.0
 11
133.8
 21
65.528309
 31
0.0
  0
LINE
  5
D923
330
D612
100
AcDbEntity
  8
3
  6
DASHED
100
AcDbLine
 10
334.8999999999999
 20
57.1
 30
0.0
 11
524.2999999999998
 21
57.1
 31
0.0
  0
LINE
  5
D924
330
D612
100
AcDbEntity
  8
4
  6
CENTER
100
AcDbLine
 10
257.6
 20
55.028309
 30
0.0
 11
257.6
 21
65.528309
 31
0.0
  0
LINE
  5
D925
330
D612
100
AcDbEntity
  8
4
  6
CENTER
100
AcDbLine
 10
397.3
 20
55.028309
 30
0.0
 11
397.3
 21
65.528309
 31
0.0
  0
LINE
  5
D926
330
D612
100
AcDbEntity
  8
4
  6
CENTER
100
AcDbLine
 10
483.0
 20
55.028309
 30
0.0
 11
483.0
 21
65.528309
 31
0.0
  0
LINE
  5
D927
330
D612
100
AcDbEntity
  8
4
  6
CENTER
100
AcDbLine
 10
495.6999999999998
 20
55.028309
 30
0.0
 11
495.6999999999998
 21
65.528309
 31
0.0
  0
LINE
  5
D928
330
D612
100
AcDbEntity
  8
1
  6
Continuous
100
AcDbLine
 10
118.3
 20
51.4
 30
0.0
 11
524.2999999999998
 21
51.4
 31
0.0
  0
LINE
  5
D929
330
D612
100
AcDbEntity
  8
1
  6
Continuous
100
AcDbLine
 10
331.8999999999999
 20
44.0
 30
0.0
 11
547.2999999999998
 21
44.0
 31
0.0
  0
LINE
  5
D92A
330
D612
100
AcDbEntity
  8
1
  6
Continuous
100
AcDbLine
 10
334.8999999999999
 20
50.6
 30
0.0
 11
334.8999999999999
 21
51.4
 31
0.0
  0
LINE
  5
D92B
330
D612
100
AcDbEntity
  8
1
  6
Continuous
100
AcDbLine
 10
331.8999999999999
 20
44.0
 30
0.0
 11
331.8999999999999
 21
50.5
 31
0.0
  0
LINE
  5
D92C
330
D612
100
AcDbEntity
  8
1
  6
Continuous
100
AcDbLine
 10
547.2999999999998
 20
49.7
 30
0.0
 11
547.2999999999998
 21
41.0
 31
0.0
  0
LINE
  5
D92D
330
D612
100
AcDbEntity
  8
1
  6
Continuous
100
AcDbLine
 10
739.7
 20
50.6
 30
0.0
 11
739.7
 21
57.1
 31
0.0
  0
LINE
  5
D92E
330
D612
100
AcDbEntity
  8
4
  6
CENTER
100
AcDbLine
 10
563.2000000000001
 20
36.504411
 30
0.0
 11
563.2000000000001
 21
60.034205
 31
0.0
  0
LINE
  5
D92F
330
D612
100
AcDbEntity
  8
4
  6
CENTER
100
AcDbLine
 10
575.8999999999997
 20
36.504411
 30
0.0
 11
575.8999999999997
 21
47.00441099999999
 31
0.0
  0
LINE
  5
D930
330
D612
100
AcDbEntity
  8
4
  6
CENTER
100
AcDbLine
 10
588.6
 20
36.504411
 30
0.0
 11
588.6
 21
47.00441099999999
 31
0.0
  0
LINE
  5
D931
330
D612
100
AcDbEntity
  8
3
  6
DASHED
100
AcDbLine
 10
736.7
 20
44.0
 30
0.0
 11
736.7
 21
49.7
 31
0.0
  0
LINE
  5
D932
330
D612
100
AcDbEntity
  8
4
  6
CENTER
100
AcDbLine
 10
674.2999999999998
 20
36.504411
 30
0.0
 11
674.2999999999998
 21
47.00441099999999
 31
0.0
  0
LINE
  5
D933
330
D612
100
AcDbEntity
  8
1
  6
Continuous
100
AcDbLine
 10
736.7
 20
49.7
 30
0.0
 11
736.7
 21
50.5
 31
0.0
  0
LINE
  5
D934
330
D612
100
AcDbEntity
  8
4
  6
CENTER
100
AcDbLine
 10
814.0
 20
36.504411
 30
0.0
 11
814.0
 21
47.00441099999999
 31
0.0
  0
LINE
  5
D935
330
D612
100
AcDbEntity
  8
4
  6
CENTER
100
AcDbLine
 10
937.8
 20
36.504411
 30
0.0
 11
937.8
 21
47.00441099999999
 31
0.0
  0
LINE
  5
D936
330
D612
100
AcDbEntity
  8
4
  6
CENTER
100
AcDbLine
 10
925.1000000000001
 20
36.504411
 30
0.0
 11
925.1000000000001
 21
47.00441099999999
 31
0.0
  0
LINE
  5
D937
330
D612
100
AcDbEntity
  8
1
  6
Continuous
100
AcDbLine
 10
953.2999999999999
 20
49.7
 30
0.0
 11
953.2999999999999
 21
41.0
 31
0.0
  0
LINE
  5
D938
330
D612
100
AcDbEntity
  8
1
  6
Continuous
100
AcDbLine
 10
1046.599999999999
 20
170.171084
 30
0.0
 11
1046.599999999999
 21
195.3289159999999
 31
0.0
  0
LINE
  5
D939
330
D612
100
AcDbEntity
  8
5
  6
PHANTOM
100
AcDbLine
 10
548.8999999999998
 20
171.25
 30
0.0
 11
548.8999999999998
 21
194.25
 31
0.0
  0
ARC
  5
D93A
330
D612
100
AcDbEntity
  8
5
  6
PHANTOM
100
AcDbCircle
 10
548.8999999999998
 20
170.442771
 30
0.0
 40
0.8072289999999997
100
AcDbArc
 50
321.187185
 51
90.0
  0
ARC
  5
D93B
330
D612
100
AcDbEntity
  8
5
  6
PHANTOM
100
AcDbCircle
 10
548.8999999999998
 20
166.602131
 30
0.0
 40
1.6
100
AcDbArc
 50
141.1871849999998
 51
180.0
  0
LINE
  5
D93C
330
D612
100
AcDbEntity
  8
5
  6
PHANTOM
100
AcDbLine
 10
549.528991
 20
169.9368169999999
 30
0.0
 11
547.6532839999999
 21
167.6049759999999
 31
0.0
  0
LINE
  5
D93D
330
D612
100
AcDbEntity
  8
5
  6
PHANTOM
100
AcDbLine
 10
547.2999999999998
 20
165.0999999999999
 30
0.0
 11
547.2999999999998
 21
166.602131
 31
0.0
  0
ARC
  5
D93E
330
D612
100
AcDbEntity
  8
5
  6
PHANTOM
100
AcDbCircle
 10
548.8999999999998
 20
195.057229
 30
0.0
 40
0.8072289999999997
100
AcDbArc
 50
270.0
 51
38.812815
  0
LINE
  5
D93F
330
D612
100
AcDbEntity
  8
5
  6
PHANTOM
100
AcDbLine
 10
549.528991
 20
195.563183
 30
0.0
 11
547.6532839999999
 21
197.8950239999998
 31
0.0
  0
ARC
  5
D940
330
D612
100
AcDbEntity
  8
5
  6
PHANTOM
100
AcDbCircle
 10
548.8999999999998
 20
198.8978689999999
 30
0.0
 40
1.6
100
AcDbArc
 50
180.0
 51
218.812815
  0
LINE
  5
D941
330
D612
100
AcDbEntity
  8
5
  6
PHANTOM
100
AcDbLine
 10
547.2999999999998
 20
198.8978689999999
 30
0.0
 11
547.2999999999998
 21
200.4
 31
0.0
  0
LINE
  5
D942
330
D612
100
AcDbEntity
  8
4
  6
CENTER
100
AcDbLine
 10
562.7999999999998
 20
188.0
 30
0.0
 11
562.7999999999998
 21
177.5
 31
0.0
  0
LINE
  5
D943
330
D612
100
AcDbEntity
  8
5
  6
PHANTOM
100
AcDbLine
 10
565.05
 20
183.15
 30
0.0
 11
565.05
 21
182.3499999999999
 31
0.0
  0
LINE
  5
D944
330
D612
100
AcDbEntity
  8
5
  6
PHANTOM
100
AcDbLine
 10
560.5499999999998
 20
183.15
 30
0.0
 11
560.5499999999998
 21
182.3499999999999
 31
0.0
  0
ARC
  5
D945
330
D612
100
AcDbEntity
  8
5
  6
PHANTOM
100
AcDbCircle
 10
562.7999999999998
 20
183.15
 30
0.0
 40
2.25
100
AcDbArc
 50
0.0
 51
180.0
  0
ARC
  5
D946
330
D612
100
AcDbEntity
  8
5
  6
PHANTOM
100
AcDbCircle
 10
562.7999999999998
 20
182.3499999999999
 30
0.0
 40
2.25
100
AcDbArc
 50
180.0
 51
0.0
  0
ARC
  5
D947
330
D612
100
AcDbEntity
  8
5
  6
PHANTOM
100
AcDbCircle
 10
575.4999999999999
 20
183.15
 30
0.0
 40
2.25
100
AcDbArc
 50
0.0
 51
180.0
  0
ARC
  5
D948
330
D612
100
AcDbEntity
  8
5
  6
PHANTOM
100
AcDbCircle
 10
575.4999999999999
 20
182.3499999999999
 30
0.0
 40
2.25
100
AcDbArc
 50
180.0
 51
0.0
  0
LINE
  5
D949
330
D612
100
AcDbEntity
  8
5
  6
PHANTOM
100
AcDbLine
 10
573.2499999999999
 20
183.15
 30
0.0
 11
573.2499999999999
 21
182.3499999999999
 31
0.0
  0
LINE
  5
D94A
330
D612
100
AcDbEntity
  8
4
  6
CENTER
100
AcDbLine
 10
575.4999999999999
 20
188.0
 30
0.0
 11
575.4999999999999
 21
177.5
 31
0.0
  0
LINE
  5
D94B
330
D612
100
AcDbEntity
  8
5
  6
PHANTOM
100
AcDbLine
 10
577.7499999999998
 20
183.15
 30
0.0
 11
577.7499999999998
 21
182.3499999999999
 31
0.0
  0
LINE
  5
D94C
330
D612
100
AcDbEntity
  8
5
  6
PHANTOM
100
AcDbLine
 10
687.0
 20
180.4999999999998
 30
0.0
 11
686.2000000000001
 21
180.4999999999998
 31
0.0
  0
LINE
  5
D94D
330
D612
100
AcDbEntity
  8
4
  6
CENTER
100
AcDbLine
 10
686.6
 20
188.0
 30
0.0
 11
686.6
 21
177.5
 31
0.0
  0
LINE
  5
D94E
330
D612
100
AcDbEntity
  8
5
  6
PHANTOM
100
AcDbLine
 10
687.0
 20
185.0
 30
0.0
 11
686.2000000000001
 21
185.0
 31
0.0
  0
ARC
  5
D94F
330
D612
100
AcDbEntity
  8
5
  6
PHANTOM
100
AcDbCircle
 10
686.2000000000001
 20
182.75
 30
0.0
 40
2.25
100
AcDbArc
 50
90.0
 51
270.0
  0
ARC
  5
D950
330
D612
100
AcDbEntity
  8
5
  6
PHANTOM
100
AcDbCircle
 10
687.0
 20
182.75
 30
0.0
 40
2.25
100
AcDbArc
 50
270.0
 51
90.0
  0
ARC
  5
D951
330
D612
100
AcDbEntity
  8
5
  6
PHANTOM
100
AcDbCircle
 10
826.7000000000001
 20
182.75
 30
0.0
 40
2.25
100
AcDbArc
 50
270.0
 51
90.0
  0
LINE
  5
D952
330
D612
100
AcDbEntity
  8
5
  6
PHANTOM
100
AcDbLine
 10
826.7000000000001
 20
185.0
 30
0.0
 11
825.9
 21
185.0
 31
0.0
  0
LINE
  5
D953
330
D612
100
AcDbEntity
  8
4
  6
CENTER
100
AcDbLine
 10
826.2999999999998
 20
188.0
 30
0.0
 11
826.2999999999998
 21
177.5
 31
0.0
  0
LINE
  5
D954
330
D612
100
AcDbEntity
  8
5
  6
PHANTOM
100
AcDbLine
 10
826.7000000000001
 20
180.4999999999998
 30
0.0
 11
825.9
 21
180.4999999999998
 31
0.0
  0
ARC
  5
D955
330
D612
100
AcDbEntity
  8
5
  6
PHANTOM
100
AcDbCircle
 10
825.9
 20
182.75
 30
0.0
 40
2.25
100
AcDbArc
 50
90.0
 51
270.0
  0
ARC
  5
D956
330
D612
100
AcDbEntity
  8
5
  6
PHANTOM
100
AcDbCircle
 10
911.5999999999999
 20
182.75
 30
0.0
 40
2.25
100
AcDbArc
 50
90.0
 51
270.0
  0
LINE
  5
D957
330
D612
100
AcDbEntity
  8
4
  6
CENTER
100
AcDbLine
 10
924.6999999999999
 20
188.0
 30
0.0
 11
924.6999999999999
 21
177.5
 31
0.0
  0
LINE
  5
D958
330
D612
100
AcDbEntity
  8
5
  6
PHANTOM
100
AcDbLine
 10
926.95
 20
183.15
 30
0.0
 11
926.95
 21
182.3499999999999
 31
0.0
  0
LINE
  5
D959
330
D612
100
AcDbEntity
  8
5
  6
PHANTOM
100
AcDbLine
 10
922.45
 20
183.15
 30
0.0
 11
922.45
 21
182.3499999999999
 31
0.0
  0
LINE
  5
D95A
330
D612
100
AcDbEntity
  8
5
  6
PHANTOM
100
AcDbLine
 10
912.4
 20
185.0
 30
0.0
 11
911.5999999999999
 21
185.0
 31
0.0
  0
LINE
  5
D95B
330
D612
100
AcDbEntity
  8
5
  6
PHANTOM
100
AcDbLine
 10
912.4
 20
180.4999999999998
 30
0.0
 11
911.5999999999999
 21
180.4999999999998
 31
0.0
  0
ARC
  5
D95C
330
D612
100
AcDbEntity
  8
5
  6
PHANTOM
100
AcDbCircle
 10
912.4
 20
182.75
 30
0.0
 40
2.25
100
AcDbArc
 50
270.0
 51
90.0
  0
LINE
  5
D95D
330
D612
100
AcDbEntity
  8
4
  6
CENTER
100
AcDbLine
 10
912.0
 20
188.0
 30
0.0
 11
912.0
 21
177.5
 31
0.0
  0
ARC
  5
D95E
330
D612
100
AcDbEntity
  8
5
  6
PHANTOM
100
AcDbCircle
 10
924.6999999999999
 20
183.15
 30
0.0
 40
2.25
100
AcDbArc
 50
0.0
 51
180.0
  0
ARC
  5
D95F
330
D612
100
AcDbEntity
  8
5
  6
PHANTOM
100
AcDbCircle
 10
924.6999999999999
 20
182.3499999999999
 30
0.0
 40
2.25
100
AcDbArc
 50
180.0
 51
0.0
  0
ARC
  5
D960
330
D612
100
AcDbEntity
  8
5
  6
PHANTOM
100
AcDbCircle
 10
937.4
 20
182.3499999999999
 30
0.0
 40
2.25
100
AcDbArc
 50
180.0
 51
0.0
  0
LINE
  5
D961
330
D612
100
AcDbEntity
  8
5
  6
PHANTOM
100
AcDbLine
 10
939.6499999999999
 20
183.15
 30
0.0
 11
939.6499999999999
 21
182.3499999999999
 31
0.0
  0
LINE
  5
D962
330
D612
100
AcDbEntity
  8
5
  6
PHANTOM
100
AcDbLine
 10
935.1499999999999
 20
183.15
 30
0.0
 11
935.1499999999999
 21
182.3499999999999
 31
0.0
  0
LINE
  5
D963
330
D612
100
AcDbEntity
  8
4
  6
CENTER
100
AcDbLine
 10
937.4
 20
188.0
 30
0.0
 11
937.4
 21
177.5
 31
0.0
  0
ARC
  5
D964
330
D612
100
AcDbEntity
  8
5
  6
PHANTOM
100
AcDbCircle
 10
937.4
 20
183.15
 30
0.0
 40
2.25
100
AcDbArc
 50
0.0
 51
180.0
  0
LINE
  5
D965
330
D612
100
AcDbEntity
  8
5
  6
PHANTOM
100
AcDbLine
 10
953.2999999999999
 20
165.0999999999999
 30
0.0
 11
953.2999999999999
 21
175.2499999999998
 31
0.0
  0
LINE
  5
D966
330
D612
100
AcDbEntity
  8
5
  6
PHANTOM
100
AcDbLine
 10
953.2999999999999
 20
190.25
 30
0.0
 11
953.2999999999999
 21
200.4
 31
0.0
  0
LINE
  5
D967
330
D612
100
AcDbEntity
  8
5
  6
PHANTOM
100
AcDbLine
 10
950.7999999999999
 20
190.25
 30
0.0
 11
953.2999999999999
 21
190.25
 31
0.0
  0
LINE
  5
D968
330
D612
100
AcDbEntity
  8
5
  6
PHANTOM
100
AcDbLine
 10
950.7999999999999
 20
175.2499999999998
 30
0.0
 11
953.2999999999999
 21
175.2499999999998
 31
0.0
  0
LINE
  5
D969
330
D612
100
AcDbEntity
  8
5
  6
PHANTOM
100
AcDbLine
 10
950.7999999999999
 20
175.2499999999998
 30
0.0
 11
950.7999999999999
 21
190.25
 31
0.0
  0
ARC
  5
D96A
330
D612
100
AcDbEntity
  8
1
  6
Continuous
100
AcDbCircle
 10
1039.599999999998
 20
192.75
 30
0.0
 40
1.5
100
AcDbArc
 50
90.0
 51
180.0
  0
ARC
  5
D96B
330
D612
100
AcDbEntity
  8
1
  6
Continuous
100
AcDbCircle
 10
1035.177060999999
 20
193.177061
 30
0.0
 40
0.6229390000000003
100
AcDbArc
 50
0.0
 51
129.550679
  0
LINE
  5
D96C
330
D612
100
AcDbEntity
  8
1
  6
Continuous
100
AcDbLine
 10
1029.6
 20
190.25
 30
0.0
 11
1029.6
 21
195.398548
 31
0.0
  0
LINE
  5
D96D
330
D612
100
AcDbEntity
  8
1
  6
Continuous
100
AcDbLine
 10
1030.1
 20
190.25
 30
0.0
 11
1030.1
 21
195.4
 31
0.0
  0
LINE
  5
D96E
330
D612
100
AcDbEntity
  8
1
  6
Continuous
100
AcDbLine
 10
1029.099999999999
 20
190.25
 30
0.0
 11
1029.099999999999
 21
195.3289159999999
 31
0.0
  0
LINE
  5
D96F
330
D612
100
AcDbEntity
  8
1
  6
Continuous
100
AcDbLine
 10
1030.499999999999
 20
193.448001
 30
0.0
 11
1031.170157
 21
194.443435
 31
0.0
  0
ARC
  5
D970
330
D612
100
AcDbEntity
  8
1
  6
Continuous
100
AcDbCircle
 10
1032.5
 20
196.4187499999999
 30
0.0
 40
3.581249999999998
100
AcDbArc
 50
236.0503449999999
 51
309.5506789999999
  0
ARC
  5
D971
330
D612
100
AcDbEntity
  8
1
  6
Continuous
100
AcDbCircle
 10
1038.922939
 20
193.177061
 30
0.0
 40
1.822938999999999
100
AcDbArc
 50
50.449321
 51
180.0
  0
ARC
  5
D972
330
D612
100
AcDbEntity
  8
1
  6
Continuous
100
AcDbCircle
 10
1035.177060999999
 20
193.177061
 30
0.0
 40
1.822938999999999
100
AcDbArc
 50
0.0
 51
129.550679
  0
LINE
  5
D973
330
D612
100
AcDbEntity
  8
1
  6
Continuous
100
AcDbLine
 10
1027.5
 20
170.171084
 30
0.0
 11
1027.5
 21
195.3289159999999
 31
0.0
  0
ARC
  5
D974
330
D612
100
AcDbEntity
  8
1
  6
Continuous
100
AcDbCircle
 10
1038.922939
 20
172.322939
 30
0.0
 40
1.822938999999999
100
AcDbArc
 50
180.0
 51
309.5506789999999
  0
LINE
  5
D975
330
D612
100
AcDbEntity
  8
4
  6
CENTER
100
AcDbLine
 10
1022.499999999999
 20
182.75
 30
0.0
 11
1051.6
 21
182.75
 31
0.0
  0
LINE
  5
D976
330
D612
100
AcDbEntity
  8
1
  6
Continuous
100
AcDbLine
 10
1036.0
 20
169.65
 30
0.0
 11
1036.0
 21
169.15
 31
0.0
  0
ARC
  5
D977
330
D612
100
AcDbEntity
  8
1
  6
Continuous
100
AcDbCircle
 10
1030.7
 20
170.171084
 30
0.0
 40
3.2
100
AcDbArc
 50
180.0
 51
217.012191
  0
ARC
  5
D978
330
D612
100
AcDbEntity
  8
1
  6
Continuous
100
AcDbCircle
 10
1030.7
 20
170.171084
 30
0.0
 40
1.6
100
AcDbArc
 50
180.0
 51
217.012191
  0
ARC
  5
D979
330
D612
100
AcDbEntity
  8
1
  6
Continuous
100
AcDbCircle
 10
1032.5
 20
169.08125
 30
0.0
 40
2.38125
100
AcDbArc
 50
167.557726
 51
3.719127999999999
  0
LINE
  5
D97A
330
D612
100
AcDbEntity
  8
1
  6
Continuous
100
AcDbLine
 10
1036.0
 20
169.15
 30
0.0
 11
1030.061975
 21
169.6029
 31
0.0
  0
LINE
  5
D97B
330
D612
100
AcDbEntity
  8
1
  6
Continuous
100
AcDbLine
 10
1036.2
 20
167.611437
 30
0.0
 11
1034.71303
 21
168.202131
 31
0.0
  0
LINE
  5
D97C
330
D612
100
AcDbEntity
  8
1
  6
Continuous
100
AcDbLine
 10
1028.144775999999
 20
168.244732
 30
0.0
 11
1029.320942
 21
166.6845969999999
 31
0.0
  0
LINE
  5
D97D
330
D612
100
AcDbEntity
  8
1
  6
Continuous
100
AcDbLine
 10
1029.422388
 20
169.207908
 30
0.0
 11
1030.598554
 21
167.647773
 31
0.0
  0
ARC
  5
D97E
330
D612
100
AcDbEntity
  8
1
  6
Continuous
100
AcDbCircle
 10
1032.5
 20
169.08125
 30
0.0
 40
3.98125
100
AcDbArc
 50
217.012191
 51
338.3347039999998
  0
ARC
  5
D97F
330
D612
100
AcDbEntity
  8
1
  6
Continuous
100
AcDbCircle
 10
1032.1
 20
188.0
 30
0.0
 40
0.5
100
AcDbArc
 50
0.0
 51
36.869898
  0
ARC
  5
D980
330
D612
100
AcDbEntity
  8
1
  6
Continuous
100
AcDbCircle
 10
1032.1
 20
177.5
 30
0.0
 40
0.5
100
AcDbArc
 50
323.130102
 51
0.0
  0
LINE
  5
D981
330
D612
100
AcDbEntity
  8
1
  6
Continuous
100
AcDbLine
 10
1032.599999999999
 20
177.5
 30
0.0
 11
1032.599999999999
 21
188.0
 31
0.0
  0
ARC
  5
D982
330
D612
100
AcDbEntity
  8
1
  6
Continuous
100
AcDbCircle
 10
1033.4
 20
190.4374999999998
 30
0.0
 40
1.199999999999999
100
AcDbArc
 50
0.0
 51
90.0
  0
ARC
  5
D983
330
D612
100
AcDbEntity
  8
1
  6
Continuous
100
AcDbCircle
 10
1033.4
 20
190.4374999999998
 30
0.0
 40
2.399999999999999
100
AcDbArc
 50
0.0
 51
90.0
  0
ARC
  5
D984
330
D612
100
AcDbEntity
  8
1
  6
Continuous
100
AcDbCircle
 10
1033.4
 20
175.0625
 30
0.0
 40
1.199999999999999
100
AcDbArc
 50
270.0
 51
0.0
  0
ARC
  5
D985
330
D612
100
AcDbEntity
  8
1
  6
Continuous
100
AcDbCircle
 10
1033.4
 20
175.0625
 30
0.0
 40
2.399999999999999
100
AcDbArc
 50
270.0
 51
0.0
  0
LINE
  5
D986
330
D612
100
AcDbEntity
  8
1
  6
Continuous
100
AcDbLine
 10
1032.5
 20
175.2499999999998
 30
0.0
 11
1032.5
 21
190.25
 31
0.0
  0
LINE
  5
D987
330
D612
100
AcDbEntity
  8
1
  6
Continuous
100
AcDbLine
 10
1034.599999999999
 20
175.0625
 30
0.0
 11
1034.599999999999
 21
190.4374999999998
 31
0.0
  0
LINE
  5
D988
330
D612
100
AcDbEntity
  8
1
  6
Continuous
100
AcDbLine
 10
1037.099999999999
 20
172.322939
 30
0.0
 11
1037.099999999999
 21
193.177061
 31
0.0
  0
LINE
  5
D989
330
D612
100
AcDbEntity
  8
1
  6
Continuous
100
AcDbLine
 10
1035.8
 20
172.322939
 30
0.0
 11
1035.8
 21
193.177061
 31
0.0
  0
LINE
  5
D98A
330
D612
100
AcDbEntity
  8
1
  6
Continuous
100
AcDbLine
 10
1037.0
 20
172.322939
 30
0.0
 11
1037.0
 21
193.177061
 31
0.0
  0
LINE
  5
D98B
330
D612
100
AcDbEntity
  8
1
  6
Continuous
100
AcDbLine
 10
1030.799999999999
 20
191.6375
 30
0.0
 11
1030.799999999999
 21
192.8375
 31
0.0
  0
LINE
  5
D98C
330
D612
100
AcDbEntity
  8
1
  6
Continuous
100
AcDbLine
 10
1030.799999999999
 20
173.8625
 30
0.0
 11
1030.799999999999
 21
172.6625
 31
0.0
  0
LINE
  5
D98D
330
D612
100
AcDbEntity
  8
1
  6
Continuous
100
AcDbLine
 10
1030.799999999999
 20
191.6375
 30
0.0
 11
1033.4
 21
191.6375
 31
0.0
  0
LINE
  5
D98E
330
D612
100
AcDbEntity
  8
1
  6
Continuous
100
AcDbLine
 10
1030.799999999999
 20
192.8375
 30
0.0
 11
1033.4
 21
192.8375
 31
0.0
  0
LINE
  5
D98F
330
D612
100
AcDbEntity
  8
1
  6
Continuous
100
AcDbLine
 10
1027.5
 20
190.25
 30
0.0
 11
1032.5
 21
190.25
 31
0.0
  0
LINE
  5
D990
330
D612
100
AcDbEntity
  8
1
  6
Continuous
100
AcDbLine
 10
1030.799999999999
 20
173.8625
 30
0.0
 11
1033.4
 21
173.8625
 31
0.0
  0
LINE
  5
D991
330
D612
100
AcDbEntity
  8
1
  6
Continuous
100
AcDbLine
 10
1030.799999999999
 20
172.6625
 30
0.0
 11
1033.4
 21
172.6625
 31
0.0
  0
LINE
  5
D992
330
D612
100
AcDbEntity
  8
1
  6
Continuous
100
AcDbLine
 10
1027.5
 20
175.2499999999998
 30
0.0
 11
1032.5
 21
175.2499999999998
 31
0.0
  0
LINE
  5
D993
330
D612
100
AcDbEntity
  8
1
  6
Continuous
100
AcDbLine
 10
1030.499999999999
 20
172.0519989999999
 30
0.0
 11
1031.170157
 21
171.0565649999998
 31
0.0
  0
ARC
  5
D994
330
D612
100
AcDbEntity
  8
1
  6
Continuous
100
AcDbCircle
 10
1030.1
 20
170.101452
 30
0.0
 40
0.5
100
AcDbArc
 50
180.0
 51
265.6384269999999
  0
ARC
  5
D995
330
D612
100
AcDbEntity
  8
1
  6
Continuous
100
AcDbCircle
 10
1032.5
 20
169.08125
 30
0.0
 40
2.38125
100
AcDbArc
 50
16.12167
 51
155.1551849999999
  0
LINE
  5
D996
330
D612
100
AcDbEntity
  8
1
  6
Continuous
100
AcDbLine
 10
1036.0
 20
169.65
 30
0.0
 11
1030.1
 21
170.1
 31
0.0
  0
LINE
  5
D997
330
D612
100
AcDbEntity
  8
1
  6
Continuous
100
AcDbLine
 10
1029.6
 20
175.2499999999998
 30
0.0
 11
1029.6
 21
170.101452
 31
0.0
  0
LINE
  5
D998
330
D612
100
AcDbEntity
  8
1
  6
Continuous
100
AcDbLine
 10
1029.099999999999
 20
170.171084
 30
0.0
 11
1029.099999999999
 21
175.2499999999998
 31
0.0
  0
LINE
  5
D999
330
D612
100
AcDbEntity
  8
1
  6
Continuous
100
AcDbLine
 10
1030.1
 20
175.2499999999998
 30
0.0
 11
1030.1
 21
170.1
 31
0.0
  0
ARC
  5
D99A
330
D612
100
AcDbEntity
  8
1
  6
Continuous
100
AcDbCircle
 10
1032.5
 20
169.08125
 30
0.0
 40
3.581249999999998
100
AcDbArc
 50
50.449321
 51
123.949655
  0
ARC
  5
D99B
330
D612
100
AcDbEntity
  8
1
  6
Continuous
100
AcDbCircle
 10
1035.177060999999
 20
172.322939
 30
0.0
 40
1.822938999999999
100
AcDbArc
 50
230.4493209999999
 51
0.0
  0
ARC
  5
D99C
330
D612
100
AcDbEntity
  8
1
  6
Continuous
100
AcDbCircle
 10
1035.177060999999
 20
172.322939
 30
0.0
 40
0.6229390000000003
100
AcDbArc
 50
230.4493209999999
 51
0.0
  0
ARC
  5
D99D
330
D612
100
AcDbEntity
  8
1
  6
Continuous
100
AcDbCircle
 10
1043.4
 20
170.171084
 30
0.0
 40
1.6
100
AcDbArc
 50
322.9878089999999
 51
0.0
  0
ARC
  5
D99E
330
D612
100
AcDbEntity
  8
1
  6
Continuous
100
AcDbCircle
 10
1043.4
 20
170.171084
 30
0.0
 40
3.2
100
AcDbArc
 50
322.9878089999999
 51
0.0
  0
LINE
  5
D99F
330
D612
100
AcDbEntity
  8
1
  6
Continuous
100
AcDbLine
 10
1038.099999999998
 20
169.65
 30
0.0
 11
1038.099999999998
 21
169.15
 31
0.0
  0
ARC
  5
D9A0
330
D612
100
AcDbEntity
  8
1
  6
Continuous
100
AcDbCircle
 10
1041.599999999998
 20
169.08125
 30
0.0
 40
2.38125
100
AcDbArc
 50
176.2808719999999
 51
12.44227399999999
  0
LINE
  5
D9A1
330
D612
100
AcDbEntity
  8
1
  6
Continuous
100
AcDbLine
 10
1038.099999999998
 20
169.15
 30
0.0
 11
1044.038025
 21
169.6029
 31
0.0
  0
LINE
  5
D9A2
330
D612
100
AcDbEntity
  8
1
  6
Continuous
100
AcDbLine
 10
1045.955224
 20
168.244732
 30
0.0
 11
1044.779058
 21
166.6845969999999
 31
0.0
  0
LINE
  5
D9A3
330
D612
100
AcDbEntity
  8
1
  6
Continuous
100
AcDbLine
 10
1037.9
 20
167.611437
 30
0.0
 11
1039.38697
 21
168.202131
 31
0.0
  0
ARC
  5
D9A4
330
D612
100
AcDbEntity
  8
1
  6
Continuous
100
AcDbCircle
 10
1041.599999999998
 20
169.08125
 30
0.0
 40
3.98125
100
AcDbArc
 50
201.6652959999999
 51
322.9878089999999
  0
LINE
  5
D9A5
330
D612
100
AcDbEntity
  8
1
  6
Continuous
100
AcDbLine
 10
1044.677611999998
 20
169.207908
 30
0.0
 11
1043.501446
 21
167.647773
 31
0.0
  0
LINE
  5
D9A6
330
D612
100
AcDbEntity
  8
1
  6
Continuous
100
AcDbLine
 10
1038.099999999998
 20
172.75
 30
0.0
 11
1038.099999999998
 21
192.75
 31
0.0
  0
LINE
  5
D9A7
330
D612
100
AcDbEntity
  8
1
  6
Continuous
100
AcDbLine
 10
1044.499999999999
 20
171.25
 30
0.0
 11
1044.499999999999
 21
170.101452
 31
0.0
  0
LINE
  5
D9A8
330
D612
100
AcDbEntity
  8
1
  6
Continuous
100
AcDbLine
 10
1045.0
 20
170.171084
 30
0.0
 11
1045.0
 21
171.25
 31
0.0
  0
LINE
  5
D9A9
330
D612
100
AcDbEntity
  8
1
  6
Continuous
100
AcDbLine
 10
1044.0
 20
171.25
 30
0.0
 11
1044.0
 21
170.1
 31
0.0
  0
ARC
  5
D9AA
330
D612
100
AcDbEntity
  8
1
  6
Continuous
100
AcDbCircle
 10
1044.0
 20
170.101452
 30
0.0
 40
0.5
100
AcDbArc
 50
274.361573
 51
0.0
  0
LINE
  5
D9AB
330
D612
100
AcDbEntity
  8
1
  6
Continuous
100
AcDbLine
 10
1043.060068999998
 20
171.25
 30
0.0
 11
1042.929843
 21
171.0565649999998
 31
0.0
  0
ARC
  5
D9AC
330
D612
100
AcDbEntity
  8
1
  6
Continuous
100
AcDbCircle
 10
1041.599999999998
 20
169.08125
 30
0.0
 40
2.38125
100
AcDbArc
 50
114.3892499999999
 51
163.87833
  0
ARC
  5
D9AD
330
D612
100
AcDbEntity
  8
1
  6
Continuous
100
AcDbCircle
 10
1041.599999999998
 20
169.08125
 30
0.0
 40
2.38125
100
AcDbArc
 50
24.844815
 51
65.61074999999999
  0
LINE
  5
D9AE
330
D612
100
AcDbEntity
  8
1
  6
Continuous
100
AcDbLine
 10
1038.099999999998
 20
169.65
 30
0.0
 11
1044.0
 21
170.1
 31
0.0
  0
LINE
  5
D9AF
330
D612
100
AcDbEntity
  8
1
  6
Continuous
100
AcDbLine
 10
1039.599999999998
 20
171.25
 30
0.0
 11
1046.599999999999
 21
171.25
 31
0.0
  0
ARC
  5
D9B0
330
D612
100
AcDbEntity
  8
1
  6
Continuous
100
AcDbCircle
 10
1039.599999999998
 20
172.75
 30
0.0
 40
1.5
100
AcDbArc
 50
180.0
 51
270.0
  0
LINE
  5
D9B1
330
D612
100
AcDbEntity
  8
1
  6
Continuous
100
AcDbLine
 10
1036.0
 20
195.8499999999999
 30
0.0
 11
1036.0
 21
196.3499999999999
 31
0.0
  0
LINE
  5
D9B2
330
D612
100
AcDbEntity
  8
1
  6
Continuous
100
AcDbLine
 10
1036.2
 20
197.8885629999999
 30
0.0
 11
1034.71303
 21
197.2978689999999
 31
0.0
  0
LINE
  5
D9B3
330
D612
100
AcDbEntity
  8
1
  6
Continuous
100
AcDbLine
 10
1028.144775999999
 20
197.2552679999998
 30
0.0
 11
1029.320942
 21
198.815403
 31
0.0
  0
LINE
  5
D9B4
330
D612
100
AcDbEntity
  8
1
  6
Continuous
100
AcDbLine
 10
1029.422388
 20
196.292092
 30
0.0
 11
1030.598554
 21
197.852227
 31
0.0
  0
LINE
  5
D9B5
330
D612
100
AcDbEntity
  8
1
  6
Continuous
100
AcDbLine
 10
1036.0
 20
196.3499999999999
 30
0.0
 11
1030.061975
 21
195.8971
 31
0.0
  0
ARC
  5
D9B6
330
D612
100
AcDbEntity
  8
1
  6
Continuous
100
AcDbCircle
 10
1032.5
 20
196.4187499999999
 30
0.0
 40
3.98125
100
AcDbArc
 50
21.665296
 51
142.987809
  0
ARC
  5
D9B7
330
D612
100
AcDbEntity
  8
1
  6
Continuous
100
AcDbCircle
 10
1032.5
 20
196.4187499999999
 30
0.0
 40
2.38125
100
AcDbArc
 50
356.280872
 51
192.4422739999998
  0
ARC
  5
D9B8
330
D612
100
AcDbEntity
  8
1
  6
Continuous
100
AcDbCircle
 10
1032.5
 20
196.4187499999999
 30
0.0
 40
2.38125
100
AcDbArc
 50
204.844815
 51
343.87833
  0
ARC
  5
D9B9
330
D612
100
AcDbEntity
  8
1
  6
Continuous
100
AcDbCircle
 10
1030.1
 20
195.398548
 30
0.0
 40
0.5
100
AcDbArc
 50
94.36157300000001
 51
180.0
  0
ARC
  5
D9BA
330
D612
100
AcDbEntity
  8
1
  6
Continuous
100
AcDbCircle
 10
1030.7
 20
195.3289159999999
 30
0.0
 40
3.2
100
AcDbArc
 50
142.987809
 51
180.0
  0
ARC
  5
D9BB
330
D612
100
AcDbEntity
  8
1
  6
Continuous
100
AcDbCircle
 10
1030.7
 20
195.3289159999999
 30
0.0
 40
1.6
100
AcDbArc
 50
142.987809
 51
180.0
  0
LINE
  5
D9BC
330
D612
100
AcDbEntity
  8
1
  6
Continuous
100
AcDbLine
 10
1036.0
 20
195.8499999999999
 30
0.0
 11
1030.1
 21
195.4
 31
0.0
  0
LINE
  5
D9BD
330
D612
100
AcDbEntity
  8
1
  6
Continuous
100
AcDbLine
 10
1045.955224
 20
197.2552679999998
 30
0.0
 11
1044.779058
 21
198.815403
 31
0.0
  0
LINE
  5
D9BE
330
D612
100
AcDbEntity
  8
1
  6
Continuous
100
AcDbLine
 10
1038.099999999998
 20
195.8499999999999
 30
0.0
 11
1038.099999999998
 21
196.3499999999999
 31
0.0
  0
LINE
  5
D9BF
330
D612
100
AcDbEntity
  8
1
  6
Continuous
100
AcDbLine
 10
1037.9
 20
197.8885629999999
 30
0.0
 11
1039.38697
 21
197.2978689999999
 31
0.0
  0
LINE
  5
D9C0
330
D612
100
AcDbEntity
  8
1
  6
Continuous
100
AcDbLine
 10
1038.099999999998
 20
196.3499999999999
 30
0.0
 11
1044.038025
 21
195.8971
 31
0.0
  0
LINE
  5
D9C1
330
D612
100
AcDbEntity
  8
1
  6
Continuous
100
AcDbLine
 10
1044.677611999998
 20
196.292092
 30
0.0
 11
1043.501446
 21
197.852227
 31
0.0
  0
ARC
  5
D9C2
330
D612
100
AcDbEntity
  8
1
  6
Continuous
100
AcDbCircle
 10
1041.599999999998
 20
196.4187499999999
 30
0.0
 40
3.98125
100
AcDbArc
 50
37.01219099999998
 51
158.3347039999999
  0
LINE
  5
D9C3
330
D612
100
AcDbEntity
  8
1
  6
Continuous
100
AcDbLine
 10
1044.499999999999
 20
194.25
 30
0.0
 11
1044.499999999999
 21
195.398548
 31
0.0
  0
LINE
  5
D9C4
330
D612
100
AcDbEntity
  8
1
  6
Continuous
100
AcDbLine
 10
1045.0
 20
194.25
 30
0.0
 11
1045.0
 21
195.3289159999999
 31
0.0
  0
LINE
  5
D9C5
330
D612
100
AcDbEntity
  8
1
  6
Continuous
100
AcDbLine
 10
1044.0
 20
194.25
 30
0.0
 11
1044.0
 21
195.4
 31
0.0
  0
LINE
  5
D9C6
330
D612
100
AcDbEntity
  8
1
  6
Continuous
100
AcDbLine
 10
1043.060068999998
 20
194.25
 30
0.0
 11
1042.929843
 21
194.443435
 31
0.0
  0
LINE
  5
D9C7
330
D612
100
AcDbEntity
  8
1
  6
Continuous
100
AcDbLine
 10
1039.599999999998
 20
194.25
 30
0.0
 11
1046.599999999999
 21
194.25
 31
0.0
  0
ARC
  5
D9C8
330
D612
100
AcDbEntity
  8
1
  6
Continuous
100
AcDbCircle
 10
1044.0
 20
195.398548
 30
0.0
 40
0.5
100
AcDbArc
 50
0.0
 51
85.63842699999998
  0
ARC
  5
D9C9
330
D612
100
AcDbEntity
  8
1
  6
Continuous
100
AcDbCircle
 10
1043.4
 20
195.3289159999999
 30
0.0
 40
1.6
100
AcDbArc
 50
0.0
 51
37.01219099999998
  0
ARC
  5
D9CA
330
D612
100
AcDbEntity
  8
1
  6
Continuous
100
AcDbCircle
 10
1043.4
 20
195.3289159999999
 30
0.0
 40
3.2
100
AcDbArc
 50
0.0
 51
37.01219099999998
  0
ARC
  5
D9CB
330
D612
100
AcDbEntity
  8
1
  6
Continuous
100
AcDbCircle
 10
1041.599999999998
 20
196.4187499999999
 30
0.0
 40
2.38125
100
AcDbArc
 50
294.38925
 51
335.155185
  0
ARC
  5
D9CC
330
D612
100
AcDbEntity
  8
1
  6
Continuous
100
AcDbCircle
 10
1041.599999999998
 20
196.4187499999999
 30
0.0
 40
2.38125
100
AcDbArc
 50
196.12167
 51
245.6107499999998
  0
ARC
  5
D9CD
330
D612
100
AcDbEntity
  8
1
  6
Continuous
100
AcDbCircle
 10
1041.599999999998
 20
196.4187499999999
 30
0.0
 40
2.38125
100
AcDbArc
 50
347.557726
 51
183.719128
  0
LINE
  5
D9CE
330
D612
100
AcDbEntity
  8
1
  6
Continuous
100
AcDbLine
 10
1038.099999999998
 20
195.8499999999999
 30
0.0
 11
1044.0
 21
195.4
 31
0.0
  0
LINE
  5
D9CF
330
D612
100
AcDbEntity
  8
1
  6
Continuous
100
AcDbLine
 10
359.8
 20
460.7499999999998
 30
0.0
 11
359.8
 21
459.4
 31
0.0
  0
ARC
  5
D9D0
330
D612
100
AcDbEntity
  8
1
  6
Continuous
100
AcDbCircle
 10
365.05
 20
460.81875
 30
0.0
 40
2.38125
100
AcDbArc
 50
193.81839
 51
216.5697209999999
  0
ARC
  5
D9D1
330
D612
100
AcDbEntity
  8
1
  6
Continuous
100
AcDbCircle
 10
377.55
 20
460.81875
 30
0.0
 40
2.38125
100
AcDbArc
 50
193.81839
 51
216.5697209999999
  0
ARC
  5
D9D2
330
D612
100
AcDbEntity
  8
1
  6
Continuous
100
AcDbCircle
 10
377.55
 20
460.81875
 30
0.0
 40
2.38125
100
AcDbArc
 50
323.430279
 51
346.18161
  0
LINE
  5
D9D3
330
D612
100
AcDbEntity
  8
1
  6
Continuous
100
AcDbLine
 10
370.3
 20
460.7499999999998
 30
0.0
 11
370.3
 21
459.4
 31
0.0
  0
ARC
  5
D9D4
330
D612
100
AcDbEntity
  8
1
  6
Continuous
100
AcDbCircle
 10
365.05
 20
460.81875
 30
0.0
 40
2.38125
100
AcDbArc
 50
323.430279
 51
346.18161
  0
LINE
  5
D9D5
330
D612
100
AcDbEntity
  8
1
  6
Continuous
100
AcDbLine
 10
372.3
 20
460.7499999999998
 30
0.0
 11
372.3
 21
459.4
 31
0.0
  0
LINE
  5
D9D6
330
D612
100
AcDbEntity
  8
1
  6
Continuous
100
AcDbLine
 10
382.8
 20
460.7499999999998
 30
0.0
 11
382.8
 21
459.4
 31
0.0
  0
ARC
  5
D9D7
330
D612
100
AcDbEntity
  8
1
  6
Continuous
100
AcDbCircle
 10
365.05
 20
460.81875
 30
0.0
 40
2.38125
100
AcDbArc
 50
158.3347039999999
 51
181.6544389999999
  0
ARC
  5
D9D8
330
D612
100
AcDbEntity
  8
1
  6
Continuous
100
AcDbCircle
 10
365.05
 20
460.81875
 30
0.0
 40
2.38125
100
AcDbArc
 50
358.3455609999999
 51
21.665296
  0
LINE
  5
D9D9
330
D612
100
AcDbEntity
  8
1
  6
Continuous
100
AcDbLine
 10
370.3
 20
460.7499999999998
 30
0.0
 11
359.8
 21
460.7499999999998
 31
0.0
  0
LINE
  5
D9DA
330
D612
100
AcDbEntity
  8
1
  6
Continuous
100
AcDbLine
 10
370.3
 20
460.25
 30
0.0
 11
359.8
 21
460.25
 31
0.0
  0
ARC
  5
D9DB
330
D612
100
AcDbEntity
  8
1
  6
Continuous
100
AcDbCircle
 10
377.55
 20
460.81875
 30
0.0
 40
2.38125
100
AcDbArc
 50
158.3347039999999
 51
181.6544389999999
  0
ARC
  5
D9DC
330
D612
100
AcDbEntity
  8
1
  6
Continuous
100
AcDbCircle
 10
377.55
 20
460.81875
 30
0.0
 40
2.38125
100
AcDbArc
 50
358.3455609999999
 51
21.665296
  0
LINE
  5
D9DD
330
D612
100
AcDbEntity
  8
1
  6
Continuous
100
AcDbLine
 10
382.8
 20
460.25
 30
0.0
 11
372.3
 21
460.25
 31
0.0
  0
LINE
  5
D9DE
330
D612
100
AcDbEntity
  8
1
  6
Continuous
100
AcDbLine
 10
382.8
 20
460.7499999999998
 30
0.0
 11
372.3
 21
460.7499999999998
 31
0.0
  0
ARC
  5
D9DF
330
D612
100
AcDbEntity
  8
1
  6
Continuous
100
AcDbCircle
 10
365.05
 20
433.4812499999999
 30
0.0
 40
2.38125
100
AcDbArc
 50
178.345561
 51
201.6652959999999
  0
ARC
  5
D9E0
330
D612
100
AcDbEntity
  8
1
  6
Continuous
100
AcDbCircle
 10
365.05
 20
433.4812499999999
 30
0.0
 40
2.38125
100
AcDbArc
 50
143.430279
 51
166.18161
  0
LINE
  5
D9E1
330
D612
100
AcDbEntity
  8
1
  6
Continuous
100
AcDbLine
 10
359.8
 20
433.55
 30
0.0
 11
359.8
 21
434.9
 31
0.0
  0
ARC
  5
D9E2
330
D612
100
AcDbEntity
  8
1
  6
Continuous
100
AcDbCircle
 10
365.05
 20
433.4812499999999
 30
0.0
 40
2.38125
100
AcDbArc
 50
338.3347039999998
 51
1.654438999999999
  0
ARC
  5
D9E3
330
D612
100
AcDbEntity
  8
1
  6
Continuous
100
AcDbCircle
 10
365.05
 20
433.4812499999999
 30
0.0
 40
2.38125
100
AcDbArc
 50
13.81839
 51
36.569721
  0
LINE
  5
D9E4
330
D612
100
AcDbEntity
  8
1
  6
Continuous
100
AcDbLine
 10
370.3
 20
433.55
 30
0.0
 11
370.3
 21
434.9
 31
0.0
  0
LINE
  5
D9E5
330
D612
100
AcDbEntity
  8
1
  6
Continuous
100
AcDbLine
 10
370.3
 20
434.05
 30
0.0
 11
359.8
 21
434.05
 31
0.0
  0
LINE
  5
D9E6
330
D612
100
AcDbEntity
  8
1
  6
Continuous
100
AcDbLine
 10
370.3
 20
433.55
 30
0.0
 11
359.8
 21
433.55
 31
0.0
  0
ARC
  5
D9E7
330
D612
100
AcDbEntity
  8
1
  6
Continuous
100
AcDbCircle
 10
377.55
 20
433.4812499999999
 30
0.0
 40
2.38125
100
AcDbArc
 50
338.3347039999998
 51
1.654438999999999
  0
ARC
  5
D9E8
330
D612
100
AcDbEntity
  8
1
  6
Continuous
100
AcDbCircle
 10
377.55
 20
433.4812499999999
 30
0.0
 40
2.38125
100
AcDbArc
 50
178.345561
 51
201.6652959999999
  0
LINE
  5
D9E9
330
D612
100
AcDbEntity
  8
1
  6
Continuous
100
AcDbLine
 10
382.8
 20
433.55
 30
0.0
 11
372.3
 21
433.55
 31
0.0
  0
LINE
  5
D9EA
330
D612
100
AcDbEntity
  8
1
  6
Continuous
100
AcDbLine
 10
382.8
 20
434.05
 30
0.0
 11
372.3
 21
434.05
 31
0.0
  0
LINE
  5
D9EB
330
D612
100
AcDbEntity
  8
1
  6
Continuous
100
AcDbLine
 10
382.8
 20
433.55
 30
0.0
 11
382.8
 21
434.9
 31
0.0
  0
ARC
  5
D9EC
330
D612
100
AcDbEntity
  8
1
  6
Continuous
100
AcDbCircle
 10
377.55
 20
433.4812499999999
 30
0.0
 40
2.38125
100
AcDbArc
 50
13.81839
 51
36.569721
  0
ARC
  5
D9ED
330
D612
100
AcDbEntity
  8
1
  6
Continuous
100
AcDbCircle
 10
377.55
 20
433.4812499999999
 30
0.0
 40
2.38125
100
AcDbArc
 50
143.430279
 51
166.18161
  0
LINE
  5
D9EE
330
D612
100
AcDbEntity
  8
1
  6
Continuous
100
AcDbLine
 10
372.3
 20
433.55
 30
0.0
 11
372.3
 21
434.9
 31
0.0
  0
LINE
  5
D9EF
330
D612
100
AcDbEntity
  8
1
  6
Continuous
100
AcDbLine
 10
688.7999999999998
 20
195.8499999999999
 30
0.0
 11
699.2999999999998
 21
195.8499999999999
 31
0.0
  0
LINE
  5
D9F0
330
D612
100
AcDbEntity
  8
1
  6
Continuous
100
AcDbLine
 10
688.7999999999998
 20
196.3499999999999
 30
0.0
 11
699.2999999999998
 21
196.3499999999999
 31
0.0
  0
ARC
  5
D9F1
330
D612
100
AcDbEntity
  8
1
  6
Continuous
100
AcDbCircle
 10
694.05
 20
196.4187499999999
 30
0.0
 40
2.38125
100
AcDbArc
 50
158.3347039999999
 51
181.6544389999999
  0
ARC
  5
D9F2
330
D612
100
AcDbEntity
  8
1
  6
Continuous
100
AcDbCircle
 10
694.05
 20
196.4187499999999
 30
0.0
 40
2.38125
100
AcDbArc
 50
193.81839
 51
216.5697209999999
  0
LINE
  5
D9F3
330
D612
100
AcDbEntity
  8
1
  6
Continuous
100
AcDbLine
 10
688.7999999999998
 20
196.3499999999999
 30
0.0
 11
688.7999999999998
 21
195.0
 31
0.0
  0
LINE
  5
D9F4
330
D612
100
AcDbEntity
  8
1
  6
Continuous
100
AcDbLine
 10
711.7999999999998
 20
196.3499999999999
 30
0.0
 11
711.7999999999998
 21
195.0
 31
0.0
  0
ARC
  5
D9F5
330
D612
100
AcDbEntity
  8
1
  6
Continuous
100
AcDbCircle
 10
706.55
 20
196.4187499999999
 30
0.0
 40
2.38125
100
AcDbArc
 50
158.3347039999999
 51
181.6544389999999
  0
ARC
  5
D9F6
330
D612
100
AcDbEntity
  8
1
  6
Continuous
100
AcDbCircle
 10
706.55
 20
196.4187499999999
 30
0.0
 40
2.38125
100
AcDbArc
 50
358.3455609999999
 51
21.665296
  0
LINE
  5
D9F7
330
D612
100
AcDbEntity
  8
1
  6
Continuous
100
AcDbLine
 10
701.2999999999998
 20
196.3499999999999
 30
0.0
 11
701.2999999999998
 21
195.0
 31
0.0
  0
ARC
  5
D9F8
330
D612
100
AcDbEntity
  8
1
  6
Continuous
100
AcDbCircle
 10
706.55
 20
196.4187499999999
 30
0.0
 40
2.38125
100
AcDbArc
 50
193.81839
 51
216.5697209999999
  0
ARC
  5
D9F9
330
D612
100
AcDbEntity
  8
1
  6
Continuous
100
AcDbCircle
 10
706.55
 20
196.4187499999999
 30
0.0
 40
2.38125
100
AcDbArc
 50
323.430279
 51
346.18161
  0
LINE
  5
D9FA
330
D612
100
AcDbEntity
  8
1
  6
Continuous
100
AcDbLine
 10
701.2999999999998
 20
196.3499999999999
 30
0.0
 11
711.7999999999998
 21
196.3499999999999
 31
0.0
  0
LINE
  5
D9FB
330
D612
100
AcDbEntity
  8
1
  6
Continuous
100
AcDbLine
 10
701.2999999999998
 20
195.8499999999999
 30
0.0
 11
711.7999999999998
 21
195.8499999999999
 31
0.0
  0
ARC
  5
D9FC
330
D612
100
AcDbEntity
  8
1
  6
Continuous
100
AcDbCircle
 10
694.05
 20
196.4187499999999
 30
0.0
 40
2.38125
100
AcDbArc
 50
358.3455609999999
 51
21.665296
  0
ARC
  5
D9FD
330
D612
100
AcDbEntity
  8
1
  6
Continuous
100
AcDbCircle
 10
694.05
 20
196.4187499999999
 30
0.0
 40
2.38125
100
AcDbArc
 50
323.430279
 51
346.18161
  0
LINE
  5
D9FE
330
D612
100
AcDbEntity
  8
1
  6
Continuous
100
AcDbLine
 10
699.2999999999998
 20
196.3499999999999
 30
0.0
 11
699.2999999999998
 21
195.0
 31
0.0
  0
LINE
  5
D9FF
330
D612
100
AcDbEntity
  8
1
  6
Continuous
100
AcDbLine
 10
688.7999999999998
 20
169.15
 30
0.0
 11
699.2999999999998
 21
169.15
 31
0.0
  0
LINE
  5
DA00
330
D612
100
AcDbEntity
  8
1
  6
Continuous
100
AcDbLine
 10
688.7999999999998
 20
169.65
 30
0.0
 11
699.2999999999998
 21
169.65
 31
0.0
  0
LINE
  5
DA01
330
D612
100
AcDbEntity
  8
1
  6
Continuous
100
AcDbLine
 10
688.7999999999998
 20
169.15
 30
0.0
 11
688.7999999999998
 21
170.5
 31
0.0
  0
ARC
  5
DA02
330
D612
100
AcDbEntity
  8
1
  6
Continuous
100
AcDbCircle
 10
694.05
 20
169.08125
 30
0.0
 40
2.38125
100
AcDbArc
 50
178.345561
 51
201.6652959999999
  0
ARC
  5
DA03
330
D612
100
AcDbEntity
  8
1
  6
Continuous
100
AcDbCircle
 10
694.05
 20
169.08125
 30
0.0
 40
2.38125
100
AcDbArc
 50
143.430279
 51
166.18161
  0
LINE
  5
DA04
330
D612
100
AcDbEntity
  8
1
  6
Continuous
100
AcDbLine
 10
699.2999999999998
 20
169.15
 30
0.0
 11
699.2999999999998
 21
170.5
 31
0.0
  0
LINE
  5
DA05
330
D612
100
AcDbEntity
  8
1
  6
Continuous
100
AcDbLine
 10
701.2999999999998
 20
169.15
 30
0.0
 11
701.2999999999998
 21
170.5
 31
0.0
  0
LINE
  5
DA06
330
D612
100
AcDbEntity
  8
1
  6
Continuous
100
AcDbLine
 10
711.7999999999998
 20
169.15
 30
0.0
 11
711.7999999999998
 21
170.5
 31
0.0
  0
LINE
  5
DA07
330
D612
100
AcDbEntity
  8
1
  6
Continuous
100
AcDbLine
 10
701.2999999999998
 20
169.15
 30
0.0
 11
711.7999999999998
 21
169.15
 31
0.0
  0
ARC
  5
DA08
330
D612
100
AcDbEntity
  8
1
  6
Continuous
100
AcDbCircle
 10
706.55
 20
169.08125
 30
0.0
 40
2.38125
100
AcDbArc
 50
338.3347039999998
 51
1.654438999999999
  0
ARC
  5
DA09
330
D612
100
AcDbEntity
  8
1
  6
Continuous
100
AcDbCircle
 10
706.55
 20
169.08125
 30
0.0
 40
2.38125
100
AcDbArc
 50
178.345561
 51
201.6652959999999
  0
ARC
  5
DA0A
330
D612
100
AcDbEntity
  8
1
  6
Continuous
100
AcDbCircle
 10
694.05
 20
169.08125
 30
0.0
 40
2.38125
100
AcDbArc
 50
338.3347039999998
 51
1.654438999999999
  0
LINE
  5
DA0B
330
D612
100
AcDbEntity
  8
1
  6
Continuous
100
AcDbLine
 10
701.2999999999998
 20
169.65
 30
0.0
 11
711.7999999999998
 21
169.65
 31
0.0
  0
ARC
  5
DA0C
330
D612
100
AcDbEntity
  8
1
  6
Continuous
100
AcDbCircle
 10
706.55
 20
169.08125
 30
0.0
 40
2.38125
100
AcDbArc
 50
13.81839
 51
36.569721
  0
ARC
  5
DA0D
330
D612
100
AcDbEntity
  8
1
  6
Continuous
100
AcDbCircle
 10
706.55
 20
169.08125
 30
0.0
 40
2.38125
100
AcDbArc
 50
143.430279
 51
166.18161
  0
ARC
  5
DA0E
330
D612
100
AcDbEntity
  8
1
  6
Continuous
100
AcDbCircle
 10
694.05
 20
169.08125
 30
0.0
 40
2.38125
100
AcDbArc
 50
13.81839
 51
36.569721
  0
LINE
  5
DA0F
330
D612
100
AcDbEntity
  8
1
  6
Continuous
100
AcDbLine
 10
357.8
 20
460.25
 30
0.0
 11
347.3
 21
460.25
 31
0.0
  0
LINE
  5
DA10
330
D612
100
AcDbEntity
  8
1
  6
Continuous
100
AcDbLine
 10
357.8
 20
460.7499999999998
 30
0.0
 11
347.3
 21
460.7499999999998
 31
0.0
  0
ARC
  5
DA11
330
D612
100
AcDbEntity
  8
1
  6
Continuous
100
AcDbCircle
 10
352.55
 20
460.81875
 30
0.0
 40
2.38125
100
AcDbArc
 50
193.81839
 51
216.5697209999999
  0
LINE
  5
DA12
330
D612
100
AcDbEntity
  8
1
  6
Continuous
100
AcDbLine
 10
345.3
 20
460.7499999999998
 30
0.0
 11
345.3
 21
459.4
 31
0.0
  0
LINE
  5
DA13
330
D612
100
AcDbEntity
  8
1
  6
Continuous
100
AcDbLine
 10
347.3
 20
460.7499999999998
 30
0.0
 11
347.3
 21
459.4
 31
0.0
  0
ARC
  5
DA14
330
D612
100
AcDbEntity
  8
1
  6
Continuous
100
AcDbCircle
 10
352.55
 20
460.81875
 30
0.0
 40
2.38125
100
AcDbArc
 50
158.3347039999999
 51
181.6544389999999
  0
LINE
  5
DA15
330
D612
100
AcDbEntity
  8
1
  6
Continuous
100
AcDbLine
 10
334.8
 20
460.7499999999998
 30
0.0
 11
334.8
 21
459.4
 31
0.0
  0
ARC
  5
DA16
330
D612
100
AcDbEntity
  8
1
  6
Continuous
100
AcDbCircle
 10
340.05
 20
460.81875
 30
0.0
 40
2.38125
100
AcDbArc
 50
193.81839
 51
216.5697209999999
  0
ARC
  5
DA17
330
D612
100
AcDbEntity
  8
1
  6
Continuous
100
AcDbCircle
 10
340.05
 20
460.81875
 30
0.0
 40
2.38125
100
AcDbArc
 50
323.430279
 51
346.18161
  0
ARC
  5
DA18
330
D612
100
AcDbEntity
  8
1
  6
Continuous
100
AcDbCircle
 10
340.05
 20
460.81875
 30
0.0
 40
2.38125
100
AcDbArc
 50
158.3347039999999
 51
181.6544389999999
  0
ARC
  5
DA19
330
D612
100
AcDbEntity
  8
1
  6
Continuous
100
AcDbCircle
 10
340.05
 20
460.81875
 30
0.0
 40
2.38125
100
AcDbArc
 50
358.3455609999999
 51
21.665296
  0
LINE
  5
DA1A
330
D612
100
AcDbEntity
  8
1
  6
Continuous
100
AcDbLine
 10
345.3
 20
460.7499999999998
 30
0.0
 11
334.8
 21
460.7499999999998
 31
0.0
  0
LINE
  5
DA1B
330
D612
100
AcDbEntity
  8
1
  6
Continuous
100
AcDbLine
 10
345.3
 20
460.25
 30
0.0
 11
334.8
 21
460.25
 31
0.0
  0
ARC
  5
DA1C
330
D612
100
AcDbEntity
  8
1
  6
Continuous
100
AcDbCircle
 10
352.55
 20
460.81875
 30
0.0
 40
2.38125
100
AcDbArc
 50
323.430279
 51
346.18161
  0
LINE
  5
DA1D
330
D612
100
AcDbEntity
  8
1
  6
Continuous
100
AcDbLine
 10
357.8
 20
460.7499999999998
 30
0.0
 11
357.8
 21
459.4
 31
0.0
  0
ARC
  5
DA1E
330
D612
100
AcDbEntity
  8
1
  6
Continuous
100
AcDbCircle
 10
352.55
 20
460.81875
 30
0.0
 40
2.38125
100
AcDbArc
 50
358.3455609999999
 51
21.665296
  0
LINE
  5
DA1F
330
D612
100
AcDbEntity
  8
1
  6
Continuous
100
AcDbLine
 10
357.8
 20
433.55
 30
0.0
 11
347.3
 21
433.55
 31
0.0
  0
LINE
  5
DA20
330
D612
100
AcDbEntity
  8
1
  6
Continuous
100
AcDbLine
 10
357.8
 20
434.05
 30
0.0
 11
347.3
 21
434.05
 31
0.0
  0
LINE
  5
DA21
330
D612
100
AcDbEntity
  8
1
  6
Continuous
100
AcDbLine
 10
345.3
 20
433.55
 30
0.0
 11
345.3
 21
434.9
 31
0.0
  0
ARC
  5
DA22
330
D612
100
AcDbEntity
  8
1
  6
Continuous
100
AcDbCircle
 10
352.55
 20
433.4812499999999
 30
0.0
 40
2.38125
100
AcDbArc
 50
178.345561
 51
201.6652959999999
  0
ARC
  5
DA23
330
D612
100
AcDbEntity
  8
1
  6
Continuous
100
AcDbCircle
 10
352.55
 20
433.4812499999999
 30
0.0
 40
2.38125
100
AcDbArc
 50
143.430279
 51
166.18161
  0
LINE
  5
DA24
330
D612
100
AcDbEntity
  8
1
  6
Continuous
100
AcDbLine
 10
347.3
 20
433.55
 30
0.0
 11
347.3
 21
434.9
 31
0.0
  0
ARC
  5
DA25
330
D612
100
AcDbEntity
  8
1
  6
Continuous
100
AcDbCircle
 10
340.05
 20
433.4812499999999
 30
0.0
 40
2.38125
100
AcDbArc
 50
178.345561
 51
201.6652959999999
  0
ARC
  5
DA26
330
D612
100
AcDbEntity
  8
1
  6
Continuous
100
AcDbCircle
 10
340.05
 20
433.4812499999999
 30
0.0
 40
2.38125
100
AcDbArc
 50
143.430279
 51
166.18161
  0
LINE
  5
DA27
330
D612
100
AcDbEntity
  8
1
  6
Continuous
100
AcDbLine
 10
334.8
 20
433.55
 30
0.0
 11
334.8
 21
434.9
 31
0.0
  0
ARC
  5
DA28
330
D612
100
AcDbEntity
  8
1
  6
Continuous
100
AcDbCircle
 10
340.05
 20
433.4812499999999
 30
0.0
 40
2.38125
100
AcDbArc
 50
338.3347039999998
 51
1.654438999999999
  0
ARC
  5
DA29
330
D612
100
AcDbEntity
  8
1
  6
Continuous
100
AcDbCircle
 10
340.05
 20
433.4812499999999
 30
0.0
 40
2.38125
100
AcDbArc
 50
13.81839
 51
36.569721
  0
LINE
  5
DA2A
330
D612
100
AcDbEntity
  8
1
  6
Continuous
100
AcDbLine
 10
345.3
 20
434.05
 30
0.0
 11
334.8
 21
434.05
 31
0.0
  0
LINE
  5
DA2B
330
D612
100
AcDbEntity
  8
1
  6
Continuous
100
AcDbLine
 10
345.3
 20
433.55
 30
0.0
 11
334.8
 21
433.55
 31
0.0
  0
ARC
  5
DA2C
330
D612
100
AcDbEntity
  8
1
  6
Continuous
100
AcDbCircle
 10
352.55
 20
433.4812499999999
 30
0.0
 40
2.38125
100
AcDbArc
 50
338.3347039999998
 51
1.654438999999999
  0
LINE
  5
DA2D
330
D612
100
AcDbEntity
  8
1
  6
Continuous
100
AcDbLine
 10
357.8
 20
433.55
 30
0.0
 11
357.8
 21
434.9
 31
0.0
  0
ARC
  5
DA2E
330
D612
100
AcDbEntity
  8
1
  6
Continuous
100
AcDbCircle
 10
352.55
 20
433.4812499999999
 30
0.0
 40
2.38125
100
AcDbArc
 50
13.81839
 51
36.569721
  0
LINE
  5
DA2F
330
D612
100
AcDbEntity
  8
1
  6
Continuous
100
AcDbLine
 10
713.7999999999998
 20
196.3499999999999
 30
0.0
 11
724.2999999999997
 21
196.3499999999999
 31
0.0
  0
LINE
  5
DA30
330
D612
100
AcDbEntity
  8
1
  6
Continuous
100
AcDbLine
 10
713.7999999999998
 20
195.8499999999999
 30
0.0
 11
724.2999999999997
 21
195.8499999999999
 31
0.0
  0
LINE
  5
DA31
330
D612
100
AcDbEntity
  8
1
  6
Continuous
100
AcDbLine
 10
713.7999999999998
 20
196.3499999999999
 30
0.0
 11
713.7999999999998
 21
195.0
 31
0.0
  0
ARC
  5
DA32
330
D612
100
AcDbEntity
  8
1
  6
Continuous
100
AcDbCircle
 10
719.05
 20
196.4187499999999
 30
0.0
 40
2.38125
100
AcDbArc
 50
323.430279
 51
346.18161
  0
ARC
  5
DA33
330
D612
100
AcDbEntity
  8
1
  6
Continuous
100
AcDbCircle
 10
719.05
 20
196.4187499999999
 30
0.0
 40
2.38125
100
AcDbArc
 50
358.3455609999999
 51
21.665296
  0
ARC
  5
DA34
330
D612
100
AcDbEntity
  8
1
  6
Continuous
100
AcDbCircle
 10
719.05
 20
196.4187499999999
 30
0.0
 40
2.38125
100
AcDbArc
 50
193.81839
 51
216.5697209999999
  0
ARC
  5
DA35
330
D612
100
AcDbEntity
  8
1
  6
Continuous
100
AcDbCircle
 10
719.05
 20
196.4187499999999
 30
0.0
 40
2.38125
100
AcDbArc
 50
158.3347039999999
 51
181.6544389999999
  0
LINE
  5
DA36
330
D612
100
AcDbEntity
  8
1
  6
Continuous
100
AcDbLine
 10
726.2999999999997
 20
195.8499999999999
 30
0.0
 11
736.7999999999997
 21
195.8499999999999
 31
0.0
  0
LINE
  5
DA37
330
D612
100
AcDbEntity
  8
1
  6
Continuous
100
AcDbLine
 10
726.2999999999997
 20
196.3499999999999
 30
0.0
 11
736.7999999999997
 21
196.3499999999999
 31
0.0
  0
LINE
  5
DA38
330
D612
100
AcDbEntity
  8
1
  6
Continuous
100
AcDbLine
 10
724.2999999999997
 20
196.3499999999999
 30
0.0
 11
724.2999999999997
 21
195.0
 31
0.0
  0
ARC
  5
DA39
330
D612
100
AcDbEntity
  8
1
  6
Continuous
100
AcDbCircle
 10
731.5499999999997
 20
196.4187499999999
 30
0.0
 40
2.38125
100
AcDbArc
 50
323.430279
 51
346.18161
  0
ARC
  5
DA3A
330
D612
100
AcDbEntity
  8
1
  6
Continuous
100
AcDbCircle
 10
731.5499999999997
 20
196.4187499999999
 30
0.0
 40
2.38125
100
AcDbArc
 50
193.81839
 51
216.5697209999999
  0
LINE
  5
DA3B
330
D612
100
AcDbEntity
  8
1
  6
Continuous
100
AcDbLine
 10
726.2999999999997
 20
196.3499999999999
 30
0.0
 11
726.2999999999997
 21
195.0
 31
0.0
  0
ARC
  5
DA3C
330
D612
100
AcDbEntity
  8
1
  6
Continuous
100
AcDbCircle
 10
731.5499999999997
 20
196.4187499999999
 30
0.0
 40
2.38125
100
AcDbArc
 50
358.3455609999999
 51
21.665296
  0
ARC
  5
DA3D
330
D612
100
AcDbEntity
  8
1
  6
Continuous
100
AcDbCircle
 10
731.5499999999997
 20
196.4187499999999
 30
0.0
 40
2.38125
100
AcDbArc
 50
158.3347039999999
 51
181.6544389999999
  0
LINE
  5
DA3E
330
D612
100
AcDbEntity
  8
1
  6
Continuous
100
AcDbLine
 10
736.7999999999997
 20
196.3499999999999
 30
0.0
 11
736.7999999999997
 21
195.0
 31
0.0
  0
LINE
  5
DA3F
330
D612
100
AcDbEntity
  8
1
  6
Continuous
100
AcDbLine
 10
713.7999999999998
 20
169.65
 30
0.0
 11
724.2999999999997
 21
169.65
 31
0.0
  0
LINE
  5
DA40
330
D612
100
AcDbEntity
  8
1
  6
Continuous
100
AcDbLine
 10
713.7999999999998
 20
169.15
 30
0.0
 11
724.2999999999997
 21
169.15
 31
0.0
  0
LINE
  5
DA41
330
D612
100
AcDbEntity
  8
1
  6
Continuous
100
AcDbLine
 10
713.7999999999998
 20
169.15
 30
0.0
 11
713.7999999999998
 21
170.5
 31
0.0
  0
ARC
  5
DA42
330
D612
100
AcDbEntity
  8
1
  6
Continuous
100
AcDbCircle
 10
719.05
 20
169.08125
 30
0.0
 40
2.38125
100
AcDbArc
 50
13.81839
 51
36.569721
  0
ARC
  5
DA43
330
D612
100
AcDbEntity
  8
1
  6
Continuous
100
AcDbCircle
 10
719.05
 20
169.08125
 30
0.0
 40
2.38125
100
AcDbArc
 50
338.3347039999998
 51
1.654438999999999
  0
ARC
  5
DA44
330
D612
100
AcDbEntity
  8
1
  6
Continuous
100
AcDbCircle
 10
719.05
 20
169.08125
 30
0.0
 40
2.38125
100
AcDbArc
 50
143.430279
 51
166.18161
  0
ARC
  5
DA45
330
D612
100
AcDbEntity
  8
1
  6
Continuous
100
AcDbCircle
 10
719.05
 20
169.08125
 30
0.0
 40
2.38125
100
AcDbArc
 50
178.345561
 51
201.6652959999999
  0
LINE
  5
DA46
330
D612
100
AcDbEntity
  8
1
  6
Continuous
100
AcDbLine
 10
726.2999999999997
 20
169.65
 30
0.0
 11
736.7999999999997
 21
169.65
 31
0.0
  0
LINE
  5
DA47
330
D612
100
AcDbEntity
  8
1
  6
Continuous
100
AcDbLine
 10
726.2999999999997
 20
169.15
 30
0.0
 11
736.7999999999997
 21
169.15
 31
0.0
  0
ARC
  5
DA48
330
D612
100
AcDbEntity
  8
1
  6
Continuous
100
AcDbCircle
 10
731.5499999999997
 20
169.08125
 30
0.0
 40
2.38125
100
AcDbArc
 50
143.430279
 51
166.18161
  0
ARC
  5
DA49
330
D612
100
AcDbEntity
  8
1
  6
Continuous
100
AcDbCircle
 10
731.5499999999997
 20
169.08125
 30
0.0
 40
2.38125
100
AcDbArc
 50
13.81839
 51
36.569721
  0
ARC
  5
DA4A
330
D612
100
AcDbEntity
  8
1
  6
Continuous
100
AcDbCircle
 10
731.5499999999997
 20
169.08125
 30
0.0
 40
2.38125
100
AcDbArc
 50
178.345561
 51
201.6652959999999
  0
ARC
  5
DA4B
330
D612
100
AcDbEntity
  8
1
  6
Continuous
100
AcDbCircle
 10
731.5499999999997
 20
169.08125
 30
0.0
 40
2.38125
100
AcDbArc
 50
338.3347039999998
 51
1.654438999999999
  0
LINE
  5
DA4C
330
D612
100
AcDbEntity
  8
1
  6
Continuous
100
AcDbLine
 10
726.2999999999997
 20
169.15
 30
0.0
 11
726.2999999999997
 21
170.5
 31
0.0
  0
LINE
  5
DA4D
330
D612
100
AcDbEntity
  8
1
  6
Continuous
100
AcDbLine
 10
724.2999999999997
 20
169.15
 30
0.0
 11
724.2999999999997
 21
170.5
 31
0.0
  0
LINE
  5
DA4E
330
D612
100
AcDbEntity
  8
1
  6
Continuous
100
AcDbLine
 10
736.7999999999997
 20
169.15
 30
0.0
 11
736.7999999999997
 21
170.5
 31
0.0
  0
ENDSEC
  0
SECTION
  2
OBJECTS
  0
DICTIONARY
  5
D600
330
0
100
AcDbDictionary
281
     1
  3
ACAD_CIP_PREVIOUS_PRODUCT_INFO
350
DAAE
  3
ACAD_COLOR
350
DA90
  3
ACAD_DETAILVIEWSTYLE
350
DAA9
  3
ACAD_GROUP
350
D601
  3
ACAD_LAYOUT
350
D60D
  3
ACAD_MATERIAL
350
DA5E
  3
ACAD_MLEADERSTYLE
350
DAA5
  3
ACAD_MLINESTYLE
350
D60A
  3
ACAD_PLOTSETTINGS
350
D60C
  3
ACAD_PLOTSTYLENAME
350
DA5C
  3
ACAD_SCALELIST
350
DA93
  3
ACAD_SECTIONVIEWSTYLE
350
DAA7
  3
ACAD_TABLESTYLE
350
DA91
  3
ACAD_VISUALSTYLE
350
DA77
  3
ACDB_RECOMPOSE_DATA
350
DACC
  3
AcDbVariableDictionary
350
DABF
  3
DWGPROPS
350
DACD
  0
DICTIONARY
  5
DAAF
330
D604
100
AcDbDictionary
280
     1
281
     1
  3
ADSK_XREC_LAYER_RECONCILED
360
DAB0
  0
DICTIONARY
  5
DAB1
330
D61A
100
AcDbDictionary
280
     1
281
     1
  3
ADSK_XREC_LAYER_RECONCILED
360
DAB2
  0
DICTIONARY
  5
DAB3
330
D61B
100
AcDbDictionary
280
     1
281
     1
  3
ADSK_XREC_LAYER_RECONCILED
360
DAB4
  0
DICTIONARY
  5
DAB5
330
D61C
100
AcDbDictionary
280
     1
281
     1
  3
ADSK_XREC_LAYER_RECONCILED
360
DAB6
  0
DICTIONARY
  5
DAB7
330
D61D
100
AcDbDictionary
280
     1
281
     1
  3
ADSK_XREC_LAYER_RECONCILED
360
DAB8
  0
DICTIONARY
  5
DAB9
330
D61E
100
AcDbDictionary
280
     1
281
     1
  3
ADSK_XREC_LAYER_RECONCILED
360
DABA
  0
DICTIONARY
  5
DABB
330
D61F
100
AcDbDictionary
280
     1
281
     1
  3
ADSK_XREC_LAYER_RECONCILED
360
DABC
  0
DICTIONARY
  5
DABD
330
D620
100
AcDbDictionary
280
     1
281
     1
  3
ADSK_XREC_LAYER_RECONCILED
360
DABE
  0
DICTIONARY
  5
DA57
330
D612
100
AcDbDictionary
281
     1
  3
ACAD_LAYOUTSELFREF
350
DA58
  0
DICTIONARY
  5
DA55
330
D60E
100
AcDbDictionary
281
     1
  3
ACAD_LAYOUTSELFREF
350
DA56
  0
XRECORD
  5
DAAE
102
{ACAD_REACTORS
330
D600
102
}
330
D600
100
AcDbXrecord
280
     1
300
ACDLT
300
2014
300
ACDLT_F_S
  0
DICTIONARY
  5
DA90
102
{ACAD_REACTORS
330
D600
102
}
330
D600
100
AcDbDictionary
281
     1
  0
DICTIONARY
  5
DAA9
102
{ACAD_REACTORS
330
D600
102
}
330
D600
100
AcDbDictionary
281
     1
  3
Imperial24
350
DAAA
  0
DICTIONARY
  5
D601
102
{ACAD_REACTORS
330
D600
102
}
330
D600
100
AcDbDictionary
281
     1
  0
DICTIONARY
  5
D60D
102
{ACAD_REACTORS
330
D600
102
}
330
D600
100
AcDbDictionary
281
     1
  3
Model
350
DAAB
  3
レイアウト1
350
DAAC
  0
DICTIONARY
  5
DA5E
102
{ACAD_REACTORS
330
D600
102
}
330
D600
100
AcDbDictionary
281
     1
  3
ByBlock
350
DA67
  3
ByLayer
350
DA5F
  3
Global
350
DA6F
  0
DICTIONARY
  5
DAA5
102
{ACAD_REACTORS
330
D600
102
}
330
D600
100
AcDbDictionary
281
     1
  3
Standard
350
DAA6
  0
DICTIONARY
  5
D60A
102
{ACAD_REACTORS
330
D600
102
}
330
D600
100
AcDbDictionary
281
     1
  3
STANDARD
350
D60B
  0
DICTIONARY
  5
D60C
102
{ACAD_REACTORS
330
D600
102
}
330
D600
100
AcDbDictionary
281
     1
  0
ACDBDICTIONARYWDFLT
  5
DA5C
102
{ACAD_REACTORS
330
D600
102
}
330
D600
100
AcDbDictionary
281
     1
  3
Normal
350
DA5D
100
AcDbDictionaryWithDefault
340
DA5D
  0
DICTIONARY
  5
DA93
102
{ACAD_REACTORS
330
D600
102
}
330
D600
100
AcDbDictionary
281
     1
  3
A0
350
DA94
  3
A1
350
DA95
  3
A2
350
DA96
  3
A3
350
DA97
  3
A4
350
DA98
  3
A5
350
DA99
  3
A6
350
DA9A
  3
A7
350
DA9B
  3
A8
350
DA9C
  3
A9
350
DA9D
  3
B0
350
DA9E
  3
B1
350
DA9F
  3
B2
350
DAA0
  3
B3
350
DAA1
  3
B4
350
DAA2
  3
B5
350
DAA3
  3
B6
350
DAA4
  0
DICTIONARY
  5
DAA7
102
{ACAD_REACTORS
330
D600
102
}
330
D600
100
AcDbDictionary
281
     1
  3
Imperial24
350
DAA8
  0
DICTIONARY
  5
DA91
102
{ACAD_REACTORS
330
D600
102
}
330
D600
100
AcDbDictionary
281
     1
  3
Standard
350
DA92
  0
DICTIONARY
  5
DA77
102
{ACAD_REACTORS
330
D600
102
}
330
D600
100
AcDbDictionary
281
     1
  3
2dWireframe
350
DA7D
  3
Basic
350
DA7C
  3
Brighten
350
DA83
  3
ColorChange
350
DA87
  3
Conceptual
350
DA80
  3
Dim
350
DA82
  3
EdgeColorOff
350
DA8F
  3
Facepattern
350
DA86
  3
Flat
350
DA78
  3
FlatWithEdges
350
DA79
  3
Gouraud
350
DA7A
  3
GouraudWithEdges
350
DA7B
  3
Hidden
350
DA7F
  3
JitterOff
350
DA8D
  3
Linepattern
350
DA85
  3
OverhangOff
350
DA8E
  3
Realistic
350
DA81
  3
Shaded
350
DA8C
  3
Shaded with edges
350
DA8B
  3
Shades of Gray
350
DA88
  3
Sketchy
350
DA89
  3
Thicken
350
DA84
  3
Wireframe
350
DA7E
  3
X-Ray
350
DA8A
  0
XRECORD
  5
DACC
102
{ACAD_REACTORS
330
D600
102
}
330
D600
100
AcDbXrecord
280
     1
 90
        1
330
DA92
  0
DICTIONARY
  5
DABF
102
{ACAD_REACTORS
330
D600
102
}
330
D600
100
AcDbDictionary
281
     1
  3
CANNOSCALE
350
DAC4
  3
CMLEADERSTYLE
350
DAC1
  3
CTABLESTYLE
350
DAC0
  3
CVIEWDETAILSTYLE
350
DAC2
  3
CVIEWSECTIONSTYLE
350
DAC3
  3
DIMASSOC
350
DAC7
  3
INDEXCTL
350
DAC6
  3
SORTENTS
350
DAC5
  3
XCLIPFRAME
350
DAC8
  0
XRECORD
  5
DACD
102
{ACAD_REACTORS
330
D600
102
}
330
D600
100
AcDbXrecord
280
     1
  1
DWGPROPS COOKIE
  2

  3

  4

  6

  7

  8
Yoshitsune
  9

300
=
301
=
302
=
303
=
304
=
305
=
306
=
307
=
308
=
309
=
 40
0.0000135069444444
 41
2451233.361392477
 42
2457192.65953316
  1

 90
        0
  0
XRECORD
  5
DAB0
102
{ACAD_REACTORS
330
DAAF
102
}
330
DAAF
100
AcDbXrecord
280
     1
290
     1
  0
XRECORD
  5
DAB2
102
{ACAD_REACTORS
330
DAB1
102
}
330
DAB1
100
AcDbXrecord
280
     1
290
     1
  0
XRECORD
  5
DAB4
102
{ACAD_REACTORS
330
DAB3
102
}
330
DAB3
100
AcDbXrecord
280
     1
290
     1
  0
XRECORD
  5
DAB6
102
{ACAD_REACTORS
330
DAB5
102
}
330
DAB5
100
AcDbXrecord
280
     1
290
     1
  0
XRECORD
  5
DAB8
102
{ACAD_REACTORS
330
DAB7
102
}
330
DAB7
100
AcDbXrecord
280
     1
290
     1
  0
XRECORD
  5
DABA
102
{ACAD_REACTORS
330
DAB9
102
}
330
DAB9
100
AcDbXrecord
280
     1
290
     1
  0
XRECORD
  5
DABC
102
{ACAD_REACTORS
330
DABB
102
}
330
DABB
100
AcDbXrecord
280
     1
290
     1
  0
XRECORD
  5
DABE
102
{ACAD_REACTORS
330
DABD
102
}
330
DABD
100
AcDbXrecord
280
     1
290
     1
  0
XRECORD
  5
DA58
102
{ACAD_REACTORS
330
DA57
102
}
330
DA57
100
AcDbXrecord
280
     1
340
D612
  0
XRECORD
  5
DA56
102
{ACAD_REACTORS
330
DA55
102
}
330
DA55
100
AcDbXrecord
280
     1
340
D60E
  0
ACDBDETAILVIEWSTYLE
  5
DAAA
102
{ACAD_XDICTIONARY
360
DB05
102
}
102
{ACAD_REACTORS
330
DAA9
102
}
330
DAA9
100
AcDbModelDocViewStyle
 70
     0
  3
Imperial24
290
     0
100
AcDbDetailViewStyle
 70
     0
 71
     0
 90
        3
 71
     1
340
D605
 40
0.24
340
0
 40
0.24
300

 40
0.36
280
     3
 71
     2
340
D609
 90
       25
 71
     3
340
D605
 40
0.24
 90
        1
 40
0.75
 90
        1
300
%<\AcVar ViewType \f "%tc1">% %<\AcVar ViewDetailId>%\PSCALE %<\AcVar ViewScale \f "%sn">%
 71
     4
340
D609
 90
       25
340
D609
 90
       25
280
     0
  0
LAYOUT
  5
DAAB
102
{ACAD_XDICTIONARY
360
DB07
102
}
102
{ACAD_REACTORS
330
D60D
102
}
330
D60D
100
AcDbPlotSettings
  1

  2
Canon LBP9100C
  4

  6

 40
0.0
 41
0.0
 42
0.0
 43
0.0
 44
0.0
 45
0.0
 46
0.0
 47
0.0
 48
0.0
 49
0.0
140
0.0
141
0.0
142
1.0
143
1.0
 70
  1712
 72
     0
 73
     0
 74
     0
  7

 75
     0
147
1.0
148
0.0
149
0.0
100
AcDbLayout
  1
Model
 70
     1
 71
     0
 10
0.0
 20
0.0
 11
12.0
 21
9.0
 12
0.0
 22
0.0
 32
0.0
 14
0.0
 24
0.0
 34
0.0
 15
0.0
 25
0.0
 35
0.0
146
0.0
 13
0.0
 23
0.0
 33
0.0
 16
1.0
 26
0.0
 36
0.0
 17
0.0
 27
1.0
 37
0.0
 76
     0
330
D612
331
DA54
  0
LAYOUT
  5
DAAC
102
{ACAD_XDICTIONARY
360
DB09
102
}
102
{ACAD_REACTORS
330
D60D
102
}
330
D60D
100
AcDbPlotSettings
  1

  2
Canon LBP9100C
  4

  6

 40
0.0
 41
0.0
 42
0.0
 43
0.0
 44
0.0
 45
0.0
 46
0.0
 47
0.0
 48
0.0
 49
0.0
140
0.0
141
0.0
142
1.0
143
1.0
 70
   688
 72
     0
 73
     0
 74
     5
  7

 75
    16
147
1.0
148
0.0
149
0.0
100
AcDbLayout
  1
レイアウト1
 70
     0
 71
     1
 10
0.0
 20
0.0
 11
420.0
 21
297.0
 12
0.0
 22
0.0
 32
0.0
 14
1.000000000000000E+20
 24
1.000000000000000E+20
 34
1.000000000000000E+20
 15
-1.000000000000000E+20
 25
-1.000000000000000E+20
 35
-1.000000000000000E+20
146
0.0
 13
0.0
 23
0.0
 33
0.0
 16
1.0
 26
0.0
 36
0.0
 17
0.0
 27
1.0
 37
0.0
 76
     0
330
D60E
  0
MATERIAL
  5
DA67
102
{ACAD_XDICTIONARY
360
DA68
102
}
102
{ACAD_REACTORS
330
DA5E
102
}
330
DA5E
100
AcDbMaterial
  1
ByBlock
 72
     0
 43
0.0208333333333333
 43
0.0
 43
0.0
 43
0.0
 43
0.0
 43
0.0208333333333333
 43
0.0
 43
0.0
 43
0.0
 43
0.0
 43
1.0
 43
0.0
 43
0.0
 43
0.0
 43
0.0
 43
1.0
 77
     0
 47
0.0208333333333333
 47
0.0
 47
0.0
 47
0.0
 47
0.0
 47
0.0208333333333333
 47
0.0
 47
0.0
 47
0.0
 47
0.0
 47
1.0
 47
0.0
 47
0.0
 47
0.0
 47
0.0
 47
1.0
171
     0
 49
0.0208333333333333
 49
0.0
 49
0.0
 49
0.0
 49
0.0
 49
0.0208333333333333
 49
0.0
 49
0.0
 49
0.0
 49
0.0
 49
1.0
 49
0.0
 49
0.0
 49
0.0
 49
0.0
 49
1.0
175
     0
142
0.0208333333333333
142
0.0
142
0.0
142
0.0
142
0.0
142
0.0208333333333333
142
0.0
142
0.0
142
0.0
142
0.0
142
1.0
142
0.0
142
0.0
142
0.0
142
0.0
142
1.0
179
     0
144
0.0208333333333333
144
0.0
144
0.0
144
0.0
144
0.0
144
0.0208333333333333
144
0.0
144
0.0
144
0.0
144
0.0
144
1.0
144
0.0
144
0.0
144
0.0
144
0.0
144
1.0
147
0.0208333333333333
147
0.0
147
0.0
147
0.0
147
0.0
147
0.0208333333333333
147
0.0
147
0.0
147
0.0
147
0.0
147
1.0
147
0.0
147
0.0
147
0.0
147
0.0
147
1.0
  0
MATERIAL
  5
DA5F
102
{ACAD_XDICTIONARY
360
DA60
102
}
102
{ACAD_REACTORS
330
DA5E
102
}
330
DA5E
100
AcDbMaterial
  1
ByLayer
 72
     0
 43
0.0208333333333333
 43
0.0
 43
0.0
 43
0.0
 43
0.0
 43
0.0208333333333333
 43
0.0
 43
0.0
 43
0.0
 43
0.0
 43
1.0
 43
0.0
 43
0.0
 43
0.0
 43
0.0
 43
1.0
 77
     0
 47
0.0208333333333333
 47
0.0
 47
0.0
 47
0.0
 47
0.0
 47
0.0208333333333333
 47
0.0
 47
0.0
 47
0.0
 47
0.0
 47
1.0
 47
0.0
 47
0.0
 47
0.0
 47
0.0
 47
1.0
171
     0
 49
0.0208333333333333
 49
0.0
 49
0.0
 49
0.0
 49
0.0
 49
0.0208333333333333
 49
0.0
 49
0.0
 49
0.0
 49
0.0
 49
1.0
 49
0.0
 49
0.0
 49
0.0
 49
0.0
 49
1.0
175
     0
142
0.0208333333333333
142
0.0
142
0.0
142
0.0
142
0.0
142
0.0208333333333333
142
0.0
142
0.0
142
0.0
142
0.0
142
1.0
142
0.0
142
0.0
142
0.0
142
0.0
142
1.0
179
     0
144
0.0208333333333333
144
0.0
144
0.0
144
0.0
144
0.0
144
0.0208333333333333
144
0.0
144
0.0
144
0.0
144
0.0
144
1.0
144
0.0
144
0.0
144
0.0
144
0.0
144
1.0
147
0.0208333333333333
147
0.0
147
0.0
147
0.0
147
0.0
147
0.0208333333333333
147
0.0
147
0.0
147
0.0
147
0.0
147
1.0
147
0.0
147
0.0
147
0.0
147
0.0
147
1.0
  0
MATERIAL
  5
DA6F
102
{ACAD_XDICTIONARY
360
DA70
102
}
102
{ACAD_REACTORS
330
DA5E
102
}
330
DA5E
100
AcDbMaterial
  1
Global
 72
     0
 43
0.0208333333333333
 43
0.0
 43
0.0
 43
0.0
 43
0.0
 43
0.0208333333333333
 43
0.0
 43
0.0
 43
0.0
 43
0.0
 43
1.0
 43
0.0
 43
0.0
 43
0.0
 43
0.0
 43
1.0
 77
     0
 47
0.0208333333333333
 47
0.0
 47
0.0
 47
0.0
 47
0.0
 47
0.0208333333333333
 47
0.0
 47
0.0
 47
0.0
 47
0.0
 47
1.0
 47
0.0
 47
0.0
 47
0.0
 47
0.0
 47
1.0
171
     0
 49
0.0208333333333333
 49
0.0
 49
0.0
 49
0.0
 49
0.0
 49
0.0208333333333333
 49
0.0
 49
0.0
 49
0.0
 49
0.0
 49
1.0
 49
0.0
 49
0.0
 49
0.0
 49
0.0
 49
1.0
175
     0
142
0.0208333333333333
142
0.0
142
0.0
142
0.0
142
0.0
142
0.0208333333333333
142
0.0
142
0.0
142
0.0
142
0.0
142
1.0
142
0.0
142
0.0
142
0.0
142
0.0
142
1.0
179
     0
144
0.0208333333333333
144
0.0
144
0.0
144
0.0
144
0.0
144
0.0208333333333333
144
0.0
144
0.0
144
0.0
144
0.0
144
1.0
144
0.0
144
0.0
144
0.0
144
0.0
144
1.0
147
0.0208333333333333
147
0.0
147
0.0
147
0.0
147
0.0
147
0.0208333333333333
147
0.0
147
0.0
147
0.0
147
0.0
147
1.0
147
0.0
147
0.0
147
0.0
147
0.0
147
1.0
  0
MLEADERSTYLE
  5
DAA6
102
{ACAD_REACTORS
330
DAA5
102
}
330
DAA5
100
AcDbMLeaderStyle
170
     2
171
     1
172
     0
 90
        2
 40
0.0
 41
0.0
173
     1
 91
-1056964608
340
D607
 92
       -2
290
     1
 42
0.09
291
     1
 43
0.36
  3
Standard
 44
0.18
300

342
D605
174
     1
178
     6
175
     1
176
     0
 93
-1056964608
 45
0.18
292
     0
297
     0
 46
0.18
 94
-1056964608
 47
1.0
 49
1.0
140
1.0
293
     1
141
0.0
294
     1
177
     0
142
1.0
295
     0
296
     0
143
0.125
1001
ACAD_MLEADERVER
1070
     2
  0
MLINESTYLE
  5
D60B
102
{ACAD_REACTORS
330
D60A
102
}
330
D60A
100
AcDbMlineStyle
  2
STANDARD
 70
     0
  3

 62
   256
 51
90.0
 52
90.0
 71
     2
 49
0.5
 62
   256
  6
BYLAYER
 49
-0.5
 62
   256
  6
BYLAYER
  0
ACDBPLACEHOLDER
  5
DA5D
102
{ACAD_REACTORS
330
DA5C
102
}
330
DA5C
  0
SCALE
  5
DA94
102
{ACAD_REACTORS
330
DA93
102
}
330
DA93
100
AcDbScale
 70
     0
300
1:1
140
1.0
141
1.0
290
     1
  0
SCALE
  5
DA95
102
{ACAD_REACTORS
330
DA93
102
}
330
DA93
100
AcDbScale
 70
     0
300
1/128" = 1'-0"
140
0.0078125
141
12.0
290
     0
  0
SCALE
  5
DA96
102
{ACAD_REACTORS
330
DA93
102
}
330
DA93
100
AcDbScale
 70
     0
300
1/64" = 1'-0"
140
0.015625
141
12.0
290
     0
  0
SCALE
  5
DA97
102
{ACAD_REACTORS
330
DA93
102
}
330
DA93
100
AcDbScale
 70
     0
300
1/32" = 1'-0"
140
0.03125
141
12.0
290
     0
  0
SCALE
  5
DA98
102
{ACAD_REACTORS
330
DA93
102
}
330
DA93
100
AcDbScale
 70
     0
300
1/16" = 1'-0"
140
0.0625
141
12.0
290
     0
  0
SCALE
  5
DA99
102
{ACAD_REACTORS
330
DA93
102
}
330
DA93
100
AcDbScale
 70
     0
300
3/32" = 1'-0"
140
0.09375
141
12.0
290
     0
  0
SCALE
  5
DA9A
102
{ACAD_REACTORS
330
DA93
102
}
330
DA93
100
AcDbScale
 70
     0
300
1/8" = 1'-0"
140
0.125
141
12.0
290
     0
  0
SCALE
  5
DA9B
102
{ACAD_REACTORS
330
DA93
102
}
330
DA93
100
AcDbScale
 70
     0
300
3/16" = 1'-0"
140
0.1875
141
12.0
290
     0
  0
SCALE
  5
DA9C
102
{ACAD_REACTORS
330
DA93
102
}
330
DA93
100
AcDbScale
 70
     0
300
1/4" = 1'-0"
140
0.25
141
12.0
290
     0
  0
SCALE
  5
DA9D
102
{ACAD_REACTORS
330
DA93
102
}
330
DA93
100
AcDbScale
 70
     0
300
3/8" = 1'-0"
140
0.375
141
12.0
290
     0
  0
SCALE
  5
DA9E
102
{ACAD_REACTORS
330
DA93
102
}
330
DA93
100
AcDbScale
 70
     0
300
1/2" = 1'-0"
140
0.5
141
12.0
290
     0
  0
SCALE
  5
DA9F
102
{ACAD_REACTORS
330
DA93
102
}
330
DA93
100
AcDbScale
 70
     0
300
3/4" = 1'-0"
140
0.75
141
12.0
290
     0
  0
SCALE
  5
DAA0
102
{ACAD_REACTORS
330
DA93
102
}
330
DA93
100
AcDbScale
 70
     0
300
1" = 1'-0"
140
1.0
141
12.0
290
     0
  0
SCALE
  5
DAA1
102
{ACAD_REACTORS
330
DA93
102
}
330
DA93
100
AcDbScale
 70
     0
300
1-1/2" = 1'-0"
140
1.5
141
12.0
290
     0
  0
SCALE
  5
DAA2
102
{ACAD_REACTORS
330
DA93
102
}
330
DA93
100
AcDbScale
 70
     0
300
3" = 1'-0"
140
3.0
141
12.0
290
     0
  0
SCALE
  5
DAA3
102
{ACAD_REACTORS
330
DA93
102
}
330
DA93
100
AcDbScale
 70
     0
300
6" = 1'-0"
140
6.0
141
12.0
290
     0
  0
SCALE
  5
DAA4
102
{ACAD_REACTORS
330
DA93
102
}
330
DA93
100
AcDbScale
 70
     0
300
1'-0" = 1'-0"
140
12.0
141
12.0
290
     0
  0
ACDBSECTIONVIEWSTYLE
  5
DAA8
102
{ACAD_XDICTIONARY
360
DB03
102
}
102
{ACAD_REACTORS
330
DAA7
102
}
330
DAA7
100
AcDbModelDocViewStyle
 70
     0
  3
Imperial24
290
     0
100
AcDbSectionViewStyle
 70
     0
 71
     0
 90
       78
 71
     1
340
D605
 40
0.24
340
0
340
0
 40
0.24
300
I, O, Q, S, X, Z
 40
0.48
 90
        3
 40
0.18
 90
        1
 71
     2
340
D609
 90
       25
340
D609
 90
       50
 40
0.24
 40
0.0
 40
0.24
 71
     3
340
D605
 40
0.24
 90
        1
 40
0.75
 90
        1
300
%<\AcVar ViewType \f "%tc1">% %<\AcVar ViewSectionStartId>%-%<\AcVar ViewSectionEndId>%\PSCALE %<\AcVar ViewScale \f "%sn">%
 71
     4
300
ANSI31
 40
1.0
 90
        0
290
     0
290
     0
 90
        6
 40
0.0
 40
1.570796326794896
 40
0.2617993877991494
 40
1.308996938995747
 40
-0.2617993877991494
 40
1.832595714594046
  0
TABLESTYLE
  5
DA92
102
{ACAD_XDICTIONARY
360
DACA
102
}
102
{ACAD_REACTORS
330
DA91
102
}
330
DA91
100
AcDbTableStyle
  3
Standard
 70
     0
 71
     0
 40
0.06
 41
0.06
280
     0
281
     0
  7
STANDARD
140
0.18
170
     2
 62
     0
 63
     7
283
     0
274
    -2
284
     1
 64
     0
275
    -2
285
     1
 65
     0
276
    -2
286
     1
 66
     0
277
    -2
287
     1
 67
     0
278
    -2
288
     1
 68
     0
279
    -2
289
     1
 69
     0
  7
STANDARD
140
0.25
170
     5
 62
     0
 63
     7
283
     0
274
    -2
284
     1
 64
     0
275
    -2
285
     1
 65
     0
276
    -2
286
     1
 66
     0
277
    -2
287
     1
 67
     0
278
    -2
288
     1
 68
     0
279
    -2
289
     1
 69
     0
  7
STANDARD
140
0.18
170
     5
 62
     0
 63
     7
283
     0
274
    -2
284
     1
 64
     0
275
    -2
285
     1
 65
     0
276
    -2
286
     1
 66
     0
277
    -2
287
     1
 67
     0
278
    -2
288
     1
 68
     0
279
    -2
289
     1
 69
     0
  0
VISUALSTYLE
  5
DA7D
102
{ACAD_XDICTIONARY
360
DADB
102
}
102
{ACAD_REACTORS
330
DA77
102
}
330
DA77
100
AcDbVisualStyle
  2
2dWireframe
 70
     4
 71
     0
 72
     2
 73
     0
 90
        0
 40
-0.6
 41
-30.0
 62
     5
 63
     7
 74
     1
 91
        4
 64
     7
 65
   257
 75
     1
175
     1
 42
1.0
 92
        0
 66
   257
 43
1.0
 76
     1
 77
     6
 78
     2
 67
     7
 79
     5
170
     0
171
     0
290
     0
174
     0
 93
        1
 44
0.0
173
     0
291
     0
 45
0.0
1001
ACAD
1000
AcDbSavedByObjectVersion
1070
     0
  0
VISUALSTYLE
  5
DA7C
102
{ACAD_XDICTIONARY
360
DAD9
102
}
102
{ACAD_REACTORS
330
DA77
102
}
330
DA77
100
AcDbVisualStyle
  2
Basic
 70
     7
 71
     1
 72
     0
 73
     1
 90
        0
 40
-0.6
 41
-30.0
 62
     5
 63
     7
 74
     0
 91
        4
 64
     7
 65
   257
 75
     1
175
     1
 42
1.0
 92
        8
 66
     7
 43
1.0
 76
     1
 77
     6
 78
     2
 67
     7
 79
     5
170
     0
171
     0
290
     0
174
     0
 93
        1
 44
0.0
173
     0
291
     1
 45
0.0
1001
ACAD
1000
AcDbSavedByObjectVersion
1070
     0
  0
VISUALSTYLE
  5
DA83
102
{ACAD_XDICTIONARY
360
DAE7
102
}
102
{ACAD_REACTORS
330
DA77
102
}
330
DA77
100
AcDbVisualStyle
  2
Brighten
 70
    12
 71
     2
 72
     2
 73
     0
 90
        0
 40
-0.6
 41
-30.0
 62
     5
 63
     7
 74
     1
 91
        4
 64
     7
 65
   257
 75
     1
175
     1
 42
1.0
 92
        8
 66
     7
 43
1.0
 76
     1
 77
     6
 78
     2
 67
     7
 79
     5
170
     0
171
     0
290
     0
174
     0
 93
        1
 44
50.0
173
     0
291
     1
 45
0.0
1001
ACAD
1000
AcDbSavedByObjectVersion
1070
     0
  0
VISUALSTYLE
  5
DA87
102
{ACAD_XDICTIONARY
360
DAEF
102
}
102
{ACAD_REACTORS
330
DA77
102
}
330
DA77
100
AcDbVisualStyle
  2
ColorChange
 70
    16
 71
     2
 72
     2
 73
     3
 90
        0
 40
-0.6
 41
-30.0
 62
     5
 63
     8
 74
     1
 91
        4
 64
     7
 65
   257
 75
     1
175
     1
 42
1.0
 92
        8
 66
     8
 43
1.0
 76
     1
 77
     6
 78
     2
 67
     7
 79
     5
170
     0
171
     0
290
     0
174
     0
 93
        1
 44
0.0
173
     0
291
     1
 45
0.0
1001
ACAD
1000
AcDbSavedByObjectVersion
1070
     0
  0
VISUALSTYLE
  5
DA80
102
{ACAD_XDICTIONARY
360
DAE1
102
}
102
{ACAD_REACTORS
330
DA77
102
}
330
DA77
100
AcDbVisualStyle
  2
Conceptual
 70
     9
 71
     3
 72
     2
 73
     0
 90
        0
 40
-0.6
 41
-30.0
 62
     5
 63
     7
 74
     2
 91
        2
 64
     7
 65
   257
 75
     1
175
     1
 42
179.0
 92
        8
 66
     7
 43
1.0
 76
     1
 77
     6
 78
     2
 67
     7
 79
     3
170
     0
171
     0
290
     0
174
     0
 93
        1
 44
0.0
173
     0
291
     0
 45
0.0
1001
ACAD
1000
AcDbSavedByObjectVersion
1070
     0
  0
VISUALSTYLE
  5
DA82
102
{ACAD_XDICTIONARY
360
DAE5
102
}
102
{ACAD_REACTORS
330
DA77
102
}
330
DA77
100
AcDbVisualStyle
  2
Dim
 70
    11
 71
     2
 72
     2
 73
     0
 90
        0
 40
-0.6
 41
-30.0
 62
     5
 63
     7
 74
     1
 91
        4
 64
     7
 65
   257
 75
     1
175
     1
 42
1.0
 92
        8
 66
     7
 43
1.0
 76
     1
 77
     6
 78
     2
 67
     7
 79
     5
170
     0
171
     0
290
     0
174
     0
 93
        1
 44
-50.0
173
     0
291
     1
 45
0.0
1001
ACAD
1000
AcDbSavedByObjectVersion
1070
     0
  0
VISUALSTYLE
  5
DA8F
102
{ACAD_XDICTIONARY
360
DAFF
102
}
102
{ACAD_REACTORS
330
DA77
102
}
330
DA77
100
AcDbVisualStyle
  2
EdgeColorOff
 70
    22
 71
     2
 72
     2
 73
     0
 90
        0
 40
-0.6
 41
-30.0
 62
     5
 63
     7
 74
     1
 91
        4
 64
     7
 65
   257
 75
     1
175
     1
 42
1.0
 92
        8
 66
     7
 43
1.0
 76
     1
 77
     6
 78
     2
 67
     7
 79
     5
170
     0
171
     0
290
     0
174
     0
 93
        1
 44
0.0
173
     0
291
     1
 45
0.0
1001
ACAD
1000
AcDbSavedByObjectVersion
1070
     0
  0
VISUALSTYLE
  5
DA86
102
{ACAD_XDICTIONARY
360
DAED
102
}
102
{ACAD_REACTORS
330
DA77
102
}
330
DA77
100
AcDbVisualStyle
  2
Facepattern
 70
    15
 71
     2
 72
     2
 73
     0
 90
        0
 40
-0.6
 41
-30.0
 62
     5
 63
     7
 74
     1
 91
        4
 64
     7
 65
   257
 75
     1
175
     1
 42
1.0
 92
        8
 66
     7
 43
1.0
 76
     1
 77
     6
 78
     2
 67
     7
 79
     5
170
     0
171
     0
290
     0
174
     0
 93
        1
 44
0.0
173
     0
291
     1
 45
0.0
1001
ACAD
1000
AcDbSavedByObjectVersion
1070
     0
  0
VISUALSTYLE
  5
DA78
102
{ACAD_XDICTIONARY
360
DAD1
102
}
102
{ACAD_REACTORS
330
DA77
102
}
330
DA77
100
AcDbVisualStyle
  2
Flat
 70
     0
 71
     2
 72
     1
 73
     1
 90
        2
 40
-0.6
 41
30.0
 62
     5
 63
     7
 74
     0
 91
        0
 64
     7
 65
   257
 75
     1
175
     1
 42
1.0
 92
        8
 66
     7
 43
1.0
 76
     1
 77
     6
 78
     2
 67
     7
 79
     5
170
     0
171
     0
290
     0
174
     0
 93
       13
 44
0.0
173
     0
291
     1
 45
0.0
1001
ACAD
1000
AcDbSavedByObjectVersion
1070
     0
  0
VISUALSTYLE
  5
DA79
102
{ACAD_XDICTIONARY
360
DAD3
102
}
102
{ACAD_REACTORS
330
DA77
102
}
330
DA77
100
AcDbVisualStyle
  2
FlatWithEdges
 70
     1
 71
     2
 72
     1
 73
     1
 90
        2
 40
-0.6
 41
30.0
 62
     5
 63
     7
 74
     1
 91
        0
 64
     7
 65
   257
 75
     1
175
     1
 42
1.0
 92
        0
 66
   257
 43
1.0
 76
     1
 77
     6
 78
     2
 67
     7
 79
     5
170
     0
171
     0
290
     0
174
     0
 93
       13
 44
0.0
173
     0
291
     1
 45
0.0
1001
ACAD
1000
AcDbSavedByObjectVersion
1070
     0
  0
VISUALSTYLE
  5
DA7A
102
{ACAD_XDICTIONARY
360
DAD5
102
}
102
{ACAD_REACTORS
330
DA77
102
}
330
DA77
100
AcDbVisualStyle
  2
Gouraud
 70
     2
 71
     2
 72
     2
 73
     1
 90
        2
 40
-0.6
 41
30.0
 62
     5
 63
     7
 74
     0
 91
        0
 64
     7
 65
   257
 75
     1
175
     1
 42
1.0
 92
        0
 66
     7
 43
1.0
 76
     1
 77
     6
 78
     2
 67
     7
 79
     5
170
     0
171
     0
290
     0
174
     0
 93
       13
 44
0.0
173
     0
291
     1
 45
0.0
1001
ACAD
1000
AcDbSavedByObjectVersion
1070
     0
  0
VISUALSTYLE
  5
DA7B
102
{ACAD_XDICTIONARY
360
DAD7
102
}
102
{ACAD_REACTORS
330
DA77
102
}
330
DA77
100
AcDbVisualStyle
  2
GouraudWithEdges
 70
     3
 71
     2
 72
     2
 73
     1
 90
        2
 40
-0.6
 41
30.0
 62
     5
 63
     7
 74
     1
 91
        0
 64
     7
 65
   257
 75
     1
175
     1
 42
1.0
 92
        0
 66
   257
 43
1.0
 76
     1
 77
     6
 78
     2
 67
     7
 79
     5
170
     0
171
     0
290
     0
174
     0
 93
       13
 44
0.0
173
     0
291
     1
 45
0.0
1001
ACAD
1000
AcDbSavedByObjectVersion
1070
     0
  0
VISUALSTYLE
  5
DA7F
102
{ACAD_XDICTIONARY
360
DADF
102
}
102
{ACAD_REACTORS
330
DA77
102
}
330
DA77
100
AcDbVisualStyle
  2
Hidden
 70
     6
 71
     1
 72
     2
 73
     2
 90
        0
 40
-0.6
 41
-30.0
 62
     5
 63
     7
 74
     2
 91
        2
 64
     7
 65
   257
 75
     2
175
     1
 42
40.0
 92
        0
 66
   257
 43
1.0
 76
     1
 77
     6
 78
     2
 67
     7
 79
     3
170
     0
171
     0
290
     0
174
     0
 93
        1
 44
0.0
173
     0
291
     0
 45
0.0
1001
ACAD
1000
AcDbSavedByObjectVersion
1070
     0
  0
VISUALSTYLE
  5
DA8D
102
{ACAD_XDICTIONARY
360
DAFB
102
}
102
{ACAD_REACTORS
330
DA77
102
}
330
DA77
100
AcDbVisualStyle
  2
JitterOff
 70
    20
 71
     2
 72
     2
 73
     0
 90
        0
 40
-0.6
 41
-30.0
 62
     5
 63
     7
 74
     1
 91
        4
 64
     7
 65
   257
 75
     1
175
     1
 42
1.0
 92
       10
 66
     7
 43
1.0
 76
     1
 77
     6
 78
     2
 67
     7
 79
     5
170
     0
171
     0
290
     0
174
     0
 93
        1
 44
0.0
173
     0
291
     1
 45
0.0
1001
ACAD
1000
AcDbSavedByObjectVersion
1070
     0
  0
VISUALSTYLE
  5
DA85
102
{ACAD_XDICTIONARY
360
DAEB
102
}
102
{ACAD_REACTORS
330
DA77
102
}
330
DA77
100
AcDbVisualStyle
  2
Linepattern
 70
    14
 71
     2
 72
     2
 73
     0
 90
        0
 40
-0.6
 41
-30.0
 62
     5
 63
     7
 74
     1
 91
        4
 64
     7
 65
   257
 75
     7
175
     7
 42
1.0
 92
        8
 66
     7
 43
1.0
 76
     1
 77
     6
 78
     2
 67
     7
 79
     5
170
     0
171
     0
290
     0
174
     0
 93
        1
 44
0.0
173
     0
291
     1
 45
0.0
1001
ACAD
1000
AcDbSavedByObjectVersion
1070
     0
  0
VISUALSTYLE
  5
DA8E
102
{ACAD_XDICTIONARY
360
DAFD
102
}
102
{ACAD_REACTORS
330
DA77
102
}
330
DA77
100
AcDbVisualStyle
  2
OverhangOff
 70
    21
 71
     2
 72
     2
 73
     0
 90
        0
 40
-0.6
 41
-30.0
 62
     5
 63
     7
 74
     1
 91
        4
 64
     7
 65
   257
 75
     1
175
     1
 42
1.0
 92
        9
 66
     7
 43
1.0
 76
     1
 77
     6
 78
     2
 67
     7
 79
     5
170
     0
171
     0
290
     0
174
     0
 93
        1
 44
0.0
173
     0
291
     1
 45
0.0
1001
ACAD
1000
AcDbSavedByObjectVersion
1070
     0
  0
VISUALSTYLE
  5
DA81
102
{ACAD_XDICTIONARY
360
DAE3
102
}
102
{ACAD_REACTORS
330
DA77
102
}
330
DA77
100
AcDbVisualStyle
  2
Realistic
 70
     8
 71
     2
 72
     3
 73
     0
 90
        2
 40
-0.6
 41
30.0
 62
     5
 63
     7
 74
     0
 91
        0
 64
     7
 65
   257
 75
     1
175
     1
 42
1.0
 92
        8
 66
   257
 43
1.0
 76
     1
 77
     6
 78
     2
 67
     7
 79
     3
170
     0
171
     0
290
     0
174
     0
 93
       13
 44
0.0
173
     0
291
     0
 45
0.0
1001
ACAD
1000
AcDbSavedByObjectVersion
1070
     0
  0
VISUALSTYLE
  5
DA8C
102
{ACAD_XDICTIONARY
360
DAF9
102
}
102
{ACAD_REACTORS
330
DA77
102
}
330
DA77
100
AcDbVisualStyle
  2
Shaded
 70
    27
 71
     2
 72
     2
 73
     1
 90
        2
 40
-0.6
 41
30.0
 62
     5
 63
     7
 74
     0
 91
        4
 64
     7
 65
   257
 75
     1
175
     1
 42
1.0
 92
        8
 66
   257
 43
1.0
 76
     1
 77
     6
 78
     2
 67
     8
 79
     3
170
     0
171
     0
290
     0
174
     0
 93
        5
 44
0.0
173
     0
291
     0
 45
0.0
1001
ACAD
1000
AcDbSavedByObjectVersion
1070
     0
  0
VISUALSTYLE
  5
DA8B
102
{ACAD_XDICTIONARY
360
DAF7
102
}
102
{ACAD_REACTORS
330
DA77
102
}
330
DA77
100
AcDbVisualStyle
  2
Shaded with edges
 70
    26
 71
     2
 72
     2
 73
     1
 90
        2
 40
-0.6
 41
30.0
 62
     5
 63
     7
 74
     1
 91
       10
 64
     7
 65
   257
 75
     2
175
     1
 42
1.0
 92
        8
 66
   257
 43
1.0
 76
     1
 77
     6
 78
     2
 67
     7
 79
     3
170
     0
171
     0
290
     0
174
     0
 93
        5
 44
0.0
173
     0
291
     0
 45
0.0
1001
ACAD
1000
AcDbSavedByObjectVersion
1070
     0
  0
VISUALSTYLE
  5
DA88
102
{ACAD_XDICTIONARY
360
DAF1
102
}
102
{ACAD_REACTORS
330
DA77
102
}
330
DA77
100
AcDbVisualStyle
  2
Shades of Gray
 70
    23
 71
     2
 72
     2
 73
     3
 90
        0
 40
-0.6
 41
-30.0
 62
     5
 63
     7
 74
     2
 91
        2
 64
     7
 65
     7
 75
     1
175
     1
 42
40.0
 92
        8
 66
     7
 43
1.0
 76
     1
 77
     6
 78
     2
 67
     7
 79
     3
170
     0
171
     0
290
     0
174
     0
 93
        1
 44
0.0
173
     0
291
     0
 45
0.0
1001
ACAD
1000
AcDbSavedByObjectVersion
1070
     0
  0
VISUALSTYLE
  5
DA89
102
{ACAD_XDICTIONARY
360
DAF3
102
}
102
{ACAD_REACTORS
330
DA77
102
}
330
DA77
100
AcDbVisualStyle
  2
Sketchy
 70
    24
 71
     1
 72
     2
 73
     2
 90
        0
 40
-0.6
 41
-30.0
 62
     5
 63
     7
 74
     2
 91
        2
 64
     7
 65
     7
 75
     1
175
     1
 42
40.0
 92
       11
 66
     7
 43
1.0
 76
     1
 77
     6
 78
     2
 67
     7
 79
     6
170
     0
171
     0
290
     0
174
     0
 93
        1
 44
0.0
173
     0
291
     0
 45
0.0
1001
ACAD
1000
AcDbSavedByObjectVersion
1070
     0
  0
VISUALSTYLE
  5
DA84
102
{ACAD_XDICTIONARY
360
DAE9
102
}
102
{ACAD_REACTORS
330
DA77
102
}
330
DA77
100
AcDbVisualStyle
  2
Thicken
 70
    13
 71
     2
 72
     2
 73
     0
 90
        0
 40
-0.6
 41
-30.0
 62
     5
 63
     7
 74
     1
 91
        4
 64
     7
 65
   257
 75
     1
175
     1
 42
1.0
 92
       12
 66
     7
 43
1.0
 76
     1
 77
     6
 78
     2
 67
     7
 79
     5
170
     0
171
     0
290
     0
174
     0
 93
        1
 44
0.0
173
     0
291
     1
 45
0.0
1001
ACAD
1000
AcDbSavedByObjectVersion
1070
     0
  0
VISUALSTYLE
  5
DA7E
102
{ACAD_XDICTIONARY
360
DADD
102
}
102
{ACAD_REACTORS
330
DA77
102
}
330
DA77
100
AcDbVisualStyle
  2
Wireframe
 70
     5
 71
     0
 72
     2
 73
     0
 90
        0
 40
-0.6
 41
-30.0
 62
     5
 63
     7
 74
     1
 91
        4
 64
     7
 65
   257
 75
     1
175
     1
 42
1.0
 92
        0
 66
   257
 43
1.0
 76
     1
 77
     6
 78
     2
 67
     7
 79
     3
170
     0
171
     0
290
     0
174
     0
 93
        1
 44
0.0
173
     0
291
     0
 45
0.0
1001
ACAD
1000
AcDbSavedByObjectVersion
1070
     0
  0
VISUALSTYLE
  5
DA8A
102
{ACAD_XDICTIONARY
360
DAF5
102
}
102
{ACAD_REACTORS
330
DA77
102
}
330
DA77
100
AcDbVisualStyle
  2
X-Ray
 70
    25
 71
     2
 72
     2
 73
     1
 90
        1
 40
0.5
 41
-30.0
 62
     5
 63
     7
 74
     1
 91
        0
 64
     7
 65
   257
 75
     1
175
     1
 42
1.0
 92
        8
 66
     7
 43
1.0
 76
     1
 77
     6
 78
     2
 67
     7
 79
     3
170
     0
171
     0
290
     0
174
     0
 93
       13
 44
0.0
173
     0
291
     0
 45
0.0
1001
ACAD
1000
AcDbSavedByObjectVersion
1070
     0
  0
DICTIONARYVAR
  5
DAC4
102
{ACAD_REACTORS
330
DABF
102
}
330
DABF
100
DictionaryVariables
280
     0
  1
1:1
  0
DICTIONARYVAR
  5
DAC1
102
{ACAD_REACTORS
330
DABF
102
}
330
DABF
100
DictionaryVariables
280
     0
  1
STANDARD
  0
DICTIONARYVAR
  5
DAC0
102
{ACAD_REACTORS
330
DABF
102
}
330
DABF
100
DictionaryVariables
280
     0
  1
STANDARD
  0
DICTIONARYVAR
  5
DAC2
102
{ACAD_REACTORS
330
DABF
102
}
330
DABF
100
DictionaryVariables
280
     0
  1
Imperial24
  0
DICTIONARYVAR
  5
DAC3
102
{ACAD_REACTORS
330
DABF
102
}
330
DABF
100
DictionaryVariables
280
     0
  1
Imperial24
  0
DICTIONARYVAR
  5
DAC7
102
{ACAD_REACTORS
330
DABF
102
}
330
DABF
100
DictionaryVariables
280
     0
  1
1
  0
DICTIONARYVAR
  5
DAC6
102
{ACAD_REACTORS
330
DABF
102
}
330
DABF
100
DictionaryVariables
280
     0
  1
0
  0
DICTIONARYVAR
  5
DAC5
102
{ACAD_REACTORS
330
DABF
102
}
330
DABF
100
DictionaryVariables
280
     0
  1
127
  0
DICTIONARYVAR
  5
DAC8
102
{ACAD_REACTORS
330
DABF
102
}
330
DABF
100
DictionaryVariables
280
     0
  1
2
  0
DICTIONARY
  5
DB05
330
DAAA
100
AcDbDictionary
280
     1
281
     1
  3
ACAD_XREC_ROUNDTRIP
360
DB06
  0
DICTIONARY
  5
DB07
330
DAAB
100
AcDbDictionary
280
     1
281
     1
  3
ACAD_XREC_ROUNDTRIP
360
DB08
  0
DICTIONARY
  5
DB09
330
DAAC
100
AcDbDictionary
280
     1
281
     1
  3
ACAD_XREC_ROUNDTRIP
360
DB0A
  0
DICTIONARY
  5
DA68
330
DA67
100
AcDbDictionary
280
     1
281
     1
  3
ACAD_XREC_ROUNDTRIP
360
DACF
  3
BUMPTILE
360
DA6A
  3
DIFFUSETILE
360
DA69
  3
OPACITYTILE
360
DA6D
  3
REFLECTIONTILE
360
DA6C
  3
REFRACTIONTILE
360
DA6E
  3
SPECULARTILE
360
DA6B
  0
DICTIONARY
  5
DA60
330
DA5F
100
AcDbDictionary
280
     1
281
     1
  3
ACAD_XREC_ROUNDTRIP
360
DACE
  3
BUMPTILE
360
DA62
  3
DIFFUSETILE
360
DA61
  3
OPACITYTILE
360
DA65
  3
REFLECTIONTILE
360
DA64
  3
REFRACTIONTILE
360
DA66
  3
SPECULARTILE
360
DA63
  0
DICTIONARY
  5
DA70
330
DA6F
100
AcDbDictionary
280
     1
281
     1
  3
ACAD_XREC_ROUNDTRIP
360
DAD0
  3
BUMPTILE
360
DA72
  3
DIFFUSETILE
360
DA71
  3
OPACITYTILE
360
DA75
  3
REFLECTIONTILE
360
DA74
  3
REFRACTIONTILE
360
DA76
  3
SPECULARTILE
360
DA73
  0
DICTIONARY
  5
DB03
330
DAA8
100
AcDbDictionary
280
     1
281
     1
  3
ACAD_XREC_ROUNDTRIP
360
DB04
  0
DICTIONARY
  5
DACA
330
DA92
100
AcDbDictionary
280
     1
281
     1
  3
ACAD_ROUNDTRIP_2008_TABLESTYLE_CELLSTYLEMAP
360
DACB
  3
ACAD_XREC_ROUNDTRIP
360
DB01
  0
DICTIONARY
  5
DADB
330
DA7D
100
AcDbDictionary
280
     1
281
     1
  3
ACAD_XREC_ROUNDTRIP
360
DADC
  0
DICTIONARY
  5
DAD9
330
DA7C
100
AcDbDictionary
280
     1
281
     1
  3
ACAD_XREC_ROUNDTRIP
360
DADA
  0
DICTIONARY
  5
DAE7
330
DA83
100
AcDbDictionary
280
     1
281
     1
  3
ACAD_XREC_ROUNDTRIP
360
DAE8
  0
DICTIONARY
  5
DAEF
330
DA87
100
AcDbDictionary
280
     1
281
     1
  3
ACAD_XREC_ROUNDTRIP
360
DAF0
  0
DICTIONARY
  5
DAE1
330
DA80
100
AcDbDictionary
280
     1
281
     1
  3
ACAD_XREC_ROUNDTRIP
360
DAE2
  0
DICTIONARY
  5
DAE5
330
DA82
100
AcDbDictionary
280
     1
281
     1
  3
ACAD_XREC_ROUNDTRIP
360
DAE6
  0
DICTIONARY
  5
DAFF
330
DA8F
100
AcDbDictionary
280
     1
281
     1
  3
ACAD_XREC_ROUNDTRIP
360
DB00
  0
DICTIONARY
  5
DAED
330
DA86
100
AcDbDictionary
280
     1
281
     1
  3
ACAD_XREC_ROUNDTRIP
360
DAEE
  0
DICTIONARY
  5
DAD1
330
DA78
100
AcDbDictionary
280
     1
281
     1
  3
ACAD_XREC_ROUNDTRIP
360
DAD2
  0
DICTIONARY
  5
DAD3
330
DA79
100
AcDbDictionary
280
     1
281
     1
  3
ACAD_XREC_ROUNDTRIP
360
DAD4
  0
DICTIONARY
  5
DAD5
330
DA7A
100
AcDbDictionary
280
     1
281
     1
  3
ACAD_XREC_ROUNDTRIP
360
DAD6
  0
DICTIONARY
  5
DAD7
330
DA7B
100
AcDbDictionary
280
     1
281
     1
  3
ACAD_XREC_ROUNDTRIP
360
DAD8
  0
DICTIONARY
  5
DADF
330
DA7F
100
AcDbDictionary
280
     1
281
     1
  3
ACAD_XREC_ROUNDTRIP
360
DAE0
  0
DICTIONARY
  5
DAFB
330
DA8D
100
AcDbDictionary
280
     1
281
     1
  3
ACAD_XREC_ROUNDTRIP
360
DAFC
  0
DICTIONARY
  5
DAEB
330
DA85
100
AcDbDictionary
280
     1
281
     1
  3
ACAD_XREC_ROUNDTRIP
360
DAEC
  0
DICTIONARY
  5
DAFD
330
DA8E
100
AcDbDictionary
280
     1
281
     1
  3
ACAD_XREC_ROUNDTRIP
360
DAFE
  0
DICTIONARY
  5
DAE3
330
DA81
100
AcDbDictionary
280
     1
281
     1
  3
ACAD_XREC_ROUNDTRIP
360
DAE4
  0
DICTIONARY
  5
DAF9
330
DA8C
100
AcDbDictionary
280
     1
281
     1
  3
ACAD_XREC_ROUNDTRIP
360
DAFA
  0
DICTIONARY
  5
DAF7
330
DA8B
100
AcDbDictionary
280
     1
281
     1
  3
ACAD_XREC_ROUNDTRIP
360
DAF8
  0
DICTIONARY
  5
DAF1
330
DA88
100
AcDbDictionary
280
     1
281
     1
  3
ACAD_XREC_ROUNDTRIP
360
DAF2
  0
DICTIONARY
  5
DAF3
330
DA89
100
AcDbDictionary
280
     1
281
     1
  3
ACAD_XREC_ROUNDTRIP
360
DAF4
  0
DICTIONARY
  5
DAE9
330
DA84
100
AcDbDictionary
280
     1
281
     1
  3
ACAD_XREC_ROUNDTRIP
360
DAEA
  0
DICTIONARY
  5
DADD
330
DA7E
100
AcDbDictionary
280
     1
281
     1
  3
ACAD_XREC_ROUNDTRIP
360
DADE
  0
DICTIONARY
  5
DAF5
330
DA8A
100
AcDbDictionary
280
     1
281
     1
  3
ACAD_XREC_ROUNDTRIP
360
DAF6
  0
XRECORD
  5
DB06
102
{ACAD_REACTORS
330
DB05
102
}
330
DB05
100
AcDbXrecord
280
     1
102
DISPLAYNAME
  1
Imperial24
102
FLAGS
 90
        0
  0
XRECORD
  5
DB08
102
{ACAD_REACTORS
330
DB07
102
}
330
DB07
100
AcDbXrecord
280
     1
102
SHADEPLOT
 70
     0
102
SHADEPLOTRESLEVEL
 70
     2
102
SHADEPLOTCUSTOMDPI
 70
   300
  0
XRECORD
  5
DB0A
102
{ACAD_REACTORS
330
DB09
102
}
330
DB09
100
AcDbXrecord
280
     1
102
SHADEPLOT
 70
     0
102
SHADEPLOTRESLEVEL
 70
     2
102
SHADEPLOTCUSTOMDPI
 70
   300
  0
XRECORD
  5
DACF
102
{ACAD_REACTORS
330
DA68
102
}
330
DA68
100
AcDbXrecord
280
     1
102
MATERIAL
148
0.0
149
0.0
149
0.0
 93
        0
 94
      127
282
     0
 72
     0
 77
     0
171
     0
175
     0
179
     0
273
     0
  0
XRECORD
  5
DA6A
102
{ACAD_REACTORS
330
DA68
102
}
330
DA68
100
AcDbXrecord
280
     1
270
     1
271
     1
  0
XRECORD
  5
DA69
102
{ACAD_REACTORS
330
DA68
102
}
330
DA68
100
AcDbXrecord
280
     1
270
     1
271
     1
  0
XRECORD
  5
DA6D
102
{ACAD_REACTORS
330
DA68
102
}
330
DA68
100
AcDbXrecord
280
     1
270
     1
271
     1
  0
XRECORD
  5
DA6C
102
{ACAD_REACTORS
330
DA68
102
}
330
DA68
100
AcDbXrecord
280
     1
270
     1
271
     1
  0
XRECORD
  5
DA6E
102
{ACAD_REACTORS
330
DA68
102
}
330
DA68
100
AcDbXrecord
280
     1
270
     1
271
     1
  0
XRECORD
  5
DA6B
102
{ACAD_REACTORS
330
DA68
102
}
330
DA68
100
AcDbXrecord
280
     1
270
     1
271
     1
  0
XRECORD
  5
DACE
102
{ACAD_REACTORS
330
DA60
102
}
330
DA60
100
AcDbXrecord
280
     1
102
MATERIAL
148
0.0
149
0.0
149
0.0
 93
        0
 94
      127
282
     0
 72
     0
 77
     0
171
     0
175
     0
179
     0
273
     0
  0
XRECORD
  5
DA62
102
{ACAD_REACTORS
330
DA60
102
}
330
DA60
100
AcDbXrecord
280
     1
270
     1
271
     1
  0
XRECORD
  5
DA61
102
{ACAD_REACTORS
330
DA60
102
}
330
DA60
100
AcDbXrecord
280
     1
270
     1
271
     1
  0
XRECORD
  5
DA65
102
{ACAD_REACTORS
330
DA60
102
}
330
DA60
100
AcDbXrecord
280
     1
270
     1
271
     1
  0
XRECORD
  5
DA64
102
{ACAD_REACTORS
330
DA60
102
}
330
DA60
100
AcDbXrecord
280
     1
270
     1
271
     1
  0
XRECORD
  5
DA66
102
{ACAD_REACTORS
330
DA60
102
}
330
DA60
100
AcDbXrecord
280
     1
270
     1
271
     1
  0
XRECORD
  5
DA63
102
{ACAD_REACTORS
330
DA60
102
}
330
DA60
100
AcDbXrecord
280
     1
270
     1
271
     1
  0
XRECORD
  5
DAD0
102
{ACAD_REACTORS
330
DA70
102
}
330
DA70
100
AcDbXrecord
280
     1
102
MATERIAL
148
0.0
149
0.0
149
0.0
 93
        0
 94
      127
282
     0
 72
     0
 77
     0
171
     0
175
     0
179
     0
273
     0
  0
XRECORD
  5
DA72
102
{ACAD_REACTORS
330
DA70
102
}
330
DA70
100
AcDbXrecord
280
     1
270
     1
271
     1
  0
XRECORD
  5
DA71
102
{ACAD_REACTORS
330
DA70
102
}
330
DA70
100
AcDbXrecord
280
     1
270
     1
271
     1
  0
XRECORD
  5
DA75
102
{ACAD_REACTORS
330
DA70
102
}
330
DA70
100
AcDbXrecord
280
     1
270
     1
271
     1
  0
XRECORD
  5
DA74
102
{ACAD_REACTORS
330
DA70
102
}
330
DA70
100
AcDbXrecord
280
     1
270
     1
271
     1
  0
XRECORD
  5
DA76
102
{ACAD_REACTORS
330
DA70
102
}
330
DA70
100
AcDbXrecord
280
     1
270
     1
271
     1
  0
XRECORD
  5
DA73
102
{ACAD_REACTORS
330
DA70
102
}
330
DA70
100
AcDbXrecord
280
     1
270
     1
271
     1
  0
XRECORD
  5
DB04
102
{ACAD_REACTORS
330
DB03
102
}
330
DB03
100
AcDbXrecord
280
     1
102
DISPLAYNAME
  1
Imperial24
102
FLAGS
 90
        0
  0
CELLSTYLEMAP
  5
DACB
102
{ACAD_REACTORS
330
DACA
102
}
330
DACA
100
AcDbCellStyleMap
 90
        3
300
CELLSTYLE
  1
TABLEFORMAT_BEGIN
 90
        5
170
     1
 91
        0
 92
    32768
 62
   257
 93
        1
300
CONTENTFORMAT
  1
CONTENTFORMAT_BEGIN
 90
        0
 91
        0
 92
      512
 93
        0
300

 40
0.0
140
1.0
 94
        5
 62
     0
340
D605
144
0.25
309
CONTENTFORMAT_END
171
     0
 94
        0
309
TABLEFORMAT_END
  1
CELLSTYLE_BEGIN
 90
        1
 91
        1
300
_TITLE
309
CELLSTYLE_END
300
CELLSTYLE
  1
TABLEFORMAT_BEGIN
 90
        5
170
     1
 91
        0
 92
        0
 62
   257
 93
        1
300
CONTENTFORMAT
  1
CONTENTFORMAT_BEGIN
 90
        0
 91
        0
 92
      512
 93
        0
300

 40
0.0
140
1.0
 94
        5
 62
     0
340
D605
144
0.18
309
CONTENTFORMAT_END
171
     0
 94
        0
309
TABLEFORMAT_END
  1
CELLSTYLE_BEGIN
 90
        2
 91
        1
300
_HEADER
309
CELLSTYLE_END
300
CELLSTYLE
  1
TABLEFORMAT_BEGIN
 90
        5
170
     1
 91
        0
 92
        0
 62
   257
 93
        1
300
CONTENTFORMAT
  1
CONTENTFORMAT_BEGIN
 90
        0
 91
        0
 92
      512
 93
        0
300

 40
0.0
140
1.0
 94
        2
 62
     0
340
D605
144
0.18
309
CONTENTFORMAT_END
171
     0
 94
        0
309
TABLEFORMAT_END
  1
CELLSTYLE_BEGIN
 90
        3
 91
        2
300
_DATA
309
CELLSTYLE_END
  0
XRECORD
  5
DB01
102
{ACAD_REACTORS
330
DACA
102
}
330
DACA
100
AcDbXrecord
280
     1
102
ACAD_ROUNDTRIP_PRE2007_TABLESTYLE
 90
      512
 91
        0
  1

 92
      512
 93
        0
  2

 94
      512
 95
        0
  3

  0
XRECORD
  5
DADC
102
{ACAD_REACTORS
330
DADB
102
}
330
DADB
100
AcDbXrecord
280
     1
102
RTVSPost2010Prop28
280
     1
102
RTVSPost2010PropOp28
 70
     1
102
RTVSPost2010Prop29
280
     1
102
RTVSPost2010PropOp29
 70
     1
102
RTVSPost2010Prop30
280
     0
102
RTVSPost2010PropOp30
 70
     1
102
RTVSPost2010Prop31
280
     0
102
RTVSPost2010PropOp31
 70
     1
102
RTVSPost2010Prop32
280
     0
102
RTVSPost2010PropOp32
 70
     1
102
RTVSPost2010Prop33
280
     0
102
RTVSPost2010PropOp33
 70
     1
102
RTVSPost2010Prop34
280
     0
102
RTVSPost2010PropOp34
 70
     1
102
RTVSPost2010Prop35
280
     0
102
RTVSPost2010PropOp35
 70
     1
102
RTVSPost2010Prop36
280
     0
102
RTVSPost2010PropOp36
 70
     1
102
RTVSPost2010Prop37
 90
       50
102
RTVSPost2010PropOp37
 70
     1
102
RTVSPost2010Prop38
140
0.0
102
RTVSPost2010PropOp38
 70
     1
102
RTVSPost2010Prop39
140
1.0
102
RTVSPost2010PropOp39
 70
     1
102
RTVSPost2010Prop40
 90
        0
102
RTVSPost2010PropOp40
 70
     1
102
RTVSPost2010Prop41ColorIndex
 90
       18
102
RTVSPost2010Prop41ColorRGB
 90
        0
102
RTVSPost2010PropOp41
 70
     1
102
RTVSPost2010Prop42
 90
       50
102
RTVSPost2010PropOp42
 70
     1
102
RTVSPost2010Prop43
 90
        3
102
RTVSPost2010PropOp43
 70
     1
102
RTVSPost2010Prop44ColorIndex
 90
        5
102
RTVSPost2010Prop44ColorRGB
 90
      255
102
RTVSPost2010PropOp44
 70
     1
102
RTVSPost2010Prop45
280
     0
102
RTVSPost2010PropOp45
 70
     1
102
RTVSPost2010Prop46
 90
       50
102
RTVSPost2010PropOp46
 70
     1
102
RTVSPost2010Prop47
 90
       50
102
RTVSPost2010PropOp47
 70
     1
102
RTVSPost2010Prop48
 90
       50
102
RTVSPost2010PropOp48
 70
     1
102
RTVSPost2010Prop49
280
     0
102
RTVSPost2010PropOp49
 70
     1
102
RTVSPost2010Prop50
 90
       50
102
RTVSPost2010PropOp50
 70
     1
102
RTVSPost2010Prop51ColorIndex
 90
      256
102
RTVSPost2010Prop51ColorRGB
 90
-16777216
102
RTVSPost2010PropOp51
 70
     0
102
RTVSPost2010Prop52
140
1.0
102
RTVSPost2010PropOp52
 70
     0
102
RTVSPost2010Prop53
 90
        2
102
RTVSPost2010PropOp53
 70
     1
102
RTVSPost2010Prop54
  1
strokes_ogs.tif
102
RTVSPost2010PropOp54
 70
     1
102
RTVSPost2010Prop55
280
     0
102
RTVSPost2010PropOp55
 70
     1
102
RTVSPost2010Prop56
140
1.0
102
RTVSPost2010PropOp56
 70
     1
102
RTVSPost2010Prop57
140
1.0
102
RTVSPost2010PropOp57
 70
     1
102
RTVSPropertyOp0
 70
     1
102
RTVSPropertyOp1
 70
     1
102
RTVSPropertyOp2
 70
     1
102
RTVSPropertyOp3
 70
     1
102
RTVSPropertyOp4
 70
     1
102
RTVSPropertyOp5
 70
     1
102
RTVSPropertyOp6
 70
     1
102
RTVSPropertyOp7
 70
     1
102
RTVSPropertyOp8
 70
     1
102
RTVSPropertyOp9
 70
     1
102
RTVSPropertyOp10
 70
     1
102
RTVSPropertyOp11
 70
     1
102
RTVSPropertyOp12
 70
     1
102
RTVSPropertyOp13
 70
     1
102
RTVSPropertyOp14
 70
     1
102
RTVSPropertyOp15
 70
     1
102
RTVSPropertyOp16
 70
     1
102
RTVSPropertyOp17
 70
     1
102
RTVSPropertyOp18
 70
     1
102
RTVSPropertyOp19
 70
     1
102
RTVSPropertyOp20
 70
     1
102
RTVSPropertyOp21
 70
     1
102
RTVSPropertyOp22
 70
     1
102
RTVSPropertyOp23
 70
     1
102
RTVSPropertyOp24
 70
     1
102
RTVSPropertyOp25
 70
     1
102
RTVSPropertyOp26
 70
     1
102
RTVSPropertyOp27
 70
     1
102
RTVSPropertyOp28
 70
     1
102
RTVSPropertyOp29
 70
     1
102
RTVSPropertyOp30
 70
     1
102
RTVSPropertyOp31
 70
     1
102
RTVSPropertyOp32
 70
     1
102
RTVSPropertyOp33
 70
     1
102
RTVSPropertyOp34
 70
     1
102
RTVSPropertyOp35
 70
     1
102
RTVSPropertyOp36
 70
     1
102
RTVSPropertyOp37
 70
     1
102
RTVSPropertyOp38
 70
     1
102
RTVSPropertyOp39
 70
     1
102
RTVSPropertyOp40
 70
     1
102
RTVSPropertyOp41
 70
     1
102
RTVSPropertyOp42
 70
     1
102
RTVSPropertyOp43
 70
     1
102
RTVSPropertyOp44
 70
     1
102
RTVSPropertyOp45
 70
     1
102
RTVSPropertyOp46
 70
     1
102
RTVSPropertyOp47
 70
     1
102
RTVSPropertyOp48
 70
     1
102
RTVSPropertyOp49
 70
     1
102
RTVSPropertyOp50
 70
     1
102
RTVSPropertyOp51
 70
     0
102
RTVSPropertyOp52
 70
     0
102
RTVSPropertyOp53
 70
     1
102
RTVSPropertyOp54
 70
     1
102
RTVSPropertyOp55
 70
     1
102
RTVSPropertyOp56
 70
     1
102
RTVSPropertyOp57
 70
     1
102
RTVSPropertyOp58
 70
     1
102
RTVSPropertyOp59
 70
     1
102
RTVSPropertyOp60
 70
     1
102
RTVSPropertyOp61
 70
     1
102
RTVSPropertyOp62
 70
     1
  0
XRECORD
  5
DADA
102
{ACAD_REACTORS
330
DAD9
102
}
330
DAD9
100
AcDbXrecord
280
     1
102
RTVSPost2010Prop28
280
     0
102
RTVSPost2010PropOp28
 70
     1
102
RTVSPost2010Prop29
280
     1
102
RTVSPost2010PropOp29
 70
     1
102
RTVSPost2010Prop30
280
     1
102
RTVSPost2010PropOp30
 70
     1
102
RTVSPost2010Prop31
280
     0
102
RTVSPost2010PropOp31
 70
     1
102
RTVSPost2010Prop32
280
     0
102
RTVSPost2010PropOp32
 70
     1
102
RTVSPost2010Prop33
280
     0
102
RTVSPost2010PropOp33
 70
     1
102
RTVSPost2010Prop34
280
     0
102
RTVSPost2010PropOp34
 70
     1
102
RTVSPost2010Prop35
280
     0
102
RTVSPost2010PropOp35
 70
     1
102
RTVSPost2010Prop36
280
     0
102
RTVSPost2010PropOp36
 70
     1
102
RTVSPost2010Prop37
 90
       50
102
RTVSPost2010PropOp37
 70
     1
102
RTVSPost2010Prop38
140
0.0
102
RTVSPost2010PropOp38
 70
     1
102
RTVSPost2010Prop39
140
1.0
102
RTVSPost2010PropOp39
 70
     1
102
RTVSPost2010Prop40
 90
        0
102
RTVSPost2010PropOp40
 70
     1
102
RTVSPost2010Prop41ColorIndex
 90
       18
102
RTVSPost2010Prop41ColorRGB
 90
        0
102
RTVSPost2010PropOp41
 70
     1
102
RTVSPost2010Prop42
 90
       50
102
RTVSPost2010PropOp42
 70
     1
102
RTVSPost2010Prop43
 90
        3
102
RTVSPost2010PropOp43
 70
     1
102
RTVSPost2010Prop44ColorIndex
 90
        5
102
RTVSPost2010Prop44ColorRGB
 90
      255
102
RTVSPost2010PropOp44
 70
     1
102
RTVSPost2010Prop45
280
     0
102
RTVSPost2010PropOp45
 70
     1
102
RTVSPost2010Prop46
 90
       50
102
RTVSPost2010PropOp46
 70
     1
102
RTVSPost2010Prop47
 90
       50
102
RTVSPost2010PropOp47
 70
     1
102
RTVSPost2010Prop48
 90
       50
102
RTVSPost2010PropOp48
 70
     1
102
RTVSPost2010Prop49
280
     0
102
RTVSPost2010PropOp49
 70
     1
102
RTVSPost2010Prop50
 90
       50
102
RTVSPost2010PropOp50
 70
     1
102
RTVSPost2010Prop51ColorIndex
 90
      256
102
RTVSPost2010Prop51ColorRGB
 90
-16777216
102
RTVSPost2010PropOp51
 70
     0
102
RTVSPost2010Prop52
140
1.0
102
RTVSPost2010PropOp52
 70
     0
102
RTVSPost2010Prop53
 90
        2
102
RTVSPost2010PropOp53
 70
     1
102
RTVSPost2010Prop54
  1
strokes_ogs.tif
102
RTVSPost2010PropOp54
 70
     1
102
RTVSPost2010Prop55
280
     0
102
RTVSPost2010PropOp55
 70
     1
102
RTVSPost2010Prop56
140
1.0
102
RTVSPost2010PropOp56
 70
     1
102
RTVSPost2010Prop57
140
1.0
102
RTVSPost2010PropOp57
 70
     1
102
RTVSPropertyOp0
 70
     1
102
RTVSPropertyOp1
 70
     1
102
RTVSPropertyOp2
 70
     1
102
RTVSPropertyOp3
 70
     1
102
RTVSPropertyOp4
 70
     1
102
RTVSPropertyOp5
 70
     1
102
RTVSPropertyOp6
 70
     1
102
RTVSPropertyOp7
 70
     1
102
RTVSPropertyOp8
 70
     1
102
RTVSPropertyOp9
 70
     1
102
RTVSPropertyOp10
 70
     1
102
RTVSPropertyOp11
 70
     1
102
RTVSPropertyOp12
 70
     1
102
RTVSPropertyOp13
 70
     1
102
RTVSPropertyOp14
 70
     1
102
RTVSPropertyOp15
 70
     1
102
RTVSPropertyOp16
 70
     1
102
RTVSPropertyOp17
 70
     1
102
RTVSPropertyOp18
 70
     1
102
RTVSPropertyOp19
 70
     1
102
RTVSPropertyOp20
 70
     1
102
RTVSPropertyOp21
 70
     1
102
RTVSPropertyOp22
 70
     1
102
RTVSPropertyOp23
 70
     1
102
RTVSPropertyOp24
 70
     1
102
RTVSPropertyOp25
 70
     1
102
RTVSPropertyOp26
 70
     1
102
RTVSPropertyOp27
 70
     1
102
RTVSPropertyOp28
 70
     1
102
RTVSPropertyOp29
 70
     1
102
RTVSPropertyOp30
 70
     1
102
RTVSPropertyOp31
 70
     1
102
RTVSPropertyOp32
 70
     1
102
RTVSPropertyOp33
 70
     1
102
RTVSPropertyOp34
 70
     1
102
RTVSPropertyOp35
 70
     1
102
RTVSPropertyOp36
 70
     1
102
RTVSPropertyOp37
 70
     1
102
RTVSPropertyOp38
 70
     1
102
RTVSPropertyOp39
 70
     1
102
RTVSPropertyOp40
 70
     1
102
RTVSPropertyOp41
 70
     1
102
RTVSPropertyOp42
 70
     1
102
RTVSPropertyOp43
 70
     1
102
RTVSPropertyOp44
 70
     1
102
RTVSPropertyOp45
 70
     1
102
RTVSPropertyOp46
 70
     1
102
RTVSPropertyOp47
 70
     1
102
RTVSPropertyOp48
 70
     1
102
RTVSPropertyOp49
 70
     1
102
RTVSPropertyOp50
 70
     1
102
RTVSPropertyOp51
 70
     0
102
RTVSPropertyOp52
 70
     0
102
RTVSPropertyOp53
 70
     1
102
RTVSPropertyOp54
 70
     1
102
RTVSPropertyOp55
 70
     1
102
RTVSPropertyOp56
 70
     1
102
RTVSPropertyOp57
 70
     1
102
RTVSPropertyOp58
 70
     1
102
RTVSPropertyOp59
 70
     1
102
RTVSPropertyOp60
 70
     1
102
RTVSPropertyOp61
 70
     1
102
RTVSPropertyOp62
 70
     1
  0
XRECORD
  5
DAE8
102
{ACAD_REACTORS
330
DAE7
102
}
330
DAE7
100
AcDbXrecord
280
     1
102
RTVSPost2010Prop28
280
     0
102
RTVSPost2010PropOp28
 70
     1
102
RTVSPost2010Prop29
280
     1
102
RTVSPost2010PropOp29
 70
     1
102
RTVSPost2010Prop30
280
     1
102
RTVSPost2010PropOp30
 70
     1
102
RTVSPost2010Prop31
280
     0
102
RTVSPost2010PropOp31
 70
     1
102
RTVSPost2010Prop32
280
     0
102
RTVSPost2010PropOp32
 70
     1
102
RTVSPost2010Prop33
280
     0
102
RTVSPost2010PropOp33
 70
     1
102
RTVSPost2010Prop34
280
     0
102
RTVSPost2010PropOp34
 70
     1
102
RTVSPost2010Prop35
280
     0
102
RTVSPost2010PropOp35
 70
     1
102
RTVSPost2010Prop36
280
     0
102
RTVSPost2010PropOp36
 70
     1
102
RTVSPost2010Prop37
 90
       50
102
RTVSPost2010PropOp37
 70
     1
102
RTVSPost2010Prop38
140
0.0
102
RTVSPost2010PropOp38
 70
     1
102
RTVSPost2010Prop39
140
1.0
102
RTVSPost2010PropOp39
 70
     1
102
RTVSPost2010Prop40
 90
        0
102
RTVSPost2010PropOp40
 70
     1
102
RTVSPost2010Prop41ColorIndex
 90
       18
102
RTVSPost2010Prop41ColorRGB
 90
        0
102
RTVSPost2010PropOp41
 70
     1
102
RTVSPost2010Prop42
 90
       50
102
RTVSPost2010PropOp42
 70
     1
102
RTVSPost2010Prop43
 90
        3
102
RTVSPost2010PropOp43
 70
     1
102
RTVSPost2010Prop44ColorIndex
 90
        5
102
RTVSPost2010Prop44ColorRGB
 90
      255
102
RTVSPost2010PropOp44
 70
     1
102
RTVSPost2010Prop45
280
     0
102
RTVSPost2010PropOp45
 70
     1
102
RTVSPost2010Prop46
 90
       50
102
RTVSPost2010PropOp46
 70
     1
102
RTVSPost2010Prop47
 90
       50
102
RTVSPost2010PropOp47
 70
     1
102
RTVSPost2010Prop48
 90
       50
102
RTVSPost2010PropOp48
 70
     1
102
RTVSPost2010Prop49
280
     0
102
RTVSPost2010PropOp49
 70
     1
102
RTVSPost2010Prop50
 90
       50
102
RTVSPost2010PropOp50
 70
     1
102
RTVSPost2010Prop51ColorIndex
 90
      256
102
RTVSPost2010Prop51ColorRGB
 90
-16777216
102
RTVSPost2010PropOp51
 70
     0
102
RTVSPost2010Prop52
140
1.0
102
RTVSPost2010PropOp52
 70
     0
102
RTVSPost2010Prop53
 90
        2
102
RTVSPost2010PropOp53
 70
     1
102
RTVSPost2010Prop54
  1
strokes_ogs.tif
102
RTVSPost2010PropOp54
 70
     1
102
RTVSPost2010Prop55
280
     0
102
RTVSPost2010PropOp55
 70
     1
102
RTVSPost2010Prop56
140
1.0
102
RTVSPost2010PropOp56
 70
     1
102
RTVSPost2010Prop57
140
1.0
102
RTVSPost2010PropOp57
 70
     1
102
RTVSPropertyOp0
 70
     1
102
RTVSPropertyOp1
 70
     1
102
RTVSPropertyOp2
 70
     1
102
RTVSPropertyOp3
 70
     1
102
RTVSPropertyOp4
 70
     1
102
RTVSPropertyOp5
 70
     1
102
RTVSPropertyOp6
 70
     1
102
RTVSPropertyOp7
 70
     1
102
RTVSPropertyOp8
 70
     1
102
RTVSPropertyOp9
 70
     1
102
RTVSPropertyOp10
 70
     1
102
RTVSPropertyOp11
 70
     1
102
RTVSPropertyOp12
 70
     1
102
RTVSPropertyOp13
 70
     1
102
RTVSPropertyOp14
 70
     1
102
RTVSPropertyOp15
 70
     1
102
RTVSPropertyOp16
 70
     1
102
RTVSPropertyOp17
 70
     1
102
RTVSPropertyOp18
 70
     1
102
RTVSPropertyOp19
 70
     1
102
RTVSPropertyOp20
 70
     1
102
RTVSPropertyOp21
 70
     1
102
RTVSPropertyOp22
 70
     1
102
RTVSPropertyOp23
 70
     1
102
RTVSPropertyOp24
 70
     1
102
RTVSPropertyOp25
 70
     1
102
RTVSPropertyOp26
 70
     1
102
RTVSPropertyOp27
 70
     1
102
RTVSPropertyOp28
 70
     1
102
RTVSPropertyOp29
 70
     1
102
RTVSPropertyOp30
 70
     1
102
RTVSPropertyOp31
 70
     1
102
RTVSPropertyOp32
 70
     1
102
RTVSPropertyOp33
 70
     1
102
RTVSPropertyOp34
 70
     1
102
RTVSPropertyOp35
 70
     1
102
RTVSPropertyOp36
 70
     1
102
RTVSPropertyOp37
 70
     1
102
RTVSPropertyOp38
 70
     1
102
RTVSPropertyOp39
 70
     1
102
RTVSPropertyOp40
 70
     1
102
RTVSPropertyOp41
 70
     1
102
RTVSPropertyOp42
 70
     1
102
RTVSPropertyOp43
 70
     1
102
RTVSPropertyOp44
 70
     1
102
RTVSPropertyOp45
 70
     1
102
RTVSPropertyOp46
 70
     1
102
RTVSPropertyOp47
 70
     1
102
RTVSPropertyOp48
 70
     1
102
RTVSPropertyOp49
 70
     1
102
RTVSPropertyOp50
 70
     1
102
RTVSPropertyOp51
 70
     0
102
RTVSPropertyOp52
 70
     0
102
RTVSPropertyOp53
 70
     1
102
RTVSPropertyOp54
 70
     1
102
RTVSPropertyOp55
 70
     1
102
RTVSPropertyOp56
 70
     1
102
RTVSPropertyOp57
 70
     1
102
RTVSPropertyOp58
 70
     1
102
RTVSPropertyOp59
 70
     1
102
RTVSPropertyOp60
 70
     1
102
RTVSPropertyOp61
 70
     1
102
RTVSPropertyOp62
 70
     1
  0
XRECORD
  5
DAF0
102
{ACAD_REACTORS
330
DAEF
102
}
330
DAEF
100
AcDbXrecord
280
     1
102
RTVSPost2010Prop28
280
     0
102
RTVSPost2010PropOp28
 70
     1
102
RTVSPost2010Prop29
280
     1
102
RTVSPost2010PropOp29
 70
     1
102
RTVSPost2010Prop30
280
     1
102
RTVSPost2010PropOp30
 70
     1
102
RTVSPost2010Prop31
280
     0
102
RTVSPost2010PropOp31
 70
     1
102
RTVSPost2010Prop32
280
     0
102
RTVSPost2010PropOp32
 70
     1
102
RTVSPost2010Prop33
280
     0
102
RTVSPost2010PropOp33
 70
     1
102
RTVSPost2010Prop34
280
     0
102
RTVSPost2010PropOp34
 70
     1
102
RTVSPost2010Prop35
280
     0
102
RTVSPost2010PropOp35
 70
     1
102
RTVSPost2010Prop36
280
     0
102
RTVSPost2010PropOp36
 70
     1
102
RTVSPost2010Prop37
 90
       50
102
RTVSPost2010PropOp37
 70
     1
102
RTVSPost2010Prop38
140
0.0
102
RTVSPost2010PropOp38
 70
     1
102
RTVSPost2010Prop39
140
1.0
102
RTVSPost2010PropOp39
 70
     1
102
RTVSPost2010Prop40
 90
        0
102
RTVSPost2010PropOp40
 70
     1
102
RTVSPost2010Prop41ColorIndex
 90
       18
102
RTVSPost2010Prop41ColorRGB
 90
        0
102
RTVSPost2010PropOp41
 70
     1
102
RTVSPost2010Prop42
 90
       50
102
RTVSPost2010PropOp42
 70
     1
102
RTVSPost2010Prop43
 90
        3
102
RTVSPost2010PropOp43
 70
     1
102
RTVSPost2010Prop44ColorIndex
 90
        5
102
RTVSPost2010Prop44ColorRGB
 90
      255
102
RTVSPost2010PropOp44
 70
     1
102
RTVSPost2010Prop45
280
     0
102
RTVSPost2010PropOp45
 70
     1
102
RTVSPost2010Prop46
 90
       50
102
RTVSPost2010PropOp46
 70
     1
102
RTVSPost2010Prop47
 90
       50
102
RTVSPost2010PropOp47
 70
     1
102
RTVSPost2010Prop48
 90
       50
102
RTVSPost2010PropOp48
 70
     1
102
RTVSPost2010Prop49
280
     0
102
RTVSPost2010PropOp49
 70
     1
102
RTVSPost2010Prop50
 90
       50
102
RTVSPost2010PropOp50
 70
     1
102
RTVSPost2010Prop51ColorIndex
 90
      256
102
RTVSPost2010Prop51ColorRGB
 90
-16777216
102
RTVSPost2010PropOp51
 70
     0
102
RTVSPost2010Prop52
140
1.0
102
RTVSPost2010PropOp52
 70
     0
102
RTVSPost2010Prop53
 90
        2
102
RTVSPost2010PropOp53
 70
     1
102
RTVSPost2010Prop54
  1
strokes_ogs.tif
102
RTVSPost2010PropOp54
 70
     1
102
RTVSPost2010Prop55
280
     0
102
RTVSPost2010PropOp55
 70
     1
102
RTVSPost2010Prop56
140
1.0
102
RTVSPost2010PropOp56
 70
     1
102
RTVSPost2010Prop57
140
1.0
102
RTVSPost2010PropOp57
 70
     1
102
RTVSPropertyOp0
 70
     1
102
RTVSPropertyOp1
 70
     1
102
RTVSPropertyOp2
 70
     1
102
RTVSPropertyOp3
 70
     1
102
RTVSPropertyOp4
 70
     1
102
RTVSPropertyOp5
 70
     1
102
RTVSPropertyOp6
 70
     1
102
RTVSPropertyOp7
 70
     1
102
RTVSPropertyOp8
 70
     1
102
RTVSPropertyOp9
 70
     1
102
RTVSPropertyOp10
 70
     1
102
RTVSPropertyOp11
 70
     1
102
RTVSPropertyOp12
 70
     1
102
RTVSPropertyOp13
 70
     1
102
RTVSPropertyOp14
 70
     1
102
RTVSPropertyOp15
 70
     1
102
RTVSPropertyOp16
 70
     1
102
RTVSPropertyOp17
 70
     1
102
RTVSPropertyOp18
 70
     1
102
RTVSPropertyOp19
 70
     1
102
RTVSPropertyOp20
 70
     1
102
RTVSPropertyOp21
 70
     1
102
RTVSPropertyOp22
 70
     1
102
RTVSPropertyOp23
 70
     1
102
RTVSPropertyOp24
 70
     1
102
RTVSPropertyOp25
 70
     1
102
RTVSPropertyOp26
 70
     1
102
RTVSPropertyOp27
 70
     1
102
RTVSPropertyOp28
 70
     1
102
RTVSPropertyOp29
 70
     1
102
RTVSPropertyOp30
 70
     1
102
RTVSPropertyOp31
 70
     1
102
RTVSPropertyOp32
 70
     1
102
RTVSPropertyOp33
 70
     1
102
RTVSPropertyOp34
 70
     1
102
RTVSPropertyOp35
 70
     1
102
RTVSPropertyOp36
 70
     1
102
RTVSPropertyOp37
 70
     1
102
RTVSPropertyOp38
 70
     1
102
RTVSPropertyOp39
 70
     1
102
RTVSPropertyOp40
 70
     1
102
RTVSPropertyOp41
 70
     1
102
RTVSPropertyOp42
 70
     1
102
RTVSPropertyOp43
 70
     1
102
RTVSPropertyOp44
 70
     1
102
RTVSPropertyOp45
 70
     1
102
RTVSPropertyOp46
 70
     1
102
RTVSPropertyOp47
 70
     1
102
RTVSPropertyOp48
 70
     1
102
RTVSPropertyOp49
 70
     1
102
RTVSPropertyOp50
 70
     1
102
RTVSPropertyOp51
 70
     0
102
RTVSPropertyOp52
 70
     0
102
RTVSPropertyOp53
 70
     1
102
RTVSPropertyOp54
 70
     1
102
RTVSPropertyOp55
 70
     1
102
RTVSPropertyOp56
 70
     1
102
RTVSPropertyOp57
 70
     1
102
RTVSPropertyOp58
 70
     1
102
RTVSPropertyOp59
 70
     1
102
RTVSPropertyOp60
 70
     1
102
RTVSPropertyOp61
 70
     1
102
RTVSPropertyOp62
 70
     1
  0
XRECORD
  5
DAE2
102
{ACAD_REACTORS
330
DAE1
102
}
330
DAE1
100
AcDbXrecord
280
     1
102
RTVSPost2010Prop28
280
     0
102
RTVSPost2010PropOp28
 70
     1
102
RTVSPost2010Prop29
280
     1
102
RTVSPost2010PropOp29
 70
     1
102
RTVSPost2010Prop30
280
     1
102
RTVSPost2010PropOp30
 70
     1
102
RTVSPost2010Prop31
280
     0
102
RTVSPost2010PropOp31
 70
     1
102
RTVSPost2010Prop32
280
     0
102
RTVSPost2010PropOp32
 70
     1
102
RTVSPost2010Prop33
280
     0
102
RTVSPost2010PropOp33
 70
     1
102
RTVSPost2010Prop34
280
     0
102
RTVSPost2010PropOp34
 70
     1
102
RTVSPost2010Prop35
280
     0
102
RTVSPost2010PropOp35
 70
     1
102
RTVSPost2010Prop36
280
     0
102
RTVSPost2010PropOp36
 70
     1
102
RTVSPost2010Prop37
 90
       50
102
RTVSPost2010PropOp37
 70
     1
102
RTVSPost2010Prop38
140
0.0
102
RTVSPost2010PropOp38
 70
     1
102
RTVSPost2010Prop39
140
1.0
102
RTVSPost2010PropOp39
 70
     1
102
RTVSPost2010Prop40
 90
        0
102
RTVSPost2010PropOp40
 70
     1
102
RTVSPost2010Prop41ColorIndex
 90
       18
102
RTVSPost2010Prop41ColorRGB
 90
        0
102
RTVSPost2010PropOp41
 70
     1
102
RTVSPost2010Prop42
 90
       50
102
RTVSPost2010PropOp42
 70
     1
102
RTVSPost2010Prop43
 90
        3
102
RTVSPost2010PropOp43
 70
     1
102
RTVSPost2010Prop44ColorIndex
 90
        5
102
RTVSPost2010Prop44ColorRGB
 90
      255
102
RTVSPost2010PropOp44
 70
     1
102
RTVSPost2010Prop45
280
     0
102
RTVSPost2010PropOp45
 70
     1
102
RTVSPost2010Prop46
 90
       50
102
RTVSPost2010PropOp46
 70
     1
102
RTVSPost2010Prop47
 90
       50
102
RTVSPost2010PropOp47
 70
     1
102
RTVSPost2010Prop48
 90
       50
102
RTVSPost2010PropOp48
 70
     1
102
RTVSPost2010Prop49
280
     0
102
RTVSPost2010PropOp49
 70
     1
102
RTVSPost2010Prop50
 90
       50
102
RTVSPost2010PropOp50
 70
     1
102
RTVSPost2010Prop51ColorIndex
 90
      256
102
RTVSPost2010Prop51ColorRGB
 90
-16777216
102
RTVSPost2010PropOp51
 70
     0
102
RTVSPost2010Prop52
140
1.0
102
RTVSPost2010PropOp52
 70
     0
102
RTVSPost2010Prop53
 90
        2
102
RTVSPost2010PropOp53
 70
     1
102
RTVSPost2010Prop54
  1
strokes_ogs.tif
102
RTVSPost2010PropOp54
 70
     1
102
RTVSPost2010Prop55
280
     0
102
RTVSPost2010PropOp55
 70
     1
102
RTVSPost2010Prop56
140
1.0
102
RTVSPost2010PropOp56
 70
     1
102
RTVSPost2010Prop57
140
1.0
102
RTVSPost2010PropOp57
 70
     1
102
RTVSPropertyOp0
 70
     1
102
RTVSPropertyOp1
 70
     1
102
RTVSPropertyOp2
 70
     1
102
RTVSPropertyOp3
 70
     1
102
RTVSPropertyOp4
 70
     1
102
RTVSPropertyOp5
 70
     1
102
RTVSPropertyOp6
 70
     1
102
RTVSPropertyOp7
 70
     1
102
RTVSPropertyOp8
 70
     1
102
RTVSPropertyOp9
 70
     1
102
RTVSPropertyOp10
 70
     1
102
RTVSPropertyOp11
 70
     1
102
RTVSPropertyOp12
 70
     1
102
RTVSPropertyOp13
 70
     1
102
RTVSPropertyOp14
 70
     1
102
RTVSPropertyOp15
 70
     1
102
RTVSPropertyOp16
 70
     1
102
RTVSPropertyOp17
 70
     1
102
RTVSPropertyOp18
 70
     1
102
RTVSPropertyOp19
 70
     1
102
RTVSPropertyOp20
 70
     1
102
RTVSPropertyOp21
 70
     1
102
RTVSPropertyOp22
 70
     1
102
RTVSPropertyOp23
 70
     1
102
RTVSPropertyOp24
 70
     1
102
RTVSPropertyOp25
 70
     1
102
RTVSPropertyOp26
 70
     1
102
RTVSPropertyOp27
 70
     1
102
RTVSPropertyOp28
 70
     1
102
RTVSPropertyOp29
 70
     1
102
RTVSPropertyOp30
 70
     1
102
RTVSPropertyOp31
 70
     1
102
RTVSPropertyOp32
 70
     1
102
RTVSPropertyOp33
 70
     1
102
RTVSPropertyOp34
 70
     1
102
RTVSPropertyOp35
 70
     1
102
RTVSPropertyOp36
 70
     1
102
RTVSPropertyOp37
 70
     1
102
RTVSPropertyOp38
 70
     1
102
RTVSPropertyOp39
 70
     1
102
RTVSPropertyOp40
 70
     1
102
RTVSPropertyOp41
 70
     1
102
RTVSPropertyOp42
 70
     1
102
RTVSPropertyOp43
 70
     1
102
RTVSPropertyOp44
 70
     1
102
RTVSPropertyOp45
 70
     1
102
RTVSPropertyOp46
 70
     1
102
RTVSPropertyOp47
 70
     1
102
RTVSPropertyOp48
 70
     1
102
RTVSPropertyOp49
 70
     1
102
RTVSPropertyOp50
 70
     1
102
RTVSPropertyOp51
 70
     0
102
RTVSPropertyOp52
 70
     0
102
RTVSPropertyOp53
 70
     1
102
RTVSPropertyOp54
 70
     1
102
RTVSPropertyOp55
 70
     1
102
RTVSPropertyOp56
 70
     1
102
RTVSPropertyOp57
 70
     1
102
RTVSPropertyOp58
 70
     1
102
RTVSPropertyOp59
 70
     1
102
RTVSPropertyOp60
 70
     1
102
RTVSPropertyOp61
 70
     1
102
RTVSPropertyOp62
 70
     1
  0
XRECORD
  5
DAE6
102
{ACAD_REACTORS
330
DAE5
102
}
330
DAE5
100
AcDbXrecord
280
     1
102
RTVSPost2010Prop28
280
     0
102
RTVSPost2010PropOp28
 70
     1
102
RTVSPost2010Prop29
280
     1
102
RTVSPost2010PropOp29
 70
     1
102
RTVSPost2010Prop30
280
     1
102
RTVSPost2010PropOp30
 70
     1
102
RTVSPost2010Prop31
280
     0
102
RTVSPost2010PropOp31
 70
     1
102
RTVSPost2010Prop32
280
     0
102
RTVSPost2010PropOp32
 70
     1
102
RTVSPost2010Prop33
280
     0
102
RTVSPost2010PropOp33
 70
     1
102
RTVSPost2010Prop34
280
     0
102
RTVSPost2010PropOp34
 70
     1
102
RTVSPost2010Prop35
280
     0
102
RTVSPost2010PropOp35
 70
     1
102
RTVSPost2010Prop36
280
     0
102
RTVSPost2010PropOp36
 70
     1
102
RTVSPost2010Prop37
 90
       50
102
RTVSPost2010PropOp37
 70
     1
102
RTVSPost2010Prop38
140
0.0
102
RTVSPost2010PropOp38
 70
     1
102
RTVSPost2010Prop39
140
1.0
102
RTVSPost2010PropOp39
 70
     1
102
RTVSPost2010Prop40
 90
        0
102
RTVSPost2010PropOp40
 70
     1
102
RTVSPost2010Prop41ColorIndex
 90
       18
102
RTVSPost2010Prop41ColorRGB
 90
        0
102
RTVSPost2010PropOp41
 70
     1
102
RTVSPost2010Prop42
 90
       50
102
RTVSPost2010PropOp42
 70
     1
102
RTVSPost2010Prop43
 90
        3
102
RTVSPost2010PropOp43
 70
     1
102
RTVSPost2010Prop44ColorIndex
 90
        5
102
RTVSPost2010Prop44ColorRGB
 90
      255
102
RTVSPost2010PropOp44
 70
     1
102
RTVSPost2010Prop45
280
     0
102
RTVSPost2010PropOp45
 70
     1
102
RTVSPost2010Prop46
 90
       50
102
RTVSPost2010PropOp46
 70
     1
102
RTVSPost2010Prop47
 90
       50
102
RTVSPost2010PropOp47
 70
     1
102
RTVSPost2010Prop48
 90
       50
102
RTVSPost2010PropOp48
 70
     1
102
RTVSPost2010Prop49
280
     0
102
RTVSPost2010PropOp49
 70
     1
102
RTVSPost2010Prop50
 90
       50
102
RTVSPost2010PropOp50
 70
     1
102
RTVSPost2010Prop51ColorIndex
 90
      256
102
RTVSPost2010Prop51ColorRGB
 90
-16777216
102
RTVSPost2010PropOp51
 70
     0
102
RTVSPost2010Prop52
140
1.0
102
RTVSPost2010PropOp52
 70
     0
102
RTVSPost2010Prop53
 90
        2
102
RTVSPost2010PropOp53
 70
     1
102
RTVSPost2010Prop54
  1
strokes_ogs.tif
102
RTVSPost2010PropOp54
 70
     1
102
RTVSPost2010Prop55
280
     0
102
RTVSPost2010PropOp55
 70
     1
102
RTVSPost2010Prop56
140
1.0
102
RTVSPost2010PropOp56
 70
     1
102
RTVSPost2010Prop57
140
1.0
102
RTVSPost2010PropOp57
 70
     1
102
RTVSPropertyOp0
 70
     1
102
RTVSPropertyOp1
 70
     1
102
RTVSPropertyOp2
 70
     1
102
RTVSPropertyOp3
 70
     1
102
RTVSPropertyOp4
 70
     1
102
RTVSPropertyOp5
 70
     1
102
RTVSPropertyOp6
 70
     1
102
RTVSPropertyOp7
 70
     1
102
RTVSPropertyOp8
 70
     1
102
RTVSPropertyOp9
 70
     1
102
RTVSPropertyOp10
 70
     1
102
RTVSPropertyOp11
 70
     1
102
RTVSPropertyOp12
 70
     1
102
RTVSPropertyOp13
 70
     1
102
RTVSPropertyOp14
 70
     1
102
RTVSPropertyOp15
 70
     1
102
RTVSPropertyOp16
 70
     1
102
RTVSPropertyOp17
 70
     1
102
RTVSPropertyOp18
 70
     1
102
RTVSPropertyOp19
 70
     1
102
RTVSPropertyOp20
 70
     1
102
RTVSPropertyOp21
 70
     1
102
RTVSPropertyOp22
 70
     1
102
RTVSPropertyOp23
 70
     1
102
RTVSPropertyOp24
 70
     1
102
RTVSPropertyOp25
 70
     1
102
RTVSPropertyOp26
 70
     1
102
RTVSPropertyOp27
 70
     1
102
RTVSPropertyOp28
 70
     1
102
RTVSPropertyOp29
 70
     1
102
RTVSPropertyOp30
 70
     1
102
RTVSPropertyOp31
 70
     1
102
RTVSPropertyOp32
 70
     1
102
RTVSPropertyOp33
 70
     1
102
RTVSPropertyOp34
 70
     1
102
RTVSPropertyOp35
 70
     1
102
RTVSPropertyOp36
 70
     1
102
RTVSPropertyOp37
 70
     1
102
RTVSPropertyOp38
 70
     1
102
RTVSPropertyOp39
 70
     1
102
RTVSPropertyOp40
 70
     1
102
RTVSPropertyOp41
 70
     1
102
RTVSPropertyOp42
 70
     1
102
RTVSPropertyOp43
 70
     1
102
RTVSPropertyOp44
 70
     1
102
RTVSPropertyOp45
 70
     1
102
RTVSPropertyOp46
 70
     1
102
RTVSPropertyOp47
 70
     1
102
RTVSPropertyOp48
 70
     1
102
RTVSPropertyOp49
 70
     1
102
RTVSPropertyOp50
 70
     1
102
RTVSPropertyOp51
 70
     0
102
RTVSPropertyOp52
 70
     0
102
RTVSPropertyOp53
 70
     1
102
RTVSPropertyOp54
 70
     1
102
RTVSPropertyOp55
 70
     1
102
RTVSPropertyOp56
 70
     1
102
RTVSPropertyOp57
 70
     1
102
RTVSPropertyOp58
 70
     1
102
RTVSPropertyOp59
 70
     1
102
RTVSPropertyOp60
 70
     1
102
RTVSPropertyOp61
 70
     1
102
RTVSPropertyOp62
 70
     1
  0
XRECORD
  5
DB00
102
{ACAD_REACTORS
330
DAFF
102
}
330
DAFF
100
AcDbXrecord
280
     1
102
RTVSPost2010Prop28
280
     0
102
RTVSPost2010PropOp28
 70
     1
102
RTVSPost2010Prop29
280
     1
102
RTVSPost2010PropOp29
 70
     1
102
RTVSPost2010Prop30
280
     1
102
RTVSPost2010PropOp30
 70
     1
102
RTVSPost2010Prop31
280
     0
102
RTVSPost2010PropOp31
 70
     1
102
RTVSPost2010Prop32
280
     0
102
RTVSPost2010PropOp32
 70
     1
102
RTVSPost2010Prop33
280
     0
102
RTVSPost2010PropOp33
 70
     1
102
RTVSPost2010Prop34
280
     0
102
RTVSPost2010PropOp34
 70
     1
102
RTVSPost2010Prop35
280
     0
102
RTVSPost2010PropOp35
 70
     1
102
RTVSPost2010Prop36
280
     0
102
RTVSPost2010PropOp36
 70
     1
102
RTVSPost2010Prop37
 90
       50
102
RTVSPost2010PropOp37
 70
     0
102
RTVSPost2010Prop38
140
0.0
102
RTVSPost2010PropOp38
 70
     0
102
RTVSPost2010Prop39
140
1.0
102
RTVSPost2010PropOp39
 70
     0
102
RTVSPost2010Prop40
 90
        0
102
RTVSPost2010PropOp40
 70
     0
102
RTVSPost2010Prop41ColorIndex
 90
       18
102
RTVSPost2010Prop41ColorRGB
 90
        0
102
RTVSPost2010PropOp41
 70
     0
102
RTVSPost2010Prop42
 90
       50
102
RTVSPost2010PropOp42
 70
     0
102
RTVSPost2010Prop43
 90
        3
102
RTVSPost2010PropOp43
 70
     0
102
RTVSPost2010Prop44ColorIndex
 90
        5
102
RTVSPost2010Prop44ColorRGB
 90
      255
102
RTVSPost2010PropOp44
 70
     0
102
RTVSPost2010Prop45
280
     0
102
RTVSPost2010PropOp45
 70
     1
102
RTVSPost2010Prop46
 90
       50
102
RTVSPost2010PropOp46
 70
     0
102
RTVSPost2010Prop47
 90
       50
102
RTVSPost2010PropOp47
 70
     0
102
RTVSPost2010Prop48
 90
       50
102
RTVSPost2010PropOp48
 70
     0
102
RTVSPost2010Prop49
280
     0
102
RTVSPost2010PropOp49
 70
     1
102
RTVSPost2010Prop50
 90
       50
102
RTVSPost2010PropOp50
 70
     0
102
RTVSPost2010Prop51ColorIndex
 90
      256
102
RTVSPost2010Prop51ColorRGB
 90
-16777216
102
RTVSPost2010PropOp51
 70
     0
102
RTVSPost2010Prop52
140
1.0
102
RTVSPost2010PropOp52
 70
     0
102
RTVSPost2010Prop53
 90
        2
102
RTVSPost2010PropOp53
 70
     0
102
RTVSPost2010Prop54
  1
strokes_ogs.tif
102
RTVSPost2010PropOp54
 70
     0
102
RTVSPost2010Prop55
280
     0
102
RTVSPost2010PropOp55
 70
     1
102
RTVSPost2010Prop56
140
1.0
102
RTVSPost2010PropOp56
 70
     0
102
RTVSPost2010Prop57
140
1.0
102
RTVSPost2010PropOp57
 70
     0
102
RTVSPropertyOp0
 70
     0
102
RTVSPropertyOp1
 70
     0
102
RTVSPropertyOp2
 70
     0
102
RTVSPropertyOp3
 70
     0
102
RTVSPropertyOp4
 70
     0
102
RTVSPropertyOp5
 70
     0
102
RTVSPropertyOp6
 70
     0
102
RTVSPropertyOp7
 70
     0
102
RTVSPropertyOp8
 70
     0
102
RTVSPropertyOp9
 70
     0
102
RTVSPropertyOp10
 70
     0
102
RTVSPropertyOp11
 70
     0
102
RTVSPropertyOp12
 70
     0
102
RTVSPropertyOp13
 70
     0
102
RTVSPropertyOp14
 70
     2
102
RTVSPropertyOp15
 70
     0
102
RTVSPropertyOp16
 70
     0
102
RTVSPropertyOp17
 70
     0
102
RTVSPropertyOp18
 70
     0
102
RTVSPropertyOp19
 70
     0
102
RTVSPropertyOp20
 70
     0
102
RTVSPropertyOp21
 70
     0
102
RTVSPropertyOp22
 70
     0
102
RTVSPropertyOp23
 70
     0
102
RTVSPropertyOp24
 70
     0
102
RTVSPropertyOp25
 70
     0
102
RTVSPropertyOp26
 70
     0
102
RTVSPropertyOp27
 70
     0
102
RTVSPropertyOp28
 70
     1
102
RTVSPropertyOp29
 70
     1
102
RTVSPropertyOp30
 70
     1
102
RTVSPropertyOp31
 70
     1
102
RTVSPropertyOp32
 70
     1
102
RTVSPropertyOp33
 70
     1
102
RTVSPropertyOp34
 70
     1
102
RTVSPropertyOp35
 70
     1
102
RTVSPropertyOp36
 70
     1
102
RTVSPropertyOp37
 70
     0
102
RTVSPropertyOp38
 70
     0
102
RTVSPropertyOp39
 70
     0
102
RTVSPropertyOp40
 70
     0
102
RTVSPropertyOp41
 70
     0
102
RTVSPropertyOp42
 70
     0
102
RTVSPropertyOp43
 70
     0
102
RTVSPropertyOp44
 70
     0
102
RTVSPropertyOp45
 70
     1
102
RTVSPropertyOp46
 70
     0
102
RTVSPropertyOp47
 70
     0
102
RTVSPropertyOp48
 70
     0
102
RTVSPropertyOp49
 70
     1
102
RTVSPropertyOp50
 70
     0
102
RTVSPropertyOp51
 70
     0
102
RTVSPropertyOp52
 70
     0
102
RTVSPropertyOp53
 70
     0
102
RTVSPropertyOp54
 70
     0
102
RTVSPropertyOp55
 70
     1
102
RTVSPropertyOp56
 70
     0
102
RTVSPropertyOp57
 70
     0
102
RTVSPropertyOp58
 70
     0
102
RTVSPropertyOp59
 70
     0
102
RTVSPropertyOp60
 70
     0
102
RTVSPropertyOp61
 70
     0
102
RTVSPropertyOp62
 70
     0
  0
XRECORD
  5
DAEE
102
{ACAD_REACTORS
330
DAED
102
}
330
DAED
100
AcDbXrecord
280
     1
102
RTVSPost2010Prop28
280
     0
102
RTVSPost2010PropOp28
 70
     1
102
RTVSPost2010Prop29
280
     1
102
RTVSPost2010PropOp29
 70
     1
102
RTVSPost2010Prop30
280
     1
102
RTVSPost2010PropOp30
 70
     1
102
RTVSPost2010Prop31
280
     0
102
RTVSPost2010PropOp31
 70
     1
102
RTVSPost2010Prop32
280
     0
102
RTVSPost2010PropOp32
 70
     1
102
RTVSPost2010Prop33
280
     0
102
RTVSPost2010PropOp33
 70
     1
102
RTVSPost2010Prop34
280
     0
102
RTVSPost2010PropOp34
 70
     1
102
RTVSPost2010Prop35
280
     0
102
RTVSPost2010PropOp35
 70
     1
102
RTVSPost2010Prop36
280
     0
102
RTVSPost2010PropOp36
 70
     1
102
RTVSPost2010Prop37
 90
       50
102
RTVSPost2010PropOp37
 70
     1
102
RTVSPost2010Prop38
140
0.0
102
RTVSPost2010PropOp38
 70
     1
102
RTVSPost2010Prop39
140
1.0
102
RTVSPost2010PropOp39
 70
     1
102
RTVSPost2010Prop40
 90
        0
102
RTVSPost2010PropOp40
 70
     1
102
RTVSPost2010Prop41ColorIndex
 90
       18
102
RTVSPost2010Prop41ColorRGB
 90
        0
102
RTVSPost2010PropOp41
 70
     1
102
RTVSPost2010Prop42
 90
       50
102
RTVSPost2010PropOp42
 70
     1
102
RTVSPost2010Prop43
 90
        3
102
RTVSPost2010PropOp43
 70
     1
102
RTVSPost2010Prop44ColorIndex
 90
        5
102
RTVSPost2010Prop44ColorRGB
 90
      255
102
RTVSPost2010PropOp44
 70
     1
102
RTVSPost2010Prop45
280
     0
102
RTVSPost2010PropOp45
 70
     1
102
RTVSPost2010Prop46
 90
       50
102
RTVSPost2010PropOp46
 70
     1
102
RTVSPost2010Prop47
 90
       50
102
RTVSPost2010PropOp47
 70
     1
102
RTVSPost2010Prop48
 90
       50
102
RTVSPost2010PropOp48
 70
     1
102
RTVSPost2010Prop49
280
     0
102
RTVSPost2010PropOp49
 70
     1
102
RTVSPost2010Prop50
 90
       50
102
RTVSPost2010PropOp50
 70
     1
102
RTVSPost2010Prop51ColorIndex
 90
      256
102
RTVSPost2010Prop51ColorRGB
 90
-16777216
102
RTVSPost2010PropOp51
 70
     0
102
RTVSPost2010Prop52
140
1.0
102
RTVSPost2010PropOp52
 70
     0
102
RTVSPost2010Prop53
 90
        2
102
RTVSPost2010PropOp53
 70
     1
102
RTVSPost2010Prop54
  1
strokes_ogs.tif
102
RTVSPost2010PropOp54
 70
     1
102
RTVSPost2010Prop55
280
     0
102
RTVSPost2010PropOp55
 70
     1
102
RTVSPost2010Prop56
140
1.0
102
RTVSPost2010PropOp56
 70
     1
102
RTVSPost2010Prop57
140
1.0
102
RTVSPost2010PropOp57
 70
     1
102
RTVSPropertyOp0
 70
     1
102
RTVSPropertyOp1
 70
     1
102
RTVSPropertyOp2
 70
     1
102
RTVSPropertyOp3
 70
     1
102
RTVSPropertyOp4
 70
     1
102
RTVSPropertyOp5
 70
     1
102
RTVSPropertyOp6
 70
     1
102
RTVSPropertyOp7
 70
     1
102
RTVSPropertyOp8
 70
     1
102
RTVSPropertyOp9
 70
     1
102
RTVSPropertyOp10
 70
     1
102
RTVSPropertyOp11
 70
     1
102
RTVSPropertyOp12
 70
     1
102
RTVSPropertyOp13
 70
     1
102
RTVSPropertyOp14
 70
     1
102
RTVSPropertyOp15
 70
     1
102
RTVSPropertyOp16
 70
     1
102
RTVSPropertyOp17
 70
     1
102
RTVSPropertyOp18
 70
     1
102
RTVSPropertyOp19
 70
     1
102
RTVSPropertyOp20
 70
     1
102
RTVSPropertyOp21
 70
     1
102
RTVSPropertyOp22
 70
     1
102
RTVSPropertyOp23
 70
     1
102
RTVSPropertyOp24
 70
     1
102
RTVSPropertyOp25
 70
     1
102
RTVSPropertyOp26
 70
     1
102
RTVSPropertyOp27
 70
     1
102
RTVSPropertyOp28
 70
     1
102
RTVSPropertyOp29
 70
     1
102
RTVSPropertyOp30
 70
     1
102
RTVSPropertyOp31
 70
     1
102
RTVSPropertyOp32
 70
     1
102
RTVSPropertyOp33
 70
     1
102
RTVSPropertyOp34
 70
     1
102
RTVSPropertyOp35
 70
     1
102
RTVSPropertyOp36
 70
     1
102
RTVSPropertyOp37
 70
     1
102
RTVSPropertyOp38
 70
     1
102
RTVSPropertyOp39
 70
     1
102
RTVSPropertyOp40
 70
     1
102
RTVSPropertyOp41
 70
     1
102
RTVSPropertyOp42
 70
     1
102
RTVSPropertyOp43
 70
     1
102
RTVSPropertyOp44
 70
     1
102
RTVSPropertyOp45
 70
     1
102
RTVSPropertyOp46
 70
     1
102
RTVSPropertyOp47
 70
     1
102
RTVSPropertyOp48
 70
     1
102
RTVSPropertyOp49
 70
     1
102
RTVSPropertyOp50
 70
     1
102
RTVSPropertyOp51
 70
     0
102
RTVSPropertyOp52
 70
     0
102
RTVSPropertyOp53
 70
     1
102
RTVSPropertyOp54
 70
     1
102
RTVSPropertyOp55
 70
     1
102
RTVSPropertyOp56
 70
     1
102
RTVSPropertyOp57
 70
     1
102
RTVSPropertyOp58
 70
     1
102
RTVSPropertyOp59
 70
     1
102
RTVSPropertyOp60
 70
     1
102
RTVSPropertyOp61
 70
     1
102
RTVSPropertyOp62
 70
     1
  0
XRECORD
  5
DAD2
102
{ACAD_REACTORS
330
DAD1
102
}
330
DAD1
100
AcDbXrecord
280
     1
102
RTVSPost2010Prop28
280
     0
102
RTVSPost2010PropOp28
 70
     1
102
RTVSPost2010Prop29
280
     1
102
RTVSPost2010PropOp29
 70
     1
102
RTVSPost2010Prop30
280
     1
102
RTVSPost2010PropOp30
 70
     1
102
RTVSPost2010Prop31
280
     0
102
RTVSPost2010PropOp31
 70
     1
102
RTVSPost2010Prop32
280
     0
102
RTVSPost2010PropOp32
 70
     1
102
RTVSPost2010Prop33
280
     0
102
RTVSPost2010PropOp33
 70
     1
102
RTVSPost2010Prop34
280
     0
102
RTVSPost2010PropOp34
 70
     1
102
RTVSPost2010Prop35
280
     0
102
RTVSPost2010PropOp35
 70
     1
102
RTVSPost2010Prop36
280
     0
102
RTVSPost2010PropOp36
 70
     1
102
RTVSPost2010Prop37
 90
       50
102
RTVSPost2010PropOp37
 70
     1
102
RTVSPost2010Prop38
140
0.0
102
RTVSPost2010PropOp38
 70
     1
102
RTVSPost2010Prop39
140
1.0
102
RTVSPost2010PropOp39
 70
     1
102
RTVSPost2010Prop40
 90
        0
102
RTVSPost2010PropOp40
 70
     1
102
RTVSPost2010Prop41ColorIndex
 90
       18
102
RTVSPost2010Prop41ColorRGB
 90
        0
102
RTVSPost2010PropOp41
 70
     1
102
RTVSPost2010Prop42
 90
       50
102
RTVSPost2010PropOp42
 70
     1
102
RTVSPost2010Prop43
 90
        3
102
RTVSPost2010PropOp43
 70
     1
102
RTVSPost2010Prop44ColorIndex
 90
        5
102
RTVSPost2010Prop44ColorRGB
 90
      255
102
RTVSPost2010PropOp44
 70
     1
102
RTVSPost2010Prop45
280
     0
102
RTVSPost2010PropOp45
 70
     1
102
RTVSPost2010Prop46
 90
       50
102
RTVSPost2010PropOp46
 70
     1
102
RTVSPost2010Prop47
 90
       50
102
RTVSPost2010PropOp47
 70
     1
102
RTVSPost2010Prop48
 90
       50
102
RTVSPost2010PropOp48
 70
     1
102
RTVSPost2010Prop49
280
     0
102
RTVSPost2010PropOp49
 70
     1
102
RTVSPost2010Prop50
 90
       50
102
RTVSPost2010PropOp50
 70
     1
102
RTVSPost2010Prop51ColorIndex
 90
      256
102
RTVSPost2010Prop51ColorRGB
 90
-16777216
102
RTVSPost2010PropOp51
 70
     0
102
RTVSPost2010Prop52
140
1.0
102
RTVSPost2010PropOp52
 70
     0
102
RTVSPost2010Prop53
 90
        2
102
RTVSPost2010PropOp53
 70
     1
102
RTVSPost2010Prop54
  1
strokes_ogs.tif
102
RTVSPost2010PropOp54
 70
     1
102
RTVSPost2010Prop55
280
     0
102
RTVSPost2010PropOp55
 70
     1
102
RTVSPost2010Prop56
140
1.0
102
RTVSPost2010PropOp56
 70
     1
102
RTVSPost2010Prop57
140
1.0
102
RTVSPost2010PropOp57
 70
     1
102
RTVSPropertyOp0
 70
     1
102
RTVSPropertyOp1
 70
     1
102
RTVSPropertyOp2
 70
     1
102
RTVSPropertyOp3
 70
     1
102
RTVSPropertyOp4
 70
     1
102
RTVSPropertyOp5
 70
     1
102
RTVSPropertyOp6
 70
     1
102
RTVSPropertyOp7
 70
     1
102
RTVSPropertyOp8
 70
     1
102
RTVSPropertyOp9
 70
     1
102
RTVSPropertyOp10
 70
     1
102
RTVSPropertyOp11
 70
     1
102
RTVSPropertyOp12
 70
     1
102
RTVSPropertyOp13
 70
     1
102
RTVSPropertyOp14
 70
     1
102
RTVSPropertyOp15
 70
     1
102
RTVSPropertyOp16
 70
     1
102
RTVSPropertyOp17
 70
     1
102
RTVSPropertyOp18
 70
     1
102
RTVSPropertyOp19
 70
     1
102
RTVSPropertyOp20
 70
     1
102
RTVSPropertyOp21
 70
     1
102
RTVSPropertyOp22
 70
     1
102
RTVSPropertyOp23
 70
     1
102
RTVSPropertyOp24
 70
     1
102
RTVSPropertyOp25
 70
     1
102
RTVSPropertyOp26
 70
     1
102
RTVSPropertyOp27
 70
     1
102
RTVSPropertyOp28
 70
     1
102
RTVSPropertyOp29
 70
     1
102
RTVSPropertyOp30
 70
     1
102
RTVSPropertyOp31
 70
     1
102
RTVSPropertyOp32
 70
     1
102
RTVSPropertyOp33
 70
     1
102
RTVSPropertyOp34
 70
     1
102
RTVSPropertyOp35
 70
     1
102
RTVSPropertyOp36
 70
     1
102
RTVSPropertyOp37
 70
     1
102
RTVSPropertyOp38
 70
     1
102
RTVSPropertyOp39
 70
     1
102
RTVSPropertyOp40
 70
     1
102
RTVSPropertyOp41
 70
     1
102
RTVSPropertyOp42
 70
     1
102
RTVSPropertyOp43
 70
     1
102
RTVSPropertyOp44
 70
     1
102
RTVSPropertyOp45
 70
     1
102
RTVSPropertyOp46
 70
     1
102
RTVSPropertyOp47
 70
     1
102
RTVSPropertyOp48
 70
     1
102
RTVSPropertyOp49
 70
     1
102
RTVSPropertyOp50
 70
     1
102
RTVSPropertyOp51
 70
     0
102
RTVSPropertyOp52
 70
     0
102
RTVSPropertyOp53
 70
     1
102
RTVSPropertyOp54
 70
     1
102
RTVSPropertyOp55
 70
     1
102
RTVSPropertyOp56
 70
     1
102
RTVSPropertyOp57
 70
     1
102
RTVSPropertyOp58
 70
     1
102
RTVSPropertyOp59
 70
     1
102
RTVSPropertyOp60
 70
     1
102
RTVSPropertyOp61
 70
     1
102
RTVSPropertyOp62
 70
     1
  0
XRECORD
  5
DAD4
102
{ACAD_REACTORS
330
DAD3
102
}
330
DAD3
100
AcDbXrecord
280
     1
102
RTVSPost2010Prop28
280
     0
102
RTVSPost2010PropOp28
 70
     1
102
RTVSPost2010Prop29
280
     1
102
RTVSPost2010PropOp29
 70
     1
102
RTVSPost2010Prop30
280
     1
102
RTVSPost2010PropOp30
 70
     1
102
RTVSPost2010Prop31
280
     0
102
RTVSPost2010PropOp31
 70
     1
102
RTVSPost2010Prop32
280
     0
102
RTVSPost2010PropOp32
 70
     1
102
RTVSPost2010Prop33
280
     0
102
RTVSPost2010PropOp33
 70
     1
102
RTVSPost2010Prop34
280
     0
102
RTVSPost2010PropOp34
 70
     1
102
RTVSPost2010Prop35
280
     0
102
RTVSPost2010PropOp35
 70
     1
102
RTVSPost2010Prop36
280
     0
102
RTVSPost2010PropOp36
 70
     1
102
RTVSPost2010Prop37
 90
       50
102
RTVSPost2010PropOp37
 70
     1
102
RTVSPost2010Prop38
140
0.0
102
RTVSPost2010PropOp38
 70
     1
102
RTVSPost2010Prop39
140
1.0
102
RTVSPost2010PropOp39
 70
     1
102
RTVSPost2010Prop40
 90
        0
102
RTVSPost2010PropOp40
 70
     1
102
RTVSPost2010Prop41ColorIndex
 90
       18
102
RTVSPost2010Prop41ColorRGB
 90
        0
102
RTVSPost2010PropOp41
 70
     1
102
RTVSPost2010Prop42
 90
       50
102
RTVSPost2010PropOp42
 70
     1
102
RTVSPost2010Prop43
 90
        3
102
RTVSPost2010PropOp43
 70
     1
102
RTVSPost2010Prop44ColorIndex
 90
        5
102
RTVSPost2010Prop44ColorRGB
 90
      255
102
RTVSPost2010PropOp44
 70
     1
102
RTVSPost2010Prop45
280
     0
102
RTVSPost2010PropOp45
 70
     1
102
RTVSPost2010Prop46
 90
       50
102
RTVSPost2010PropOp46
 70
     1
102
RTVSPost2010Prop47
 90
       50
102
RTVSPost2010PropOp47
 70
     1
102
RTVSPost2010Prop48
 90
       50
102
RTVSPost2010PropOp48
 70
     1
102
RTVSPost2010Prop49
280
     0
102
RTVSPost2010PropOp49
 70
     1
102
RTVSPost2010Prop50
 90
       50
102
RTVSPost2010PropOp50
 70
     1
102
RTVSPost2010Prop51ColorIndex
 90
      256
102
RTVSPost2010Prop51ColorRGB
 90
-16777216
102
RTVSPost2010PropOp51
 70
     0
102
RTVSPost2010Prop52
140
1.0
102
RTVSPost2010PropOp52
 70
     0
102
RTVSPost2010Prop53
 90
        2
102
RTVSPost2010PropOp53
 70
     1
102
RTVSPost2010Prop54
  1
strokes_ogs.tif
102
RTVSPost2010PropOp54
 70
     1
102
RTVSPost2010Prop55
280
     0
102
RTVSPost2010PropOp55
 70
     1
102
RTVSPost2010Prop56
140
1.0
102
RTVSPost2010PropOp56
 70
     1
102
RTVSPost2010Prop57
140
1.0
102
RTVSPost2010PropOp57
 70
     1
102
RTVSPropertyOp0
 70
     1
102
RTVSPropertyOp1
 70
     1
102
RTVSPropertyOp2
 70
     1
102
RTVSPropertyOp3
 70
     1
102
RTVSPropertyOp4
 70
     1
102
RTVSPropertyOp5
 70
     1
102
RTVSPropertyOp6
 70
     1
102
RTVSPropertyOp7
 70
     1
102
RTVSPropertyOp8
 70
     1
102
RTVSPropertyOp9
 70
     1
102
RTVSPropertyOp10
 70
     1
102
RTVSPropertyOp11
 70
     1
102
RTVSPropertyOp12
 70
     1
102
RTVSPropertyOp13
 70
     1
102
RTVSPropertyOp14
 70
     1
102
RTVSPropertyOp15
 70
     1
102
RTVSPropertyOp16
 70
     1
102
RTVSPropertyOp17
 70
     1
102
RTVSPropertyOp18
 70
     1
102
RTVSPropertyOp19
 70
     1
102
RTVSPropertyOp20
 70
     1
102
RTVSPropertyOp21
 70
     1
102
RTVSPropertyOp22
 70
     1
102
RTVSPropertyOp23
 70
     1
102
RTVSPropertyOp24
 70
     1
102
RTVSPropertyOp25
 70
     1
102
RTVSPropertyOp26
 70
     1
102
RTVSPropertyOp27
 70
     1
102
RTVSPropertyOp28
 70
     1
102
RTVSPropertyOp29
 70
     1
102
RTVSPropertyOp30
 70
     1
102
RTVSPropertyOp31
 70
     1
102
RTVSPropertyOp32
 70
     1
102
RTVSPropertyOp33
 70
     1
102
RTVSPropertyOp34
 70
     1
102
RTVSPropertyOp35
 70
     1
102
RTVSPropertyOp36
 70
     1
102
RTVSPropertyOp37
 70
     1
102
RTVSPropertyOp38
 70
     1
102
RTVSPropertyOp39
 70
     1
102
RTVSPropertyOp40
 70
     1
102
RTVSPropertyOp41
 70
     1
102
RTVSPropertyOp42
 70
     1
102
RTVSPropertyOp43
 70
     1
102
RTVSPropertyOp44
 70
     1
102
RTVSPropertyOp45
 70
     1
102
RTVSPropertyOp46
 70
     1
102
RTVSPropertyOp47
 70
     1
102
RTVSPropertyOp48
 70
     1
102
RTVSPropertyOp49
 70
     1
102
RTVSPropertyOp50
 70
     1
102
RTVSPropertyOp51
 70
     0
102
RTVSPropertyOp52
 70
     0
102
RTVSPropertyOp53
 70
     1
102
RTVSPropertyOp54
 70
     1
102
RTVSPropertyOp55
 70
     1
102
RTVSPropertyOp56
 70
     1
102
RTVSPropertyOp57
 70
     1
102
RTVSPropertyOp58
 70
     1
102
RTVSPropertyOp59
 70
     1
102
RTVSPropertyOp60
 70
     1
102
RTVSPropertyOp61
 70
     1
102
RTVSPropertyOp62
 70
     1
  0
XRECORD
  5
DAD6
102
{ACAD_REACTORS
330
DAD5
102
}
330
DAD5
100
AcDbXrecord
280
     1
102
RTVSPost2010Prop28
280
     0
102
RTVSPost2010PropOp28
 70
     1
102
RTVSPost2010Prop29
280
     1
102
RTVSPost2010PropOp29
 70
     1
102
RTVSPost2010Prop30
280
     1
102
RTVSPost2010PropOp30
 70
     1
102
RTVSPost2010Prop31
280
     0
102
RTVSPost2010PropOp31
 70
     1
102
RTVSPost2010Prop32
280
     0
102
RTVSPost2010PropOp32
 70
     1
102
RTVSPost2010Prop33
280
     0
102
RTVSPost2010PropOp33
 70
     1
102
RTVSPost2010Prop34
280
     0
102
RTVSPost2010PropOp34
 70
     1
102
RTVSPost2010Prop35
280
     0
102
RTVSPost2010PropOp35
 70
     1
102
RTVSPost2010Prop36
280
     0
102
RTVSPost2010PropOp36
 70
     1
102
RTVSPost2010Prop37
 90
       50
102
RTVSPost2010PropOp37
 70
     1
102
RTVSPost2010Prop38
140
0.0
102
RTVSPost2010PropOp38
 70
     1
102
RTVSPost2010Prop39
140
1.0
102
RTVSPost2010PropOp39
 70
     1
102
RTVSPost2010Prop40
 90
        0
102
RTVSPost2010PropOp40
 70
     1
102
RTVSPost2010Prop41ColorIndex
 90
       18
102
RTVSPost2010Prop41ColorRGB
 90
        0
102
RTVSPost2010PropOp41
 70
     1
102
RTVSPost2010Prop42
 90
       50
102
RTVSPost2010PropOp42
 70
     1
102
RTVSPost2010Prop43
 90
        3
102
RTVSPost2010PropOp43
 70
     1
102
RTVSPost2010Prop44ColorIndex
 90
        5
102
RTVSPost2010Prop44ColorRGB
 90
      255
102
RTVSPost2010PropOp44
 70
     1
102
RTVSPost2010Prop45
280
     0
102
RTVSPost2010PropOp45
 70
     1
102
RTVSPost2010Prop46
 90
       50
102
RTVSPost2010PropOp46
 70
     1
102
RTVSPost2010Prop47
 90
       50
102
RTVSPost2010PropOp47
 70
     1
102
RTVSPost2010Prop48
 90
       50
102
RTVSPost2010PropOp48
 70
     1
102
RTVSPost2010Prop49
280
     0
102
RTVSPost2010PropOp49
 70
     1
102
RTVSPost2010Prop50
 90
       50
102
RTVSPost2010PropOp50
 70
     1
102
RTVSPost2010Prop51ColorIndex
 90
      256
102
RTVSPost2010Prop51ColorRGB
 90
-16777216
102
RTVSPost2010PropOp51
 70
     0
102
RTVSPost2010Prop52
140
1.0
102
RTVSPost2010PropOp52
 70
     0
102
RTVSPost2010Prop53
 90
        2
102
RTVSPost2010PropOp53
 70
     1
102
RTVSPost2010Prop54
  1
strokes_ogs.tif
102
RTVSPost2010PropOp54
 70
     1
102
RTVSPost2010Prop55
280
     0
102
RTVSPost2010PropOp55
 70
     1
102
RTVSPost2010Prop56
140
1.0
102
RTVSPost2010PropOp56
 70
     1
102
RTVSPost2010Prop57
140
1.0
102
RTVSPost2010PropOp57
 70
     1
102
RTVSPropertyOp0
 70
     1
102
RTVSPropertyOp1
 70
     1
102
RTVSPropertyOp2
 70
     1
102
RTVSPropertyOp3
 70
     1
102
RTVSPropertyOp4
 70
     1
102
RTVSPropertyOp5
 70
     1
102
RTVSPropertyOp6
 70
     1
102
RTVSPropertyOp7
 70
     1
102
RTVSPropertyOp8
 70
     1
102
RTVSPropertyOp9
 70
     1
102
RTVSPropertyOp10
 70
     1
102
RTVSPropertyOp11
 70
     1
102
RTVSPropertyOp12
 70
     1
102
RTVSPropertyOp13
 70
     1
102
RTVSPropertyOp14
 70
     1
102
RTVSPropertyOp15
 70
     1
102
RTVSPropertyOp16
 70
     1
102
RTVSPropertyOp17
 70
     1
102
RTVSPropertyOp18
 70
     1
102
RTVSPropertyOp19
 70
     1
102
RTVSPropertyOp20
 70
     1
102
RTVSPropertyOp21
 70
     1
102
RTVSPropertyOp22
 70
     1
102
RTVSPropertyOp23
 70
     1
102
RTVSPropertyOp24
 70
     1
102
RTVSPropertyOp25
 70
     1
102
RTVSPropertyOp26
 70
     1
102
RTVSPropertyOp27
 70
     1
102
RTVSPropertyOp28
 70
     1
102
RTVSPropertyOp29
 70
     1
102
RTVSPropertyOp30
 70
     1
102
RTVSPropertyOp31
 70
     1
102
RTVSPropertyOp32
 70
     1
102
RTVSPropertyOp33
 70
     1
102
RTVSPropertyOp34
 70
     1
102
RTVSPropertyOp35
 70
     1
102
RTVSPropertyOp36
 70
     1
102
RTVSPropertyOp37
 70
     1
102
RTVSPropertyOp38
 70
     1
102
RTVSPropertyOp39
 70
     1
102
RTVSPropertyOp40
 70
     1
102
RTVSPropertyOp41
 70
     1
102
RTVSPropertyOp42
 70
     1
102
RTVSPropertyOp43
 70
     1
102
RTVSPropertyOp44
 70
     1
102
RTVSPropertyOp45
 70
     1
102
RTVSPropertyOp46
 70
     1
102
RTVSPropertyOp47
 70
     1
102
RTVSPropertyOp48
 70
     1
102
RTVSPropertyOp49
 70
     1
102
RTVSPropertyOp50
 70
     1
102
RTVSPropertyOp51
 70
     0
102
RTVSPropertyOp52
 70
     0
102
RTVSPropertyOp53
 70
     1
102
RTVSPropertyOp54
 70
     1
102
RTVSPropertyOp55
 70
     1
102
RTVSPropertyOp56
 70
     1
102
RTVSPropertyOp57
 70
     1
102
RTVSPropertyOp58
 70
     1
102
RTVSPropertyOp59
 70
     1
102
RTVSPropertyOp60
 70
     1
102
RTVSPropertyOp61
 70
     1
102
RTVSPropertyOp62
 70
     1
  0
XRECORD
  5
DAD8
102
{ACAD_REACTORS
330
DAD7
102
}
330
DAD7
100
AcDbXrecord
280
     1
102
RTVSPost2010Prop28
280
     0
102
RTVSPost2010PropOp28
 70
     1
102
RTVSPost2010Prop29
280
     1
102
RTVSPost2010PropOp29
 70
     1
102
RTVSPost2010Prop30
280
     1
102
RTVSPost2010PropOp30
 70
     1
102
RTVSPost2010Prop31
280
     0
102
RTVSPost2010PropOp31
 70
     1
102
RTVSPost2010Prop32
280
     0
102
RTVSPost2010PropOp32
 70
     1
102
RTVSPost2010Prop33
280
     0
102
RTVSPost2010PropOp33
 70
     1
102
RTVSPost2010Prop34
280
     0
102
RTVSPost2010PropOp34
 70
     1
102
RTVSPost2010Prop35
280
     0
102
RTVSPost2010PropOp35
 70
     1
102
RTVSPost2010Prop36
280
     0
102
RTVSPost2010PropOp36
 70
     1
102
RTVSPost2010Prop37
 90
       50
102
RTVSPost2010PropOp37
 70
     1
102
RTVSPost2010Prop38
140
0.0
102
RTVSPost2010PropOp38
 70
     1
102
RTVSPost2010Prop39
140
1.0
102
RTVSPost2010PropOp39
 70
     1
102
RTVSPost2010Prop40
 90
        0
102
RTVSPost2010PropOp40
 70
     1
102
RTVSPost2010Prop41ColorIndex
 90
       18
102
RTVSPost2010Prop41ColorRGB
 90
        0
102
RTVSPost2010PropOp41
 70
     1
102
RTVSPost2010Prop42
 90
       50
102
RTVSPost2010PropOp42
 70
     1
102
RTVSPost2010Prop43
 90
        3
102
RTVSPost2010PropOp43
 70
     1
102
RTVSPost2010Prop44ColorIndex
 90
        5
102
RTVSPost2010Prop44ColorRGB
 90
      255
102
RTVSPost2010PropOp44
 70
     1
102
RTVSPost2010Prop45
280
     0
102
RTVSPost2010PropOp45
 70
     1
102
RTVSPost2010Prop46
 90
       50
102
RTVSPost2010PropOp46
 70
     1
102
RTVSPost2010Prop47
 90
       50
102
RTVSPost2010PropOp47
 70
     1
102
RTVSPost2010Prop48
 90
       50
102
RTVSPost2010PropOp48
 70
     1
102
RTVSPost2010Prop49
280
     0
102
RTVSPost2010PropOp49
 70
     1
102
RTVSPost2010Prop50
 90
       50
102
RTVSPost2010PropOp50
 70
     1
102
RTVSPost2010Prop51ColorIndex
 90
      256
102
RTVSPost2010Prop51ColorRGB
 90
-16777216
102
RTVSPost2010PropOp51
 70
     0
102
RTVSPost2010Prop52
140
1.0
102
RTVSPost2010PropOp52
 70
     0
102
RTVSPost2010Prop53
 90
        2
102
RTVSPost2010PropOp53
 70
     1
102
RTVSPost2010Prop54
  1
strokes_ogs.tif
102
RTVSPost2010PropOp54
 70
     1
102
RTVSPost2010Prop55
280
     0
102
RTVSPost2010PropOp55
 70
     1
102
RTVSPost2010Prop56
140
1.0
102
RTVSPost2010PropOp56
 70
     1
102
RTVSPost2010Prop57
140
1.0
102
RTVSPost2010PropOp57
 70
     1
102
RTVSPropertyOp0
 70
     1
102
RTVSPropertyOp1
 70
     1
102
RTVSPropertyOp2
 70
     1
102
RTVSPropertyOp3
 70
     1
102
RTVSPropertyOp4
 70
     1
102
RTVSPropertyOp5
 70
     1
102
RTVSPropertyOp6
 70
     1
102
RTVSPropertyOp7
 70
     1
102
RTVSPropertyOp8
 70
     1
102
RTVSPropertyOp9
 70
     1
102
RTVSPropertyOp10
 70
     1
102
RTVSPropertyOp11
 70
     1
102
RTVSPropertyOp12
 70
     1
102
RTVSPropertyOp13
 70
     1
102
RTVSPropertyOp14
 70
     1
102
RTVSPropertyOp15
 70
     1
102
RTVSPropertyOp16
 70
     1
102
RTVSPropertyOp17
 70
     1
102
RTVSPropertyOp18
 70
     1
102
RTVSPropertyOp19
 70
     1
102
RTVSPropertyOp20
 70
     1
102
RTVSPropertyOp21
 70
     1
102
RTVSPropertyOp22
 70
     1
102
RTVSPropertyOp23
 70
     1
102
RTVSPropertyOp24
 70
     1
102
RTVSPropertyOp25
 70
     1
102
RTVSPropertyOp26
 70
     1
102
RTVSPropertyOp27
 70
     1
102
RTVSPropertyOp28
 70
     1
102
RTVSPropertyOp29
 70
     1
102
RTVSPropertyOp30
 70
     1
102
RTVSPropertyOp31
 70
     1
102
RTVSPropertyOp32
 70
     1
102
RTVSPropertyOp33
 70
     1
102
RTVSPropertyOp34
 70
     1
102
RTVSPropertyOp35
 70
     1
102
RTVSPropertyOp36
 70
     1
102
RTVSPropertyOp37
 70
     1
102
RTVSPropertyOp38
 70
     1
102
RTVSPropertyOp39
 70
     1
102
RTVSPropertyOp40
 70
     1
102
RTVSPropertyOp41
 70
     1
102
RTVSPropertyOp42
 70
     1
102
RTVSPropertyOp43
 70
     1
102
RTVSPropertyOp44
 70
     1
102
RTVSPropertyOp45
 70
     1
102
RTVSPropertyOp46
 70
     1
102
RTVSPropertyOp47
 70
     1
102
RTVSPropertyOp48
 70
     1
102
RTVSPropertyOp49
 70
     1
102
RTVSPropertyOp50
 70
     1
102
RTVSPropertyOp51
 70
     0
102
RTVSPropertyOp52
 70
     0
102
RTVSPropertyOp53
 70
     1
102
RTVSPropertyOp54
 70
     1
102
RTVSPropertyOp55
 70
     1
102
RTVSPropertyOp56
 70
     1
102
RTVSPropertyOp57
 70
     1
102
RTVSPropertyOp58
 70
     1
102
RTVSPropertyOp59
 70
     1
102
RTVSPropertyOp60
 70
     1
102
RTVSPropertyOp61
 70
     1
102
RTVSPropertyOp62
 70
     1
  0
XRECORD
  5
DAE0
102
{ACAD_REACTORS
330
DADF
102
}
330
DADF
100
AcDbXrecord
280
     1
102
RTVSPost2010Prop28
280
     0
102
RTVSPost2010PropOp28
 70
     1
102
RTVSPost2010Prop29
280
     1
102
RTVSPost2010PropOp29
 70
     1
102
RTVSPost2010Prop30
280
     1
102
RTVSPost2010PropOp30
 70
     1
102
RTVSPost2010Prop31
280
     0
102
RTVSPost2010PropOp31
 70
     1
102
RTVSPost2010Prop32
280
     0
102
RTVSPost2010PropOp32
 70
     1
102
RTVSPost2010Prop33
280
     0
102
RTVSPost2010PropOp33
 70
     1
102
RTVSPost2010Prop34
280
     0
102
RTVSPost2010PropOp34
 70
     1
102
RTVSPost2010Prop35
280
     0
102
RTVSPost2010PropOp35
 70
     1
102
RTVSPost2010Prop36
280
     0
102
RTVSPost2010PropOp36
 70
     1
102
RTVSPost2010Prop37
 90
       50
102
RTVSPost2010PropOp37
 70
     1
102
RTVSPost2010Prop38
140
0.0
102
RTVSPost2010PropOp38
 70
     1
102
RTVSPost2010Prop39
140
1.0
102
RTVSPost2010PropOp39
 70
     1
102
RTVSPost2010Prop40
 90
        0
102
RTVSPost2010PropOp40
 70
     1
102
RTVSPost2010Prop41ColorIndex
 90
       18
102
RTVSPost2010Prop41ColorRGB
 90
        0
102
RTVSPost2010PropOp41
 70
     1
102
RTVSPost2010Prop42
 90
       50
102
RTVSPost2010PropOp42
 70
     1
102
RTVSPost2010Prop43
 90
        3
102
RTVSPost2010PropOp43
 70
     1
102
RTVSPost2010Prop44ColorIndex
 90
        5
102
RTVSPost2010Prop44ColorRGB
 90
      255
102
RTVSPost2010PropOp44
 70
     1
102
RTVSPost2010Prop45
280
     0
102
RTVSPost2010PropOp45
 70
     1
102
RTVSPost2010Prop46
 90
       50
102
RTVSPost2010PropOp46
 70
     1
102
RTVSPost2010Prop47
 90
       50
102
RTVSPost2010PropOp47
 70
     1
102
RTVSPost2010Prop48
 90
       50
102
RTVSPost2010PropOp48
 70
     1
102
RTVSPost2010Prop49
280
     0
102
RTVSPost2010PropOp49
 70
     1
102
RTVSPost2010Prop50
 90
       50
102
RTVSPost2010PropOp50
 70
     1
102
RTVSPost2010Prop51ColorIndex
 90
      256
102
RTVSPost2010Prop51ColorRGB
 90
-16777216
102
RTVSPost2010PropOp51
 70
     0
102
RTVSPost2010Prop52
140
1.0
102
RTVSPost2010PropOp52
 70
     0
102
RTVSPost2010Prop53
 90
        2
102
RTVSPost2010PropOp53
 70
     1
102
RTVSPost2010Prop54
  1
strokes_ogs.tif
102
RTVSPost2010PropOp54
 70
     1
102
RTVSPost2010Prop55
280
     0
102
RTVSPost2010PropOp55
 70
     1
102
RTVSPost2010Prop56
140
1.0
102
RTVSPost2010PropOp56
 70
     1
102
RTVSPost2010Prop57
140
1.0
102
RTVSPost2010PropOp57
 70
     1
102
RTVSPropertyOp0
 70
     1
102
RTVSPropertyOp1
 70
     1
102
RTVSPropertyOp2
 70
     1
102
RTVSPropertyOp3
 70
     1
102
RTVSPropertyOp4
 70
     1
102
RTVSPropertyOp5
 70
     1
102
RTVSPropertyOp6
 70
     1
102
RTVSPropertyOp7
 70
     1
102
RTVSPropertyOp8
 70
     1
102
RTVSPropertyOp9
 70
     1
102
RTVSPropertyOp10
 70
     1
102
RTVSPropertyOp11
 70
     1
102
RTVSPropertyOp12
 70
     1
102
RTVSPropertyOp13
 70
     1
102
RTVSPropertyOp14
 70
     1
102
RTVSPropertyOp15
 70
     1
102
RTVSPropertyOp16
 70
     1
102
RTVSPropertyOp17
 70
     1
102
RTVSPropertyOp18
 70
     1
102
RTVSPropertyOp19
 70
     1
102
RTVSPropertyOp20
 70
     1
102
RTVSPropertyOp21
 70
     1
102
RTVSPropertyOp22
 70
     1
102
RTVSPropertyOp23
 70
     1
102
RTVSPropertyOp24
 70
     1
102
RTVSPropertyOp25
 70
     1
102
RTVSPropertyOp26
 70
     1
102
RTVSPropertyOp27
 70
     1
102
RTVSPropertyOp28
 70
     1
102
RTVSPropertyOp29
 70
     1
102
RTVSPropertyOp30
 70
     1
102
RTVSPropertyOp31
 70
     1
102
RTVSPropertyOp32
 70
     1
102
RTVSPropertyOp33
 70
     1
102
RTVSPropertyOp34
 70
     1
102
RTVSPropertyOp35
 70
     1
102
RTVSPropertyOp36
 70
     1
102
RTVSPropertyOp37
 70
     1
102
RTVSPropertyOp38
 70
     1
102
RTVSPropertyOp39
 70
     1
102
RTVSPropertyOp40
 70
     1
102
RTVSPropertyOp41
 70
     1
102
RTVSPropertyOp42
 70
     1
102
RTVSPropertyOp43
 70
     1
102
RTVSPropertyOp44
 70
     1
102
RTVSPropertyOp45
 70
     1
102
RTVSPropertyOp46
 70
     1
102
RTVSPropertyOp47
 70
     1
102
RTVSPropertyOp48
 70
     1
102
RTVSPropertyOp49
 70
     1
102
RTVSPropertyOp50
 70
     1
102
RTVSPropertyOp51
 70
     0
102
RTVSPropertyOp52
 70
     0
102
RTVSPropertyOp53
 70
     1
102
RTVSPropertyOp54
 70
     1
102
RTVSPropertyOp55
 70
     1
102
RTVSPropertyOp56
 70
     1
102
RTVSPropertyOp57
 70
     1
102
RTVSPropertyOp58
 70
     1
102
RTVSPropertyOp59
 70
     1
102
RTVSPropertyOp60
 70
     1
102
RTVSPropertyOp61
 70
     1
102
RTVSPropertyOp62
 70
     1
  0
XRECORD
  5
DAFC
102
{ACAD_REACTORS
330
DAFB
102
}
330
DAFB
100
AcDbXrecord
280
     1
102
RTVSPost2010Prop28
280
     0
102
RTVSPost2010PropOp28
 70
     1
102
RTVSPost2010Prop29
280
     1
102
RTVSPost2010PropOp29
 70
     1
102
RTVSPost2010Prop30
280
     1
102
RTVSPost2010PropOp30
 70
     1
102
RTVSPost2010Prop31
280
     0
102
RTVSPost2010PropOp31
 70
     1
102
RTVSPost2010Prop32
280
     0
102
RTVSPost2010PropOp32
 70
     1
102
RTVSPost2010Prop33
280
     0
102
RTVSPost2010PropOp33
 70
     1
102
RTVSPost2010Prop34
280
     0
102
RTVSPost2010PropOp34
 70
     1
102
RTVSPost2010Prop35
280
     0
102
RTVSPost2010PropOp35
 70
     1
102
RTVSPost2010Prop36
280
     0
102
RTVSPost2010PropOp36
 70
     1
102
RTVSPost2010Prop37
 90
       50
102
RTVSPost2010PropOp37
 70
     0
102
RTVSPost2010Prop38
140
0.0
102
RTVSPost2010PropOp38
 70
     0
102
RTVSPost2010Prop39
140
1.0
102
RTVSPost2010PropOp39
 70
     0
102
RTVSPost2010Prop40
 90
        0
102
RTVSPost2010PropOp40
 70
     0
102
RTVSPost2010Prop41ColorIndex
 90
       18
102
RTVSPost2010Prop41ColorRGB
 90
        0
102
RTVSPost2010PropOp41
 70
     0
102
RTVSPost2010Prop42
 90
       50
102
RTVSPost2010PropOp42
 70
     0
102
RTVSPost2010Prop43
 90
        3
102
RTVSPost2010PropOp43
 70
     0
102
RTVSPost2010Prop44ColorIndex
 90
        5
102
RTVSPost2010Prop44ColorRGB
 90
      255
102
RTVSPost2010PropOp44
 70
     0
102
RTVSPost2010Prop45
280
     0
102
RTVSPost2010PropOp45
 70
     1
102
RTVSPost2010Prop46
 90
       50
102
RTVSPost2010PropOp46
 70
     0
102
RTVSPost2010Prop47
 90
       50
102
RTVSPost2010PropOp47
 70
     0
102
RTVSPost2010Prop48
 90
       50
102
RTVSPost2010PropOp48
 70
     0
102
RTVSPost2010Prop49
280
     0
102
RTVSPost2010PropOp49
 70
     1
102
RTVSPost2010Prop50
 90
       50
102
RTVSPost2010PropOp50
 70
     0
102
RTVSPost2010Prop51ColorIndex
 90
      256
102
RTVSPost2010Prop51ColorRGB
 90
-16777216
102
RTVSPost2010PropOp51
 70
     0
102
RTVSPost2010Prop52
140
1.0
102
RTVSPost2010PropOp52
 70
     0
102
RTVSPost2010Prop53
 90
        2
102
RTVSPost2010PropOp53
 70
     0
102
RTVSPost2010Prop54
  1
strokes_ogs.tif
102
RTVSPost2010PropOp54
 70
     0
102
RTVSPost2010Prop55
280
     0
102
RTVSPost2010PropOp55
 70
     1
102
RTVSPost2010Prop56
140
1.0
102
RTVSPost2010PropOp56
 70
     0
102
RTVSPost2010Prop57
140
1.0
102
RTVSPost2010PropOp57
 70
     0
102
RTVSPropertyOp0
 70
     0
102
RTVSPropertyOp1
 70
     0
102
RTVSPropertyOp2
 70
     0
102
RTVSPropertyOp3
 70
     0
102
RTVSPropertyOp4
 70
     0
102
RTVSPropertyOp5
 70
     0
102
RTVSPropertyOp6
 70
     0
102
RTVSPropertyOp7
 70
     0
102
RTVSPropertyOp8
 70
     0
102
RTVSPropertyOp9
 70
     0
102
RTVSPropertyOp10
 70
     0
102
RTVSPropertyOp11
 70
     0
102
RTVSPropertyOp12
 70
     0
102
RTVSPropertyOp13
 70
     0
102
RTVSPropertyOp14
 70
     2
102
RTVSPropertyOp15
 70
     0
102
RTVSPropertyOp16
 70
     0
102
RTVSPropertyOp17
 70
     0
102
RTVSPropertyOp18
 70
     0
102
RTVSPropertyOp19
 70
     0
102
RTVSPropertyOp20
 70
     0
102
RTVSPropertyOp21
 70
     0
102
RTVSPropertyOp22
 70
     0
102
RTVSPropertyOp23
 70
     0
102
RTVSPropertyOp24
 70
     0
102
RTVSPropertyOp25
 70
     0
102
RTVSPropertyOp26
 70
     0
102
RTVSPropertyOp27
 70
     0
102
RTVSPropertyOp28
 70
     1
102
RTVSPropertyOp29
 70
     1
102
RTVSPropertyOp30
 70
     1
102
RTVSPropertyOp31
 70
     1
102
RTVSPropertyOp32
 70
     1
102
RTVSPropertyOp33
 70
     1
102
RTVSPropertyOp34
 70
     1
102
RTVSPropertyOp35
 70
     1
102
RTVSPropertyOp36
 70
     1
102
RTVSPropertyOp37
 70
     0
102
RTVSPropertyOp38
 70
     0
102
RTVSPropertyOp39
 70
     0
102
RTVSPropertyOp40
 70
     0
102
RTVSPropertyOp41
 70
     0
102
RTVSPropertyOp42
 70
     0
102
RTVSPropertyOp43
 70
     0
102
RTVSPropertyOp44
 70
     0
102
RTVSPropertyOp45
 70
     1
102
RTVSPropertyOp46
 70
     0
102
RTVSPropertyOp47
 70
     0
102
RTVSPropertyOp48
 70
     0
102
RTVSPropertyOp49
 70
     1
102
RTVSPropertyOp50
 70
     0
102
RTVSPropertyOp51
 70
     0
102
RTVSPropertyOp52
 70
     0
102
RTVSPropertyOp53
 70
     0
102
RTVSPropertyOp54
 70
     0
102
RTVSPropertyOp55
 70
     1
102
RTVSPropertyOp56
 70
     0
102
RTVSPropertyOp57
 70
     0
102
RTVSPropertyOp58
 70
     0
102
RTVSPropertyOp59
 70
     0
102
RTVSPropertyOp60
 70
     0
102
RTVSPropertyOp61
 70
     0
102
RTVSPropertyOp62
 70
     0
  0
XRECORD
  5
DAEC
102
{ACAD_REACTORS
330
DAEB
102
}
330
DAEB
100
AcDbXrecord
280
     1
102
RTVSPost2010Prop28
280
     0
102
RTVSPost2010PropOp28
 70
     1
102
RTVSPost2010Prop29
280
     1
102
RTVSPost2010PropOp29
 70
     1
102
RTVSPost2010Prop30
280
     1
102
RTVSPost2010PropOp30
 70
     1
102
RTVSPost2010Prop31
280
     0
102
RTVSPost2010PropOp31
 70
     1
102
RTVSPost2010Prop32
280
     0
102
RTVSPost2010PropOp32
 70
     1
102
RTVSPost2010Prop33
280
     0
102
RTVSPost2010PropOp33
 70
     1
102
RTVSPost2010Prop34
280
     0
102
RTVSPost2010PropOp34
 70
     1
102
RTVSPost2010Prop35
280
     0
102
RTVSPost2010PropOp35
 70
     1
102
RTVSPost2010Prop36
280
     0
102
RTVSPost2010PropOp36
 70
     1
102
RTVSPost2010Prop37
 90
       50
102
RTVSPost2010PropOp37
 70
     1
102
RTVSPost2010Prop38
140
0.0
102
RTVSPost2010PropOp38
 70
     1
102
RTVSPost2010Prop39
140
1.0
102
RTVSPost2010PropOp39
 70
     1
102
RTVSPost2010Prop40
 90
        0
102
RTVSPost2010PropOp40
 70
     1
102
RTVSPost2010Prop41ColorIndex
 90
       18
102
RTVSPost2010Prop41ColorRGB
 90
        0
102
RTVSPost2010PropOp41
 70
     1
102
RTVSPost2010Prop42
 90
       50
102
RTVSPost2010PropOp42
 70
     1
102
RTVSPost2010Prop43
 90
        3
102
RTVSPost2010PropOp43
 70
     1
102
RTVSPost2010Prop44ColorIndex
 90
        5
102
RTVSPost2010Prop44ColorRGB
 90
      255
102
RTVSPost2010PropOp44
 70
     1
102
RTVSPost2010Prop45
280
     0
102
RTVSPost2010PropOp45
 70
     1
102
RTVSPost2010Prop46
 90
       50
102
RTVSPost2010PropOp46
 70
     1
102
RTVSPost2010Prop47
 90
       50
102
RTVSPost2010PropOp47
 70
     1
102
RTVSPost2010Prop48
 90
       50
102
RTVSPost2010PropOp48
 70
     1
102
RTVSPost2010Prop49
280
     0
102
RTVSPost2010PropOp49
 70
     1
102
RTVSPost2010Prop50
 90
       50
102
RTVSPost2010PropOp50
 70
     1
102
RTVSPost2010Prop51ColorIndex
 90
      256
102
RTVSPost2010Prop51ColorRGB
 90
-16777216
102
RTVSPost2010PropOp51
 70
     0
102
RTVSPost2010Prop52
140
1.0
102
RTVSPost2010PropOp52
 70
     0
102
RTVSPost2010Prop53
 90
        2
102
RTVSPost2010PropOp53
 70
     1
102
RTVSPost2010Prop54
  1
strokes_ogs.tif
102
RTVSPost2010PropOp54
 70
     1
102
RTVSPost2010Prop55
280
     0
102
RTVSPost2010PropOp55
 70
     1
102
RTVSPost2010Prop56
140
1.0
102
RTVSPost2010PropOp56
 70
     1
102
RTVSPost2010Prop57
140
1.0
102
RTVSPost2010PropOp57
 70
     1
102
RTVSPropertyOp0
 70
     1
102
RTVSPropertyOp1
 70
     1
102
RTVSPropertyOp2
 70
     1
102
RTVSPropertyOp3
 70
     1
102
RTVSPropertyOp4
 70
     1
102
RTVSPropertyOp5
 70
     1
102
RTVSPropertyOp6
 70
     1
102
RTVSPropertyOp7
 70
     1
102
RTVSPropertyOp8
 70
     1
102
RTVSPropertyOp9
 70
     1
102
RTVSPropertyOp10
 70
     1
102
RTVSPropertyOp11
 70
     1
102
RTVSPropertyOp12
 70
     1
102
RTVSPropertyOp13
 70
     1
102
RTVSPropertyOp14
 70
     1
102
RTVSPropertyOp15
 70
     1
102
RTVSPropertyOp16
 70
     1
102
RTVSPropertyOp17
 70
     1
102
RTVSPropertyOp18
 70
     1
102
RTVSPropertyOp19
 70
     1
102
RTVSPropertyOp20
 70
     1
102
RTVSPropertyOp21
 70
     1
102
RTVSPropertyOp22
 70
     1
102
RTVSPropertyOp23
 70
     1
102
RTVSPropertyOp24
 70
     1
102
RTVSPropertyOp25
 70
     1
102
RTVSPropertyOp26
 70
     1
102
RTVSPropertyOp27
 70
     1
102
RTVSPropertyOp28
 70
     1
102
RTVSPropertyOp29
 70
     1
102
RTVSPropertyOp30
 70
     1
102
RTVSPropertyOp31
 70
     1
102
RTVSPropertyOp32
 70
     1
102
RTVSPropertyOp33
 70
     1
102
RTVSPropertyOp34
 70
     1
102
RTVSPropertyOp35
 70
     1
102
RTVSPropertyOp36
 70
     1
102
RTVSPropertyOp37
 70
     1
102
RTVSPropertyOp38
 70
     1
102
RTVSPropertyOp39
 70
     1
102
RTVSPropertyOp40
 70
     1
102
RTVSPropertyOp41
 70
     1
102
RTVSPropertyOp42
 70
     1
102
RTVSPropertyOp43
 70
     1
102
RTVSPropertyOp44
 70
     1
102
RTVSPropertyOp45
 70
     1
102
RTVSPropertyOp46
 70
     1
102
RTVSPropertyOp47
 70
     1
102
RTVSPropertyOp48
 70
     1
102
RTVSPropertyOp49
 70
     1
102
RTVSPropertyOp50
 70
     1
102
RTVSPropertyOp51
 70
     0
102
RTVSPropertyOp52
 70
     0
102
RTVSPropertyOp53
 70
     1
102
RTVSPropertyOp54
 70
     1
102
RTVSPropertyOp55
 70
     1
102
RTVSPropertyOp56
 70
     1
102
RTVSPropertyOp57
 70
     1
102
RTVSPropertyOp58
 70
     1
102
RTVSPropertyOp59
 70
     1
102
RTVSPropertyOp60
 70
     1
102
RTVSPropertyOp61
 70
     1
102
RTVSPropertyOp62
 70
     1
  0
XRECORD
  5
DAFE
102
{ACAD_REACTORS
330
DAFD
102
}
330
DAFD
100
AcDbXrecord
280
     1
102
RTVSPost2010Prop28
280
     0
102
RTVSPost2010PropOp28
 70
     1
102
RTVSPost2010Prop29
280
     1
102
RTVSPost2010PropOp29
 70
     1
102
RTVSPost2010Prop30
280
     1
102
RTVSPost2010PropOp30
 70
     1
102
RTVSPost2010Prop31
280
     0
102
RTVSPost2010PropOp31
 70
     1
102
RTVSPost2010Prop32
280
     0
102
RTVSPost2010PropOp32
 70
     1
102
RTVSPost2010Prop33
280
     0
102
RTVSPost2010PropOp33
 70
     1
102
RTVSPost2010Prop34
280
     0
102
RTVSPost2010PropOp34
 70
     1
102
RTVSPost2010Prop35
280
     0
102
RTVSPost2010PropOp35
 70
     1
102
RTVSPost2010Prop36
280
     0
102
RTVSPost2010PropOp36
 70
     1
102
RTVSPost2010Prop37
 90
       50
102
RTVSPost2010PropOp37
 70
     0
102
RTVSPost2010Prop38
140
0.0
102
RTVSPost2010PropOp38
 70
     0
102
RTVSPost2010Prop39
140
1.0
102
RTVSPost2010PropOp39
 70
     0
102
RTVSPost2010Prop40
 90
        0
102
RTVSPost2010PropOp40
 70
     0
102
RTVSPost2010Prop41ColorIndex
 90
       18
102
RTVSPost2010Prop41ColorRGB
 90
        0
102
RTVSPost2010PropOp41
 70
     0
102
RTVSPost2010Prop42
 90
       50
102
RTVSPost2010PropOp42
 70
     0
102
RTVSPost2010Prop43
 90
        3
102
RTVSPost2010PropOp43
 70
     0
102
RTVSPost2010Prop44ColorIndex
 90
        5
102
RTVSPost2010Prop44ColorRGB
 90
      255
102
RTVSPost2010PropOp44
 70
     0
102
RTVSPost2010Prop45
280
     0
102
RTVSPost2010PropOp45
 70
     1
102
RTVSPost2010Prop46
 90
       50
102
RTVSPost2010PropOp46
 70
     0
102
RTVSPost2010Prop47
 90
       50
102
RTVSPost2010PropOp47
 70
     0
102
RTVSPost2010Prop48
 90
       50
102
RTVSPost2010PropOp48
 70
     0
102
RTVSPost2010Prop49
280
     0
102
RTVSPost2010PropOp49
 70
     1
102
RTVSPost2010Prop50
 90
       50
102
RTVSPost2010PropOp50
 70
     0
102
RTVSPost2010Prop51ColorIndex
 90
      256
102
RTVSPost2010Prop51ColorRGB
 90
-16777216
102
RTVSPost2010PropOp51
 70
     0
102
RTVSPost2010Prop52
140
1.0
102
RTVSPost2010PropOp52
 70
     0
102
RTVSPost2010Prop53
 90
        2
102
RTVSPost2010PropOp53
 70
     0
102
RTVSPost2010Prop54
  1
strokes_ogs.tif
102
RTVSPost2010PropOp54
 70
     0
102
RTVSPost2010Prop55
280
     0
102
RTVSPost2010PropOp55
 70
     1
102
RTVSPost2010Prop56
140
1.0
102
RTVSPost2010PropOp56
 70
     0
102
RTVSPost2010Prop57
140
1.0
102
RTVSPost2010PropOp57
 70
     0
102
RTVSPropertyOp0
 70
     0
102
RTVSPropertyOp1
 70
     0
102
RTVSPropertyOp2
 70
     0
102
RTVSPropertyOp3
 70
     0
102
RTVSPropertyOp4
 70
     0
102
RTVSPropertyOp5
 70
     0
102
RTVSPropertyOp6
 70
     0
102
RTVSPropertyOp7
 70
     0
102
RTVSPropertyOp8
 70
     0
102
RTVSPropertyOp9
 70
     0
102
RTVSPropertyOp10
 70
     0
102
RTVSPropertyOp11
 70
     0
102
RTVSPropertyOp12
 70
     0
102
RTVSPropertyOp13
 70
     0
102
RTVSPropertyOp14
 70
     2
102
RTVSPropertyOp15
 70
     0
102
RTVSPropertyOp16
 70
     0
102
RTVSPropertyOp17
 70
     0
102
RTVSPropertyOp18
 70
     0
102
RTVSPropertyOp19
 70
     0
102
RTVSPropertyOp20
 70
     0
102
RTVSPropertyOp21
 70
     0
102
RTVSPropertyOp22
 70
     0
102
RTVSPropertyOp23
 70
     0
102
RTVSPropertyOp24
 70
     0
102
RTVSPropertyOp25
 70
     0
102
RTVSPropertyOp26
 70
     0
102
RTVSPropertyOp27
 70
     0
102
RTVSPropertyOp28
 70
     1
102
RTVSPropertyOp29
 70
     1
102
RTVSPropertyOp30
 70
     1
102
RTVSPropertyOp31
 70
     1
102
RTVSPropertyOp32
 70
     1
102
RTVSPropertyOp33
 70
     1
102
RTVSPropertyOp34
 70
     1
102
RTVSPropertyOp35
 70
     1
102
RTVSPropertyOp36
 70
     1
102
RTVSPropertyOp37
 70
     0
102
RTVSPropertyOp38
 70
     0
102
RTVSPropertyOp39
 70
     0
102
RTVSPropertyOp40
 70
     0
102
RTVSPropertyOp41
 70
     0
102
RTVSPropertyOp42
 70
     0
102
RTVSPropertyOp43
 70
     0
102
RTVSPropertyOp44
 70
     0
102
RTVSPropertyOp45
 70
     1
102
RTVSPropertyOp46
 70
     0
102
RTVSPropertyOp47
 70
     0
102
RTVSPropertyOp48
 70
     0
102
RTVSPropertyOp49
 70
     1
102
RTVSPropertyOp50
 70
     0
102
RTVSPropertyOp51
 70
     0
102
RTVSPropertyOp52
 70
     0
102
RTVSPropertyOp53
 70
     0
102
RTVSPropertyOp54
 70
     0
102
RTVSPropertyOp55
 70
     1
102
RTVSPropertyOp56
 70
     0
102
RTVSPropertyOp57
 70
     0
102
RTVSPropertyOp58
 70
     0
102
RTVSPropertyOp59
 70
     0
102
RTVSPropertyOp60
 70
     0
102
RTVSPropertyOp61
 70
     0
102
RTVSPropertyOp62
 70
     0
  0
XRECORD
  5
DAE4
102
{ACAD_REACTORS
330
DAE3
102
}
330
DAE3
100
AcDbXrecord
280
     1
102
RTVSPost2010Prop28
280
     0
102
RTVSPost2010PropOp28
 70
     1
102
RTVSPost2010Prop29
280
     1
102
RTVSPost2010PropOp29
 70
     1
102
RTVSPost2010Prop30
280
     1
102
RTVSPost2010PropOp30
 70
     1
102
RTVSPost2010Prop31
280
     0
102
RTVSPost2010PropOp31
 70
     1
102
RTVSPost2010Prop32
280
     0
102
RTVSPost2010PropOp32
 70
     1
102
RTVSPost2010Prop33
280
     0
102
RTVSPost2010PropOp33
 70
     1
102
RTVSPost2010Prop34
280
     0
102
RTVSPost2010PropOp34
 70
     1
102
RTVSPost2010Prop35
280
     0
102
RTVSPost2010PropOp35
 70
     1
102
RTVSPost2010Prop36
280
     0
102
RTVSPost2010PropOp36
 70
     1
102
RTVSPost2010Prop37
 90
       50
102
RTVSPost2010PropOp37
 70
     1
102
RTVSPost2010Prop38
140
0.0
102
RTVSPost2010PropOp38
 70
     1
102
RTVSPost2010Prop39
140
1.0
102
RTVSPost2010PropOp39
 70
     1
102
RTVSPost2010Prop40
 90
        0
102
RTVSPost2010PropOp40
 70
     1
102
RTVSPost2010Prop41ColorIndex
 90
       18
102
RTVSPost2010Prop41ColorRGB
 90
        0
102
RTVSPost2010PropOp41
 70
     1
102
RTVSPost2010Prop42
 90
       50
102
RTVSPost2010PropOp42
 70
     1
102
RTVSPost2010Prop43
 90
        3
102
RTVSPost2010PropOp43
 70
     1
102
RTVSPost2010Prop44ColorIndex
 90
        5
102
RTVSPost2010Prop44ColorRGB
 90
      255
102
RTVSPost2010PropOp44
 70
     1
102
RTVSPost2010Prop45
280
     0
102
RTVSPost2010PropOp45
 70
     1
102
RTVSPost2010Prop46
 90
       50
102
RTVSPost2010PropOp46
 70
     1
102
RTVSPost2010Prop47
 90
       50
102
RTVSPost2010PropOp47
 70
     1
102
RTVSPost2010Prop48
 90
       50
102
RTVSPost2010PropOp48
 70
     1
102
RTVSPost2010Prop49
280
     0
102
RTVSPost2010PropOp49
 70
     1
102
RTVSPost2010Prop50
 90
       50
102
RTVSPost2010PropOp50
 70
     1
102
RTVSPost2010Prop51ColorIndex
 90
      256
102
RTVSPost2010Prop51ColorRGB
 90
-16777216
102
RTVSPost2010PropOp51
 70
     0
102
RTVSPost2010Prop52
140
1.0
102
RTVSPost2010PropOp52
 70
     0
102
RTVSPost2010Prop53
 90
        2
102
RTVSPost2010PropOp53
 70
     1
102
RTVSPost2010Prop54
  1
strokes_ogs.tif
102
RTVSPost2010PropOp54
 70
     1
102
RTVSPost2010Prop55
280
     0
102
RTVSPost2010PropOp55
 70
     1
102
RTVSPost2010Prop56
140
1.0
102
RTVSPost2010PropOp56
 70
     1
102
RTVSPost2010Prop57
140
1.0
102
RTVSPost2010PropOp57
 70
     1
102
RTVSPropertyOp0
 70
     1
102
RTVSPropertyOp1
 70
     1
102
RTVSPropertyOp2
 70
     1
102
RTVSPropertyOp3
 70
     1
102
RTVSPropertyOp4
 70
     1
102
RTVSPropertyOp5
 70
     1
102
RTVSPropertyOp6
 70
     1
102
RTVSPropertyOp7
 70
     1
102
RTVSPropertyOp8
 70
     1
102
RTVSPropertyOp9
 70
     1
102
RTVSPropertyOp10
 70
     1
102
RTVSPropertyOp11
 70
     1
102
RTVSPropertyOp12
 70
     1
102
RTVSPropertyOp13
 70
     1
102
RTVSPropertyOp14
 70
     1
102
RTVSPropertyOp15
 70
     1
102
RTVSPropertyOp16
 70
     1
102
RTVSPropertyOp17
 70
     1
102
RTVSPropertyOp18
 70
     1
102
RTVSPropertyOp19
 70
     1
102
RTVSPropertyOp20
 70
     1
102
RTVSPropertyOp21
 70
     1
102
RTVSPropertyOp22
 70
     1
102
RTVSPropertyOp23
 70
     1
102
RTVSPropertyOp24
 70
     1
102
RTVSPropertyOp25
 70
     1
102
RTVSPropertyOp26
 70
     1
102
RTVSPropertyOp27
 70
     1
102
RTVSPropertyOp28
 70
     1
102
RTVSPropertyOp29
 70
     1
102
RTVSPropertyOp30
 70
     1
102
RTVSPropertyOp31
 70
     1
102
RTVSPropertyOp32
 70
     1
102
RTVSPropertyOp33
 70
     1
102
RTVSPropertyOp34
 70
     1
102
RTVSPropertyOp35
 70
     1
102
RTVSPropertyOp36
 70
     1
102
RTVSPropertyOp37
 70
     1
102
RTVSPropertyOp38
 70
     1
102
RTVSPropertyOp39
 70
     1
102
RTVSPropertyOp40
 70
     1
102
RTVSPropertyOp41
 70
     1
102
RTVSPropertyOp42
 70
     1
102
RTVSPropertyOp43
 70
     1
102
RTVSPropertyOp44
 70
     1
102
RTVSPropertyOp45
 70
     1
102
RTVSPropertyOp46
 70
     1
102
RTVSPropertyOp47
 70
     1
102
RTVSPropertyOp48
 70
     1
102
RTVSPropertyOp49
 70
     1
102
RTVSPropertyOp50
 70
     1
102
RTVSPropertyOp51
 70
     0
102
RTVSPropertyOp52
 70
     0
102
RTVSPropertyOp53
 70
     1
102
RTVSPropertyOp54
 70
     1
102
RTVSPropertyOp55
 70
     1
102
RTVSPropertyOp56
 70
     1
102
RTVSPropertyOp57
 70
     1
102
RTVSPropertyOp58
 70
     1
102
RTVSPropertyOp59
 70
     1
102
RTVSPropertyOp60
 70
     1
102
RTVSPropertyOp61
 70
     1
102
RTVSPropertyOp62
 70
     1
  0
XRECORD
  5
DAFA
102
{ACAD_REACTORS
330
DAF9
102
}
330
DAF9
100
AcDbXrecord
280
     1
102
RTVSPost2010Prop28
280
     0
102
RTVSPost2010PropOp28
 70
     1
102
RTVSPost2010Prop29
280
     1
102
RTVSPost2010PropOp29
 70
     1
102
RTVSPost2010Prop30
280
     1
102
RTVSPost2010PropOp30
 70
     1
102
RTVSPost2010Prop31
280
     0
102
RTVSPost2010PropOp31
 70
     1
102
RTVSPost2010Prop32
280
     0
102
RTVSPost2010PropOp32
 70
     1
102
RTVSPost2010Prop33
280
     0
102
RTVSPost2010PropOp33
 70
     1
102
RTVSPost2010Prop34
280
     0
102
RTVSPost2010PropOp34
 70
     1
102
RTVSPost2010Prop35
280
     0
102
RTVSPost2010PropOp35
 70
     1
102
RTVSPost2010Prop36
280
     0
102
RTVSPost2010PropOp36
 70
     1
102
RTVSPost2010Prop37
 90
       50
102
RTVSPost2010PropOp37
 70
     1
102
RTVSPost2010Prop38
140
0.0
102
RTVSPost2010PropOp38
 70
     1
102
RTVSPost2010Prop39
140
1.0
102
RTVSPost2010PropOp39
 70
     1
102
RTVSPost2010Prop40
 90
        0
102
RTVSPost2010PropOp40
 70
     1
102
RTVSPost2010Prop41ColorIndex
 90
       18
102
RTVSPost2010Prop41ColorRGB
 90
        0
102
RTVSPost2010PropOp41
 70
     1
102
RTVSPost2010Prop42
 90
       50
102
RTVSPost2010PropOp42
 70
     1
102
RTVSPost2010Prop43
 90
        3
102
RTVSPost2010PropOp43
 70
     1
102
RTVSPost2010Prop44ColorIndex
 90
        5
102
RTVSPost2010Prop44ColorRGB
 90
      255
102
RTVSPost2010PropOp44
 70
     1
102
RTVSPost2010Prop45
280
     0
102
RTVSPost2010PropOp45
 70
     1
102
RTVSPost2010Prop46
 90
       50
102
RTVSPost2010PropOp46
 70
     1
102
RTVSPost2010Prop47
 90
       50
102
RTVSPost2010PropOp47
 70
     1
102
RTVSPost2010Prop48
 90
       50
102
RTVSPost2010PropOp48
 70
     1
102
RTVSPost2010Prop49
280
     0
102
RTVSPost2010PropOp49
 70
     1
102
RTVSPost2010Prop50
 90
       50
102
RTVSPost2010PropOp50
 70
     1
102
RTVSPost2010Prop51ColorIndex
 90
      256
102
RTVSPost2010Prop51ColorRGB
 90
-16777216
102
RTVSPost2010PropOp51
 70
     0
102
RTVSPost2010Prop52
140
1.0
102
RTVSPost2010PropOp52
 70
     0
102
RTVSPost2010Prop53
 90
        2
102
RTVSPost2010PropOp53
 70
     1
102
RTVSPost2010Prop54
  1
strokes_ogs.tif
102
RTVSPost2010PropOp54
 70
     1
102
RTVSPost2010Prop55
280
     0
102
RTVSPost2010PropOp55
 70
     1
102
RTVSPost2010Prop56
140
1.0
102
RTVSPost2010PropOp56
 70
     1
102
RTVSPost2010Prop57
140
1.0
102
RTVSPost2010PropOp57
 70
     1
102
RTVSPropertyOp0
 70
     1
102
RTVSPropertyOp1
 70
     1
102
RTVSPropertyOp2
 70
     1
102
RTVSPropertyOp3
 70
     1
102
RTVSPropertyOp4
 70
     1
102
RTVSPropertyOp5
 70
     1
102
RTVSPropertyOp6
 70
     1
102
RTVSPropertyOp7
 70
     1
102
RTVSPropertyOp8
 70
     1
102
RTVSPropertyOp9
 70
     1
102
RTVSPropertyOp10
 70
     1
102
RTVSPropertyOp11
 70
     1
102
RTVSPropertyOp12
 70
     1
102
RTVSPropertyOp13
 70
     1
102
RTVSPropertyOp14
 70
     1
102
RTVSPropertyOp15
 70
     1
102
RTVSPropertyOp16
 70
     1
102
RTVSPropertyOp17
 70
     1
102
RTVSPropertyOp18
 70
     1
102
RTVSPropertyOp19
 70
     1
102
RTVSPropertyOp20
 70
     1
102
RTVSPropertyOp21
 70
     1
102
RTVSPropertyOp22
 70
     1
102
RTVSPropertyOp23
 70
     1
102
RTVSPropertyOp24
 70
     1
102
RTVSPropertyOp25
 70
     1
102
RTVSPropertyOp26
 70
     1
102
RTVSPropertyOp27
 70
     1
102
RTVSPropertyOp28
 70
     1
102
RTVSPropertyOp29
 70
     1
102
RTVSPropertyOp30
 70
     1
102
RTVSPropertyOp31
 70
     1
102
RTVSPropertyOp32
 70
     1
102
RTVSPropertyOp33
 70
     1
102
RTVSPropertyOp34
 70
     1
102
RTVSPropertyOp35
 70
     1
102
RTVSPropertyOp36
 70
     1
102
RTVSPropertyOp37
 70
     1
102
RTVSPropertyOp38
 70
     1
102
RTVSPropertyOp39
 70
     1
102
RTVSPropertyOp40
 70
     1
102
RTVSPropertyOp41
 70
     1
102
RTVSPropertyOp42
 70
     1
102
RTVSPropertyOp43
 70
     1
102
RTVSPropertyOp44
 70
     1
102
RTVSPropertyOp45
 70
     1
102
RTVSPropertyOp46
 70
     1
102
RTVSPropertyOp47
 70
     1
102
RTVSPropertyOp48
 70
     1
102
RTVSPropertyOp49
 70
     1
102
RTVSPropertyOp50
 70
     1
102
RTVSPropertyOp51
 70
     0
102
RTVSPropertyOp52
 70
     0
102
RTVSPropertyOp53
 70
     1
102
RTVSPropertyOp54
 70
     1
102
RTVSPropertyOp55
 70
     1
102
RTVSPropertyOp56
 70
     1
102
RTVSPropertyOp57
 70
     1
102
RTVSPropertyOp58
 70
     1
102
RTVSPropertyOp59
 70
     1
102
RTVSPropertyOp60
 70
     1
102
RTVSPropertyOp61
 70
     1
102
RTVSPropertyOp62
 70
     1
  0
XRECORD
  5
DAF8
102
{ACAD_REACTORS
330
DAF7
102
}
330
DAF7
100
AcDbXrecord
280
     1
102
RTVSPost2010Prop28
280
     0
102
RTVSPost2010PropOp28
 70
     1
102
RTVSPost2010Prop29
280
     1
102
RTVSPost2010PropOp29
 70
     1
102
RTVSPost2010Prop30
280
     1
102
RTVSPost2010PropOp30
 70
     1
102
RTVSPost2010Prop31
280
     0
102
RTVSPost2010PropOp31
 70
     1
102
RTVSPost2010Prop32
280
     0
102
RTVSPost2010PropOp32
 70
     1
102
RTVSPost2010Prop33
280
     0
102
RTVSPost2010PropOp33
 70
     1
102
RTVSPost2010Prop34
280
     0
102
RTVSPost2010PropOp34
 70
     1
102
RTVSPost2010Prop35
280
     0
102
RTVSPost2010PropOp35
 70
     1
102
RTVSPost2010Prop36
280
     0
102
RTVSPost2010PropOp36
 70
     1
102
RTVSPost2010Prop37
 90
       50
102
RTVSPost2010PropOp37
 70
     1
102
RTVSPost2010Prop38
140
0.0
102
RTVSPost2010PropOp38
 70
     1
102
RTVSPost2010Prop39
140
1.0
102
RTVSPost2010PropOp39
 70
     1
102
RTVSPost2010Prop40
 90
        0
102
RTVSPost2010PropOp40
 70
     1
102
RTVSPost2010Prop41ColorIndex
 90
       18
102
RTVSPost2010Prop41ColorRGB
 90
        0
102
RTVSPost2010PropOp41
 70
     1
102
RTVSPost2010Prop42
 90
       50
102
RTVSPost2010PropOp42
 70
     1
102
RTVSPost2010Prop43
 90
        3
102
RTVSPost2010PropOp43
 70
     1
102
RTVSPost2010Prop44ColorIndex
 90
        5
102
RTVSPost2010Prop44ColorRGB
 90
      255
102
RTVSPost2010PropOp44
 70
     1
102
RTVSPost2010Prop45
280
     0
102
RTVSPost2010PropOp45
 70
     1
102
RTVSPost2010Prop46
 90
       50
102
RTVSPost2010PropOp46
 70
     1
102
RTVSPost2010Prop47
 90
       50
102
RTVSPost2010PropOp47
 70
     1
102
RTVSPost2010Prop48
 90
       50
102
RTVSPost2010PropOp48
 70
     1
102
RTVSPost2010Prop49
280
     0
102
RTVSPost2010PropOp49
 70
     1
102
RTVSPost2010Prop50
 90
       50
102
RTVSPost2010PropOp50
 70
     1
102
RTVSPost2010Prop51ColorIndex
 90
      256
102
RTVSPost2010Prop51ColorRGB
 90
-16777216
102
RTVSPost2010PropOp51
 70
     0
102
RTVSPost2010Prop52
140
1.0
102
RTVSPost2010PropOp52
 70
     0
102
RTVSPost2010Prop53
 90
        2
102
RTVSPost2010PropOp53
 70
     1
102
RTVSPost2010Prop54
  1
strokes_ogs.tif
102
RTVSPost2010PropOp54
 70
     1
102
RTVSPost2010Prop55
280
     0
102
RTVSPost2010PropOp55
 70
     1
102
RTVSPost2010Prop56
140
1.0
102
RTVSPost2010PropOp56
 70
     1
102
RTVSPost2010Prop57
140
1.0
102
RTVSPost2010PropOp57
 70
     1
102
RTVSPropertyOp0
 70
     1
102
RTVSPropertyOp1
 70
     1
102
RTVSPropertyOp2
 70
     1
102
RTVSPropertyOp3
 70
     1
102
RTVSPropertyOp4
 70
     1
102
RTVSPropertyOp5
 70
     1
102
RTVSPropertyOp6
 70
     1
102
RTVSPropertyOp7
 70
     1
102
RTVSPropertyOp8
 70
     1
102
RTVSPropertyOp9
 70
     1
102
RTVSPropertyOp10
 70
     1
102
RTVSPropertyOp11
 70
     1
102
RTVSPropertyOp12
 70
     1
102
RTVSPropertyOp13
 70
     1
102
RTVSPropertyOp14
 70
     1
102
RTVSPropertyOp15
 70
     1
102
RTVSPropertyOp16
 70
     1
102
RTVSPropertyOp17
 70
     1
102
RTVSPropertyOp18
 70
     1
102
RTVSPropertyOp19
 70
     1
102
RTVSPropertyOp20
 70
     1
102
RTVSPropertyOp21
 70
     1
102
RTVSPropertyOp22
 70
     1
102
RTVSPropertyOp23
 70
     1
102
RTVSPropertyOp24
 70
     1
102
RTVSPropertyOp25
 70
     1
102
RTVSPropertyOp26
 70
     1
102
RTVSPropertyOp27
 70
     1
102
RTVSPropertyOp28
 70
     1
102
RTVSPropertyOp29
 70
     1
102
RTVSPropertyOp30
 70
     1
102
RTVSPropertyOp31
 70
     1
102
RTVSPropertyOp32
 70
     1
102
RTVSPropertyOp33
 70
     1
102
RTVSPropertyOp34
 70
     1
102
RTVSPropertyOp35
 70
     1
102
RTVSPropertyOp36
 70
     1
102
RTVSPropertyOp37
 70
     1
102
RTVSPropertyOp38
 70
     1
102
RTVSPropertyOp39
 70
     1
102
RTVSPropertyOp40
 70
     1
102
RTVSPropertyOp41
 70
     1
102
RTVSPropertyOp42
 70
     1
102
RTVSPropertyOp43
 70
     1
102
RTVSPropertyOp44
 70
     1
102
RTVSPropertyOp45
 70
     1
102
RTVSPropertyOp46
 70
     1
102
RTVSPropertyOp47
 70
     1
102
RTVSPropertyOp48
 70
     1
102
RTVSPropertyOp49
 70
     1
102
RTVSPropertyOp50
 70
     1
102
RTVSPropertyOp51
 70
     0
102
RTVSPropertyOp52
 70
     0
102
RTVSPropertyOp53
 70
     1
102
RTVSPropertyOp54
 70
     1
102
RTVSPropertyOp55
 70
     1
102
RTVSPropertyOp56
 70
     1
102
RTVSPropertyOp57
 70
     1
102
RTVSPropertyOp58
 70
     1
102
RTVSPropertyOp59
 70
     1
102
RTVSPropertyOp60
 70
     1
102
RTVSPropertyOp61
 70
     1
102
RTVSPropertyOp62
 70
     1
  0
XRECORD
  5
DAF2
102
{ACAD_REACTORS
330
DAF1
102
}
330
DAF1
100
AcDbXrecord
280
     1
102
RTVSPost2010Prop28
280
     0
102
RTVSPost2010PropOp28
 70
     1
102
RTVSPost2010Prop29
280
     1
102
RTVSPost2010PropOp29
 70
     1
102
RTVSPost2010Prop30
280
     1
102
RTVSPost2010PropOp30
 70
     1
102
RTVSPost2010Prop31
280
     0
102
RTVSPost2010PropOp31
 70
     1
102
RTVSPost2010Prop32
280
     0
102
RTVSPost2010PropOp32
 70
     1
102
RTVSPost2010Prop33
280
     0
102
RTVSPost2010PropOp33
 70
     1
102
RTVSPost2010Prop34
280
     0
102
RTVSPost2010PropOp34
 70
     1
102
RTVSPost2010Prop35
280
     0
102
RTVSPost2010PropOp35
 70
     1
102
RTVSPost2010Prop36
280
     0
102
RTVSPost2010PropOp36
 70
     1
102
RTVSPost2010Prop37
 90
       50
102
RTVSPost2010PropOp37
 70
     1
102
RTVSPost2010Prop38
140
0.0
102
RTVSPost2010PropOp38
 70
     1
102
RTVSPost2010Prop39
140
1.0
102
RTVSPost2010PropOp39
 70
     1
102
RTVSPost2010Prop40
 90
        0
102
RTVSPost2010PropOp40
 70
     1
102
RTVSPost2010Prop41ColorIndex
 90
       18
102
RTVSPost2010Prop41ColorRGB
 90
        0
102
RTVSPost2010PropOp41
 70
     1
102
RTVSPost2010Prop42
 90
       50
102
RTVSPost2010PropOp42
 70
     1
102
RTVSPost2010Prop43
 90
        3
102
RTVSPost2010PropOp43
 70
     1
102
RTVSPost2010Prop44ColorIndex
 90
        5
102
RTVSPost2010Prop44ColorRGB
 90
      255
102
RTVSPost2010PropOp44
 70
     1
102
RTVSPost2010Prop45
280
     0
102
RTVSPost2010PropOp45
 70
     1
102
RTVSPost2010Prop46
 90
       50
102
RTVSPost2010PropOp46
 70
     1
102
RTVSPost2010Prop47
 90
       50
102
RTVSPost2010PropOp47
 70
     1
102
RTVSPost2010Prop48
 90
       50
102
RTVSPost2010PropOp48
 70
     1
102
RTVSPost2010Prop49
280
     0
102
RTVSPost2010PropOp49
 70
     1
102
RTVSPost2010Prop50
 90
       50
102
RTVSPost2010PropOp50
 70
     1
102
RTVSPost2010Prop51ColorIndex
 90
      256
102
RTVSPost2010Prop51ColorRGB
 90
-16777216
102
RTVSPost2010PropOp51
 70
     0
102
RTVSPost2010Prop52
140
1.0
102
RTVSPost2010PropOp52
 70
     0
102
RTVSPost2010Prop53
 90
        2
102
RTVSPost2010PropOp53
 70
     1
102
RTVSPost2010Prop54
  1
strokes_ogs.tif
102
RTVSPost2010PropOp54
 70
     1
102
RTVSPost2010Prop55
280
     0
102
RTVSPost2010PropOp55
 70
     1
102
RTVSPost2010Prop56
140
1.0
102
RTVSPost2010PropOp56
 70
     1
102
RTVSPost2010Prop57
140
1.0
102
RTVSPost2010PropOp57
 70
     1
102
RTVSPropertyOp0
 70
     1
102
RTVSPropertyOp1
 70
     1
102
RTVSPropertyOp2
 70
     1
102
RTVSPropertyOp3
 70
     1
102
RTVSPropertyOp4
 70
     1
102
RTVSPropertyOp5
 70
     1
102
RTVSPropertyOp6
 70
     1
102
RTVSPropertyOp7
 70
     1
102
RTVSPropertyOp8
 70
     1
102
RTVSPropertyOp9
 70
     1
102
RTVSPropertyOp10
 70
     1
102
RTVSPropertyOp11
 70
     1
102
RTVSPropertyOp12
 70
     1
102
RTVSPropertyOp13
 70
     1
102
RTVSPropertyOp14
 70
     1
102
RTVSPropertyOp15
 70
     1
102
RTVSPropertyOp16
 70
     1
102
RTVSPropertyOp17
 70
     1
102
RTVSPropertyOp18
 70
     1
102
RTVSPropertyOp19
 70
     1
102
RTVSPropertyOp20
 70
     1
102
RTVSPropertyOp21
 70
     1
102
RTVSPropertyOp22
 70
     1
102
RTVSPropertyOp23
 70
     1
102
RTVSPropertyOp24
 70
     1
102
RTVSPropertyOp25
 70
     1
102
RTVSPropertyOp26
 70
     1
102
RTVSPropertyOp27
 70
     1
102
RTVSPropertyOp28
 70
     1
102
RTVSPropertyOp29
 70
     1
102
RTVSPropertyOp30
 70
     1
102
RTVSPropertyOp31
 70
     1
102
RTVSPropertyOp32
 70
     1
102
RTVSPropertyOp33
 70
     1
102
RTVSPropertyOp34
 70
     1
102
RTVSPropertyOp35
 70
     1
102
RTVSPropertyOp36
 70
     1
102
RTVSPropertyOp37
 70
     1
102
RTVSPropertyOp38
 70
     1
102
RTVSPropertyOp39
 70
     1
102
RTVSPropertyOp40
 70
     1
102
RTVSPropertyOp41
 70
     1
102
RTVSPropertyOp42
 70
     1
102
RTVSPropertyOp43
 70
     1
102
RTVSPropertyOp44
 70
     1
102
RTVSPropertyOp45
 70
     1
102
RTVSPropertyOp46
 70
     1
102
RTVSPropertyOp47
 70
     1
102
RTVSPropertyOp48
 70
     1
102
RTVSPropertyOp49
 70
     1
102
RTVSPropertyOp50
 70
     1
102
RTVSPropertyOp51
 70
     0
102
RTVSPropertyOp52
 70
     0
102
RTVSPropertyOp53
 70
     1
102
RTVSPropertyOp54
 70
     1
102
RTVSPropertyOp55
 70
     1
102
RTVSPropertyOp56
 70
     1
102
RTVSPropertyOp57
 70
     1
102
RTVSPropertyOp58
 70
     1
102
RTVSPropertyOp59
 70
     1
102
RTVSPropertyOp60
 70
     1
102
RTVSPropertyOp61
 70
     1
102
RTVSPropertyOp62
 70
     1
  0
XRECORD
  5
DAF4
102
{ACAD_REACTORS
330
DAF3
102
}
330
DAF3
100
AcDbXrecord
280
     1
102
RTVSPost2010Prop28
280
     0
102
RTVSPost2010PropOp28
 70
     1
102
RTVSPost2010Prop29
280
     1
102
RTVSPost2010PropOp29
 70
     1
102
RTVSPost2010Prop30
280
     1
102
RTVSPost2010PropOp30
 70
     1
102
RTVSPost2010Prop31
280
     0
102
RTVSPost2010PropOp31
 70
     1
102
RTVSPost2010Prop32
280
     0
102
RTVSPost2010PropOp32
 70
     1
102
RTVSPost2010Prop33
280
     0
102
RTVSPost2010PropOp33
 70
     1
102
RTVSPost2010Prop34
280
     0
102
RTVSPost2010PropOp34
 70
     1
102
RTVSPost2010Prop35
280
     0
102
RTVSPost2010PropOp35
 70
     1
102
RTVSPost2010Prop36
280
     0
102
RTVSPost2010PropOp36
 70
     1
102
RTVSPost2010Prop37
 90
       50
102
RTVSPost2010PropOp37
 70
     1
102
RTVSPost2010Prop38
140
0.0
102
RTVSPost2010PropOp38
 70
     1
102
RTVSPost2010Prop39
140
1.0
102
RTVSPost2010PropOp39
 70
     1
102
RTVSPost2010Prop40
 90
        0
102
RTVSPost2010PropOp40
 70
     1
102
RTVSPost2010Prop41ColorIndex
 90
       18
102
RTVSPost2010Prop41ColorRGB
 90
        0
102
RTVSPost2010PropOp41
 70
     1
102
RTVSPost2010Prop42
 90
       50
102
RTVSPost2010PropOp42
 70
     1
102
RTVSPost2010Prop43
 90
        3
102
RTVSPost2010PropOp43
 70
     1
102
RTVSPost2010Prop44ColorIndex
 90
        5
102
RTVSPost2010Prop44ColorRGB
 90
      255
102
RTVSPost2010PropOp44
 70
     1
102
RTVSPost2010Prop45
280
     0
102
RTVSPost2010PropOp45
 70
     1
102
RTVSPost2010Prop46
 90
       50
102
RTVSPost2010PropOp46
 70
     1
102
RTVSPost2010Prop47
 90
       50
102
RTVSPost2010PropOp47
 70
     1
102
RTVSPost2010Prop48
 90
       50
102
RTVSPost2010PropOp48
 70
     1
102
RTVSPost2010Prop49
280
     0
102
RTVSPost2010PropOp49
 70
     1
102
RTVSPost2010Prop50
 90
       50
102
RTVSPost2010PropOp50
 70
     1
102
RTVSPost2010Prop51ColorIndex
 90
      256
102
RTVSPost2010Prop51ColorRGB
 90
-16777216
102
RTVSPost2010PropOp51
 70
     0
102
RTVSPost2010Prop52
140
1.0
102
RTVSPost2010PropOp52
 70
     0
102
RTVSPost2010Prop53
 90
        2
102
RTVSPost2010PropOp53
 70
     1
102
RTVSPost2010Prop54
  1
strokes_ogs.tif
102
RTVSPost2010PropOp54
 70
     1
102
RTVSPost2010Prop55
280
     0
102
RTVSPost2010PropOp55
 70
     1
102
RTVSPost2010Prop56
140
1.0
102
RTVSPost2010PropOp56
 70
     1
102
RTVSPost2010Prop57
140
1.0
102
RTVSPost2010PropOp57
 70
     1
102
RTVSPropertyOp0
 70
     1
102
RTVSPropertyOp1
 70
     1
102
RTVSPropertyOp2
 70
     1
102
RTVSPropertyOp3
 70
     1
102
RTVSPropertyOp4
 70
     1
102
RTVSPropertyOp5
 70
     1
102
RTVSPropertyOp6
 70
     1
102
RTVSPropertyOp7
 70
     1
102
RTVSPropertyOp8
 70
     1
102
RTVSPropertyOp9
 70
     1
102
RTVSPropertyOp10
 70
     1
102
RTVSPropertyOp11
 70
     1
102
RTVSPropertyOp12
 70
     1
102
RTVSPropertyOp13
 70
     1
102
RTVSPropertyOp14
 70
     1
102
RTVSPropertyOp15
 70
     1
102
RTVSPropertyOp16
 70
     1
102
RTVSPropertyOp17
 70
     1
102
RTVSPropertyOp18
 70
     1
102
RTVSPropertyOp19
 70
     1
102
RTVSPropertyOp20
 70
     1
102
RTVSPropertyOp21
 70
     1
102
RTVSPropertyOp22
 70
     1
102
RTVSPropertyOp23
 70
     1
102
RTVSPropertyOp24
 70
     1
102
RTVSPropertyOp25
 70
     1
102
RTVSPropertyOp26
 70
     1
102
RTVSPropertyOp27
 70
     1
102
RTVSPropertyOp28
 70
     1
102
RTVSPropertyOp29
 70
     1
102
RTVSPropertyOp30
 70
     1
102
RTVSPropertyOp31
 70
     1
102
RTVSPropertyOp32
 70
     1
102
RTVSPropertyOp33
 70
     1
102
RTVSPropertyOp34
 70
     1
102
RTVSPropertyOp35
 70
     1
102
RTVSPropertyOp36
 70
     1
102
RTVSPropertyOp37
 70
     1
102
RTVSPropertyOp38
 70
     1
102
RTVSPropertyOp39
 70
     1
102
RTVSPropertyOp40
 70
     1
102
RTVSPropertyOp41
 70
     1
102
RTVSPropertyOp42
 70
     1
102
RTVSPropertyOp43
 70
     1
102
RTVSPropertyOp44
 70
     1
102
RTVSPropertyOp45
 70
     1
102
RTVSPropertyOp46
 70
     1
102
RTVSPropertyOp47
 70
     1
102
RTVSPropertyOp48
 70
     1
102
RTVSPropertyOp49
 70
     1
102
RTVSPropertyOp50
 70
     1
102
RTVSPropertyOp51
 70
     0
102
RTVSPropertyOp52
 70
     0
102
RTVSPropertyOp53
 70
     1
102
RTVSPropertyOp54
 70
     1
102
RTVSPropertyOp55
 70
     1
102
RTVSPropertyOp56
 70
     1
102
RTVSPropertyOp57
 70
     1
102
RTVSPropertyOp58
 70
     1
102
RTVSPropertyOp59
 70
     1
102
RTVSPropertyOp60
 70
     1
102
RTVSPropertyOp61
 70
     1
102
RTVSPropertyOp62
 70
     1
  0
XRECORD
  5
DAEA
102
{ACAD_REACTORS
330
DAE9
102
}
330
DAE9
100
AcDbXrecord
280
     1
102
RTVSPost2010Prop28
280
     0
102
RTVSPost2010PropOp28
 70
     1
102
RTVSPost2010Prop29
280
     1
102
RTVSPost2010PropOp29
 70
     1
102
RTVSPost2010Prop30
280
     1
102
RTVSPost2010PropOp30
 70
     1
102
RTVSPost2010Prop31
280
     0
102
RTVSPost2010PropOp31
 70
     1
102
RTVSPost2010Prop32
280
     0
102
RTVSPost2010PropOp32
 70
     1
102
RTVSPost2010Prop33
280
     0
102
RTVSPost2010PropOp33
 70
     1
102
RTVSPost2010Prop34
280
     0
102
RTVSPost2010PropOp34
 70
     1
102
RTVSPost2010Prop35
280
     0
102
RTVSPost2010PropOp35
 70
     1
102
RTVSPost2010Prop36
280
     0
102
RTVSPost2010PropOp36
 70
     1
102
RTVSPost2010Prop37
 90
       50
102
RTVSPost2010PropOp37
 70
     1
102
RTVSPost2010Prop38
140
0.0
102
RTVSPost2010PropOp38
 70
     1
102
RTVSPost2010Prop39
140
1.0
102
RTVSPost2010PropOp39
 70
     1
102
RTVSPost2010Prop40
 90
        0
102
RTVSPost2010PropOp40
 70
     1
102
RTVSPost2010Prop41ColorIndex
 90
       18
102
RTVSPost2010Prop41ColorRGB
 90
        0
102
RTVSPost2010PropOp41
 70
     1
102
RTVSPost2010Prop42
 90
       50
102
RTVSPost2010PropOp42
 70
     1
102
RTVSPost2010Prop43
 90
        3
102
RTVSPost2010PropOp43
 70
     1
102
RTVSPost2010Prop44ColorIndex
 90
        5
102
RTVSPost2010Prop44ColorRGB
 90
      255
102
RTVSPost2010PropOp44
 70
     1
102
RTVSPost2010Prop45
280
     0
102
RTVSPost2010PropOp45
 70
     1
102
RTVSPost2010Prop46
 90
       50
102
RTVSPost2010PropOp46
 70
     1
102
RTVSPost2010Prop47
 90
       50
102
RTVSPost2010PropOp47
 70
     1
102
RTVSPost2010Prop48
 90
       50
102
RTVSPost2010PropOp48
 70
     1
102
RTVSPost2010Prop49
280
     0
102
RTVSPost2010PropOp49
 70
     1
102
RTVSPost2010Prop50
 90
       50
102
RTVSPost2010PropOp50
 70
     1
102
RTVSPost2010Prop51ColorIndex
 90
      256
102
RTVSPost2010Prop51ColorRGB
 90
-16777216
102
RTVSPost2010PropOp51
 70
     0
102
RTVSPost2010Prop52
140
1.0
102
RTVSPost2010PropOp52
 70
     0
102
RTVSPost2010Prop53
 90
        2
102
RTVSPost2010PropOp53
 70
     1
102
RTVSPost2010Prop54
  1
strokes_ogs.tif
102
RTVSPost2010PropOp54
 70
     1
102
RTVSPost2010Prop55
280
     0
102
RTVSPost2010PropOp55
 70
     1
102
RTVSPost2010Prop56
140
1.0
102
RTVSPost2010PropOp56
 70
     1
102
RTVSPost2010Prop57
140
1.0
102
RTVSPost2010PropOp57
 70
     1
102
RTVSPropertyOp0
 70
     1
102
RTVSPropertyOp1
 70
     1
102
RTVSPropertyOp2
 70
     1
102
RTVSPropertyOp3
 70
     1
102
RTVSPropertyOp4
 70
     1
102
RTVSPropertyOp5
 70
     1
102
RTVSPropertyOp6
 70
     1
102
RTVSPropertyOp7
 70
     1
102
RTVSPropertyOp8
 70
     1
102
RTVSPropertyOp9
 70
     1
102
RTVSPropertyOp10
 70
     1
102
RTVSPropertyOp11
 70
     1
102
RTVSPropertyOp12
 70
     1
102
RTVSPropertyOp13
 70
     1
102
RTVSPropertyOp14
 70
     1
102
RTVSPropertyOp15
 70
     1
102
RTVSPropertyOp16
 70
     1
102
RTVSPropertyOp17
 70
     1
102
RTVSPropertyOp18
 70
     1
102
RTVSPropertyOp19
 70
     1
102
RTVSPropertyOp20
 70
     1
102
RTVSPropertyOp21
 70
     1
102
RTVSPropertyOp22
 70
     1
102
RTVSPropertyOp23
 70
     1
102
RTVSPropertyOp24
 70
     1
102
RTVSPropertyOp25
 70
     1
102
RTVSPropertyOp26
 70
     1
102
RTVSPropertyOp27
 70
     1
102
RTVSPropertyOp28
 70
     1
102
RTVSPropertyOp29
 70
     1
102
RTVSPropertyOp30
 70
     1
102
RTVSPropertyOp31
 70
     1
102
RTVSPropertyOp32
 70
     1
102
RTVSPropertyOp33
 70
     1
102
RTVSPropertyOp34
 70
     1
102
RTVSPropertyOp35
 70
     1
102
RTVSPropertyOp36
 70
     1
102
RTVSPropertyOp37
 70
     1
102
RTVSPropertyOp38
 70
     1
102
RTVSPropertyOp39
 70
     1
102
RTVSPropertyOp40
 70
     1
102
RTVSPropertyOp41
 70
     1
102
RTVSPropertyOp42
 70
     1
102
RTVSPropertyOp43
 70
     1
102
RTVSPropertyOp44
 70
     1
102
RTVSPropertyOp45
 70
     1
102
RTVSPropertyOp46
 70
     1
102
RTVSPropertyOp47
 70
     1
102
RTVSPropertyOp48
 70
     1
102
RTVSPropertyOp49
 70
     1
102
RTVSPropertyOp50
 70
     1
102
RTVSPropertyOp51
 70
     0
102
RTVSPropertyOp52
 70
     0
102
RTVSPropertyOp53
 70
     1
102
RTVSPropertyOp54
 70
     1
102
RTVSPropertyOp55
 70
     1
102
RTVSPropertyOp56
 70
     1
102
RTVSPropertyOp57
 70
     1
102
RTVSPropertyOp58
 70
     1
102
RTVSPropertyOp59
 70
     1
102
RTVSPropertyOp60
 70
     1
102
RTVSPropertyOp61
 70
     1
102
RTVSPropertyOp62
 70
     1
  0
XRECORD
  5
DADE
102
{ACAD_REACTORS
330
DADD
102
}
330
DADD
100
AcDbXrecord
280
     1
102
RTVSPost2010Prop28
280
     0
102
RTVSPost2010PropOp28
 70
     1
102
RTVSPost2010Prop29
280
     1
102
RTVSPost2010PropOp29
 70
     1
102
RTVSPost2010Prop30
280
     1
102
RTVSPost2010PropOp30
 70
     1
102
RTVSPost2010Prop31
280
     0
102
RTVSPost2010PropOp31
 70
     1
102
RTVSPost2010Prop32
280
     0
102
RTVSPost2010PropOp32
 70
     1
102
RTVSPost2010Prop33
280
     0
102
RTVSPost2010PropOp33
 70
     1
102
RTVSPost2010Prop34
280
     0
102
RTVSPost2010PropOp34
 70
     1
102
RTVSPost2010Prop35
280
     0
102
RTVSPost2010PropOp35
 70
     1
102
RTVSPost2010Prop36
280
     0
102
RTVSPost2010PropOp36
 70
     1
102
RTVSPost2010Prop37
 90
       50
102
RTVSPost2010PropOp37
 70
     1
102
RTVSPost2010Prop38
140
0.0
102
RTVSPost2010PropOp38
 70
     1
102
RTVSPost2010Prop39
140
1.0
102
RTVSPost2010PropOp39
 70
     1
102
RTVSPost2010Prop40
 90
        0
102
RTVSPost2010PropOp40
 70
     1
102
RTVSPost2010Prop41ColorIndex
 90
       18
102
RTVSPost2010Prop41ColorRGB
 90
        0
102
RTVSPost2010PropOp41
 70
     1
102
RTVSPost2010Prop42
 90
       50
102
RTVSPost2010PropOp42
 70
     1
102
RTVSPost2010Prop43
 90
        3
102
RTVSPost2010PropOp43
 70
     1
102
RTVSPost2010Prop44ColorIndex
 90
        5
102
RTVSPost2010Prop44ColorRGB
 90
      255
102
RTVSPost2010PropOp44
 70
     1
102
RTVSPost2010Prop45
280
     0
102
RTVSPost2010PropOp45
 70
     1
102
RTVSPost2010Prop46
 90
       50
102
RTVSPost2010PropOp46
 70
     1
102
RTVSPost2010Prop47
 90
       50
102
RTVSPost2010PropOp47
 70
     1
102
RTVSPost2010Prop48
 90
       50
102
RTVSPost2010PropOp48
 70
     1
102
RTVSPost2010Prop49
280
     0
102
RTVSPost2010PropOp49
 70
     1
102
RTVSPost2010Prop50
 90
       50
102
RTVSPost2010PropOp50
 70
     1
102
RTVSPost2010Prop51ColorIndex
 90
      256
102
RTVSPost2010Prop51ColorRGB
 90
-16777216
102
RTVSPost2010PropOp51
 70
     0
102
RTVSPost2010Prop52
140
1.0
102
RTVSPost2010PropOp52
 70
     0
102
RTVSPost2010Prop53
 90
        2
102
RTVSPost2010PropOp53
 70
     1
102
RTVSPost2010Prop54
  1
strokes_ogs.tif
102
RTVSPost2010PropOp54
 70
     1
102
RTVSPost2010Prop55
280
     0
102
RTVSPost2010PropOp55
 70
     1
102
RTVSPost2010Prop56
140
1.0
102
RTVSPost2010PropOp56
 70
     1
102
RTVSPost2010Prop57
140
1.0
102
RTVSPost2010PropOp57
 70
     1
102
RTVSPropertyOp0
 70
     1
102
RTVSPropertyOp1
 70
     1
102
RTVSPropertyOp2
 70
     1
102
RTVSPropertyOp3
 70
     1
102
RTVSPropertyOp4
 70
     1
102
RTVSPropertyOp5
 70
     1
102
RTVSPropertyOp6
 70
     1
102
RTVSPropertyOp7
 70
     1
102
RTVSPropertyOp8
 70
     1
102
RTVSPropertyOp9
 70
     1
102
RTVSPropertyOp10
 70
     1
102
RTVSPropertyOp11
 70
     1
102
RTVSPropertyOp12
 70
     1
102
RTVSPropertyOp13
 70
     1
102
RTVSPropertyOp14
 70
     1
102
RTVSPropertyOp15
 70
     1
102
RTVSPropertyOp16
 70
     1
102
RTVSPropertyOp17
 70
     1
102
RTVSPropertyOp18
 70
     1
102
RTVSPropertyOp19
 70
     1
102
RTVSPropertyOp20
 70
     1
102
RTVSPropertyOp21
 70
     1
102
RTVSPropertyOp22
 70
     1
102
RTVSPropertyOp23
 70
     1
102
RTVSPropertyOp24
 70
     1
102
RTVSPropertyOp25
 70
     1
102
RTVSPropertyOp26
 70
     1
102
RTVSPropertyOp27
 70
     1
102
RTVSPropertyOp28
 70
     1
102
RTVSPropertyOp29
 70
     1
102
RTVSPropertyOp30
 70
     1
102
RTVSPropertyOp31
 70
     1
102
RTVSPropertyOp32
 70
     1
102
RTVSPropertyOp33
 70
     1
102
RTVSPropertyOp34
 70
     1
102
RTVSPropertyOp35
 70
     1
102
RTVSPropertyOp36
 70
     1
102
RTVSPropertyOp37
 70
     1
102
RTVSPropertyOp38
 70
     1
102
RTVSPropertyOp39
 70
     1
102
RTVSPropertyOp40
 70
     1
102
RTVSPropertyOp41
 70
     1
102
RTVSPropertyOp42
 70
     1
102
RTVSPropertyOp43
 70
     1
102
RTVSPropertyOp44
 70
     1
102
RTVSPropertyOp45
 70
     1
102
RTVSPropertyOp46
 70
     1
102
RTVSPropertyOp47
 70
     1
102
RTVSPropertyOp48
 70
     1
102
RTVSPropertyOp49
 70
     1
102
RTVSPropertyOp50
 70
     1
102
RTVSPropertyOp51
 70
     0
102
RTVSPropertyOp52
 70
     0
102
RTVSPropertyOp53
 70
     1
102
RTVSPropertyOp54
 70
     1
102
RTVSPropertyOp55
 70
     1
102
RTVSPropertyOp56
 70
     1
102
RTVSPropertyOp57
 70
     1
102
RTVSPropertyOp58
 70
     1
102
RTVSPropertyOp59
 70
     1
102
RTVSPropertyOp60
 70
     1
102
RTVSPropertyOp61
 70
     1
102
RTVSPropertyOp62
 70
     1
  0
XRECORD
  5
DAF6
102
{ACAD_REACTORS
330
DAF5
102
}
330
DAF5
100
AcDbXrecord
280
     1
102
RTVSPost2010Prop28
280
     0
102
RTVSPost2010PropOp28
 70
     1
102
RTVSPost2010Prop29
280
     1
102
RTVSPost2010PropOp29
 70
     1
102
RTVSPost2010Prop30
280
     1
102
RTVSPost2010PropOp30
 70
     1
102
RTVSPost2010Prop31
280
     0
102
RTVSPost2010PropOp31
 70
     1
102
RTVSPost2010Prop32
280
     0
102
RTVSPost2010PropOp32
 70
     1
102
RTVSPost2010Prop33
280
     0
102
RTVSPost2010PropOp33
 70
     1
102
RTVSPost2010Prop34
280
     0
102
RTVSPost2010PropOp34
 70
     1
102
RTVSPost2010Prop35
280
     0
102
RTVSPost2010PropOp35
 70
     1
102
RTVSPost2010Prop36
280
     0
102
RTVSPost2010PropOp36
 70
     1
102
RTVSPost2010Prop37
 90
       50
102
RTVSPost2010PropOp37
 70
     1
102
RTVSPost2010Prop38
140
0.0
102
RTVSPost2010PropOp38
 70
     1
102
RTVSPost2010Prop39
140
1.0
102
RTVSPost2010PropOp39
 70
     1
102
RTVSPost2010Prop40
 90
        0
102
RTVSPost2010PropOp40
 70
     1
102
RTVSPost2010Prop41ColorIndex
 90
       18
102
RTVSPost2010Prop41ColorRGB
 90
        0
102
RTVSPost2010PropOp41
 70
     1
102
RTVSPost2010Prop42
 90
       50
102
RTVSPost2010PropOp42
 70
     1
102
RTVSPost2010Prop43
 90
        3
102
RTVSPost2010PropOp43
 70
     1
102
RTVSPost2010Prop44ColorIndex
 90
        5
102
RTVSPost2010Prop44ColorRGB
 90
      255
102
RTVSPost2010PropOp44
 70
     1
102
RTVSPost2010Prop45
280
     0
102
RTVSPost2010PropOp45
 70
     1
102
RTVSPost2010Prop46
 90
       50
102
RTVSPost2010PropOp46
 70
     1
102
RTVSPost2010Prop47
 90
       50
102
RTVSPost2010PropOp47
 70
     1
102
RTVSPost2010Prop48
 90
       50
102
RTVSPost2010PropOp48
 70
     1
102
RTVSPost2010Prop49
280
     0
102
RTVSPost2010PropOp49
 70
     1
102
RTVSPost2010Prop50
 90
       50
102
RTVSPost2010PropOp50
 70
     1
102
RTVSPost2010Prop51ColorIndex
 90
      256
102
RTVSPost2010Prop51ColorRGB
 90
-16777216
102
RTVSPost2010PropOp51
 70
     0
102
RTVSPost2010Prop52
140
1.0
102
RTVSPost2010PropOp52
 70
     0
102
RTVSPost2010Prop53
 90
        2
102
RTVSPost2010PropOp53
 70
     1
102
RTVSPost2010Prop54
  1
strokes_ogs.tif
102
RTVSPost2010PropOp54
 70
     1
102
RTVSPost2010Prop55
280
     0
102
RTVSPost2010PropOp55
 70
     1
102
RTVSPost2010Prop56
140
1.0
102
RTVSPost2010PropOp56
 70
     1
102
RTVSPost2010Prop57
140
1.0
102
RTVSPost2010PropOp57
 70
     1
102
RTVSPropertyOp0
 70
     1
102
RTVSPropertyOp1
 70
     1
102
RTVSPropertyOp2
 70
     1
102
RTVSPropertyOp3
 70
     1
102
RTVSPropertyOp4
 70
     1
102
RTVSPropertyOp5
 70
     1
102
RTVSPropertyOp6
 70
     1
102
RTVSPropertyOp7
 70
     1
102
RTVSPropertyOp8
 70
     1
102
RTVSPropertyOp9
 70
     1
102
RTVSPropertyOp10
 70
     1
102
RTVSPropertyOp11
 70
     1
102
RTVSPropertyOp12
 70
     1
102
RTVSPropertyOp13
 70
     1
102
RTVSPropertyOp14
 70
     1
102
RTVSPropertyOp15
 70
     1
102
RTVSPropertyOp16
 70
     1
102
RTVSPropertyOp17
 70
     1
102
RTVSPropertyOp18
 70
     1
102
RTVSPropertyOp19
 70
     1
102
RTVSPropertyOp20
 70
     1
102
RTVSPropertyOp21
 70
     1
102
RTVSPropertyOp22
 70
     1
102
RTVSPropertyOp23
 70
     1
102
RTVSPropertyOp24
 70
     1
102
RTVSPropertyOp25
 70
     1
102
RTVSPropertyOp26
 70
     1
102
RTVSPropertyOp27
 70
     1
102
RTVSPropertyOp28
 70
     1
102
RTVSPropertyOp29
 70
     1
102
RTVSPropertyOp30
 70
     1
102
RTVSPropertyOp31
 70
     1
102
RTVSPropertyOp32
 70
     1
102
RTVSPropertyOp33
 70
     1
102
RTVSPropertyOp34
 70
     1
102
RTVSPropertyOp35
 70
     1
102
RTVSPropertyOp36
 70
     1
102
RTVSPropertyOp37
 70
     1
102
RTVSPropertyOp38
 70
     1
102
RTVSPropertyOp39
 70
     1
102
RTVSPropertyOp40
 70
     1
102
RTVSPropertyOp41
 70
     1
102
RTVSPropertyOp42
 70
     1
102
RTVSPropertyOp43
 70
     1
102
RTVSPropertyOp44
 70
     1
102
RTVSPropertyOp45
 70
     1
102
RTVSPropertyOp46
 70
     1
102
RTVSPropertyOp47
 70
     1
102
RTVSPropertyOp48
 70
     1
102
RTVSPropertyOp49
 70
     1
102
RTVSPropertyOp50
 70
     1
102
RTVSPropertyOp51
 70
     0
102
RTVSPropertyOp52
 70
     0
102
RTVSPropertyOp53
 70
     1
102
RTVSPropertyOp54
 70
     1
102
RTVSPropertyOp55
 70
     1
102
RTVSPropertyOp56
 70
     1
102
RTVSPropertyOp57
 70
     1
102
RTVSPropertyOp58
 70
     1
102
RTVSPropertyOp59
 70
     1
102
RTVSPropertyOp60
 70
     1
102
RTVSPropertyOp61
 70
     1
102
RTVSPropertyOp62
 70
     1
  0
ENDSEC
  0
EOF
