  0
SECTION
  2
HEADER
  9
$ACADVER
  1
AC1015
  9
$ACADMAINTVER
 70
    20
  9
$DWGCODEPAGE
  3
ANSI_932
  9
$INSBASE
 10
0.0
 20
0.0
 30
0.0
  9
$EXTMIN
 10
10.0
 20
9.999999999999998
 30
0.0
  9
$EXTMAX
 10
1254.2
 20
464.8
 30
0.0
  9
$LIMMIN
 10
0.0
 20
0.0
  9
$LIMMAX
 10
1306.799999999999
 20
900.9
  9
$ORTHOMODE
 70
     1
  9
$REGENMODE
 70
     1
  9
$FILLMODE
 70
     1
  9
$QTEXTMODE
 70
     0
  9
$MIRRTEXT
 70
     1
  9
$LTSCALE
 40
20.0
  9
$ATTMODE
 70
     1
  9
$TEXTSIZE
 40
5.0
  9
$TRACEWID
 40
1.0
  9
$TEXTSTYLE
  7
STANDARD
  9
$CLAYER
  8
0
  9
$CELTYPE
  6
BYLAYER
  9
$CECOLOR
 62
   256
  9
$CELTSCALE
 40
1.0
  9
$DISPSILH
 70
     0
  9
$DIMSCALE
 40
1.0
  9
$DIMASZ
 40
3.0
  9
$DIMEXO
 40
1.0
  9
$DIMDLI
 40
10.0
  9
$DIMRND
 40
0.0
  9
$DIMDLE
 40
0.0
  9
$DIMEXE
 40
1.0
  9
$DIMTP
 40
0.0
  9
$DIMTM
 40
0.0
  9
$DIMTXT
 40
2.5
  9
$DIMCEN
 40
0.0
  9
$DIMTSZ
 40
0.0
  9
$DIMTOL
 70
     0
  9
$DIMLIM
 70
     0
  9
$DIMTIH
 70
     0
  9
$DIMTOH
 70
     0
  9
$DIMSE1
 70
     0
  9
$DIMSE2
 70
     0
  9
$DIMTAD
 70
     3
  9
$DIMZIN
 70
     8
  9
$DIMBLK
  1

  9
$DIMASO
 70
     1
  9
$DIMSHO
 70
     1
  9
$DIMPOST
  1

  9
$DIMAPOST
  1

  9
$DIMALT
 70
     0
  9
$DIMALTD
 70
     2
  9
$DIMALTF
 40
25.4
  9
$DIMLFAC
 40
1.0
  9
$DIMTOFL
 70
     1
  9
$DIMTVP
 40
0.0
  9
$DIMTIX
 70
     0
  9
$DIMSOXD
 70
     0
  9
$DIMSAH
 70
     1
  9
$DIMBLK1
  1

  9
$DIMBLK2
  1

  9
$DIMSTYLE
  2
STANDARD
  9
$DIMCLRD
 70
     0
  9
$DIMCLRE
 70
     0
  9
$DIMCLRT
 70
     0
  9
$DIMTFAC
 40
1.0
  9
$DIMGAP
 40
1.0
  9
$DIMJUST
 70
     0
  9
$DIMSD1
 70
     0
  9
$DIMSD2
 70
     0
  9
$DIMTOLJ
 70
     1
  9
$DIMTZIN
 70
     0
  9
$DIMALTZ
 70
     0
  9
$DIMALTTZ
 70
     0
  9
$DIMUPT
 70
     0
  9
$DIMDEC
 70
     4
  9
$DIMTDEC
 70
     4
  9
$DIMALTU
 70
     2
  9
$DIMALTTD
 70
     2
  9
$DIMTXSTY
  7
STANDARD
  9
$DIMAUNIT
 70
     0
  9
$DIMADEC
 70
     0
  9
$DIMALTRND
 40
0.0
  9
$DIMAZIN
 70
     0
  9
$DIMDSEP
 70
    46
  9
$DIMATFIT
 70
     3
  9
$DIMFRAC
 70
     0
  9
$DIMLDRBLK
  1

  9
$DIMLUNIT
 70
     2
  9
$DIMLWD
 70
    -2
  9
$DIMLWE
 70
    -2
  9
$DIMTMOVE
 70
     0
  9
$LUNITS
 70
     2
  9
$LUPREC
 70
     4
  9
$SKETCHINC
 40
1.0
  9
$FILLETRAD
 40
0.0
  9
$AUNITS
 70
     0
  9
$AUPREC
 70
     2
  9
$MENU
  1
.
  9
$ELEVATION
 40
0.0
  9
$PELEVATION
 40
0.0
  9
$THICKNESS
 40
0.0
  9
$LIMCHECK
 70
     0
  9
$CHAMFERA
 40
10.0
  9
$CHAMFERB
 40
10.0
  9
$CHAMFERC
 40
0.0
  9
$CHAMFERD
 40
0.0
  9
$SKPOLY
 70
     0
  9
$TDCREATE
 40
2451233.362260880
  9
$TDUCREATE
 40
2451232.987260880
  9
$TDUPDATE
 40
2457192.659553333
  9
$TDUUPDATE
 40
2457192.284553333
  9
$TDINDWG
 40
0.0000146181
  9
$TDUSRTIMER
 40
0.0000143171
  9
$USRTIMER
 70
     1
  9
$ANGBASE
 50
0.0
  9
$ANGDIR
 70
     0
  9
$PDMODE
 70
     0
  9
$PDSIZE
 40
0.0
  9
$PLINEWID
 40
0.0
  9
$SPLFRAME
 70
     0
  9
$SPLINETYPE
 70
     6
  9
$SPLINESEGS
 70
     8
  9
$HANDSEED
  5
F45A
  9
$SURFTAB1
 70
     6
  9
$SURFTAB2
 70
     6
  9
$SURFTYPE
 70
     6
  9
$SURFU
 70
     6
  9
$SURFV
 70
     6
  9
$UCSBASE
  2

  9
$UCSNAME
  2

  9
$UCSORG
 10
0.0
 20
0.0
 30
0.0
  9
$UCSXDIR
 10
1.0
 20
0.0
 30
0.0
  9
$UCSYDIR
 10
0.0
 20
1.0
 30
0.0
  9
$UCSORTHOREF
  2

  9
$UCSORTHOVIEW
 70
     0
  9
$UCSORGTOP
 10
0.0
 20
0.0
 30
0.0
  9
$UCSORGBOTTOM
 10
0.0
 20
0.0
 30
0.0
  9
$UCSORGLEFT
 10
0.0
 20
0.0
 30
0.0
  9
$UCSORGRIGHT
 10
0.0
 20
0.0
 30
0.0
  9
$UCSORGFRONT
 10
0.0
 20
0.0
 30
0.0
  9
$UCSORGBACK
 10
0.0
 20
0.0
 30
0.0
  9
$PUCSBASE
  2

  9
$PUCSNAME
  2

  9
$PUCSORG
 10
0.0
 20
0.0
 30
0.0
  9
$PUCSXDIR
 10
1.0
 20
0.0
 30
0.0
  9
$PUCSYDIR
 10
0.0
 20
1.0
 30
0.0
  9
$PUCSORTHOREF
  2

  9
$PUCSORTHOVIEW
 70
     0
  9
$PUCSORGTOP
 10
0.0
 20
0.0
 30
0.0
  9
$PUCSORGBOTTOM
 10
0.0
 20
0.0
 30
0.0
  9
$PUCSORGLEFT
 10
0.0
 20
0.0
 30
0.0
  9
$PUCSORGRIGHT
 10
0.0
 20
0.0
 30
0.0
  9
$PUCSORGFRONT
 10
0.0
 20
0.0
 30
0.0
  9
$PUCSORGBACK
 10
0.0
 20
0.0
 30
0.0
  9
$USERI1
 70
     0
  9
$USERI2
 70
     0
  9
$USERI3
 70
     0
  9
$USERI4
 70
     0
  9
$USERI5
 70
     0
  9
$USERR1
 40
0.0
  9
$USERR2
 40
0.0
  9
$USERR3
 40
0.0
  9
$USERR4
 40
0.0
  9
$USERR5
 40
0.0
  9
$WORLDVIEW
 70
     1
  9
$SHADEDGE
 70
     3
  9
$SHADEDIF
 70
    70
  9
$TILEMODE
 70
     1
  9
$MAXACTVP
 70
    16
  9
$PINSBASE
 10
0.0
 20
0.0
 30
0.0
  9
$PLIMCHECK
 70
     0
  9
$PEXTMIN
 10
1.000000000000000E+20
 20
1.000000000000000E+20
 30
1.000000000000000E+20
  9
$PEXTMAX
 10
-1.000000000000000E+20
 20
-1.000000000000000E+20
 30
-1.000000000000000E+20
  9
$PLIMMIN
 10
0.0
 20
0.0
  9
$PLIMMAX
 10
420.0
 20
297.0
  9
$UNITMODE
 70
     0
  9
$VISRETAIN
 70
     0
  9
$PLINEGEN
 70
     0
  9
$PSLTSCALE
 70
     0
  9
$TREEDEPTH
 70
  3020
  9
$CMLSTYLE
  2
STANDARD
  9
$CMLJUST
 70
     0
  9
$CMLSCALE
 40
1.0
  9
$PROXYGRAPHICS
 70
     1
  9
$MEASUREMENT
 70
     0
  9
$CELWEIGHT
370
    -1
  9
$ENDCAPS
280
     0
  9
$JOINSTYLE
280
     0
  9
$LWDISPLAY
290
     0
  9
$INSUNITS
 70
     0
  9
$HYPERLINKBASE
  1

  9
$STYLESHEET
  1

  9
$XEDIT
290
     1
  9
$CEPSNTYPE
380
     0
  9
$PSTYLEMODE
290
     1
  9
$FINGERPRINTGUID
  2
{AE445F50-AEE0-4CD0-9BCB-63CFB6BCC92E}
  9
$VERSIONGUID
  2
{99DBB275-26CF-4F59-9E4B-DD5E3A6CECF9}
  9
$EXTNAMES
290
     1
  9
$PSVPSCALE
 40
0.0
  9
$OLESTARTUP
290
     0
  0
ENDSEC
  0
SECTION
  2
CLASSES
  0
CLASS
  1
ACDBDICTIONARYWDFLT
  2
AcDbDictionaryWithDefault
  3
ObjectDBX Classes
 90
        0
280
     0
281
     0
  0
CLASS
  1
ACDBPLACEHOLDER
  2
AcDbPlaceHolder
  3
ObjectDBX Classes
 90
        0
280
     0
281
     0
  0
CLASS
  1
LAYOUT
  2
AcDbLayout
  3
ObjectDBX Classes
 90
        0
280
     0
281
     0
  0
CLASS
  1
DICTIONARYVAR
  2
AcDbDictionaryVar
  3
ObjectDBX Classes
 90
        0
280
     0
281
     0
  0
CLASS
  1
MATERIAL
  2
AcDbMaterial
  3
ObjectDBX Classes
 90
     1153
280
     0
281
     0
  0
CLASS
  1
VISUALSTYLE
  2
AcDbVisualStyle
  3
ObjectDBX Classes
 90
     4095
280
     0
281
     0
  0
CLASS
  1
TABLESTYLE
  2
AcDbTableStyle
  3
ObjectDBX Classes
 90
     4095
280
     0
281
     0
  0
CLASS
  1
SCALE
  2
AcDbScale
  3
ObjectDBX Classes
 90
     1153
280
     0
281
     0
  0
CLASS
  1
MLEADERSTYLE
  2
AcDbMLeaderStyle
  3
ACDB_MLEADERSTYLE_CLASS
 90
     4095
280
     0
281
     0
  0
CLASS
  1
ACDBSECTIONVIEWSTYLE
  2
AcDbSectionViewStyle
  3
ObjectDBX Classes
 90
     1025
280
     0
281
     0
  0
CLASS
  1
ACDBDETAILVIEWSTYLE
  2
AcDbDetailViewStyle
  3
ObjectDBX Classes
 90
     1025
280
     0
281
     0
  0
CLASS
  1
CELLSTYLEMAP
  2
AcDbCellStyleMap
  3
ObjectDBX Classes
 90
     1152
280
     0
281
     0
  0
ENDSEC
  0
SECTION
  2
TABLES
  0
TABLE
  2
VPORT
  5
EEC3
330
0
100
AcDbSymbolTable
 70
     1
  0
VPORT
  5
F3A3
330
EEC3
100
AcDbSymbolTableRecord
100
AcDbViewportTableRecord
  2
*ACTIVE
 70
     0
 10
0.0
 20
0.0
 11
1.0
 21
1.0
 12
846.3608192678687
 22
237.3770343202248
 13
0.0
 23
0.0
 14
10.0
 24
10.0
 15
10.0
 25
10.0
 16
0.0
 26
0.0
 36
1.0
 17
0.0
 27
0.0
 37
0.0
 40
715.2726919237003
 41
1.899603698811096
 42
50.0
 43
0.0
 44
0.0
 50
0.0
 51
0.0
 71
     0
 72
   100
 73
     1
 74
     0
 75
     0
 76
     0
 77
     0
 78
     0
281
     0
 65
     1
110
0.0
120
0.0
130
0.0
111
1.0
121
0.0
131
0.0
112
0.0
122
1.0
132
0.0
 79
     0
146
0.0
1001
ACAD_NAV_VCDISPLAY
1070
     3
  0
ENDTAB
  0
TABLE
  2
LTYPE
  5
EEC0
330
0
100
AcDbSymbolTable
 70
     4
  0
LTYPE
  5
EECE
330
EEC0
100
AcDbSymbolTableRecord
100
AcDbLinetypeTableRecord
  2
BYBLOCK
 70
     0
  3

 72
    65
 73
     0
 40
0.0
  0
LTYPE
  5
EECF
330
EEC0
100
AcDbSymbolTableRecord
100
AcDbLinetypeTableRecord
  2
BYLAYER
 70
     0
  3

 72
    65
 73
     0
 40
0.0
  0
LTYPE
  5
EED0
330
EEC0
100
AcDbSymbolTableRecord
100
AcDbLinetypeTableRecord
  2
CONTINUOUS
 70
     0
  3
Solid line
 72
    65
 73
     0
 40
0.0
  0
LTYPE
  5
EEDE
330
EEC0
100
AcDbSymbolTableRecord
100
AcDbLinetypeTableRecord
  2
DASHED
 70
     0
  3
__ __ __ __ __ __ __ __ __ __ __ __ __ __ __ __
 72
    65
 73
     2
 40
0.75
 49
0.5
 74
     0
 49
-0.25
 74
     0
  0
LTYPE
  5
EEDF
330
EEC0
100
AcDbSymbolTableRecord
100
AcDbLinetypeTableRecord
  2
CENTER
 70
     0
  3
____ _ ____ _ ____ _ ____ _ ____ _ ____ _ ____ 
 72
    65
 73
     4
 40
2.0
 49
1.25
 74
     0
 49
-0.25
 74
     0
 49
0.25
 74
     0
 49
-0.25
 74
     0
  0
LTYPE
  5
EEE0
330
EEC0
100
AcDbSymbolTableRecord
100
AcDbLinetypeTableRecord
  2
PHANTOM
 70
     0
  3
______  __  __  ______  __  __  ______  __  __ 
 72
    65
 73
     6
 40
2.5
 49
1.25
 74
     0
 49
-0.25
 74
     0
 49
0.25
 74
     0
 49
-0.25
 74
     0
 49
0.25
 74
     0
 49
-0.25
 74
     0
  0
ENDTAB
  0
TABLE
  2
LAYER
  5
EEBD
330
0
100
AcDbSymbolTable
 70
     8
  0
LAYER
  5
EECB
102
{ACAD_XDICTIONARY
360
F3FE
102
}
330
EEBD
100
AcDbSymbolTableRecord
100
AcDbLayerTableRecord
  2
0
 70
     0
 62
     7
  6
CONTINUOUS
370
    -3
390
F3AC
  0
LAYER
  5
EEE1
102
{ACAD_XDICTIONARY
360
F400
102
}
330
EEBD
100
AcDbSymbolTableRecord
100
AcDbLayerTableRecord
  2
4
 70
     0
 62
     1
  6
CENTER
370
    -3
390
F3AC
  0
LAYER
  5
EEE2
102
{ACAD_XDICTIONARY
360
F402
102
}
330
EEBD
100
AcDbSymbolTableRecord
100
AcDbLayerTableRecord
  2
5
 70
     0
 62
     6
  6
PHANTOM
370
    -3
390
F3AC
  0
LAYER
  5
EEE3
102
{ACAD_XDICTIONARY
360
F404
102
}
330
EEBD
100
AcDbSymbolTableRecord
100
AcDbLayerTableRecord
  2
1
 70
     0
 62
     7
  6
CONTINUOUS
370
    -3
390
F3AC
  0
LAYER
  5
EEE4
102
{ACAD_XDICTIONARY
360
F406
102
}
330
EEBD
100
AcDbSymbolTableRecord
100
AcDbLayerTableRecord
  2
2
 70
     0
 62
     4
  6
CONTINUOUS
370
    -3
390
F3AC
  0
LAYER
  5
EEE5
102
{ACAD_XDICTIONARY
360
F408
102
}
330
EEBD
100
AcDbSymbolTableRecord
100
AcDbLayerTableRecord
  2
3
 70
     0
 62
     2
  6
DASHED
370
    -3
390
F3AC
  0
LAYER
  5
EEE6
102
{ACAD_XDICTIONARY
360
F40A
102
}
330
EEBD
100
AcDbSymbolTableRecord
100
AcDbLayerTableRecord
  2
6
 70
     0
 62
     5
  6
CONTINUOUS
370
    -3
390
F3AC
  0
LAYER
  5
EEE7
102
{ACAD_XDICTIONARY
360
F40C
102
}
330
EEBD
100
AcDbSymbolTableRecord
100
AcDbLayerTableRecord
  2
7
 70
     0
 62
     3
  6
CONTINUOUS
370
    -3
390
F3AC
  0
ENDTAB
  0
TABLE
  2
STYLE
  5
EEBE
330
0
100
AcDbSymbolTable
 70
     1
  0
STYLE
  5
EECC
330
EEBE
100
AcDbSymbolTableRecord
100
AcDbTextStyleTableRecord
  2
STANDARD
 70
     0
 40
0.0
 41
1.0
 50
0.0
 71
     0
 42
5.0
  3
txt
  4

  0
ENDTAB
  0
TABLE
  2
VIEW
  5
EEC1
330
0
100
AcDbSymbolTable
 70
     0
  0
ENDTAB
  0
TABLE
  2
UCS
  5
EEC2
330
0
100
AcDbSymbolTable
 70
     0
  0
ENDTAB
  0
TABLE
  2
APPID
  5
EEC4
330
0
100
AcDbSymbolTable
 70
     3
  0
APPID
  5
EECD
330
EEC4
100
AcDbSymbolTableRecord
100
AcDbRegAppTableRecord
  2
ACAD
 70
     0
  0
APPID
  5
F418
330
EEC4
100
AcDbSymbolTableRecord
100
AcDbRegAppTableRecord
  2
ACAD_NAV_VCDISPLAY
 70
     0
  0
APPID
  5
F451
330
EEC4
100
AcDbSymbolTableRecord
100
AcDbRegAppTableRecord
  2
ACAD_MLEADERVER
 70
     0
  0
ENDTAB
  0
TABLE
  2
DIMSTYLE
  5
EEC5
330
0
100
AcDbSymbolTable
 70
     1
100
AcDbDimStyleTable
 71
     0
  0
DIMSTYLE
105
EEE9
330
EEC5
100
AcDbSymbolTableRecord
100
AcDbDimStyleTableRecord
  2
STANDARD
 70
     0
 41
3.0
 42
1.0
 43
10.0
 44
1.0
 73
     0
 74
     0
 77
     3
 78
     8
140
2.5
141
0.0
147
1.0
172
     1
173
     1
284
     8
285
     8
286
     8
340
EECC
  0
ENDTAB
  0
TABLE
  2
BLOCK_RECORD
  5
EEBC
330
0
100
AcDbSymbolTable
 70
     0
  0
BLOCK_RECORD
  5
EED9
102
{ACAD_XDICTIONARY
360
F3A6
102
}
330
EEBC
100
AcDbSymbolTableRecord
100
AcDbBlockTableRecord
  2
*MODEL_SPACE
340
F3FA
  0
BLOCK_RECORD
  5
EED5
102
{ACAD_XDICTIONARY
360
F3A4
102
}
330
EEBC
100
AcDbSymbolTableRecord
100
AcDbBlockTableRecord
  2
*PAPER_SPACE
340
F3FB
  0
ENDTAB
  0
ENDSEC
  0
SECTION
  2
BLOCKS
  0
BLOCK
  5
EEDA
330
EED9
100
AcDbEntity
  8
0
100
AcDbBlockBegin
  2
*MODEL_SPACE
 70
     0
 10
0.0
 20
0.0
 30
0.0
  3
*MODEL_SPACE
  1

  0
ENDBLK
  5
EEDB
330
EED9
100
AcDbEntity
  8
0
100
AcDbBlockEnd
  0
BLOCK
  5
EED6
330
EED5
100
AcDbEntity
 67
     1
  8
0
100
AcDbBlockBegin
  2
*PAPER_SPACE
 70
     0
 10
0.0
 20
0.0
 30
0.0
  3
*PAPER_SPACE
  1

  0
ENDBLK
  5
EED7
330
EED5
100
AcDbEntity
 67
     1
  8
0
100
AcDbBlockEnd
  0
ENDSEC
  0
SECTION
  2
ENTITIES
  0
TEXT
  5
EEF1
330
EED9
100
AcDbEntity
  8
7
  6
Continuous
100
AcDbText
 10
10.0
 20
18.0
 30
0.0
 40
3.0
  1
TYPE No.TM-167-20
100
AcDbText
  0
TEXT
  5
EEF2
330
EED9
100
AcDbEntity
  8
7
  6
Continuous
100
AcDbText
 10
10.0
 20
26.0
 30
0.0
 40
3.0
  1
CODE No.5845
100
AcDbText
  0
TEXT
  5
EEF3
330
EED9
100
AcDbEntity
  8
1
  6
Continuous
100
AcDbText
 10
10.0
 20
10.0
 30
0.0
 40
1.399999999999999
  1
LAYER
100
AcDbText
  0
TEXT
  5
EEF4
330
EED9
100
AcDbEntity
  8
1
  6
Continuous
100
AcDbText
 10
17.97951099999998
 20
10.04873699999998
 30
0.0
 40
1.399999999999999
  1
1
100
AcDbText
  0
TEXT
  5
EEF5
330
EED9
100
AcDbEntity
  8
7
  6
Continuous
100
AcDbText
 10
29.97951099999999
 20
10.04873699999998
 30
0.0
 40
1.399999999999999
  1
7
100
AcDbText
  0
TEXT
  5
EEF6
330
EED9
100
AcDbEntity
  8
4
  6
CENTER
100
AcDbText
 10
23.97951099999999
 20
10.04873699999998
 30
0.0
 40
1.399999999999999
  1
4
100
AcDbText
  0
TEXT
  5
EEF7
330
EED9
100
AcDbEntity
  8
3
  6
DASHED
100
AcDbText
 10
21.979511
 20
10.04873699999998
 30
0.0
 40
1.399999999999999
  1
3
100
AcDbText
  0
TEXT
  5
EEF8
330
EED9
100
AcDbEntity
  8
2
  6
Continuous
100
AcDbText
 10
19.97951099999999
 20
10.04873699999998
 30
0.0
 40
1.399999999999999
  1
2
100
AcDbText
  0
TEXT
  5
EEF9
330
EED9
100
AcDbEntity
  8
6
  6
Continuous
100
AcDbText
 10
27.979511
 20
10.04873699999998
 30
0.0
 40
1.399999999999999
  1
6
100
AcDbText
  0
TEXT
  5
EEFA
330
EED9
100
AcDbEntity
  8
5
  6
PHANTOM
100
AcDbText
 10
25.97951099999999
 20
10.04873699999998
 30
0.0
 40
1.399999999999999
  1
5
100
AcDbText
  0
LINE
  5
EEFB
330
EED9
100
AcDbEntity
  8
1
  6
Continuous
100
AcDbLine
 10
118.1
 20
165.0999999999999
 30
0.0
 11
118.1
 21
166.602131
 31
0.0
  0
LINE
  5
EEFC
330
EED9
100
AcDbEntity
  8
1
  6
Continuous
100
AcDbLine
 10
118.1
 20
165.0999999999999
 30
0.0
 11
626.1
 21
165.0999999999999
 31
0.0
  0
LINE
  5
EEFD
330
EED9
100
AcDbEntity
  8
1
  6
Continuous
100
AcDbLine
 10
626.1
 20
165.0999999999999
 30
0.0
 11
626.1
 21
175.2499999999998
 31
0.0
  0
LINE
  5
EEFE
330
EED9
100
AcDbEntity
  8
1
  6
Continuous
100
AcDbLine
 10
118.1
 20
200.4
 30
0.0
 11
626.1
 21
200.4
 31
0.0
  0
LINE
  5
EEFF
330
EED9
100
AcDbEntity
  8
4
  6
CENTER
100
AcDbLine
 10
113.1
 20
182.75
 30
0.0
 11
1161.1
 21
182.75
 31
0.0
  0
LINE
  5
EF00
330
EED9
100
AcDbEntity
  8
1
  6
Continuous
100
AcDbLine
 10
648.1
 20
165.0999999999999
 30
0.0
 11
648.1
 21
170.5
 31
0.0
  0
LINE
  5
EF01
330
EED9
100
AcDbEntity
  8
1
  6
Continuous
100
AcDbLine
 10
1156.1
 20
165.0999999999999
 30
0.0
 11
1156.1
 21
166.602131
 31
0.0
  0
LINE
  5
EF02
330
EED9
100
AcDbEntity
  8
1
  6
Continuous
100
AcDbLine
 10
648.1
 20
200.4
 30
0.0
 11
1156.1
 21
200.4
 31
0.0
  0
LINE
  5
EF03
330
EED9
100
AcDbEntity
  8
1
  6
Continuous
100
AcDbLine
 10
648.1
 20
165.0999999999999
 30
0.0
 11
1156.1
 21
165.0999999999999
 31
0.0
  0
ARC
  5
EF04
330
EED9
100
AcDbEntity
  8
1
  6
Continuous
100
AcDbCircle
 10
610.2000000000002
 20
182.3499999999999
 30
0.0
 40
2.25
100
AcDbArc
 50
180.0
 51
0.0
  0
LINE
  5
EF05
330
EED9
100
AcDbEntity
  8
1
  6
Continuous
100
AcDbLine
 10
612.4500000000002
 20
183.15
 30
0.0
 11
612.4500000000002
 21
182.3499999999999
 31
0.0
  0
LINE
  5
EF06
330
EED9
100
AcDbEntity
  8
1
  6
Continuous
100
AcDbLine
 10
607.9500000000003
 20
183.15
 30
0.0
 11
607.9500000000003
 21
182.3499999999999
 31
0.0
  0
LINE
  5
EF07
330
EED9
100
AcDbEntity
  8
4
  6
CENTER
100
AcDbLine
 10
610.2000000000002
 20
188.0
 30
0.0
 11
610.2000000000002
 21
177.5
 31
0.0
  0
ARC
  5
EF08
330
EED9
100
AcDbEntity
  8
1
  6
Continuous
100
AcDbCircle
 10
610.2000000000002
 20
183.15
 30
0.0
 40
2.25
100
AcDbArc
 50
0.0
 51
180.0
  0
ARC
  5
EF09
330
EED9
100
AcDbEntity
  8
1
  6
Continuous
100
AcDbCircle
 10
597.5
 20
183.15
 30
0.0
 40
2.25
100
AcDbArc
 50
0.0
 51
180.0
  0
ARC
  5
EF0A
330
EED9
100
AcDbEntity
  8
1
  6
Continuous
100
AcDbCircle
 10
597.5
 20
182.3499999999999
 30
0.0
 40
2.25
100
AcDbArc
 50
180.0
 51
0.0
  0
LINE
  5
EF0B
330
EED9
100
AcDbEntity
  8
4
  6
CENTER
100
AcDbLine
 10
597.5
 20
188.0
 30
0.0
 11
597.5
 21
177.5
 31
0.0
  0
LINE
  5
EF0C
330
EED9
100
AcDbEntity
  8
1
  6
Continuous
100
AcDbLine
 10
595.2499999999997
 20
183.15
 30
0.0
 11
595.2499999999997
 21
182.3499999999999
 31
0.0
  0
LINE
  5
EF0D
330
EED9
100
AcDbEntity
  8
1
  6
Continuous
100
AcDbLine
 10
599.75
 20
183.15
 30
0.0
 11
599.75
 21
182.3499999999999
 31
0.0
  0
ARC
  5
EF0E
330
EED9
100
AcDbEntity
  8
1
  6
Continuous
100
AcDbCircle
 10
585.2000000000002
 20
182.75
 30
0.0
 40
2.25
100
AcDbArc
 50
270.0
 51
90.0
  0
LINE
  5
EF0F
330
EED9
100
AcDbEntity
  8
4
  6
CENTER
100
AcDbLine
 10
584.7999999999998
 20
188.0
 30
0.0
 11
584.7999999999998
 21
177.5
 31
0.0
  0
ARC
  5
EF10
330
EED9
100
AcDbEntity
  8
1
  6
Continuous
100
AcDbCircle
 10
584.4
 20
182.75
 30
0.0
 40
2.25
100
AcDbArc
 50
90.0
 51
270.0
  0
LINE
  5
EF11
330
EED9
100
AcDbEntity
  8
1
  6
Continuous
100
AcDbLine
 10
585.2000000000002
 20
185.0
 30
0.0
 11
584.4
 21
185.0
 31
0.0
  0
LINE
  5
EF12
330
EED9
100
AcDbEntity
  8
1
  6
Continuous
100
AcDbLine
 10
585.2000000000002
 20
180.4999999999998
 30
0.0
 11
584.4
 21
180.4999999999998
 31
0.0
  0
ARC
  5
EF13
330
EED9
100
AcDbEntity
  8
1
  6
Continuous
100
AcDbCircle
 10
499.5
 20
182.75
 30
0.0
 40
2.25
100
AcDbArc
 50
270.0
 51
90.0
  0
ARC
  5
EF14
330
EED9
100
AcDbEntity
  8
1
  6
Continuous
100
AcDbCircle
 10
498.7
 20
182.75
 30
0.0
 40
2.25
100
AcDbArc
 50
90.0
 51
270.0
  0
LINE
  5
EF15
330
EED9
100
AcDbEntity
  8
1
  6
Continuous
100
AcDbLine
 10
499.5
 20
185.0
 30
0.0
 11
498.7
 21
185.0
 31
0.0
  0
LINE
  5
EF16
330
EED9
100
AcDbEntity
  8
4
  6
CENTER
100
AcDbLine
 10
499.1
 20
188.0
 30
0.0
 11
499.1
 21
177.5
 31
0.0
  0
LINE
  5
EF17
330
EED9
100
AcDbEntity
  8
1
  6
Continuous
100
AcDbLine
 10
499.5
 20
180.4999999999998
 30
0.0
 11
498.7
 21
180.4999999999998
 31
0.0
  0
LINE
  5
EF18
330
EED9
100
AcDbEntity
  8
1
  6
Continuous
100
AcDbLine
 10
258.1999999999998
 20
180.4999999999998
 30
0.0
 11
257.3999999999999
 21
180.4999999999998
 31
0.0
  0
LINE
  5
EF19
330
EED9
100
AcDbEntity
  8
4
  6
CENTER
100
AcDbLine
 10
257.8
 20
188.0
 30
0.0
 11
257.8
 21
177.5
 31
0.0
  0
LINE
  5
EF1A
330
EED9
100
AcDbEntity
  8
1
  6
Continuous
100
AcDbLine
 10
258.1999999999998
 20
185.0
 30
0.0
 11
257.3999999999999
 21
185.0
 31
0.0
  0
ARC
  5
EF1B
330
EED9
100
AcDbEntity
  8
1
  6
Continuous
100
AcDbCircle
 10
257.3999999999999
 20
182.75
 30
0.0
 40
2.25
100
AcDbArc
 50
90.0
 51
270.0
  0
ARC
  5
EF1C
330
EED9
100
AcDbEntity
  8
1
  6
Continuous
100
AcDbCircle
 10
258.1999999999998
 20
182.75
 30
0.0
 40
2.25
100
AcDbArc
 50
270.0
 51
90.0
  0
ARC
  5
EF1D
330
EED9
100
AcDbEntity
  8
1
  6
Continuous
100
AcDbCircle
 10
146.6999999999998
 20
183.15
 30
0.0
 40
2.25
100
AcDbArc
 50
0.0
 51
180.0
  0
ARC
  5
EF1E
330
EED9
100
AcDbEntity
  8
1
  6
Continuous
100
AcDbCircle
 10
146.6999999999998
 20
182.3499999999999
 30
0.0
 40
2.25
100
AcDbArc
 50
180.0
 51
0.0
  0
LINE
  5
EF1F
330
EED9
100
AcDbEntity
  8
4
  6
CENTER
100
AcDbLine
 10
146.6999999999998
 20
188.0
 30
0.0
 11
146.6999999999998
 21
177.5
 31
0.0
  0
LINE
  5
EF20
330
EED9
100
AcDbEntity
  8
1
  6
Continuous
100
AcDbLine
 10
144.4499999999998
 20
183.15
 30
0.0
 11
144.4499999999998
 21
182.3499999999999
 31
0.0
  0
LINE
  5
EF21
330
EED9
100
AcDbEntity
  8
1
  6
Continuous
100
AcDbLine
 10
148.9499999999999
 20
183.15
 30
0.0
 11
148.9499999999999
 21
182.3499999999999
 31
0.0
  0
ARC
  5
EF22
330
EED9
100
AcDbEntity
  8
1
  6
Continuous
100
AcDbCircle
 10
134.0
 20
183.15
 30
0.0
 40
2.25
100
AcDbArc
 50
0.0
 51
180.0
  0
ARC
  5
EF23
330
EED9
100
AcDbEntity
  8
1
  6
Continuous
100
AcDbCircle
 10
134.0
 20
182.3499999999999
 30
0.0
 40
2.25
100
AcDbArc
 50
180.0
 51
0.0
  0
LINE
  5
EF24
330
EED9
100
AcDbEntity
  8
4
  6
CENTER
100
AcDbLine
 10
134.0
 20
188.0
 30
0.0
 11
134.0
 21
177.5
 31
0.0
  0
LINE
  5
EF25
330
EED9
100
AcDbEntity
  8
1
  6
Continuous
100
AcDbLine
 10
131.75
 20
183.15
 30
0.0
 11
131.75
 21
182.3499999999999
 31
0.0
  0
LINE
  5
EF26
330
EED9
100
AcDbEntity
  8
1
  6
Continuous
100
AcDbLine
 10
136.25
 20
183.15
 30
0.0
 11
136.25
 21
182.3499999999999
 31
0.0
  0
LINE
  5
EF27
330
EED9
100
AcDbEntity
  8
1
  6
Continuous
100
AcDbLine
 10
1137.95
 20
183.15
 30
0.0
 11
1137.95
 21
182.3499999999999
 31
0.0
  0
LINE
  5
EF28
330
EED9
100
AcDbEntity
  8
1
  6
Continuous
100
AcDbLine
 10
1142.449999999998
 20
183.15
 30
0.0
 11
1142.449999999998
 21
182.3499999999999
 31
0.0
  0
LINE
  5
EF29
330
EED9
100
AcDbEntity
  8
4
  6
CENTER
100
AcDbLine
 10
1140.2
 20
188.0
 30
0.0
 11
1140.2
 21
177.5
 31
0.0
  0
ARC
  5
EF2A
330
EED9
100
AcDbEntity
  8
1
  6
Continuous
100
AcDbCircle
 10
1140.2
 20
182.3499999999999
 30
0.0
 40
2.25
100
AcDbArc
 50
180.0
 51
0.0
  0
ARC
  5
EF2B
330
EED9
100
AcDbEntity
  8
1
  6
Continuous
100
AcDbCircle
 10
1140.2
 20
183.15
 30
0.0
 40
2.25
100
AcDbArc
 50
0.0
 51
180.0
  0
LINE
  5
EF2C
330
EED9
100
AcDbEntity
  8
1
  6
Continuous
100
AcDbLine
 10
1125.25
 20
183.15
 30
0.0
 11
1125.25
 21
182.3499999999999
 31
0.0
  0
LINE
  5
EF2D
330
EED9
100
AcDbEntity
  8
1
  6
Continuous
100
AcDbLine
 10
1129.75
 20
183.15
 30
0.0
 11
1129.75
 21
182.3499999999999
 31
0.0
  0
LINE
  5
EF2E
330
EED9
100
AcDbEntity
  8
4
  6
CENTER
100
AcDbLine
 10
1127.5
 20
188.0
 30
0.0
 11
1127.5
 21
177.5
 31
0.0
  0
ARC
  5
EF2F
330
EED9
100
AcDbEntity
  8
1
  6
Continuous
100
AcDbCircle
 10
1127.5
 20
182.3499999999999
 30
0.0
 40
2.25
100
AcDbArc
 50
180.0
 51
0.0
  0
ARC
  5
EF30
330
EED9
100
AcDbEntity
  8
1
  6
Continuous
100
AcDbCircle
 10
1127.5
 20
183.15
 30
0.0
 40
2.25
100
AcDbArc
 50
0.0
 51
180.0
  0
ARC
  5
EF31
330
EED9
100
AcDbEntity
  8
1
  6
Continuous
100
AcDbCircle
 10
1016.799999999999
 20
182.75
 30
0.0
 40
2.25
100
AcDbArc
 50
270.0
 51
90.0
  0
ARC
  5
EF32
330
EED9
100
AcDbEntity
  8
1
  6
Continuous
100
AcDbCircle
 10
1016.0
 20
182.75
 30
0.0
 40
2.25
100
AcDbArc
 50
90.0
 51
270.0
  0
LINE
  5
EF33
330
EED9
100
AcDbEntity
  8
1
  6
Continuous
100
AcDbLine
 10
1016.0
 20
185.0
 30
0.0
 11
1016.799999999999
 21
185.0
 31
0.0
  0
LINE
  5
EF34
330
EED9
100
AcDbEntity
  8
4
  6
CENTER
100
AcDbLine
 10
1016.399999999998
 20
188.0
 30
0.0
 11
1016.399999999998
 21
177.5
 31
0.0
  0
LINE
  5
EF35
330
EED9
100
AcDbEntity
  8
1
  6
Continuous
100
AcDbLine
 10
1016.0
 20
180.4999999999998
 30
0.0
 11
1016.799999999999
 21
180.4999999999998
 31
0.0
  0
LINE
  5
EF36
330
EED9
100
AcDbEntity
  8
4
  6
CENTER
100
AcDbLine
 10
775.1
 20
188.0
 30
0.0
 11
775.1
 21
177.5
 31
0.0
  0
LINE
  5
EF37
330
EED9
100
AcDbEntity
  8
4
  6
CENTER
100
AcDbLine
 10
689.4
 20
188.0
 30
0.0
 11
689.4
 21
177.5
 31
0.0
  0
ARC
  5
EF38
330
EED9
100
AcDbEntity
  8
1
  6
Continuous
100
AcDbCircle
 10
664.0
 20
183.15
 30
0.0
 40
2.25
100
AcDbArc
 50
0.0
 51
180.0
  0
ARC
  5
EF39
330
EED9
100
AcDbEntity
  8
1
  6
Continuous
100
AcDbCircle
 10
664.0
 20
182.3499999999999
 30
0.0
 40
2.25
100
AcDbArc
 50
180.0
 51
0.0
  0
LINE
  5
EF3A
330
EED9
100
AcDbEntity
  8
4
  6
CENTER
100
AcDbLine
 10
676.7000000000003
 20
188.0
 30
0.0
 11
676.7000000000003
 21
177.5
 31
0.0
  0
LINE
  5
EF3B
330
EED9
100
AcDbEntity
  8
4
  6
CENTER
100
AcDbLine
 10
664.0
 20
189.9566529999999
 30
0.0
 11
664.0
 21
175.14061
 31
0.0
  0
LINE
  5
EF3C
330
EED9
100
AcDbEntity
  8
1
  6
Continuous
100
AcDbLine
 10
666.25
 20
183.15
 30
0.0
 11
666.25
 21
182.3499999999999
 31
0.0
  0
LINE
  5
EF3D
330
EED9
100
AcDbEntity
  8
1
  6
Continuous
100
AcDbLine
 10
661.7499999999997
 20
183.15
 30
0.0
 11
661.7499999999997
 21
182.3499999999999
 31
0.0
  0
LINE
  5
EF3E
330
EED9
100
AcDbEntity
  8
1
  6
Continuous
100
AcDbLine
 10
25.0
 20
170.171084
 30
0.0
 11
25.0
 21
195.3289159999999
 31
0.0
  0
LINE
  5
EF3F
330
EED9
100
AcDbEntity
  8
1
  6
Continuous
100
AcDbLine
 10
26.6
 20
170.171084
 30
0.0
 11
26.6
 21
175.2499999999998
 31
0.0
  0
LINE
  5
EF40
330
EED9
100
AcDbEntity
  8
1
  6
Continuous
100
AcDbLine
 10
28.3
 20
191.6375
 30
0.0
 11
28.3
 21
192.8375
 31
0.0
  0
LINE
  5
EF41
330
EED9
100
AcDbEntity
  8
1
  6
Continuous
100
AcDbLine
 10
28.3
 20
192.8375
 30
0.0
 11
30.89999999999999
 21
192.8375
 31
0.0
  0
LINE
  5
EF42
330
EED9
100
AcDbEntity
  8
1
  6
Continuous
100
AcDbLine
 10
28.3
 20
191.6375
 30
0.0
 11
30.89999999999999
 21
191.6375
 31
0.0
  0
LINE
  5
EF43
330
EED9
100
AcDbEntity
  8
1
  6
Continuous
100
AcDbLine
 10
32.1
 20
175.0625
 30
0.0
 11
32.1
 21
190.4374999999998
 31
0.0
  0
ARC
  5
EF44
330
EED9
100
AcDbEntity
  8
1
  6
Continuous
100
AcDbCircle
 10
30.89999999999999
 20
190.4374999999998
 30
0.0
 40
1.199999999999999
100
AcDbArc
 50
0.0
 51
90.0
  0
ARC
  5
EF45
330
EED9
100
AcDbEntity
  8
1
  6
Continuous
100
AcDbCircle
 10
30.89999999999999
 20
190.4374999999998
 30
0.0
 40
2.399999999999999
100
AcDbArc
 50
0.0
 51
90.0
  0
LINE
  5
EF46
330
EED9
100
AcDbEntity
  8
1
  6
Continuous
100
AcDbLine
 10
626.1
 20
195.0
 30
0.0
 11
890.4999999999999
 21
195.0
 31
0.0
  0
LINE
  5
EF47
330
EED9
100
AcDbEntity
  8
1
  6
Continuous
100
AcDbLine
 10
626.1
 20
170.5
 30
0.0
 11
890.4999999999999
 21
170.5
 31
0.0
  0
LINE
  5
EF48
330
EED9
100
AcDbEntity
  8
1
  6
Continuous
100
AcDbLine
 10
648.1
 20
195.0
 30
0.0
 11
648.1
 21
200.4
 31
0.0
  0
LINE
  5
EF49
330
EED9
100
AcDbEntity
  8
3
  6
DASHED
100
AcDbLine
 10
648.1
 20
170.5
 30
0.0
 11
648.1
 21
175.2499999999998
 31
0.0
  0
LINE
  5
EF4A
330
EED9
100
AcDbEntity
  8
1
  6
Continuous
100
AcDbLine
 10
662.5
 20
187.7499999999998
 30
0.0
 11
665.5
 21
187.7499999999998
 31
0.0
  0
LINE
  5
EF4B
330
EED9
100
AcDbEntity
  8
1
  6
Continuous
100
AcDbLine
 10
662.5
 20
177.75
 30
0.0
 11
665.5
 21
177.75
 31
0.0
  0
ARC
  5
EF4C
330
EED9
100
AcDbEntity
  8
1
  6
Continuous
100
AcDbCircle
 10
665.5
 20
182.75
 30
0.0
 40
5.0
100
AcDbArc
 50
270.0
 51
90.0
  0
ARC
  5
EF4D
330
EED9
100
AcDbEntity
  8
1
  6
Continuous
100
AcDbCircle
 10
662.5
 20
182.75
 30
0.0
 40
5.0
100
AcDbArc
 50
90.0
 51
270.0
  0
LINE
  5
EF4E
330
EED9
100
AcDbEntity
  8
1
  6
Continuous
100
AcDbLine
 10
852.5
 20
192.8375
 30
0.0
 11
852.5
 21
172.6625
 31
0.0
  0
LINE
  5
EF4F
330
EED9
100
AcDbEntity
  8
1
  6
Continuous
100
AcDbLine
 10
890.4999999999999
 20
195.0
 30
0.0
 11
890.4999999999999
 21
170.5
 31
0.0
  0
LINE
  5
EF50
330
EED9
100
AcDbEntity
  8
4
  6
CENTER
100
AcDbLine
 10
865.4999999999999
 20
189.25
 30
0.0
 11
865.4999999999999
 21
176.25
 31
0.0
  0
CIRCLE
  5
EF51
330
EED9
100
AcDbEntity
  8
1
  6
Continuous
100
AcDbCircle
 10
865.4999999999999
 20
182.75
 30
0.0
 40
3.5
  0
LINE
  5
EF52
330
EED9
100
AcDbEntity
  8
4
  6
CENTER
100
AcDbLine
 10
20.0
 20
182.75
 30
0.0
 11
49.1
 21
182.75
 31
0.0
  0
ARC
  5
EF53
330
EED9
100
AcDbEntity
  8
1
  6
Continuous
100
AcDbCircle
 10
30.0
 20
196.4187499999999
 30
0.0
 40
2.38125
100
AcDbArc
 50
204.844815
 51
343.87833
  0
ARC
  5
EF54
330
EED9
100
AcDbEntity
  8
1
  6
Continuous
100
AcDbCircle
 10
30.0
 20
196.4187499999999
 30
0.0
 40
3.98125
100
AcDbArc
 50
21.665296
 51
142.987809
  0
LINE
  5
EF55
330
EED9
100
AcDbEntity
  8
1
  6
Continuous
100
AcDbLine
 10
33.7
 20
197.8885629999999
 30
0.0
 11
32.21302999999998
 21
197.2978689999999
 31
0.0
  0
LINE
  5
EF56
330
EED9
100
AcDbEntity
  8
1
  6
Continuous
100
AcDbLine
 10
25.644776
 20
197.2552679999998
 30
0.0
 11
26.82094199999999
 21
198.815403
 31
0.0
  0
LINE
  5
EF57
330
EED9
100
AcDbEntity
  8
1
  6
Continuous
100
AcDbLine
 10
26.922388
 20
196.292092
 30
0.0
 11
28.098554
 21
197.852227
 31
0.0
  0
ARC
  5
EF58
330
EED9
100
AcDbEntity
  8
1
  6
Continuous
100
AcDbCircle
 10
28.2
 20
195.3289159999999
 30
0.0
 40
1.6
100
AcDbArc
 50
142.987809
 51
180.0
  0
ARC
  5
EF59
330
EED9
100
AcDbEntity
  8
1
  6
Continuous
100
AcDbCircle
 10
28.2
 20
195.3289159999999
 30
0.0
 40
3.2
100
AcDbArc
 50
142.987809
 51
180.0
  0
ARC
  5
EF5A
330
EED9
100
AcDbEntity
  8
1
  6
Continuous
100
AcDbCircle
 10
30.0
 20
196.4187499999999
 30
0.0
 40
3.581249999999998
100
AcDbArc
 50
236.0503449999999
 51
309.5506789999999
  0
LINE
  5
EF5B
330
EED9
100
AcDbEntity
  8
1
  6
Continuous
100
AcDbLine
 10
34.5
 20
172.322939
 30
0.0
 11
34.5
 21
193.177061
 31
0.0
  0
LINE
  5
EF5C
330
EED9
100
AcDbEntity
  8
1
  6
Continuous
100
AcDbLine
 10
33.3
 20
172.322939
 30
0.0
 11
33.3
 21
193.177061
 31
0.0
  0
ARC
  5
EF5D
330
EED9
100
AcDbEntity
  8
1
  6
Continuous
100
AcDbCircle
 10
32.677061
 20
193.177061
 30
0.0
 40
1.822938999999999
100
AcDbArc
 50
0.0
 51
129.550679
  0
ARC
  5
EF5E
330
EED9
100
AcDbEntity
  8
1
  6
Continuous
100
AcDbCircle
 10
32.677061
 20
193.177061
 30
0.0
 40
0.6229390000000003
100
AcDbArc
 50
0.0
 51
129.550679
  0
LINE
  5
EF5F
330
EED9
100
AcDbEntity
  8
1
  6
Continuous
100
AcDbLine
 10
28.0
 20
193.448001
 30
0.0
 11
28.67015699999999
 21
194.443435
 31
0.0
  0
ARC
  5
EF60
330
EED9
100
AcDbEntity
  8
1
  6
Continuous
100
AcDbCircle
 10
28.2
 20
170.171084
 30
0.0
 40
3.2
100
AcDbArc
 50
180.0
 51
217.012191
  0
ARC
  5
EF61
330
EED9
100
AcDbEntity
  8
1
  6
Continuous
100
AcDbCircle
 10
28.2
 20
170.171084
 30
0.0
 40
1.6
100
AcDbArc
 50
180.0
 51
217.012191
  0
LINE
  5
EF62
330
EED9
100
AcDbEntity
  8
1
  6
Continuous
100
AcDbLine
 10
28.3
 20
173.8625
 30
0.0
 11
28.3
 21
172.6625
 31
0.0
  0
LINE
  5
EF63
330
EED9
100
AcDbEntity
  8
1
  6
Continuous
100
AcDbLine
 10
28.3
 20
173.8625
 30
0.0
 11
30.89999999999999
 21
173.8625
 31
0.0
  0
LINE
  5
EF64
330
EED9
100
AcDbEntity
  8
1
  6
Continuous
100
AcDbLine
 10
28.3
 20
172.6625
 30
0.0
 11
30.89999999999999
 21
172.6625
 31
0.0
  0
ARC
  5
EF65
330
EED9
100
AcDbEntity
  8
1
  6
Continuous
100
AcDbCircle
 10
30.89999999999999
 20
175.0625
 30
0.0
 40
2.399999999999999
100
AcDbArc
 50
270.0
 51
0.0
  0
ARC
  5
EF66
330
EED9
100
AcDbEntity
  8
1
  6
Continuous
100
AcDbCircle
 10
30.89999999999999
 20
175.0625
 30
0.0
 40
1.199999999999999
100
AcDbArc
 50
270.0
 51
0.0
  0
ARC
  5
EF67
330
EED9
100
AcDbEntity
  8
1
  6
Continuous
100
AcDbCircle
 10
30.0
 20
169.08125
 30
0.0
 40
3.581249999999998
100
AcDbArc
 50
50.449321
 51
123.949655
  0
LINE
  5
EF68
330
EED9
100
AcDbEntity
  8
1
  6
Continuous
100
AcDbLine
 10
28.0
 20
172.0519989999999
 30
0.0
 11
28.67015699999999
 21
171.0565649999998
 31
0.0
  0
ARC
  5
EF69
330
EED9
100
AcDbEntity
  8
1
  6
Continuous
100
AcDbCircle
 10
32.677061
 20
172.322939
 30
0.0
 40
0.6229390000000003
100
AcDbArc
 50
230.4493209999999
 51
0.0
  0
ARC
  5
EF6A
330
EED9
100
AcDbEntity
  8
1
  6
Continuous
100
AcDbCircle
 10
32.677061
 20
172.322939
 30
0.0
 40
1.822938999999999
100
AcDbArc
 50
230.4493209999999
 51
0.0
  0
ARC
  5
EF6B
330
EED9
100
AcDbEntity
  8
1
  6
Continuous
100
AcDbCircle
 10
30.0
 20
169.08125
 30
0.0
 40
3.98125
100
AcDbArc
 50
217.012191
 51
338.3347039999998
  0
LINE
  5
EF6C
330
EED9
100
AcDbEntity
  8
1
  6
Continuous
100
AcDbLine
 10
25.644776
 20
168.244732
 30
0.0
 11
26.82094199999999
 21
166.6845969999999
 31
0.0
  0
LINE
  5
EF6D
330
EED9
100
AcDbEntity
  8
1
  6
Continuous
100
AcDbLine
 10
26.922388
 20
169.207908
 30
0.0
 11
28.098554
 21
167.647773
 31
0.0
  0
LINE
  5
EF6E
330
EED9
100
AcDbEntity
  8
1
  6
Continuous
100
AcDbLine
 10
33.7
 20
167.611437
 30
0.0
 11
32.21302999999998
 21
168.202131
 31
0.0
  0
LINE
  5
EF6F
330
EED9
100
AcDbEntity
  8
1
  6
Continuous
100
AcDbLine
 10
27.1
 20
190.25
 30
0.0
 11
27.1
 21
195.398548
 31
0.0
  0
LINE
  5
EF70
330
EED9
100
AcDbEntity
  8
1
  6
Continuous
100
AcDbLine
 10
27.6
 20
190.25
 30
0.0
 11
27.6
 21
195.4
 31
0.0
  0
LINE
  5
EF71
330
EED9
100
AcDbEntity
  8
1
  6
Continuous
100
AcDbLine
 10
30.1
 20
177.5
 30
0.0
 11
30.1
 21
188.0
 31
0.0
  0
ARC
  5
EF72
330
EED9
100
AcDbEntity
  8
1
  6
Continuous
100
AcDbCircle
 10
29.6
 20
188.0
 30
0.0
 40
0.5
100
AcDbArc
 50
0.0
 51
36.869898
  0
LINE
  5
EF73
330
EED9
100
AcDbEntity
  8
1
  6
Continuous
100
AcDbLine
 10
33.5
 20
195.8499999999999
 30
0.0
 11
33.5
 21
196.3499999999999
 31
0.0
  0
LINE
  5
EF74
330
EED9
100
AcDbEntity
  8
1
  6
Continuous
100
AcDbLine
 10
33.5
 20
195.8499999999999
 30
0.0
 11
27.6
 21
195.4
 31
0.0
  0
ARC
  5
EF75
330
EED9
100
AcDbEntity
  8
1
  6
Continuous
100
AcDbCircle
 10
30.0
 20
196.4187499999999
 30
0.0
 40
2.38125
100
AcDbArc
 50
356.280872
 51
192.4422739999998
  0
LINE
  5
EF76
330
EED9
100
AcDbEntity
  8
1
  6
Continuous
100
AcDbLine
 10
33.5
 20
169.65
 30
0.0
 11
27.6
 21
170.1
 31
0.0
  0
ARC
  5
EF77
330
EED9
100
AcDbEntity
  8
1
  6
Continuous
100
AcDbCircle
 10
30.0
 20
169.08125
 30
0.0
 40
2.38125
100
AcDbArc
 50
167.557726
 51
3.719127999999999
  0
ARC
  5
EF78
330
EED9
100
AcDbEntity
  8
1
  6
Continuous
100
AcDbCircle
 10
30.0
 20
169.08125
 30
0.0
 40
2.38125
100
AcDbArc
 50
16.12167
 51
155.1551849999999
  0
LINE
  5
EF79
330
EED9
100
AcDbEntity
  8
1
  6
Continuous
100
AcDbLine
 10
27.6
 20
175.2499999999998
 30
0.0
 11
27.6
 21
170.1
 31
0.0
  0
ARC
  5
EF7A
330
EED9
100
AcDbEntity
  8
1
  6
Continuous
100
AcDbCircle
 10
29.6
 20
177.5
 30
0.0
 40
0.5
100
AcDbArc
 50
323.130102
 51
0.0
  0
LINE
  5
EF7B
330
EED9
100
AcDbEntity
  8
1
  6
Continuous
100
AcDbLine
 10
35.6
 20
195.8499999999999
 30
0.0
 11
41.5
 21
195.4
 31
0.0
  0
ARC
  5
EF7C
330
EED9
100
AcDbEntity
  8
1
  6
Continuous
100
AcDbCircle
 10
40.89999999999998
 20
195.3289159999999
 30
0.0
 40
3.2
100
AcDbArc
 50
0.0
 51
37.01219099999998
  0
ARC
  5
EF7D
330
EED9
100
AcDbEntity
  8
1
  6
Continuous
100
AcDbCircle
 10
40.89999999999998
 20
195.3289159999999
 30
0.0
 40
1.6
100
AcDbArc
 50
0.0
 51
37.01219099999998
  0
LINE
  5
EF7E
330
EED9
100
AcDbEntity
  8
1
  6
Continuous
100
AcDbLine
 10
34.6
 20
172.322939
 30
0.0
 11
34.6
 21
193.177061
 31
0.0
  0
LINE
  5
EF7F
330
EED9
100
AcDbEntity
  8
1
  6
Continuous
100
AcDbLine
 10
42.5
 20
170.171084
 30
0.0
 11
42.5
 21
171.25
 31
0.0
  0
LINE
  5
EF80
330
EED9
100
AcDbEntity
  8
1
  6
Continuous
100
AcDbLine
 10
44.1
 20
170.171084
 30
0.0
 11
44.1
 21
195.3289159999999
 31
0.0
  0
LINE
  5
EF81
330
EED9
100
AcDbEntity
  8
1
  6
Continuous
100
AcDbLine
 10
41.5
 20
194.25
 30
0.0
 11
41.5
 21
195.4
 31
0.0
  0
LINE
  5
EF82
330
EED9
100
AcDbEntity
  8
1
  6
Continuous
100
AcDbLine
 10
40.56006899999998
 20
194.25
 30
0.0
 11
40.42984299999999
 21
194.443435
 31
0.0
  0
ARC
  5
EF83
330
EED9
100
AcDbEntity
  8
1
  6
Continuous
100
AcDbCircle
 10
36.422939
 20
193.177061
 30
0.0
 40
1.822938999999999
100
AcDbArc
 50
50.449321
 51
180.0
  0
ARC
  5
EF84
330
EED9
100
AcDbEntity
  8
1
  6
Continuous
100
AcDbCircle
 10
39.1
 20
196.4187499999999
 30
0.0
 40
3.98125
100
AcDbArc
 50
37.01219099999998
 51
158.3347039999999
  0
LINE
  5
EF85
330
EED9
100
AcDbEntity
  8
1
  6
Continuous
100
AcDbLine
 10
43.455224
 20
197.2552679999998
 30
0.0
 11
42.279058
 21
198.815403
 31
0.0
  0
LINE
  5
EF86
330
EED9
100
AcDbEntity
  8
1
  6
Continuous
100
AcDbLine
 10
42.17761199999999
 20
196.292092
 30
0.0
 11
41.001446
 21
197.852227
 31
0.0
  0
LINE
  5
EF87
330
EED9
100
AcDbEntity
  8
1
  6
Continuous
100
AcDbLine
 10
35.4
 20
197.8885629999999
 30
0.0
 11
36.88696999999999
 21
197.2978689999999
 31
0.0
  0
LINE
  5
EF88
330
EED9
100
AcDbEntity
  8
1
  6
Continuous
100
AcDbLine
 10
41.5
 20
171.25
 30
0.0
 11
41.5
 21
170.1
 31
0.0
  0
ARC
  5
EF89
330
EED9
100
AcDbEntity
  8
1
  6
Continuous
100
AcDbCircle
 10
39.1
 20
169.08125
 30
0.0
 40
3.98125
100
AcDbArc
 50
201.6652959999999
 51
322.9878089999999
  0
ARC
  5
EF8A
330
EED9
100
AcDbEntity
  8
1
  6
Continuous
100
AcDbCircle
 10
40.89999999999998
 20
170.171084
 30
0.0
 40
1.6
100
AcDbArc
 50
322.9878089999999
 51
0.0
  0
LINE
  5
EF8B
330
EED9
100
AcDbEntity
  8
1
  6
Continuous
100
AcDbLine
 10
43.455224
 20
168.244732
 30
0.0
 11
42.279058
 21
166.6845969999999
 31
0.0
  0
ARC
  5
EF8C
330
EED9
100
AcDbEntity
  8
1
  6
Continuous
100
AcDbCircle
 10
40.89999999999998
 20
170.171084
 30
0.0
 40
3.2
100
AcDbArc
 50
322.9878089999999
 51
0.0
  0
ARC
  5
EF8D
330
EED9
100
AcDbEntity
  8
1
  6
Continuous
100
AcDbCircle
 10
39.1
 20
169.08125
 30
0.0
 40
2.38125
100
AcDbArc
 50
24.844815
 51
65.61074999999999
  0
ARC
  5
EF8E
330
EED9
100
AcDbEntity
  8
1
  6
Continuous
100
AcDbCircle
 10
39.1
 20
169.08125
 30
0.0
 40
2.38125
100
AcDbArc
 50
176.2808719999999
 51
12.44227399999999
  0
LINE
  5
EF8F
330
EED9
100
AcDbEntity
  8
1
  6
Continuous
100
AcDbLine
 10
35.6
 20
169.65
 30
0.0
 11
41.5
 21
170.1
 31
0.0
  0
LINE
  5
EF90
330
EED9
100
AcDbEntity
  8
1
  6
Continuous
100
AcDbLine
 10
35.4
 20
167.611437
 30
0.0
 11
36.88696999999999
 21
168.202131
 31
0.0
  0
LINE
  5
EF91
330
EED9
100
AcDbEntity
  8
1
  6
Continuous
100
AcDbLine
 10
42.17761199999999
 20
169.207908
 30
0.0
 11
41.001446
 21
167.647773
 31
0.0
  0
ARC
  5
EF92
330
EED9
100
AcDbEntity
  8
1
  6
Continuous
100
AcDbCircle
 10
36.422939
 20
172.322939
 30
0.0
 40
1.822938999999999
100
AcDbArc
 50
180.0
 51
309.5506789999999
  0
LINE
  5
EF93
330
EED9
100
AcDbEntity
  8
1
  6
Continuous
100
AcDbLine
 10
40.56006899999998
 20
171.25
 30
0.0
 11
40.42984299999999
 21
171.0565649999998
 31
0.0
  0
LINE
  5
EF94
330
EED9
100
AcDbEntity
  8
1
  6
Continuous
100
AcDbLine
 10
25.0
 20
190.25
 30
0.0
 11
30.0
 21
190.25
 31
0.0
  0
LINE
  5
EF95
330
EED9
100
AcDbEntity
  8
1
  6
Continuous
100
AcDbLine
 10
25.0
 20
175.2499999999998
 30
0.0
 11
30.0
 21
175.2499999999998
 31
0.0
  0
LINE
  5
EF96
330
EED9
100
AcDbEntity
  8
1
  6
Continuous
100
AcDbLine
 10
30.0
 20
175.2499999999998
 30
0.0
 11
30.0
 21
190.25
 31
0.0
  0
LINE
  5
EF97
330
EED9
100
AcDbEntity
  8
1
  6
Continuous
100
AcDbLine
 10
26.6
 20
190.25
 30
0.0
 11
26.6
 21
195.3289159999999
 31
0.0
  0
LINE
  5
EF98
330
EED9
100
AcDbEntity
  8
1
  6
Continuous
100
AcDbLine
 10
35.6
 20
172.75
 30
0.0
 11
35.6
 21
192.75
 31
0.0
  0
LINE
  5
EF99
330
EED9
100
AcDbEntity
  8
1
  6
Continuous
100
AcDbLine
 10
37.1
 20
194.25
 30
0.0
 11
44.1
 21
194.25
 31
0.0
  0
LINE
  5
EF9A
330
EED9
100
AcDbEntity
  8
1
  6
Continuous
100
AcDbLine
 10
37.1
 20
171.25
 30
0.0
 11
44.1
 21
171.25
 31
0.0
  0
LINE
  5
EF9B
330
EED9
100
AcDbEntity
  8
1
  6
Continuous
100
AcDbLine
 10
42.5
 20
194.25
 30
0.0
 11
42.5
 21
195.3289159999999
 31
0.0
  0
ARC
  5
EF9C
330
EED9
100
AcDbEntity
  8
1
  6
Continuous
100
AcDbCircle
 10
37.1
 20
192.75
 30
0.0
 40
1.5
100
AcDbArc
 50
90.0
 51
180.0
  0
ARC
  5
EF9D
330
EED9
100
AcDbEntity
  8
1
  6
Continuous
100
AcDbCircle
 10
37.1
 20
172.75
 30
0.0
 40
1.5
100
AcDbArc
 50
180.0
 51
270.0
  0
ARC
  5
EF9E
330
EED9
100
AcDbEntity
  8
1
  6
Continuous
100
AcDbCircle
 10
39.1
 20
169.08125
 30
0.0
 40
2.38125
100
AcDbArc
 50
114.3892499999999
 51
163.87833
  0
LINE
  5
EF9F
330
EED9
100
AcDbEntity
  8
1
  6
Continuous
100
AcDbLine
 10
649.7000000000001
 20
197.8885629999999
 30
0.0
 11
1154.5
 21
197.8885629999999
 31
0.0
  0
LINE
  5
EFA0
330
EED9
100
AcDbEntity
  8
1
  6
Continuous
100
AcDbLine
 10
649.7000000000001
 20
197.2978689999999
 30
0.0
 11
1154.5
 21
197.2978689999999
 31
0.0
  0
LINE
  5
EFA1
330
EED9
100
AcDbEntity
  8
1
  6
Continuous
100
AcDbLine
 10
1154.5
 20
194.25
 30
0.0
 11
1156.1
 21
194.25
 31
0.0
  0
LINE
  5
EFA2
330
EED9
100
AcDbEntity
  8
1
  6
Continuous
100
AcDbLine
 10
1154.5
 20
171.25
 30
0.0
 11
1156.1
 21
171.25
 31
0.0
  0
LINE
  5
EFA3
330
EED9
100
AcDbEntity
  8
1
  6
Continuous
100
AcDbLine
 10
1154.5
 20
171.25
 30
0.0
 11
1154.5
 21
194.25
 31
0.0
  0
ARC
  5
EFA4
330
EED9
100
AcDbEntity
  8
1
  6
Continuous
100
AcDbCircle
 10
1154.5
 20
199.4885629999999
 30
0.0
 40
1.6
100
AcDbArc
 50
270.0
 51
0.0
  0
ARC
  5
EFA5
330
EED9
100
AcDbEntity
  8
1
  6
Continuous
100
AcDbCircle
 10
1154.5
 20
198.8978689999999
 30
0.0
 40
1.6
100
AcDbArc
 50
270.0
 51
0.0
  0
ARC
  5
EFA6
330
EED9
100
AcDbEntity
  8
1
  6
Continuous
100
AcDbCircle
 10
649.7000000000001
 20
199.4885629999999
 30
0.0
 40
1.6
100
AcDbArc
 50
180.0
 51
270.0
  0
ARC
  5
EFA7
330
EED9
100
AcDbEntity
  8
1
  6
Continuous
100
AcDbCircle
 10
649.7000000000001
 20
198.8978689999999
 30
0.0
 40
1.6
100
AcDbArc
 50
180.0
 51
270.0
  0
ARC
  5
EFA8
330
EED9
100
AcDbEntity
  8
1
  6
Continuous
100
AcDbCircle
 10
1154.5
 20
166.602131
 30
0.0
 40
1.6
100
AcDbArc
 50
0.0
 51
90.0
  0
ARC
  5
EFA9
330
EED9
100
AcDbEntity
  8
1
  6
Continuous
100
AcDbCircle
 10
1154.5
 20
166.011437
 30
0.0
 40
1.6
100
AcDbArc
 50
0.0
 51
90.0
  0
LINE
  5
EFAA
330
EED9
100
AcDbEntity
  8
1
  6
Continuous
100
AcDbLine
 10
649.7000000000001
 20
168.202131
 30
0.0
 11
1154.5
 21
168.202131
 31
0.0
  0
LINE
  5
EFAB
330
EED9
100
AcDbEntity
  8
1
  6
Continuous
100
AcDbLine
 10
649.7000000000001
 20
167.611437
 30
0.0
 11
1154.5
 21
167.611437
 31
0.0
  0
ARC
  5
EFAC
330
EED9
100
AcDbEntity
  8
1
  6
Continuous
100
AcDbCircle
 10
649.7000000000001
 20
166.602131
 30
0.0
 40
1.6
100
AcDbArc
 50
90.0
 51
180.0
  0
ARC
  5
EFAD
330
EED9
100
AcDbEntity
  8
1
  6
Continuous
100
AcDbCircle
 10
649.7000000000001
 20
166.011437
 30
0.0
 40
1.6
100
AcDbArc
 50
90.0
 51
180.0
  0
LINE
  5
EFAE
330
EED9
100
AcDbEntity
  8
1
  6
Continuous
100
AcDbLine
 10
652.1
 20
195.8499999999999
 30
0.0
 11
662.6
 21
195.8499999999999
 31
0.0
  0
ARC
  5
EFAF
330
EED9
100
AcDbEntity
  8
1
  6
Continuous
100
AcDbCircle
 10
657.35
 20
196.4187499999999
 30
0.0
 40
2.38125
100
AcDbArc
 50
158.3347039999999
 51
181.6544389999999
  0
ARC
  5
EFB0
330
EED9
100
AcDbEntity
  8
1
  6
Continuous
100
AcDbCircle
 10
657.35
 20
196.4187499999999
 30
0.0
 40
2.38125
100
AcDbArc
 50
193.81839
 51
216.5697209999999
  0
LINE
  5
EFB1
330
EED9
100
AcDbEntity
  8
1
  6
Continuous
100
AcDbLine
 10
652.1
 20
196.3499999999999
 30
0.0
 11
652.1
 21
195.0
 31
0.0
  0
ARC
  5
EFB2
330
EED9
100
AcDbEntity
  8
1
  6
Continuous
100
AcDbCircle
 10
657.35
 20
196.4187499999999
 30
0.0
 40
2.38125
100
AcDbArc
 50
323.430279
 51
346.18161
  0
ARC
  5
EFB3
330
EED9
100
AcDbEntity
  8
1
  6
Continuous
100
AcDbCircle
 10
657.35
 20
196.4187499999999
 30
0.0
 40
2.38125
100
AcDbArc
 50
358.3455609999999
 51
21.665296
  0
LINE
  5
EFB4
330
EED9
100
AcDbEntity
  8
1
  6
Continuous
100
AcDbLine
 10
662.6
 20
196.3499999999999
 30
0.0
 11
662.6
 21
195.0
 31
0.0
  0
LINE
  5
EFB5
330
EED9
100
AcDbEntity
  8
1
  6
Continuous
100
AcDbLine
 10
626.1
 20
192.8375
 30
0.0
 11
890.4999999999999
 21
192.8375
 31
0.0
  0
LINE
  5
EFB6
330
EED9
100
AcDbEntity
  8
1
  6
Continuous
100
AcDbLine
 10
626.1
 20
191.6375
 30
0.0
 11
852.5
 21
191.6375
 31
0.0
  0
LINE
  5
EFB7
330
EED9
100
AcDbEntity
  8
1
  6
Continuous
100
AcDbLine
 10
626.1
 20
172.6625
 30
0.0
 11
890.4999999999999
 21
172.6625
 31
0.0
  0
LINE
  5
EFB8
330
EED9
100
AcDbEntity
  8
1
  6
Continuous
100
AcDbLine
 10
626.1
 20
173.8625
 30
0.0
 11
852.5
 21
173.8625
 31
0.0
  0
LINE
  5
EFB9
330
EED9
100
AcDbEntity
  8
1
  6
Continuous
100
AcDbLine
 10
623.6
 20
190.25
 30
0.0
 11
626.1
 21
190.25
 31
0.0
  0
LINE
  5
EFBA
330
EED9
100
AcDbEntity
  8
1
  6
Continuous
100
AcDbLine
 10
623.6
 20
175.2499999999998
 30
0.0
 11
626.1
 21
175.2499999999998
 31
0.0
  0
LINE
  5
EFBB
330
EED9
100
AcDbEntity
  8
1
  6
Continuous
100
AcDbLine
 10
623.6
 20
175.2499999999998
 30
0.0
 11
623.6
 21
190.25
 31
0.0
  0
LINE
  5
EFBC
330
EED9
100
AcDbEntity
  8
1
  6
Continuous
100
AcDbLine
 10
626.1
 20
190.25
 30
0.0
 11
626.1
 21
200.4
 31
0.0
  0
LINE
  5
EFBD
330
EED9
100
AcDbEntity
  8
3
  6
DASHED
100
AcDbLine
 10
650.6
 20
190.25
 30
0.0
 11
648.1
 21
190.25
 31
0.0
  0
LINE
  5
EFBE
330
EED9
100
AcDbEntity
  8
3
  6
DASHED
100
AcDbLine
 10
650.6
 20
175.2499999999998
 30
0.0
 11
650.6
 21
190.25
 31
0.0
  0
LINE
  5
EFBF
330
EED9
100
AcDbEntity
  8
3
  6
DASHED
100
AcDbLine
 10
650.6
 20
175.2499999999998
 30
0.0
 11
648.1
 21
175.2499999999998
 31
0.0
  0
LINE
  5
EFC0
330
EED9
100
AcDbEntity
  8
3
  6
DASHED
100
AcDbLine
 10
648.1
 20
190.25
 30
0.0
 11
648.1
 21
195.0
 31
0.0
  0
LINE
  5
EFC1
330
EED9
100
AcDbEntity
  8
3
  6
DASHED
100
AcDbLine
 10
887.5
 20
195.0
 30
0.0
 11
887.5
 21
170.5
 31
0.0
  0
LINE
  5
EFC2
330
EED9
100
AcDbEntity
  8
3
  6
DASHED
100
AcDbLine
 10
383.6999999999999
 20
195.0
 30
0.0
 11
383.6999999999999
 21
170.5
 31
0.0
  0
LINE
  5
EFC3
330
EED9
100
AcDbEntity
  8
3
  6
DASHED
100
AcDbLine
 10
386.6999999999999
 20
195.0
 30
0.0
 11
386.6999999999999
 21
170.5
 31
0.0
  0
LINE
  5
EFC4
330
EED9
100
AcDbEntity
  8
3
  6
DASHED
100
AcDbLine
 10
383.6999999999999
 20
195.0
 30
0.0
 11
626.1
 21
195.0
 31
0.0
  0
LINE
  5
EFC5
330
EED9
100
AcDbEntity
  8
3
  6
DASHED
100
AcDbLine
 10
383.6999999999999
 20
170.5
 30
0.0
 11
626.1
 21
170.5
 31
0.0
  0
LINE
  5
EFC6
330
EED9
100
AcDbEntity
  8
1
  6
Continuous
100
AcDbLine
 10
33.5
 20
196.3499999999999
 30
0.0
 11
27.561975
 21
195.8971
 31
0.0
  0
ARC
  5
EFC7
330
EED9
100
AcDbEntity
  8
1
  6
Continuous
100
AcDbCircle
 10
27.6
 20
195.398548
 30
0.0
 40
0.5
100
AcDbArc
 50
94.36157300000001
 51
180.0
  0
LINE
  5
EFC8
330
EED9
100
AcDbEntity
  8
1
  6
Continuous
100
AcDbLine
 10
35.6
 20
196.3499999999999
 30
0.0
 11
41.538025
 21
195.8971
 31
0.0
  0
LINE
  5
EFC9
330
EED9
100
AcDbEntity
  8
1
  6
Continuous
100
AcDbLine
 10
35.6
 20
195.8499999999999
 30
0.0
 11
35.6
 21
196.3499999999999
 31
0.0
  0
ARC
  5
EFCA
330
EED9
100
AcDbEntity
  8
1
  6
Continuous
100
AcDbCircle
 10
41.5
 20
195.398548
 30
0.0
 40
0.5
100
AcDbArc
 50
0.0
 51
85.63842699999998
  0
LINE
  5
EFCB
330
EED9
100
AcDbEntity
  8
1
  6
Continuous
100
AcDbLine
 10
42.0
 20
194.25
 30
0.0
 11
42.0
 21
195.398548
 31
0.0
  0
ARC
  5
EFCC
330
EED9
100
AcDbEntity
  8
1
  6
Continuous
100
AcDbCircle
 10
39.1
 20
196.4187499999999
 30
0.0
 40
2.38125
100
AcDbArc
 50
347.557726
 51
183.719128
  0
ARC
  5
EFCD
330
EED9
100
AcDbEntity
  8
1
  6
Continuous
100
AcDbCircle
 10
39.1
 20
196.4187499999999
 30
0.0
 40
2.38125
100
AcDbArc
 50
196.12167
 51
245.6107499999998
  0
ARC
  5
EFCE
330
EED9
100
AcDbEntity
  8
1
  6
Continuous
100
AcDbCircle
 10
39.1
 20
196.4187499999999
 30
0.0
 40
2.38125
100
AcDbArc
 50
294.38925
 51
335.155185
  0
LINE
  5
EFCF
330
EED9
100
AcDbEntity
  8
1
  6
Continuous
100
AcDbLine
 10
42.0
 20
171.25
 30
0.0
 11
42.0
 21
170.101452
 31
0.0
  0
ARC
  5
EFD0
330
EED9
100
AcDbEntity
  8
1
  6
Continuous
100
AcDbCircle
 10
41.5
 20
170.101452
 30
0.0
 40
0.5
100
AcDbArc
 50
274.361573
 51
0.0
  0
LINE
  5
EFD1
330
EED9
100
AcDbEntity
  8
1
  6
Continuous
100
AcDbLine
 10
35.6
 20
169.15
 30
0.0
 11
41.538025
 21
169.6029
 31
0.0
  0
LINE
  5
EFD2
330
EED9
100
AcDbEntity
  8
1
  6
Continuous
100
AcDbLine
 10
35.6
 20
169.65
 30
0.0
 11
35.6
 21
169.15
 31
0.0
  0
LINE
  5
EFD3
330
EED9
100
AcDbEntity
  8
1
  6
Continuous
100
AcDbLine
 10
33.5
 20
169.65
 30
0.0
 11
33.5
 21
169.15
 31
0.0
  0
LINE
  5
EFD4
330
EED9
100
AcDbEntity
  8
1
  6
Continuous
100
AcDbLine
 10
33.5
 20
169.15
 30
0.0
 11
27.561975
 21
169.6029
 31
0.0
  0
ARC
  5
EFD5
330
EED9
100
AcDbEntity
  8
1
  6
Continuous
100
AcDbCircle
 10
27.6
 20
170.101452
 30
0.0
 40
0.5
100
AcDbArc
 50
180.0
 51
265.6384269999999
  0
LINE
  5
EFD6
330
EED9
100
AcDbEntity
  8
1
  6
Continuous
100
AcDbLine
 10
27.1
 20
175.2499999999998
 30
0.0
 11
27.1
 21
170.101452
 31
0.0
  0
LINE
  5
EFD7
330
EED9
100
AcDbEntity
  8
1
  6
Continuous
100
AcDbLine
 10
652.1
 20
196.3499999999999
 30
0.0
 11
662.6
 21
196.3499999999999
 31
0.0
  0
LINE
  5
EFD8
330
EED9
100
AcDbEntity
  8
1
  6
Continuous
100
AcDbLine
 10
675.1
 20
196.3499999999999
 30
0.0
 11
675.1
 21
195.0
 31
0.0
  0
LINE
  5
EFD9
330
EED9
100
AcDbEntity
  8
1
  6
Continuous
100
AcDbLine
 10
664.6
 20
196.3499999999999
 30
0.0
 11
664.6
 21
195.0
 31
0.0
  0
ARC
  5
EFDA
330
EED9
100
AcDbEntity
  8
1
  6
Continuous
100
AcDbCircle
 10
669.85
 20
196.4187499999999
 30
0.0
 40
2.38125
100
AcDbArc
 50
323.430279
 51
346.18161
  0
ARC
  5
EFDB
330
EED9
100
AcDbEntity
  8
1
  6
Continuous
100
AcDbCircle
 10
669.85
 20
196.4187499999999
 30
0.0
 40
2.38125
100
AcDbArc
 50
193.81839
 51
216.5697209999999
  0
LINE
  5
EFDC
330
EED9
100
AcDbEntity
  8
1
  6
Continuous
100
AcDbLine
 10
664.6
 20
196.3499999999999
 30
0.0
 11
675.1
 21
196.3499999999999
 31
0.0
  0
LINE
  5
EFDD
330
EED9
100
AcDbEntity
  8
1
  6
Continuous
100
AcDbLine
 10
664.6
 20
195.8499999999999
 30
0.0
 11
675.1
 21
195.8499999999999
 31
0.0
  0
ARC
  5
EFDE
330
EED9
100
AcDbEntity
  8
1
  6
Continuous
100
AcDbCircle
 10
669.85
 20
196.4187499999999
 30
0.0
 40
2.38125
100
AcDbArc
 50
158.3347039999999
 51
181.6544389999999
  0
ARC
  5
EFDF
330
EED9
100
AcDbEntity
  8
1
  6
Continuous
100
AcDbCircle
 10
669.85
 20
196.4187499999999
 30
0.0
 40
2.38125
100
AcDbArc
 50
358.3455609999999
 51
21.665296
  0
ARC
  5
EFE0
330
EED9
100
AcDbEntity
  8
1
  6
Continuous
100
AcDbCircle
 10
682.35
 20
196.4187499999999
 30
0.0
 40
2.38125
100
AcDbArc
 50
193.81839
 51
216.5697209999999
  0
ARC
  5
EFE1
330
EED9
100
AcDbEntity
  8
1
  6
Continuous
100
AcDbCircle
 10
682.35
 20
196.4187499999999
 30
0.0
 40
2.38125
100
AcDbArc
 50
323.430279
 51
346.18161
  0
LINE
  5
EFE2
330
EED9
100
AcDbEntity
  8
1
  6
Continuous
100
AcDbLine
 10
677.1
 20
196.3499999999999
 30
0.0
 11
677.1
 21
195.0
 31
0.0
  0
LINE
  5
EFE3
330
EED9
100
AcDbEntity
  8
1
  6
Continuous
100
AcDbLine
 10
687.6
 20
196.3499999999999
 30
0.0
 11
687.6
 21
195.0
 31
0.0
  0
LINE
  5
EFE4
330
EED9
100
AcDbEntity
  8
1
  6
Continuous
100
AcDbLine
 10
677.1
 20
195.8499999999999
 30
0.0
 11
687.6
 21
195.8499999999999
 31
0.0
  0
LINE
  5
EFE5
330
EED9
100
AcDbEntity
  8
1
  6
Continuous
100
AcDbLine
 10
677.1
 20
196.3499999999999
 30
0.0
 11
687.6
 21
196.3499999999999
 31
0.0
  0
ARC
  5
EFE6
330
EED9
100
AcDbEntity
  8
1
  6
Continuous
100
AcDbCircle
 10
682.35
 20
196.4187499999999
 30
0.0
 40
2.38125
100
AcDbArc
 50
358.3455609999999
 51
21.665296
  0
ARC
  5
EFE7
330
EED9
100
AcDbEntity
  8
1
  6
Continuous
100
AcDbCircle
 10
682.35
 20
196.4187499999999
 30
0.0
 40
2.38125
100
AcDbArc
 50
158.3347039999999
 51
181.6544389999999
  0
LINE
  5
EFE8
330
EED9
100
AcDbEntity
  8
1
  6
Continuous
100
AcDbLine
 10
700.1
 20
196.3499999999999
 30
0.0
 11
700.1
 21
195.0
 31
0.0
  0
LINE
  5
EFE9
330
EED9
100
AcDbEntity
  8
1
  6
Continuous
100
AcDbLine
 10
689.6
 20
196.3499999999999
 30
0.0
 11
689.6
 21
195.0
 31
0.0
  0
ARC
  5
EFEA
330
EED9
100
AcDbEntity
  8
1
  6
Continuous
100
AcDbCircle
 10
694.85
 20
196.4187499999999
 30
0.0
 40
2.38125
100
AcDbArc
 50
323.430279
 51
346.18161
  0
ARC
  5
EFEB
330
EED9
100
AcDbEntity
  8
1
  6
Continuous
100
AcDbCircle
 10
694.85
 20
196.4187499999999
 30
0.0
 40
2.38125
100
AcDbArc
 50
193.81839
 51
216.5697209999999
  0
ARC
  5
EFEC
330
EED9
100
AcDbEntity
  8
1
  6
Continuous
100
AcDbCircle
 10
694.85
 20
196.4187499999999
 30
0.0
 40
2.38125
100
AcDbArc
 50
158.3347039999999
 51
181.6544389999999
  0
ARC
  5
EFED
330
EED9
100
AcDbEntity
  8
1
  6
Continuous
100
AcDbCircle
 10
694.85
 20
196.4187499999999
 30
0.0
 40
2.38125
100
AcDbArc
 50
358.3455609999999
 51
21.665296
  0
LINE
  5
EFEE
330
EED9
100
AcDbEntity
  8
1
  6
Continuous
100
AcDbLine
 10
689.6
 20
196.3499999999999
 30
0.0
 11
700.1
 21
196.3499999999999
 31
0.0
  0
LINE
  5
EFEF
330
EED9
100
AcDbEntity
  8
1
  6
Continuous
100
AcDbLine
 10
689.6
 20
195.8499999999999
 30
0.0
 11
700.1
 21
195.8499999999999
 31
0.0
  0
ARC
  5
EFF0
330
EED9
100
AcDbEntity
  8
1
  6
Continuous
100
AcDbCircle
 10
707.35
 20
196.4187499999999
 30
0.0
 40
2.38125
100
AcDbArc
 50
193.81839
 51
216.5697209999999
  0
ARC
  5
EFF1
330
EED9
100
AcDbEntity
  8
1
  6
Continuous
100
AcDbCircle
 10
707.35
 20
196.4187499999999
 30
0.0
 40
2.38125
100
AcDbArc
 50
323.430279
 51
346.18161
  0
LINE
  5
EFF2
330
EED9
100
AcDbEntity
  8
1
  6
Continuous
100
AcDbLine
 10
702.1
 20
196.3499999999999
 30
0.0
 11
702.1
 21
195.0
 31
0.0
  0
LINE
  5
EFF3
330
EED9
100
AcDbEntity
  8
1
  6
Continuous
100
AcDbLine
 10
712.6
 20
196.3499999999999
 30
0.0
 11
712.6
 21
195.0
 31
0.0
  0
LINE
  5
EFF4
330
EED9
100
AcDbEntity
  8
1
  6
Continuous
100
AcDbLine
 10
702.1
 20
195.8499999999999
 30
0.0
 11
712.6
 21
195.8499999999999
 31
0.0
  0
LINE
  5
EFF5
330
EED9
100
AcDbEntity
  8
1
  6
Continuous
100
AcDbLine
 10
702.1
 20
196.3499999999999
 30
0.0
 11
712.6
 21
196.3499999999999
 31
0.0
  0
ARC
  5
EFF6
330
EED9
100
AcDbEntity
  8
1
  6
Continuous
100
AcDbCircle
 10
707.35
 20
196.4187499999999
 30
0.0
 40
2.38125
100
AcDbArc
 50
358.3455609999999
 51
21.665296
  0
ARC
  5
EFF7
330
EED9
100
AcDbEntity
  8
1
  6
Continuous
100
AcDbCircle
 10
707.35
 20
196.4187499999999
 30
0.0
 40
2.38125
100
AcDbArc
 50
158.3347039999999
 51
181.6544389999999
  0
LINE
  5
EFF8
330
EED9
100
AcDbEntity
  8
1
  6
Continuous
100
AcDbLine
 10
714.6
 20
196.3499999999999
 30
0.0
 11
725.1
 21
196.3499999999999
 31
0.0
  0
LINE
  5
EFF9
330
EED9
100
AcDbEntity
  8
1
  6
Continuous
100
AcDbLine
 10
714.6
 20
195.8499999999999
 30
0.0
 11
725.1
 21
195.8499999999999
 31
0.0
  0
LINE
  5
EFFA
330
EED9
100
AcDbEntity
  8
1
  6
Continuous
100
AcDbLine
 10
714.6
 20
196.3499999999999
 30
0.0
 11
714.6
 21
195.0
 31
0.0
  0
ARC
  5
EFFB
330
EED9
100
AcDbEntity
  8
1
  6
Continuous
100
AcDbCircle
 10
719.85
 20
196.4187499999999
 30
0.0
 40
2.38125
100
AcDbArc
 50
193.81839
 51
216.5697209999999
  0
ARC
  5
EFFC
330
EED9
100
AcDbEntity
  8
1
  6
Continuous
100
AcDbCircle
 10
719.85
 20
196.4187499999999
 30
0.0
 40
2.38125
100
AcDbArc
 50
158.3347039999999
 51
181.6544389999999
  0
LINE
  5
EFFD
330
EED9
100
AcDbEntity
  8
1
  6
Continuous
100
AcDbLine
 10
725.1
 20
196.3499999999999
 30
0.0
 11
725.1
 21
195.0
 31
0.0
  0
ARC
  5
EFFE
330
EED9
100
AcDbEntity
  8
1
  6
Continuous
100
AcDbCircle
 10
719.85
 20
196.4187499999999
 30
0.0
 40
2.38125
100
AcDbArc
 50
323.430279
 51
346.18161
  0
ARC
  5
EFFF
330
EED9
100
AcDbEntity
  8
1
  6
Continuous
100
AcDbCircle
 10
719.85
 20
196.4187499999999
 30
0.0
 40
2.38125
100
AcDbArc
 50
358.3455609999999
 51
21.665296
  0
ARC
  5
F000
330
EED9
100
AcDbEntity
  8
1
  6
Continuous
100
AcDbCircle
 10
732.35
 20
196.4187499999999
 30
0.0
 40
2.38125
100
AcDbArc
 50
323.430279
 51
346.18161
  0
LINE
  5
F001
330
EED9
100
AcDbEntity
  8
1
  6
Continuous
100
AcDbLine
 10
737.6
 20
196.3499999999999
 30
0.0
 11
737.6
 21
195.0
 31
0.0
  0
ARC
  5
F002
330
EED9
100
AcDbEntity
  8
1
  6
Continuous
100
AcDbCircle
 10
732.35
 20
196.4187499999999
 30
0.0
 40
2.38125
100
AcDbArc
 50
193.81839
 51
216.5697209999999
  0
LINE
  5
F003
330
EED9
100
AcDbEntity
  8
1
  6
Continuous
100
AcDbLine
 10
727.1
 20
196.3499999999999
 30
0.0
 11
727.1
 21
195.0
 31
0.0
  0
LINE
  5
F004
330
EED9
100
AcDbEntity
  8
1
  6
Continuous
100
AcDbLine
 10
727.1
 20
195.8499999999999
 30
0.0
 11
737.6
 21
195.8499999999999
 31
0.0
  0
LINE
  5
F005
330
EED9
100
AcDbEntity
  8
1
  6
Continuous
100
AcDbLine
 10
727.1
 20
196.3499999999999
 30
0.0
 11
737.6
 21
196.3499999999999
 31
0.0
  0
ARC
  5
F006
330
EED9
100
AcDbEntity
  8
1
  6
Continuous
100
AcDbCircle
 10
732.35
 20
196.4187499999999
 30
0.0
 40
2.38125
100
AcDbArc
 50
358.3455609999999
 51
21.665296
  0
ARC
  5
F007
330
EED9
100
AcDbEntity
  8
1
  6
Continuous
100
AcDbCircle
 10
732.35
 20
196.4187499999999
 30
0.0
 40
2.38125
100
AcDbArc
 50
158.3347039999999
 51
181.6544389999999
  0
LINE
  5
F008
330
EED9
100
AcDbEntity
  8
1
  6
Continuous
100
AcDbLine
 10
739.6
 20
196.3499999999999
 30
0.0
 11
739.6
 21
195.0
 31
0.0
  0
ARC
  5
F009
330
EED9
100
AcDbEntity
  8
1
  6
Continuous
100
AcDbCircle
 10
744.85
 20
196.4187499999999
 30
0.0
 40
2.38125
100
AcDbArc
 50
193.81839
 51
216.5697209999999
  0
LINE
  5
F00A
330
EED9
100
AcDbEntity
  8
1
  6
Continuous
100
AcDbLine
 10
750.1
 20
196.3499999999999
 30
0.0
 11
750.1
 21
195.0
 31
0.0
  0
ARC
  5
F00B
330
EED9
100
AcDbEntity
  8
1
  6
Continuous
100
AcDbCircle
 10
744.85
 20
196.4187499999999
 30
0.0
 40
2.38125
100
AcDbArc
 50
323.430279
 51
346.18161
  0
ARC
  5
F00C
330
EED9
100
AcDbEntity
  8
1
  6
Continuous
100
AcDbCircle
 10
744.85
 20
196.4187499999999
 30
0.0
 40
2.38125
100
AcDbArc
 50
158.3347039999999
 51
181.6544389999999
  0
ARC
  5
F00D
330
EED9
100
AcDbEntity
  8
1
  6
Continuous
100
AcDbCircle
 10
744.85
 20
196.4187499999999
 30
0.0
 40
2.38125
100
AcDbArc
 50
358.3455609999999
 51
21.665296
  0
LINE
  5
F00E
330
EED9
100
AcDbEntity
  8
1
  6
Continuous
100
AcDbLine
 10
739.6
 20
196.3499999999999
 30
0.0
 11
750.1
 21
196.3499999999999
 31
0.0
  0
LINE
  5
F00F
330
EED9
100
AcDbEntity
  8
1
  6
Continuous
100
AcDbLine
 10
739.6
 20
195.8499999999999
 30
0.0
 11
750.1
 21
195.8499999999999
 31
0.0
  0
ARC
  5
F010
330
EED9
100
AcDbEntity
  8
1
  6
Continuous
100
AcDbCircle
 10
757.35
 20
196.4187499999999
 30
0.0
 40
2.38125
100
AcDbArc
 50
323.430279
 51
346.18161
  0
LINE
  5
F011
330
EED9
100
AcDbEntity
  8
1
  6
Continuous
100
AcDbLine
 10
762.6
 20
196.3499999999999
 30
0.0
 11
762.6
 21
195.0
 31
0.0
  0
ARC
  5
F012
330
EED9
100
AcDbEntity
  8
1
  6
Continuous
100
AcDbCircle
 10
757.35
 20
196.4187499999999
 30
0.0
 40
2.38125
100
AcDbArc
 50
193.81839
 51
216.5697209999999
  0
LINE
  5
F013
330
EED9
100
AcDbEntity
  8
1
  6
Continuous
100
AcDbLine
 10
752.1
 20
196.3499999999999
 30
0.0
 11
752.1
 21
195.0
 31
0.0
  0
LINE
  5
F014
330
EED9
100
AcDbEntity
  8
1
  6
Continuous
100
AcDbLine
 10
752.1
 20
195.8499999999999
 30
0.0
 11
762.6
 21
195.8499999999999
 31
0.0
  0
LINE
  5
F015
330
EED9
100
AcDbEntity
  8
1
  6
Continuous
100
AcDbLine
 10
752.1
 20
196.3499999999999
 30
0.0
 11
762.6
 21
196.3499999999999
 31
0.0
  0
ARC
  5
F016
330
EED9
100
AcDbEntity
  8
1
  6
Continuous
100
AcDbCircle
 10
757.35
 20
196.4187499999999
 30
0.0
 40
2.38125
100
AcDbArc
 50
358.3455609999999
 51
21.665296
  0
ARC
  5
F017
330
EED9
100
AcDbEntity
  8
1
  6
Continuous
100
AcDbCircle
 10
757.35
 20
196.4187499999999
 30
0.0
 40
2.38125
100
AcDbArc
 50
158.3347039999999
 51
181.6544389999999
  0
LINE
  5
F018
330
EED9
100
AcDbEntity
  8
1
  6
Continuous
100
AcDbLine
 10
764.6
 20
196.3499999999999
 30
0.0
 11
764.6
 21
195.0
 31
0.0
  0
ARC
  5
F019
330
EED9
100
AcDbEntity
  8
1
  6
Continuous
100
AcDbCircle
 10
769.85
 20
196.4187499999999
 30
0.0
 40
2.38125
100
AcDbArc
 50
193.81839
 51
216.5697209999999
  0
LINE
  5
F01A
330
EED9
100
AcDbEntity
  8
1
  6
Continuous
100
AcDbLine
 10
775.1
 20
196.3499999999999
 30
0.0
 11
775.1
 21
195.0
 31
0.0
  0
ARC
  5
F01B
330
EED9
100
AcDbEntity
  8
1
  6
Continuous
100
AcDbCircle
 10
769.85
 20
196.4187499999999
 30
0.0
 40
2.38125
100
AcDbArc
 50
323.430279
 51
346.18161
  0
LINE
  5
F01C
330
EED9
100
AcDbEntity
  8
1
  6
Continuous
100
AcDbLine
 10
764.6
 20
196.3499999999999
 30
0.0
 11
775.1
 21
196.3499999999999
 31
0.0
  0
LINE
  5
F01D
330
EED9
100
AcDbEntity
  8
1
  6
Continuous
100
AcDbLine
 10
764.6
 20
195.8499999999999
 30
0.0
 11
775.1
 21
195.8499999999999
 31
0.0
  0
ARC
  5
F01E
330
EED9
100
AcDbEntity
  8
1
  6
Continuous
100
AcDbCircle
 10
769.85
 20
196.4187499999999
 30
0.0
 40
2.38125
100
AcDbArc
 50
158.3347039999999
 51
181.6544389999999
  0
ARC
  5
F01F
330
EED9
100
AcDbEntity
  8
1
  6
Continuous
100
AcDbCircle
 10
769.85
 20
196.4187499999999
 30
0.0
 40
2.38125
100
AcDbArc
 50
358.3455609999999
 51
21.665296
  0
LINE
  5
F020
330
EED9
100
AcDbEntity
  8
1
  6
Continuous
100
AcDbLine
 10
777.1
 20
195.8499999999999
 30
0.0
 11
787.6
 21
195.8499999999999
 31
0.0
  0
LINE
  5
F021
330
EED9
100
AcDbEntity
  8
1
  6
Continuous
100
AcDbLine
 10
777.1
 20
196.3499999999999
 30
0.0
 11
787.6
 21
196.3499999999999
 31
0.0
  0
ARC
  5
F022
330
EED9
100
AcDbEntity
  8
1
  6
Continuous
100
AcDbCircle
 10
782.35
 20
196.4187499999999
 30
0.0
 40
2.38125
100
AcDbArc
 50
323.430279
 51
346.18161
  0
ARC
  5
F023
330
EED9
100
AcDbEntity
  8
1
  6
Continuous
100
AcDbCircle
 10
782.35
 20
196.4187499999999
 30
0.0
 40
2.38125
100
AcDbArc
 50
193.81839
 51
216.5697209999999
  0
LINE
  5
F024
330
EED9
100
AcDbEntity
  8
1
  6
Continuous
100
AcDbLine
 10
777.1
 20
196.3499999999999
 30
0.0
 11
777.1
 21
195.0
 31
0.0
  0
ARC
  5
F025
330
EED9
100
AcDbEntity
  8
1
  6
Continuous
100
AcDbCircle
 10
782.35
 20
196.4187499999999
 30
0.0
 40
2.38125
100
AcDbArc
 50
358.3455609999999
 51
21.665296
  0
ARC
  5
F026
330
EED9
100
AcDbEntity
  8
1
  6
Continuous
100
AcDbCircle
 10
782.35
 20
196.4187499999999
 30
0.0
 40
2.38125
100
AcDbArc
 50
158.3347039999999
 51
181.6544389999999
  0
LINE
  5
F027
330
EED9
100
AcDbEntity
  8
1
  6
Continuous
100
AcDbLine
 10
787.6
 20
196.3499999999999
 30
0.0
 11
787.6
 21
195.0
 31
0.0
  0
LINE
  5
F028
330
EED9
100
AcDbEntity
  8
1
  6
Continuous
100
AcDbLine
 10
764.6
 20
169.65
 30
0.0
 11
775.1
 21
169.65
 31
0.0
  0
LINE
  5
F029
330
EED9
100
AcDbEntity
  8
1
  6
Continuous
100
AcDbLine
 10
764.6
 20
169.15
 30
0.0
 11
775.1
 21
169.15
 31
0.0
  0
LINE
  5
F02A
330
EED9
100
AcDbEntity
  8
1
  6
Continuous
100
AcDbLine
 10
702.1
 20
169.15
 30
0.0
 11
712.6
 21
169.15
 31
0.0
  0
LINE
  5
F02B
330
EED9
100
AcDbEntity
  8
1
  6
Continuous
100
AcDbLine
 10
702.1
 20
169.65
 30
0.0
 11
712.6
 21
169.65
 31
0.0
  0
LINE
  5
F02C
330
EED9
100
AcDbEntity
  8
1
  6
Continuous
100
AcDbLine
 10
702.1
 20
169.15
 30
0.0
 11
702.1
 21
170.5
 31
0.0
  0
ARC
  5
F02D
330
EED9
100
AcDbEntity
  8
1
  6
Continuous
100
AcDbCircle
 10
707.35
 20
169.08125
 30
0.0
 40
2.38125
100
AcDbArc
 50
143.430279
 51
166.18161
  0
ARC
  5
F02E
330
EED9
100
AcDbEntity
  8
1
  6
Continuous
100
AcDbCircle
 10
694.85
 20
169.08125
 30
0.0
 40
2.38125
100
AcDbArc
 50
143.430279
 51
166.18161
  0
ARC
  5
F02F
330
EED9
100
AcDbEntity
  8
1
  6
Continuous
100
AcDbCircle
 10
694.85
 20
169.08125
 30
0.0
 40
2.38125
100
AcDbArc
 50
13.81839
 51
36.569721
  0
LINE
  5
F030
330
EED9
100
AcDbEntity
  8
1
  6
Continuous
100
AcDbLine
 10
689.6
 20
169.15
 30
0.0
 11
689.6
 21
170.5
 31
0.0
  0
LINE
  5
F031
330
EED9
100
AcDbEntity
  8
1
  6
Continuous
100
AcDbLine
 10
700.1
 20
169.15
 30
0.0
 11
700.1
 21
170.5
 31
0.0
  0
LINE
  5
F032
330
EED9
100
AcDbEntity
  8
1
  6
Continuous
100
AcDbLine
 10
687.6
 20
169.15
 30
0.0
 11
687.6
 21
170.5
 31
0.0
  0
LINE
  5
F033
330
EED9
100
AcDbEntity
  8
1
  6
Continuous
100
AcDbLine
 10
677.1
 20
169.15
 30
0.0
 11
677.1
 21
170.5
 31
0.0
  0
ARC
  5
F034
330
EED9
100
AcDbEntity
  8
1
  6
Continuous
100
AcDbCircle
 10
682.35
 20
169.08125
 30
0.0
 40
2.38125
100
AcDbArc
 50
13.81839
 51
36.569721
  0
ARC
  5
F035
330
EED9
100
AcDbEntity
  8
1
  6
Continuous
100
AcDbCircle
 10
682.35
 20
169.08125
 30
0.0
 40
2.38125
100
AcDbArc
 50
143.430279
 51
166.18161
  0
ARC
  5
F036
330
EED9
100
AcDbEntity
  8
1
  6
Continuous
100
AcDbCircle
 10
669.85
 20
169.08125
 30
0.0
 40
2.38125
100
AcDbArc
 50
143.430279
 51
166.18161
  0
ARC
  5
F037
330
EED9
100
AcDbEntity
  8
1
  6
Continuous
100
AcDbCircle
 10
669.85
 20
169.08125
 30
0.0
 40
2.38125
100
AcDbArc
 50
13.81839
 51
36.569721
  0
LINE
  5
F038
330
EED9
100
AcDbEntity
  8
1
  6
Continuous
100
AcDbLine
 10
664.6
 20
169.15
 30
0.0
 11
664.6
 21
170.5
 31
0.0
  0
LINE
  5
F039
330
EED9
100
AcDbEntity
  8
1
  6
Continuous
100
AcDbLine
 10
675.1
 20
169.15
 30
0.0
 11
675.1
 21
170.5
 31
0.0
  0
LINE
  5
F03A
330
EED9
100
AcDbEntity
  8
1
  6
Continuous
100
AcDbLine
 10
662.6
 20
169.15
 30
0.0
 11
662.6
 21
170.5
 31
0.0
  0
LINE
  5
F03B
330
EED9
100
AcDbEntity
  8
1
  6
Continuous
100
AcDbLine
 10
652.1
 20
169.15
 30
0.0
 11
652.1
 21
170.5
 31
0.0
  0
ARC
  5
F03C
330
EED9
100
AcDbEntity
  8
1
  6
Continuous
100
AcDbCircle
 10
657.35
 20
169.08125
 30
0.0
 40
2.38125
100
AcDbArc
 50
13.81839
 51
36.569721
  0
ARC
  5
F03D
330
EED9
100
AcDbEntity
  8
1
  6
Continuous
100
AcDbCircle
 10
657.35
 20
169.08125
 30
0.0
 40
2.38125
100
AcDbArc
 50
143.430279
 51
166.18161
  0
LINE
  5
F03E
330
EED9
100
AcDbEntity
  8
1
  6
Continuous
100
AcDbLine
 10
664.6
 20
169.65
 30
0.0
 11
675.1
 21
169.65
 31
0.0
  0
LINE
  5
F03F
330
EED9
100
AcDbEntity
  8
1
  6
Continuous
100
AcDbLine
 10
664.6
 20
169.15
 30
0.0
 11
675.1
 21
169.15
 31
0.0
  0
LINE
  5
F040
330
EED9
100
AcDbEntity
  8
1
  6
Continuous
100
AcDbLine
 10
652.1
 20
169.15
 30
0.0
 11
662.6
 21
169.15
 31
0.0
  0
LINE
  5
F041
330
EED9
100
AcDbEntity
  8
1
  6
Continuous
100
AcDbLine
 10
652.1
 20
169.65
 30
0.0
 11
662.6
 21
169.65
 31
0.0
  0
ARC
  5
F042
330
EED9
100
AcDbEntity
  8
1
  6
Continuous
100
AcDbCircle
 10
657.35
 20
169.08125
 30
0.0
 40
2.38125
100
AcDbArc
 50
178.345561
 51
201.6652959999999
  0
ARC
  5
F043
330
EED9
100
AcDbEntity
  8
1
  6
Continuous
100
AcDbCircle
 10
669.85
 20
169.08125
 30
0.0
 40
2.38125
100
AcDbArc
 50
338.3347039999998
 51
1.654438999999999
  0
ARC
  5
F044
330
EED9
100
AcDbEntity
  8
1
  6
Continuous
100
AcDbCircle
 10
669.85
 20
169.08125
 30
0.0
 40
2.38125
100
AcDbArc
 50
178.345561
 51
201.6652959999999
  0
ARC
  5
F045
330
EED9
100
AcDbEntity
  8
1
  6
Continuous
100
AcDbCircle
 10
657.35
 20
169.08125
 30
0.0
 40
2.38125
100
AcDbArc
 50
338.3347039999998
 51
1.654438999999999
  0
ARC
  5
F046
330
EED9
100
AcDbEntity
  8
1
  6
Continuous
100
AcDbCircle
 10
682.35
 20
169.08125
 30
0.0
 40
2.38125
100
AcDbArc
 50
178.345561
 51
201.6652959999999
  0
ARC
  5
F047
330
EED9
100
AcDbEntity
  8
1
  6
Continuous
100
AcDbCircle
 10
682.35
 20
169.08125
 30
0.0
 40
2.38125
100
AcDbArc
 50
338.3347039999998
 51
1.654438999999999
  0
LINE
  5
F048
330
EED9
100
AcDbEntity
  8
1
  6
Continuous
100
AcDbLine
 10
677.1
 20
169.15
 30
0.0
 11
687.6
 21
169.15
 31
0.0
  0
LINE
  5
F049
330
EED9
100
AcDbEntity
  8
1
  6
Continuous
100
AcDbLine
 10
677.1
 20
169.65
 30
0.0
 11
687.6
 21
169.65
 31
0.0
  0
ARC
  5
F04A
330
EED9
100
AcDbEntity
  8
1
  6
Continuous
100
AcDbCircle
 10
707.35
 20
169.08125
 30
0.0
 40
2.38125
100
AcDbArc
 50
178.345561
 51
201.6652959999999
  0
LINE
  5
F04B
330
EED9
100
AcDbEntity
  8
1
  6
Continuous
100
AcDbLine
 10
689.6
 20
169.65
 30
0.0
 11
700.1
 21
169.65
 31
0.0
  0
LINE
  5
F04C
330
EED9
100
AcDbEntity
  8
1
  6
Continuous
100
AcDbLine
 10
689.6
 20
169.15
 30
0.0
 11
700.1
 21
169.15
 31
0.0
  0
ARC
  5
F04D
330
EED9
100
AcDbEntity
  8
1
  6
Continuous
100
AcDbCircle
 10
694.85
 20
169.08125
 30
0.0
 40
2.38125
100
AcDbArc
 50
338.3347039999998
 51
1.654438999999999
  0
ARC
  5
F04E
330
EED9
100
AcDbEntity
  8
1
  6
Continuous
100
AcDbCircle
 10
694.85
 20
169.08125
 30
0.0
 40
2.38125
100
AcDbArc
 50
178.345561
 51
201.6652959999999
  0
ARC
  5
F04F
330
EED9
100
AcDbEntity
  8
1
  6
Continuous
100
AcDbCircle
 10
769.85
 20
169.08125
 30
0.0
 40
2.38125
100
AcDbArc
 50
13.81839
 51
36.569721
  0
ARC
  5
F050
330
EED9
100
AcDbEntity
  8
1
  6
Continuous
100
AcDbCircle
 10
769.85
 20
169.08125
 30
0.0
 40
2.38125
100
AcDbArc
 50
143.430279
 51
166.18161
  0
LINE
  5
F051
330
EED9
100
AcDbEntity
  8
1
  6
Continuous
100
AcDbLine
 10
764.6
 20
169.15
 30
0.0
 11
764.6
 21
170.5
 31
0.0
  0
LINE
  5
F052
330
EED9
100
AcDbEntity
  8
1
  6
Continuous
100
AcDbLine
 10
752.1
 20
169.15
 30
0.0
 11
752.1
 21
170.5
 31
0.0
  0
ARC
  5
F053
330
EED9
100
AcDbEntity
  8
1
  6
Continuous
100
AcDbCircle
 10
757.35
 20
169.08125
 30
0.0
 40
2.38125
100
AcDbArc
 50
143.430279
 51
166.18161
  0
LINE
  5
F054
330
EED9
100
AcDbEntity
  8
1
  6
Continuous
100
AcDbLine
 10
762.6
 20
169.15
 30
0.0
 11
762.6
 21
170.5
 31
0.0
  0
ARC
  5
F055
330
EED9
100
AcDbEntity
  8
1
  6
Continuous
100
AcDbCircle
 10
757.35
 20
169.08125
 30
0.0
 40
2.38125
100
AcDbArc
 50
13.81839
 51
36.569721
  0
ARC
  5
F056
330
EED9
100
AcDbEntity
  8
1
  6
Continuous
100
AcDbCircle
 10
744.85
 20
169.08125
 30
0.0
 40
2.38125
100
AcDbArc
 50
13.81839
 51
36.569721
  0
LINE
  5
F057
330
EED9
100
AcDbEntity
  8
1
  6
Continuous
100
AcDbLine
 10
750.1
 20
169.15
 30
0.0
 11
750.1
 21
170.5
 31
0.0
  0
ARC
  5
F058
330
EED9
100
AcDbEntity
  8
1
  6
Continuous
100
AcDbCircle
 10
744.85
 20
169.08125
 30
0.0
 40
2.38125
100
AcDbArc
 50
143.430279
 51
166.18161
  0
LINE
  5
F059
330
EED9
100
AcDbEntity
  8
1
  6
Continuous
100
AcDbLine
 10
739.6
 20
169.15
 30
0.0
 11
739.6
 21
170.5
 31
0.0
  0
LINE
  5
F05A
330
EED9
100
AcDbEntity
  8
1
  6
Continuous
100
AcDbLine
 10
727.1
 20
169.15
 30
0.0
 11
727.1
 21
170.5
 31
0.0
  0
ARC
  5
F05B
330
EED9
100
AcDbEntity
  8
1
  6
Continuous
100
AcDbCircle
 10
732.35
 20
169.08125
 30
0.0
 40
2.38125
100
AcDbArc
 50
143.430279
 51
166.18161
  0
LINE
  5
F05C
330
EED9
100
AcDbEntity
  8
1
  6
Continuous
100
AcDbLine
 10
737.6
 20
169.15
 30
0.0
 11
737.6
 21
170.5
 31
0.0
  0
ARC
  5
F05D
330
EED9
100
AcDbEntity
  8
1
  6
Continuous
100
AcDbCircle
 10
732.35
 20
169.08125
 30
0.0
 40
2.38125
100
AcDbArc
 50
13.81839
 51
36.569721
  0
ARC
  5
F05E
330
EED9
100
AcDbEntity
  8
1
  6
Continuous
100
AcDbCircle
 10
719.85
 20
169.08125
 30
0.0
 40
2.38125
100
AcDbArc
 50
13.81839
 51
36.569721
  0
LINE
  5
F05F
330
EED9
100
AcDbEntity
  8
1
  6
Continuous
100
AcDbLine
 10
725.1
 20
169.15
 30
0.0
 11
725.1
 21
170.5
 31
0.0
  0
ARC
  5
F060
330
EED9
100
AcDbEntity
  8
1
  6
Continuous
100
AcDbCircle
 10
719.85
 20
169.08125
 30
0.0
 40
2.38125
100
AcDbArc
 50
143.430279
 51
166.18161
  0
LINE
  5
F061
330
EED9
100
AcDbEntity
  8
1
  6
Continuous
100
AcDbLine
 10
714.6
 20
169.15
 30
0.0
 11
714.6
 21
170.5
 31
0.0
  0
LINE
  5
F062
330
EED9
100
AcDbEntity
  8
1
  6
Continuous
100
AcDbLine
 10
712.6
 20
169.15
 30
0.0
 11
712.6
 21
170.5
 31
0.0
  0
ARC
  5
F063
330
EED9
100
AcDbEntity
  8
1
  6
Continuous
100
AcDbCircle
 10
707.35
 20
169.08125
 30
0.0
 40
2.38125
100
AcDbArc
 50
13.81839
 51
36.569721
  0
LINE
  5
F064
330
EED9
100
AcDbEntity
  8
1
  6
Continuous
100
AcDbLine
 10
714.6
 20
169.65
 30
0.0
 11
725.1
 21
169.65
 31
0.0
  0
LINE
  5
F065
330
EED9
100
AcDbEntity
  8
1
  6
Continuous
100
AcDbLine
 10
714.6
 20
169.15
 30
0.0
 11
725.1
 21
169.15
 31
0.0
  0
ARC
  5
F066
330
EED9
100
AcDbEntity
  8
1
  6
Continuous
100
AcDbCircle
 10
719.85
 20
169.08125
 30
0.0
 40
2.38125
100
AcDbArc
 50
338.3347039999998
 51
1.654438999999999
  0
ARC
  5
F067
330
EED9
100
AcDbEntity
  8
1
  6
Continuous
100
AcDbCircle
 10
719.85
 20
169.08125
 30
0.0
 40
2.38125
100
AcDbArc
 50
178.345561
 51
201.6652959999999
  0
ARC
  5
F068
330
EED9
100
AcDbEntity
  8
1
  6
Continuous
100
AcDbCircle
 10
707.35
 20
169.08125
 30
0.0
 40
2.38125
100
AcDbArc
 50
338.3347039999998
 51
1.654438999999999
  0
ARC
  5
F069
330
EED9
100
AcDbEntity
  8
1
  6
Continuous
100
AcDbCircle
 10
732.35
 20
169.08125
 30
0.0
 40
2.38125
100
AcDbArc
 50
178.345561
 51
201.6652959999999
  0
ARC
  5
F06A
330
EED9
100
AcDbEntity
  8
1
  6
Continuous
100
AcDbCircle
 10
732.35
 20
169.08125
 30
0.0
 40
2.38125
100
AcDbArc
 50
338.3347039999998
 51
1.654438999999999
  0
LINE
  5
F06B
330
EED9
100
AcDbEntity
  8
1
  6
Continuous
100
AcDbLine
 10
727.1
 20
169.15
 30
0.0
 11
737.6
 21
169.15
 31
0.0
  0
LINE
  5
F06C
330
EED9
100
AcDbEntity
  8
1
  6
Continuous
100
AcDbLine
 10
727.1
 20
169.65
 30
0.0
 11
737.6
 21
169.65
 31
0.0
  0
LINE
  5
F06D
330
EED9
100
AcDbEntity
  8
1
  6
Continuous
100
AcDbLine
 10
752.1
 20
169.15
 30
0.0
 11
762.6
 21
169.15
 31
0.0
  0
LINE
  5
F06E
330
EED9
100
AcDbEntity
  8
1
  6
Continuous
100
AcDbLine
 10
752.1
 20
169.65
 30
0.0
 11
762.6
 21
169.65
 31
0.0
  0
ARC
  5
F06F
330
EED9
100
AcDbEntity
  8
1
  6
Continuous
100
AcDbCircle
 10
757.35
 20
169.08125
 30
0.0
 40
2.38125
100
AcDbArc
 50
178.345561
 51
201.6652959999999
  0
LINE
  5
F070
330
EED9
100
AcDbEntity
  8
1
  6
Continuous
100
AcDbLine
 10
739.6
 20
169.65
 30
0.0
 11
750.1
 21
169.65
 31
0.0
  0
LINE
  5
F071
330
EED9
100
AcDbEntity
  8
1
  6
Continuous
100
AcDbLine
 10
739.6
 20
169.15
 30
0.0
 11
750.1
 21
169.15
 31
0.0
  0
ARC
  5
F072
330
EED9
100
AcDbEntity
  8
1
  6
Continuous
100
AcDbCircle
 10
744.85
 20
169.08125
 30
0.0
 40
2.38125
100
AcDbArc
 50
338.3347039999998
 51
1.654438999999999
  0
ARC
  5
F073
330
EED9
100
AcDbEntity
  8
1
  6
Continuous
100
AcDbCircle
 10
744.85
 20
169.08125
 30
0.0
 40
2.38125
100
AcDbArc
 50
178.345561
 51
201.6652959999999
  0
ARC
  5
F074
330
EED9
100
AcDbEntity
  8
1
  6
Continuous
100
AcDbCircle
 10
769.85
 20
169.08125
 30
0.0
 40
2.38125
100
AcDbArc
 50
338.3347039999998
 51
1.654438999999999
  0
ARC
  5
F075
330
EED9
100
AcDbEntity
  8
1
  6
Continuous
100
AcDbCircle
 10
769.85
 20
169.08125
 30
0.0
 40
2.38125
100
AcDbArc
 50
178.345561
 51
201.6652959999999
  0
ARC
  5
F076
330
EED9
100
AcDbEntity
  8
1
  6
Continuous
100
AcDbCircle
 10
757.35
 20
169.08125
 30
0.0
 40
2.38125
100
AcDbArc
 50
338.3347039999998
 51
1.654438999999999
  0
LINE
  5
F077
330
EED9
100
AcDbEntity
  8
1
  6
Continuous
100
AcDbLine
 10
787.6
 20
169.15
 30
0.0
 11
787.6
 21
170.5
 31
0.0
  0
LINE
  5
F078
330
EED9
100
AcDbEntity
  8
1
  6
Continuous
100
AcDbLine
 10
777.1
 20
169.15
 30
0.0
 11
777.1
 21
170.5
 31
0.0
  0
ARC
  5
F079
330
EED9
100
AcDbEntity
  8
1
  6
Continuous
100
AcDbCircle
 10
782.35
 20
169.08125
 30
0.0
 40
2.38125
100
AcDbArc
 50
143.430279
 51
166.18161
  0
ARC
  5
F07A
330
EED9
100
AcDbEntity
  8
1
  6
Continuous
100
AcDbCircle
 10
782.35
 20
169.08125
 30
0.0
 40
2.38125
100
AcDbArc
 50
13.81839
 51
36.569721
  0
LINE
  5
F07B
330
EED9
100
AcDbEntity
  8
1
  6
Continuous
100
AcDbLine
 10
775.1
 20
169.15
 30
0.0
 11
775.1
 21
170.5
 31
0.0
  0
ARC
  5
F07C
330
EED9
100
AcDbEntity
  8
1
  6
Continuous
100
AcDbCircle
 10
782.35
 20
169.08125
 30
0.0
 40
2.38125
100
AcDbArc
 50
178.345561
 51
201.6652959999999
  0
ARC
  5
F07D
330
EED9
100
AcDbEntity
  8
1
  6
Continuous
100
AcDbCircle
 10
782.35
 20
169.08125
 30
0.0
 40
2.38125
100
AcDbArc
 50
338.3347039999998
 51
1.654438999999999
  0
LINE
  5
F07E
330
EED9
100
AcDbEntity
  8
1
  6
Continuous
100
AcDbLine
 10
777.1
 20
169.15
 30
0.0
 11
787.6
 21
169.15
 31
0.0
  0
LINE
  5
F07F
330
EED9
100
AcDbEntity
  8
1
  6
Continuous
100
AcDbLine
 10
777.1
 20
169.65
 30
0.0
 11
787.6
 21
169.65
 31
0.0
  0
ARC
  5
F080
330
EED9
100
AcDbEntity
  8
1
  6
Continuous
100
AcDbCircle
 10
1154.5
 20
195.057229
 30
0.0
 40
0.8072289999999997
100
AcDbArc
 50
141.1871849999998
 51
270.0
  0
LINE
  5
F081
330
EED9
100
AcDbEntity
  8
1
  6
Continuous
100
AcDbLine
 10
1153.871009
 20
195.563183
 30
0.0
 11
1155.746716
 21
197.8950239999998
 31
0.0
  0
LINE
  5
F082
330
EED9
100
AcDbEntity
  8
1
  6
Continuous
100
AcDbLine
 10
1156.1
 20
198.8978689999999
 30
0.0
 11
1156.1
 21
200.4
 31
0.0
  0
LINE
  5
F083
330
EED9
100
AcDbEntity
  8
1
  6
Continuous
100
AcDbLine
 10
1153.871009
 20
169.9368169999999
 30
0.0
 11
1155.746716
 21
167.6049759999999
 31
0.0
  0
ARC
  5
F084
330
EED9
100
AcDbEntity
  8
1
  6
Continuous
100
AcDbCircle
 10
1154.5
 20
170.442771
 30
0.0
 40
0.8072289999999997
100
AcDbArc
 50
90.0
 51
218.812815
  0
LINE
  5
F085
330
EED9
100
AcDbEntity
  8
1
  6
Continuous
100
AcDbLine
 10
1156.1
 20
171.25
 30
0.0
 11
1156.1
 21
194.25
 31
0.0
  0
LINE
  5
F086
330
EED9
100
AcDbEntity
  8
1
  6
Continuous
100
AcDbLine
 10
120.3289909999998
 20
195.563183
 30
0.0
 11
118.453284
 21
197.8950239999998
 31
0.0
  0
LINE
  5
F087
330
EED9
100
AcDbEntity
  8
1
  6
Continuous
100
AcDbLine
 10
119.7
 20
171.25
 30
0.0
 11
119.7
 21
194.25
 31
0.0
  0
ARC
  5
F088
330
EED9
100
AcDbEntity
  8
1
  6
Continuous
100
AcDbCircle
 10
119.7
 20
170.442771
 30
0.0
 40
0.8072289999999997
100
AcDbArc
 50
321.187185
 51
90.0
  0
LINE
  5
F089
330
EED9
100
AcDbEntity
  8
1
  6
Continuous
100
AcDbLine
 10
120.3289909999998
 20
169.9368169999999
 30
0.0
 11
118.453284
 21
167.6049759999999
 31
0.0
  0
ARC
  5
F08A
330
EED9
100
AcDbEntity
  8
1
  6
Continuous
100
AcDbCircle
 10
119.7
 20
166.602131
 30
0.0
 40
1.6
100
AcDbArc
 50
141.1871849999998
 51
180.0
  0
ARC
  5
F08B
330
EED9
100
AcDbEntity
  8
1
  6
Continuous
100
AcDbCircle
 10
119.7
 20
195.057229
 30
0.0
 40
0.8072289999999997
100
AcDbArc
 50
270.0
 51
38.812815
  0
ARC
  5
F08C
330
EED9
100
AcDbEntity
  8
1
  6
Continuous
100
AcDbCircle
 10
119.7
 20
198.8978689999999
 30
0.0
 40
1.6
100
AcDbArc
 50
180.0
 51
218.812815
  0
LINE
  5
F08D
330
EED9
100
AcDbEntity
  8
1
  6
Continuous
100
AcDbLine
 10
118.1
 20
198.8978689999999
 30
0.0
 11
118.1
 21
200.4
 31
0.0
  0
LINE
  5
F08E
330
EED9
100
AcDbEntity
  8
1
  6
Continuous
100
AcDbLine
 10
118.1
 20
305.3999999999998
 30
0.0
 11
118.1
 21
314.1
 31
0.0
  0
LINE
  5
F08F
330
EED9
100
AcDbEntity
  8
1
  6
Continuous
100
AcDbLine
 10
626.1
 20
305.3999999999998
 30
0.0
 11
626.1
 21
314.1
 31
0.0
  0
LINE
  5
F090
330
EED9
100
AcDbEntity
  8
1
  6
Continuous
100
AcDbLine
 10
118.1
 20
305.3999999999998
 30
0.0
 11
626.1
 21
305.3999999999998
 31
0.0
  0
LINE
  5
F091
330
EED9
100
AcDbEntity
  8
1
  6
Continuous
100
AcDbLine
 10
118.1
 20
314.1
 30
0.0
 11
626.1
 21
314.1
 31
0.0
  0
LINE
  5
F092
330
EED9
100
AcDbEntity
  8
4
  6
CENTER
100
AcDbLine
 10
134.0
 20
310.471691
 30
0.0
 11
134.0
 21
299.971691
 31
0.0
  0
LINE
  5
F093
330
EED9
100
AcDbEntity
  8
4
  6
CENTER
100
AcDbLine
 10
146.6999999999998
 20
310.471691
 30
0.0
 11
146.6999999999998
 21
299.971691
 31
0.0
  0
LINE
  5
F094
330
EED9
100
AcDbEntity
  8
4
  6
CENTER
100
AcDbLine
 10
257.8
 20
310.471691
 30
0.0
 11
257.8
 21
299.971691
 31
0.0
  0
LINE
  5
F095
330
EED9
100
AcDbEntity
  8
4
  6
CENTER
100
AcDbLine
 10
499.1
 20
310.471691
 30
0.0
 11
499.1
 21
299.971691
 31
0.0
  0
LINE
  5
F096
330
EED9
100
AcDbEntity
  8
4
  6
CENTER
100
AcDbLine
 10
584.7999999999998
 20
310.471691
 30
0.0
 11
584.7999999999998
 21
299.971691
 31
0.0
  0
LINE
  5
F097
330
EED9
100
AcDbEntity
  8
4
  6
CENTER
100
AcDbLine
 10
597.5
 20
310.471691
 30
0.0
 11
597.5
 21
299.971691
 31
0.0
  0
LINE
  5
F098
330
EED9
100
AcDbEntity
  8
4
  6
CENTER
100
AcDbLine
 10
610.2000000000002
 20
324.933485
 30
0.0
 11
610.2000000000002
 21
299.971691
 31
0.0
  0
LINE
  5
F099
330
EED9
100
AcDbEntity
  8
1
  6
Continuous
100
AcDbLine
 10
386.6999999999999
 20
314.9
 30
0.0
 11
386.6999999999999
 21
314.1
 31
0.0
  0
LINE
  5
F09A
330
EED9
100
AcDbEntity
  8
1
  6
Continuous
100
AcDbLine
 10
383.6999999999999
 20
321.4999999999998
 30
0.0
 11
383.6999999999999
 21
315.0
 31
0.0
  0
LINE
  5
F09B
330
EED9
100
AcDbEntity
  8
1
  6
Continuous
100
AcDbLine
 10
386.6999999999999
 20
314.9
 30
0.0
 11
890.4999999999999
 21
314.9
 31
0.0
  0
LINE
  5
F09C
330
EED9
100
AcDbEntity
  8
3
  6
DASHED
100
AcDbLine
 10
386.6999999999999
 20
308.3999999999999
 30
0.0
 11
626.1
 21
308.3999999999999
 31
0.0
  0
LINE
  5
F09D
330
EED9
100
AcDbEntity
  8
3
  6
DASHED
100
AcDbLine
 10
386.6999999999999
 20
314.1
 30
0.0
 11
386.6999999999999
 21
308.3999999999999
 31
0.0
  0
LINE
  5
F09E
330
EED9
100
AcDbEntity
  8
1
  6
Continuous
100
AcDbLine
 10
890.4999999999999
 20
314.9
 30
0.0
 11
890.4999999999999
 21
308.3999999999999
 31
0.0
  0
LINE
  5
F09F
330
EED9
100
AcDbEntity
  8
3
  6
DASHED
100
AcDbLine
 10
887.5
 20
321.4999999999998
 30
0.0
 11
887.5
 21
315.8
 31
0.0
  0
LINE
  5
F0A0
330
EED9
100
AcDbEntity
  8
1
  6
Continuous
100
AcDbLine
 10
626.1
 20
308.3999999999999
 30
0.0
 11
890.4999999999999
 21
308.3999999999999
 31
0.0
  0
LINE
  5
F0A1
330
EED9
100
AcDbEntity
  8
1
  6
Continuous
100
AcDbLine
 10
383.6999999999999
 20
315.0
 30
0.0
 11
887.5
 21
315.0
 31
0.0
  0
LINE
  5
F0A2
330
EED9
100
AcDbEntity
  8
1
  6
Continuous
100
AcDbLine
 10
383.6999999999999
 20
321.4999999999998
 30
0.0
 11
648.1
 21
321.4999999999998
 31
0.0
  0
LINE
  5
F0A3
330
EED9
100
AcDbEntity
  8
1
  6
Continuous
100
AcDbLine
 10
648.1
 20
315.8
 30
0.0
 11
648.1
 21
324.5
 31
0.0
  0
LINE
  5
F0A4
330
EED9
100
AcDbEntity
  8
1
  6
Continuous
100
AcDbLine
 10
648.1
 20
324.5
 30
0.0
 11
1156.1
 21
324.5
 31
0.0
  0
LINE
  5
F0A5
330
EED9
100
AcDbEntity
  8
1
  6
Continuous
100
AcDbLine
 10
1156.1
 20
315.8
 30
0.0
 11
1156.1
 21
324.5
 31
0.0
  0
LINE
  5
F0A6
330
EED9
100
AcDbEntity
  8
1
  6
Continuous
100
AcDbLine
 10
648.1
 20
315.8
 30
0.0
 11
1156.1
 21
315.8
 31
0.0
  0
LINE
  5
F0A7
330
EED9
100
AcDbEntity
  8
3
  6
DASHED
100
AcDbLine
 10
648.1
 20
321.4999999999998
 30
0.0
 11
887.5
 21
321.4999999999998
 31
0.0
  0
LINE
  5
F0A8
330
EED9
100
AcDbEntity
  8
1
  6
Continuous
100
AcDbLine
 10
887.5
 20
315.8
 30
0.0
 11
887.5
 21
315.0
 31
0.0
  0
LINE
  5
F0A9
330
EED9
100
AcDbEntity
  8
4
  6
CENTER
100
AcDbLine
 10
1140.2
 20
328.9955889999998
 30
0.0
 11
1140.2
 21
318.4955889999999
 31
0.0
  0
LINE
  5
F0AA
330
EED9
100
AcDbEntity
  8
4
  6
CENTER
100
AcDbLine
 10
1127.5
 20
328.9955889999998
 30
0.0
 11
1127.5
 21
318.4955889999999
 31
0.0
  0
LINE
  5
F0AB
330
EED9
100
AcDbEntity
  8
4
  6
CENTER
100
AcDbLine
 10
1016.399999999998
 20
328.9955889999998
 30
0.0
 11
1016.399999999998
 21
318.4955889999999
 31
0.0
  0
LINE
  5
F0AC
330
EED9
100
AcDbEntity
  8
4
  6
CENTER
100
AcDbLine
 10
775.1
 20
328.9955889999998
 30
0.0
 11
775.1
 21
318.4955889999999
 31
0.0
  0
LINE
  5
F0AD
330
EED9
100
AcDbEntity
  8
4
  6
CENTER
100
AcDbLine
 10
676.7000000000003
 20
328.9955889999998
 30
0.0
 11
676.7000000000003
 21
318.4955889999999
 31
0.0
  0
LINE
  5
F0AE
330
EED9
100
AcDbEntity
  8
4
  6
CENTER
100
AcDbLine
 10
689.4
 20
328.9955889999998
 30
0.0
 11
689.4
 21
318.4955889999999
 31
0.0
  0
LINE
  5
F0AF
330
EED9
100
AcDbEntity
  8
4
  6
CENTER
100
AcDbLine
 10
664.0
 20
328.9955889999998
 30
0.0
 11
664.0
 21
305.465795
 31
0.0
  0
LINE
  5
F0B0
330
EED9
100
AcDbEntity
  8
3
  6
DASHED
100
AcDbLine
 10
623.6
 20
454.6499999999999
 30
0.0
 11
626.1
 21
454.6499999999999
 31
0.0
  0
LINE
  5
F0B1
330
EED9
100
AcDbEntity
  8
3
  6
DASHED
100
AcDbLine
 10
623.6
 20
439.6499999999998
 30
0.0
 11
626.1
 21
439.6499999999998
 31
0.0
  0
LINE
  5
F0B2
330
EED9
100
AcDbEntity
  8
1
  6
Continuous
100
AcDbLine
 10
624.5
 20
462.2885629999998
 30
0.0
 11
119.7
 21
462.2885629999998
 31
0.0
  0
LINE
  5
F0B3
330
EED9
100
AcDbEntity
  8
1
  6
Continuous
100
AcDbLine
 10
624.5
 20
461.697869
 30
0.0
 11
119.7
 21
461.697869
 31
0.0
  0
LINE
  5
F0B4
330
EED9
100
AcDbEntity
  8
1
  6
Continuous
100
AcDbLine
 10
624.5
 20
432.6021309999998
 30
0.0
 11
119.7
 21
432.6021309999998
 31
0.0
  0
LINE
  5
F0B5
330
EED9
100
AcDbEntity
  8
1
  6
Continuous
100
AcDbLine
 10
624.5
 20
432.0114369999997
 30
0.0
 11
119.7
 21
432.0114369999997
 31
0.0
  0
LINE
  5
F0B6
330
EED9
100
AcDbEntity
  8
1
  6
Continuous
100
AcDbLine
 10
626.1
 20
464.8
 30
0.0
 11
118.1
 21
464.8
 31
0.0
  0
LINE
  5
F0B7
330
EED9
100
AcDbEntity
  8
1
  6
Continuous
100
AcDbLine
 10
626.1
 20
429.4999999999998
 30
0.0
 11
118.1
 21
429.4999999999998
 31
0.0
  0
LINE
  5
F0B8
330
EED9
100
AcDbEntity
  8
1
  6
Continuous
100
AcDbLine
 10
648.1
 20
456.0375
 30
0.0
 11
421.6999999999998
 21
456.0375
 31
0.0
  0
LINE
  5
F0B9
330
EED9
100
AcDbEntity
  8
1
  6
Continuous
100
AcDbLine
 10
648.1
 20
457.2375
 30
0.0
 11
383.6999999999999
 21
457.2375
 31
0.0
  0
LINE
  5
F0BA
330
EED9
100
AcDbEntity
  8
1
  6
Continuous
100
AcDbLine
 10
648.1
 20
438.2624999999999
 30
0.0
 11
421.6999999999998
 21
438.2624999999999
 31
0.0
  0
LINE
  5
F0BB
330
EED9
100
AcDbEntity
  8
1
  6
Continuous
100
AcDbLine
 10
648.1
 20
437.0625
 30
0.0
 11
383.6999999999999
 21
437.0625
 31
0.0
  0
LINE
  5
F0BC
330
EED9
100
AcDbEntity
  8
1
  6
Continuous
100
AcDbLine
 10
648.1
 20
459.4
 30
0.0
 11
383.6999999999999
 21
459.4
 31
0.0
  0
LINE
  5
F0BD
330
EED9
100
AcDbEntity
  8
1
  6
Continuous
100
AcDbLine
 10
648.1
 20
434.9
 30
0.0
 11
383.6999999999999
 21
434.9
 31
0.0
  0
LINE
  5
F0BE
330
EED9
100
AcDbEntity
  8
4
  6
CENTER
100
AcDbLine
 10
1161.1
 20
447.1499999999998
 30
0.0
 11
113.1
 21
447.1499999999998
 31
0.0
  0
LINE
  5
F0BF
330
EED9
100
AcDbEntity
  8
1
  6
Continuous
100
AcDbLine
 10
1156.1
 20
429.4999999999998
 30
0.0
 11
648.1
 21
429.4999999999998
 31
0.0
  0
LINE
  5
F0C0
330
EED9
100
AcDbEntity
  8
1
  6
Continuous
100
AcDbLine
 10
1156.1
 20
464.8
 30
0.0
 11
648.1
 21
464.8
 31
0.0
  0
LINE
  5
F0C1
330
EED9
100
AcDbEntity
  8
1
  6
Continuous
100
AcDbLine
 10
1153.871009
 20
434.3368169999997
 30
0.0
 11
1155.746716
 21
432.0049759999998
 31
0.0
  0
ARC
  5
F0C2
330
EED9
100
AcDbEntity
  8
1
  6
Continuous
100
AcDbCircle
 10
1127.5
 20
447.55
 30
0.0
 40
2.25
100
AcDbArc
 50
0.0
 51
180.0
  0
ARC
  5
F0C3
330
EED9
100
AcDbEntity
  8
1
  6
Continuous
100
AcDbCircle
 10
1127.5
 20
446.75
 30
0.0
 40
2.25
100
AcDbArc
 50
180.0
 51
0.0
  0
LINE
  5
F0C4
330
EED9
100
AcDbEntity
  8
1
  6
Continuous
100
AcDbLine
 10
1154.5
 20
458.65
 30
0.0
 11
1154.5
 21
435.6499999999998
 31
0.0
  0
LINE
  5
F0C5
330
EED9
100
AcDbEntity
  8
1
  6
Continuous
100
AcDbLine
 10
1156.1
 20
464.8
 30
0.0
 11
1156.1
 21
463.2978689999998
 31
0.0
  0
LINE
  5
F0C6
330
EED9
100
AcDbEntity
  8
1
  6
Continuous
100
AcDbLine
 10
1153.871009
 20
459.9631829999998
 30
0.0
 11
1155.746716
 21
462.295024
 31
0.0
  0
ARC
  5
F0C7
330
EED9
100
AcDbEntity
  8
1
  6
Continuous
100
AcDbCircle
 10
1154.5
 20
459.457229
 30
0.0
 40
0.8072289999999997
100
AcDbArc
 50
141.1871849999998
 51
270.0
  0
ARC
  5
F0C8
330
EED9
100
AcDbEntity
  8
1
  6
Continuous
100
AcDbCircle
 10
1154.5
 20
463.2978689999998
 30
0.0
 40
1.6
100
AcDbArc
 50
321.187185
 51
0.0
  0
ARC
  5
F0C9
330
EED9
100
AcDbEntity
  8
1
  6
Continuous
100
AcDbCircle
 10
1154.5
 20
434.842771
 30
0.0
 40
0.8072289999999997
100
AcDbArc
 50
90.0
 51
218.812815
  0
LINE
  5
F0CA
330
EED9
100
AcDbEntity
  8
1
  6
Continuous
100
AcDbLine
 10
1129.75
 20
446.75
 30
0.0
 11
1129.75
 21
447.55
 31
0.0
  0
LINE
  5
F0CB
330
EED9
100
AcDbEntity
  8
1
  6
Continuous
100
AcDbLine
 10
1137.95
 20
446.75
 30
0.0
 11
1137.95
 21
447.55
 31
0.0
  0
LINE
  5
F0CC
330
EED9
100
AcDbEntity
  8
1
  6
Continuous
100
AcDbLine
 10
1142.449999999998
 20
446.75
 30
0.0
 11
1142.449999999998
 21
447.55
 31
0.0
  0
LINE
  5
F0CD
330
EED9
100
AcDbEntity
  8
4
  6
CENTER
100
AcDbLine
 10
1140.2
 20
441.8999999999998
 30
0.0
 11
1140.2
 21
452.4
 31
0.0
  0
ARC
  5
F0CE
330
EED9
100
AcDbEntity
  8
1
  6
Continuous
100
AcDbCircle
 10
1140.2
 20
447.55
 30
0.0
 40
2.25
100
AcDbArc
 50
0.0
 51
180.0
  0
ARC
  5
F0CF
330
EED9
100
AcDbEntity
  8
1
  6
Continuous
100
AcDbCircle
 10
1140.2
 20
446.75
 30
0.0
 40
2.25
100
AcDbArc
 50
180.0
 51
0.0
  0
LINE
  5
F0D0
330
EED9
100
AcDbEntity
  8
1
  6
Continuous
100
AcDbLine
 10
1125.25
 20
446.75
 30
0.0
 11
1125.25
 21
447.55
 31
0.0
  0
LINE
  5
F0D1
330
EED9
100
AcDbEntity
  8
4
  6
CENTER
100
AcDbLine
 10
1127.5
 20
441.8999999999998
 30
0.0
 11
1127.5
 21
452.4
 31
0.0
  0
LINE
  5
F0D2
330
EED9
100
AcDbEntity
  8
1
  6
Continuous
100
AcDbLine
 10
1156.1
 20
431.0021309999998
 30
0.0
 11
1156.1
 21
429.4999999999998
 31
0.0
  0
ARC
  5
F0D3
330
EED9
100
AcDbEntity
  8
1
  6
Continuous
100
AcDbCircle
 10
1154.5
 20
431.0021309999998
 30
0.0
 40
1.6
100
AcDbArc
 50
0.0
 51
38.812815
  0
LINE
  5
F0D4
330
EED9
100
AcDbEntity
  8
3
  6
DASHED
100
AcDbLine
 10
890.4999999999999
 20
459.4
 30
0.0
 11
648.1
 21
459.4
 31
0.0
  0
LINE
  5
F0D5
330
EED9
100
AcDbEntity
  8
3
  6
DASHED
100
AcDbLine
 10
890.4999999999999
 20
434.9
 30
0.0
 11
648.1
 21
434.9
 31
0.0
  0
ARC
  5
F0D6
330
EED9
100
AcDbEntity
  8
1
  6
Continuous
100
AcDbCircle
 10
1016.0
 20
447.1499999999998
 30
0.0
 40
2.25
100
AcDbArc
 50
90.0
 51
270.0
  0
ARC
  5
F0D7
330
EED9
100
AcDbEntity
  8
1
  6
Continuous
100
AcDbCircle
 10
1016.799999999999
 20
447.1499999999998
 30
0.0
 40
2.25
100
AcDbArc
 50
270.0
 51
90.0
  0
LINE
  5
F0D8
330
EED9
100
AcDbEntity
  8
1
  6
Continuous
100
AcDbLine
 10
1016.0
 20
444.8999999999998
 30
0.0
 11
1016.799999999999
 21
444.8999999999998
 31
0.0
  0
LINE
  5
F0D9
330
EED9
100
AcDbEntity
  8
4
  6
CENTER
100
AcDbLine
 10
1016.399999999998
 20
441.8999999999998
 30
0.0
 11
1016.399999999998
 21
452.4
 31
0.0
  0
LINE
  5
F0DA
330
EED9
100
AcDbEntity
  8
1
  6
Continuous
100
AcDbLine
 10
1016.0
 20
449.3999999999998
 30
0.0
 11
1016.799999999999
 21
449.3999999999998
 31
0.0
  0
LINE
  5
F0DB
330
EED9
100
AcDbEntity
  8
3
  6
DASHED
100
AcDbLine
 10
887.5
 20
434.9
 30
0.0
 11
887.5
 21
459.4
 31
0.0
  0
LINE
  5
F0DC
330
EED9
100
AcDbEntity
  8
3
  6
DASHED
100
AcDbLine
 10
890.4999999999999
 20
434.9
 30
0.0
 11
890.4999999999999
 21
459.4
 31
0.0
  0
ARC
  5
F0DD
330
EED9
100
AcDbEntity
  8
1
  6
Continuous
100
AcDbCircle
 10
774.7
 20
447.1499999999998
 30
0.0
 40
2.25
100
AcDbArc
 50
90.0
 51
270.0
  0
LINE
  5
F0DE
330
EED9
100
AcDbEntity
  8
1
  6
Continuous
100
AcDbLine
 10
774.7
 20
449.3999999999998
 30
0.0
 11
775.4999999999999
 21
449.3999999999998
 31
0.0
  0
LINE
  5
F0DF
330
EED9
100
AcDbEntity
  8
4
  6
CENTER
100
AcDbLine
 10
775.1
 20
441.8999999999998
 30
0.0
 11
775.1
 21
452.4
 31
0.0
  0
LINE
  5
F0E0
330
EED9
100
AcDbEntity
  8
1
  6
Continuous
100
AcDbLine
 10
774.7
 20
444.8999999999998
 30
0.0
 11
775.4999999999999
 21
444.8999999999998
 31
0.0
  0
ARC
  5
F0E1
330
EED9
100
AcDbEntity
  8
1
  6
Continuous
100
AcDbCircle
 10
775.4999999999999
 20
447.1499999999998
 30
0.0
 40
2.25
100
AcDbArc
 50
270.0
 51
90.0
  0
ARC
  5
F0E2
330
EED9
100
AcDbEntity
  8
1
  6
Continuous
100
AcDbCircle
 10
689.7999999999998
 20
447.1499999999998
 30
0.0
 40
2.25
100
AcDbArc
 50
270.0
 51
90.0
  0
LINE
  5
F0E3
330
EED9
100
AcDbEntity
  8
1
  6
Continuous
100
AcDbLine
 10
626.1
 20
434.9
 30
0.0
 11
626.1
 21
429.4999999999998
 31
0.0
  0
LINE
  5
F0E4
330
EED9
100
AcDbEntity
  8
1
  6
Continuous
100
AcDbLine
 10
648.1
 20
439.6499999999998
 30
0.0
 11
648.1
 21
429.4999999999998
 31
0.0
  0
LINE
  5
F0E5
330
EED9
100
AcDbEntity
  8
1
  6
Continuous
100
AcDbLine
 10
674.4500000000003
 20
446.75
 30
0.0
 11
674.4500000000003
 21
447.55
 31
0.0
  0
LINE
  5
F0E6
330
EED9
100
AcDbEntity
  8
1
  6
Continuous
100
AcDbLine
 10
678.9500000000002
 20
446.75
 30
0.0
 11
678.9500000000002
 21
447.55
 31
0.0
  0
LINE
  5
F0E7
330
EED9
100
AcDbEntity
  8
4
  6
CENTER
100
AcDbLine
 10
676.7000000000003
 20
441.8999999999998
 30
0.0
 11
676.7000000000003
 21
452.4
 31
0.0
  0
ARC
  5
F0E8
330
EED9
100
AcDbEntity
  8
1
  6
Continuous
100
AcDbCircle
 10
676.7000000000003
 20
447.55
 30
0.0
 40
2.25
100
AcDbArc
 50
0.0
 51
180.0
  0
ARC
  5
F0E9
330
EED9
100
AcDbEntity
  8
1
  6
Continuous
100
AcDbCircle
 10
676.7000000000003
 20
446.75
 30
0.0
 40
2.25
100
AcDbArc
 50
180.0
 51
0.0
  0
LINE
  5
F0EA
330
EED9
100
AcDbEntity
  8
4
  6
CENTER
100
AcDbLine
 10
689.4
 20
441.8999999999998
 30
0.0
 11
689.4
 21
452.4
 31
0.0
  0
ARC
  5
F0EB
330
EED9
100
AcDbEntity
  8
1
  6
Continuous
100
AcDbCircle
 10
689.0
 20
447.1499999999998
 30
0.0
 40
2.25
100
AcDbArc
 50
90.0
 51
270.0
  0
LINE
  5
F0EC
330
EED9
100
AcDbEntity
  8
1
  6
Continuous
100
AcDbLine
 10
689.0
 20
449.3999999999998
 30
0.0
 11
689.7999999999998
 21
449.3999999999998
 31
0.0
  0
LINE
  5
F0ED
330
EED9
100
AcDbEntity
  8
1
  6
Continuous
100
AcDbLine
 10
689.0
 20
444.8999999999998
 30
0.0
 11
689.7999999999998
 21
444.8999999999998
 31
0.0
  0
ARC
  5
F0EE
330
EED9
100
AcDbEntity
  8
1
  6
Continuous
100
AcDbCircle
 10
664.0
 20
446.75
 30
0.0
 40
2.25
100
AcDbArc
 50
180.0
 51
0.0
  0
LINE
  5
F0EF
330
EED9
100
AcDbEntity
  8
4
  6
CENTER
100
AcDbLine
 10
664.0
 20
441.8999999999998
 30
0.0
 11
664.0
 21
452.4
 31
0.0
  0
LINE
  5
F0F0
330
EED9
100
AcDbEntity
  8
1
  6
Continuous
100
AcDbLine
 10
666.25
 20
446.75
 30
0.0
 11
666.25
 21
447.55
 31
0.0
  0
LINE
  5
F0F1
330
EED9
100
AcDbEntity
  8
1
  6
Continuous
100
AcDbLine
 10
661.7499999999997
 20
446.75
 30
0.0
 11
661.7499999999997
 21
447.55
 31
0.0
  0
ARC
  5
F0F2
330
EED9
100
AcDbEntity
  8
1
  6
Continuous
100
AcDbCircle
 10
664.0
 20
447.55
 30
0.0
 40
2.25
100
AcDbArc
 50
0.0
 51
180.0
  0
LINE
  5
F0F3
330
EED9
100
AcDbEntity
  8
3
  6
DASHED
100
AcDbLine
 10
626.1
 20
459.4
 30
0.0
 11
626.1
 21
454.6499999999999
 31
0.0
  0
LINE
  5
F0F4
330
EED9
100
AcDbEntity
  8
1
  6
Continuous
100
AcDbLine
 10
648.1
 20
464.8
 30
0.0
 11
648.1
 21
454.6499999999999
 31
0.0
  0
ARC
  5
F0F5
330
EED9
100
AcDbEntity
  8
1
  6
Continuous
100
AcDbCircle
 10
624.5
 20
463.8885629999998
 30
0.0
 40
1.6
100
AcDbArc
 50
270.0
 51
0.0
  0
ARC
  5
F0F6
330
EED9
100
AcDbEntity
  8
1
  6
Continuous
100
AcDbCircle
 10
624.5
 20
463.2978689999998
 30
0.0
 40
1.6
100
AcDbArc
 50
270.0
 51
0.0
  0
LINE
  5
F0F7
330
EED9
100
AcDbEntity
  8
1
  6
Continuous
100
AcDbLine
 10
626.1
 20
464.8
 30
0.0
 11
626.1
 21
459.4
 31
0.0
  0
LINE
  5
F0F8
330
EED9
100
AcDbEntity
  8
1
  6
Continuous
100
AcDbLine
 10
650.6
 20
439.6499999999998
 30
0.0
 11
648.1
 21
439.6499999999998
 31
0.0
  0
LINE
  5
F0F9
330
EED9
100
AcDbEntity
  8
1
  6
Continuous
100
AcDbLine
 10
650.6
 20
454.6499999999999
 30
0.0
 11
650.6
 21
439.6499999999998
 31
0.0
  0
LINE
  5
F0FA
330
EED9
100
AcDbEntity
  8
1
  6
Continuous
100
AcDbLine
 10
650.6
 20
454.6499999999999
 30
0.0
 11
648.1
 21
454.6499999999999
 31
0.0
  0
LINE
  5
F0FB
330
EED9
100
AcDbEntity
  8
3
  6
DASHED
100
AcDbLine
 10
626.1
 20
439.6499999999998
 30
0.0
 11
626.1
 21
434.9
 31
0.0
  0
ARC
  5
F0FC
330
EED9
100
AcDbEntity
  8
1
  6
Continuous
100
AcDbCircle
 10
624.5
 20
431.0021309999998
 30
0.0
 40
1.6
100
AcDbArc
 50
0.0
 51
90.0
  0
ARC
  5
F0FD
330
EED9
100
AcDbEntity
  8
1
  6
Continuous
100
AcDbCircle
 10
624.5
 20
430.4114369999998
 30
0.0
 40
1.6
100
AcDbArc
 50
0.0
 51
90.0
  0
LINE
  5
F0FE
330
EED9
100
AcDbEntity
  8
1
  6
Continuous
100
AcDbLine
 10
497.1
 20
433.55
 30
0.0
 11
486.6
 21
433.55
 31
0.0
  0
LINE
  5
F0FF
330
EED9
100
AcDbEntity
  8
1
  6
Continuous
100
AcDbLine
 10
497.1
 20
434.05
 30
0.0
 11
486.6
 21
434.05
 31
0.0
  0
LINE
  5
F100
330
EED9
100
AcDbEntity
  8
1
  6
Continuous
100
AcDbLine
 10
497.1
 20
460.25
 30
0.0
 11
486.6
 21
460.25
 31
0.0
  0
LINE
  5
F101
330
EED9
100
AcDbEntity
  8
1
  6
Continuous
100
AcDbLine
 10
497.1
 20
460.7499999999998
 30
0.0
 11
486.6
 21
460.7499999999998
 31
0.0
  0
LINE
  5
F102
330
EED9
100
AcDbEntity
  8
1
  6
Continuous
100
AcDbLine
 10
559.6
 20
434.05
 30
0.0
 11
549.1
 21
434.05
 31
0.0
  0
LINE
  5
F103
330
EED9
100
AcDbEntity
  8
1
  6
Continuous
100
AcDbLine
 10
559.6
 20
433.55
 30
0.0
 11
549.1
 21
433.55
 31
0.0
  0
LINE
  5
F104
330
EED9
100
AcDbEntity
  8
1
  6
Continuous
100
AcDbLine
 10
559.6
 20
460.7499999999998
 30
0.0
 11
549.1
 21
460.7499999999998
 31
0.0
  0
LINE
  5
F105
330
EED9
100
AcDbEntity
  8
1
  6
Continuous
100
AcDbLine
 10
559.6
 20
460.25
 30
0.0
 11
549.1
 21
460.25
 31
0.0
  0
LINE
  5
F106
330
EED9
100
AcDbEntity
  8
1
  6
Continuous
100
AcDbLine
 10
559.6
 20
433.55
 30
0.0
 11
559.6
 21
434.9
 31
0.0
  0
LINE
  5
F107
330
EED9
100
AcDbEntity
  8
1
  6
Continuous
100
AcDbLine
 10
561.6
 20
433.55
 30
0.0
 11
561.6
 21
434.9
 31
0.0
  0
ARC
  5
F108
330
EED9
100
AcDbEntity
  8
1
  6
Continuous
100
AcDbCircle
 10
566.85
 20
433.4812499999999
 30
0.0
 40
2.38125
100
AcDbArc
 50
143.430279
 51
166.18161
  0
LINE
  5
F109
330
EED9
100
AcDbEntity
  8
1
  6
Continuous
100
AcDbLine
 10
572.1
 20
433.55
 30
0.0
 11
572.1
 21
434.9
 31
0.0
  0
ARC
  5
F10A
330
EED9
100
AcDbEntity
  8
1
  6
Continuous
100
AcDbCircle
 10
566.85
 20
433.4812499999999
 30
0.0
 40
2.38125
100
AcDbArc
 50
13.81839
 51
36.569721
  0
ARC
  5
F10B
330
EED9
100
AcDbEntity
  8
1
  6
Continuous
100
AcDbCircle
 10
579.35
 20
433.4812499999999
 30
0.0
 40
2.38125
100
AcDbArc
 50
13.81839
 51
36.569721
  0
ARC
  5
F10C
330
EED9
100
AcDbEntity
  8
1
  6
Continuous
100
AcDbCircle
 10
579.35
 20
433.4812499999999
 30
0.0
 40
2.38125
100
AcDbArc
 50
143.430279
 51
166.18161
  0
LINE
  5
F10D
330
EED9
100
AcDbEntity
  8
1
  6
Continuous
100
AcDbLine
 10
584.6
 20
433.55
 30
0.0
 11
584.6
 21
434.9
 31
0.0
  0
LINE
  5
F10E
330
EED9
100
AcDbEntity
  8
1
  6
Continuous
100
AcDbLine
 10
574.1
 20
433.55
 30
0.0
 11
574.1
 21
434.9
 31
0.0
  0
LINE
  5
F10F
330
EED9
100
AcDbEntity
  8
1
  6
Continuous
100
AcDbLine
 10
586.6
 20
433.55
 30
0.0
 11
586.6
 21
434.9
 31
0.0
  0
LINE
  5
F110
330
EED9
100
AcDbEntity
  8
1
  6
Continuous
100
AcDbLine
 10
597.1
 20
433.55
 30
0.0
 11
597.1
 21
434.9
 31
0.0
  0
ARC
  5
F111
330
EED9
100
AcDbEntity
  8
1
  6
Continuous
100
AcDbCircle
 10
591.85
 20
433.4812499999999
 30
0.0
 40
2.38125
100
AcDbArc
 50
143.430279
 51
166.18161
  0
ARC
  5
F112
330
EED9
100
AcDbEntity
  8
1
  6
Continuous
100
AcDbCircle
 10
591.85
 20
433.4812499999999
 30
0.0
 40
2.38125
100
AcDbArc
 50
13.81839
 51
36.569721
  0
ARC
  5
F113
330
EED9
100
AcDbEntity
  8
1
  6
Continuous
100
AcDbCircle
 10
604.35
 20
433.4812499999999
 30
0.0
 40
2.38125
100
AcDbArc
 50
13.81839
 51
36.569721
  0
ARC
  5
F114
330
EED9
100
AcDbEntity
  8
1
  6
Continuous
100
AcDbCircle
 10
604.35
 20
433.4812499999999
 30
0.0
 40
2.38125
100
AcDbArc
 50
143.430279
 51
166.18161
  0
LINE
  5
F115
330
EED9
100
AcDbEntity
  8
1
  6
Continuous
100
AcDbLine
 10
609.6
 20
433.55
 30
0.0
 11
609.6
 21
434.9
 31
0.0
  0
LINE
  5
F116
330
EED9
100
AcDbEntity
  8
1
  6
Continuous
100
AcDbLine
 10
599.1
 20
433.55
 30
0.0
 11
599.1
 21
434.9
 31
0.0
  0
LINE
  5
F117
330
EED9
100
AcDbEntity
  8
1
  6
Continuous
100
AcDbLine
 10
611.6
 20
433.55
 30
0.0
 11
611.6
 21
434.9
 31
0.0
  0
LINE
  5
F118
330
EED9
100
AcDbEntity
  8
1
  6
Continuous
100
AcDbLine
 10
622.1
 20
433.55
 30
0.0
 11
622.1
 21
434.9
 31
0.0
  0
ARC
  5
F119
330
EED9
100
AcDbEntity
  8
1
  6
Continuous
100
AcDbCircle
 10
616.85
 20
433.4812499999999
 30
0.0
 40
2.38125
100
AcDbArc
 50
143.430279
 51
166.18161
  0
ARC
  5
F11A
330
EED9
100
AcDbEntity
  8
1
  6
Continuous
100
AcDbCircle
 10
616.85
 20
433.4812499999999
 30
0.0
 40
2.38125
100
AcDbArc
 50
13.81839
 51
36.569721
  0
LINE
  5
F11B
330
EED9
100
AcDbEntity
  8
1
  6
Continuous
100
AcDbLine
 10
597.1
 20
460.25
 30
0.0
 11
586.6
 21
460.25
 31
0.0
  0
LINE
  5
F11C
330
EED9
100
AcDbEntity
  8
1
  6
Continuous
100
AcDbLine
 10
597.1
 20
460.7499999999998
 30
0.0
 11
586.6
 21
460.7499999999998
 31
0.0
  0
LINE
  5
F11D
330
EED9
100
AcDbEntity
  8
1
  6
Continuous
100
AcDbLine
 10
609.6
 20
460.7499999999998
 30
0.0
 11
599.1
 21
460.7499999999998
 31
0.0
  0
LINE
  5
F11E
330
EED9
100
AcDbEntity
  8
1
  6
Continuous
100
AcDbLine
 10
609.6
 20
460.25
 30
0.0
 11
599.1
 21
460.25
 31
0.0
  0
ARC
  5
F11F
330
EED9
100
AcDbEntity
  8
1
  6
Continuous
100
AcDbCircle
 10
616.85
 20
460.81875
 30
0.0
 40
2.38125
100
AcDbArc
 50
158.3347039999999
 51
181.6544389999999
  0
ARC
  5
F120
330
EED9
100
AcDbEntity
  8
1
  6
Continuous
100
AcDbCircle
 10
616.85
 20
460.81875
 30
0.0
 40
2.38125
100
AcDbArc
 50
193.81839
 51
216.5697209999999
  0
LINE
  5
F121
330
EED9
100
AcDbEntity
  8
1
  6
Continuous
100
AcDbLine
 10
611.6
 20
460.7499999999998
 30
0.0
 11
611.6
 21
459.4
 31
0.0
  0
LINE
  5
F122
330
EED9
100
AcDbEntity
  8
1
  6
Continuous
100
AcDbLine
 10
609.6
 20
460.7499999999998
 30
0.0
 11
609.6
 21
459.4
 31
0.0
  0
ARC
  5
F123
330
EED9
100
AcDbEntity
  8
1
  6
Continuous
100
AcDbCircle
 10
616.85
 20
460.81875
 30
0.0
 40
2.38125
100
AcDbArc
 50
358.3455609999999
 51
21.665296
  0
ARC
  5
F124
330
EED9
100
AcDbEntity
  8
1
  6
Continuous
100
AcDbCircle
 10
616.85
 20
460.81875
 30
0.0
 40
2.38125
100
AcDbArc
 50
323.430279
 51
346.18161
  0
LINE
  5
F125
330
EED9
100
AcDbEntity
  8
1
  6
Continuous
100
AcDbLine
 10
622.1
 20
460.7499999999998
 30
0.0
 11
622.1
 21
459.4
 31
0.0
  0
LINE
  5
F126
330
EED9
100
AcDbEntity
  8
1
  6
Continuous
100
AcDbLine
 10
622.1
 20
460.25
 30
0.0
 11
611.6
 21
460.25
 31
0.0
  0
LINE
  5
F127
330
EED9
100
AcDbEntity
  8
1
  6
Continuous
100
AcDbLine
 10
622.1
 20
460.7499999999998
 30
0.0
 11
611.6
 21
460.7499999999998
 31
0.0
  0
ARC
  5
F128
330
EED9
100
AcDbEntity
  8
1
  6
Continuous
100
AcDbCircle
 10
591.85
 20
460.81875
 30
0.0
 40
2.38125
100
AcDbArc
 50
358.3455609999999
 51
21.665296
  0
LINE
  5
F129
330
EED9
100
AcDbEntity
  8
1
  6
Continuous
100
AcDbLine
 10
599.1
 20
460.7499999999998
 30
0.0
 11
599.1
 21
459.4
 31
0.0
  0
ARC
  5
F12A
330
EED9
100
AcDbEntity
  8
1
  6
Continuous
100
AcDbCircle
 10
591.85
 20
460.81875
 30
0.0
 40
2.38125
100
AcDbArc
 50
323.430279
 51
346.18161
  0
LINE
  5
F12B
330
EED9
100
AcDbEntity
  8
1
  6
Continuous
100
AcDbLine
 10
597.1
 20
460.7499999999998
 30
0.0
 11
597.1
 21
459.4
 31
0.0
  0
ARC
  5
F12C
330
EED9
100
AcDbEntity
  8
1
  6
Continuous
100
AcDbCircle
 10
604.35
 20
460.81875
 30
0.0
 40
2.38125
100
AcDbArc
 50
358.3455609999999
 51
21.665296
  0
ARC
  5
F12D
330
EED9
100
AcDbEntity
  8
1
  6
Continuous
100
AcDbCircle
 10
604.35
 20
460.81875
 30
0.0
 40
2.38125
100
AcDbArc
 50
158.3347039999999
 51
181.6544389999999
  0
ARC
  5
F12E
330
EED9
100
AcDbEntity
  8
1
  6
Continuous
100
AcDbCircle
 10
604.35
 20
460.81875
 30
0.0
 40
2.38125
100
AcDbArc
 50
193.81839
 51
216.5697209999999
  0
ARC
  5
F12F
330
EED9
100
AcDbEntity
  8
1
  6
Continuous
100
AcDbCircle
 10
604.35
 20
460.81875
 30
0.0
 40
2.38125
100
AcDbArc
 50
323.430279
 51
346.18161
  0
ARC
  5
F130
330
EED9
100
AcDbEntity
  8
1
  6
Continuous
100
AcDbCircle
 10
608.7000000000001
 20
447.1499999999998
 30
0.0
 40
5.0
100
AcDbArc
 50
90.0
 51
270.0
  0
LINE
  5
F131
330
EED9
100
AcDbEntity
  8
4
  6
CENTER
100
AcDbLine
 10
610.2000000000002
 20
439.9433469999998
 30
0.0
 11
610.2000000000002
 21
454.75939
 31
0.0
  0
ARC
  5
F132
330
EED9
100
AcDbEntity
  8
1
  6
Continuous
100
AcDbCircle
 10
611.7000000000001
 20
447.1499999999998
 30
0.0
 40
5.0
100
AcDbArc
 50
270.0
 51
90.0
  0
LINE
  5
F133
330
EED9
100
AcDbEntity
  8
1
  6
Continuous
100
AcDbLine
 10
611.7000000000001
 20
452.1499999999998
 30
0.0
 11
608.7000000000001
 21
452.1499999999998
 31
0.0
  0
LINE
  5
F134
330
EED9
100
AcDbEntity
  8
1
  6
Continuous
100
AcDbLine
 10
611.7000000000001
 20
442.1499999999999
 30
0.0
 11
608.7000000000001
 21
442.1499999999999
 31
0.0
  0
LINE
  5
F135
330
EED9
100
AcDbEntity
  8
1
  6
Continuous
100
AcDbLine
 10
612.4500000000002
 20
446.75
 30
0.0
 11
612.4500000000002
 21
447.55
 31
0.0
  0
LINE
  5
F136
330
EED9
100
AcDbEntity
  8
1
  6
Continuous
100
AcDbLine
 10
607.9500000000003
 20
446.75
 30
0.0
 11
607.9500000000003
 21
447.55
 31
0.0
  0
ARC
  5
F137
330
EED9
100
AcDbEntity
  8
1
  6
Continuous
100
AcDbCircle
 10
610.2000000000002
 20
447.55
 30
0.0
 40
2.25
100
AcDbArc
 50
0.0
 51
180.0
  0
ARC
  5
F138
330
EED9
100
AcDbEntity
  8
1
  6
Continuous
100
AcDbCircle
 10
610.2000000000002
 20
446.75
 30
0.0
 40
2.25
100
AcDbArc
 50
180.0
 51
0.0
  0
LINE
  5
F139
330
EED9
100
AcDbEntity
  8
3
  6
DASHED
100
AcDbLine
 10
623.6
 20
454.6499999999999
 30
0.0
 11
623.6
 21
439.6499999999998
 31
0.0
  0
LINE
  5
F13A
330
EED9
100
AcDbEntity
  8
4
  6
CENTER
100
AcDbLine
 10
597.5
 20
441.8999999999998
 30
0.0
 11
597.5
 21
452.4
 31
0.0
  0
LINE
  5
F13B
330
EED9
100
AcDbEntity
  8
1
  6
Continuous
100
AcDbLine
 10
584.6
 20
460.7499999999998
 30
0.0
 11
574.1
 21
460.7499999999998
 31
0.0
  0
LINE
  5
F13C
330
EED9
100
AcDbEntity
  8
1
  6
Continuous
100
AcDbLine
 10
584.6
 20
460.25
 30
0.0
 11
574.1
 21
460.25
 31
0.0
  0
ARC
  5
F13D
330
EED9
100
AcDbEntity
  8
1
  6
Continuous
100
AcDbCircle
 10
579.35
 20
460.81875
 30
0.0
 40
2.38125
100
AcDbArc
 50
358.3455609999999
 51
21.665296
  0
ARC
  5
F13E
330
EED9
100
AcDbEntity
  8
1
  6
Continuous
100
AcDbCircle
 10
579.35
 20
460.81875
 30
0.0
 40
2.38125
100
AcDbArc
 50
158.3347039999999
 51
181.6544389999999
  0
LINE
  5
F13F
330
EED9
100
AcDbEntity
  8
1
  6
Continuous
100
AcDbLine
 10
584.6
 20
460.7499999999998
 30
0.0
 11
584.6
 21
459.4
 31
0.0
  0
ARC
  5
F140
330
EED9
100
AcDbEntity
  8
1
  6
Continuous
100
AcDbCircle
 10
579.35
 20
460.81875
 30
0.0
 40
2.38125
100
AcDbArc
 50
193.81839
 51
216.5697209999999
  0
ARC
  5
F141
330
EED9
100
AcDbEntity
  8
1
  6
Continuous
100
AcDbCircle
 10
579.35
 20
460.81875
 30
0.0
 40
2.38125
100
AcDbArc
 50
323.430279
 51
346.18161
  0
ARC
  5
F142
330
EED9
100
AcDbEntity
  8
1
  6
Continuous
100
AcDbCircle
 10
591.85
 20
460.81875
 30
0.0
 40
2.38125
100
AcDbArc
 50
158.3347039999999
 51
181.6544389999999
  0
ARC
  5
F143
330
EED9
100
AcDbEntity
  8
1
  6
Continuous
100
AcDbCircle
 10
591.85
 20
460.81875
 30
0.0
 40
2.38125
100
AcDbArc
 50
193.81839
 51
216.5697209999999
  0
LINE
  5
F144
330
EED9
100
AcDbEntity
  8
1
  6
Continuous
100
AcDbLine
 10
586.6
 20
460.7499999999998
 30
0.0
 11
586.6
 21
459.4
 31
0.0
  0
ARC
  5
F145
330
EED9
100
AcDbEntity
  8
1
  6
Continuous
100
AcDbCircle
 10
566.85
 20
460.81875
 30
0.0
 40
2.38125
100
AcDbArc
 50
158.3347039999999
 51
181.6544389999999
  0
ARC
  5
F146
330
EED9
100
AcDbEntity
  8
1
  6
Continuous
100
AcDbCircle
 10
566.85
 20
460.81875
 30
0.0
 40
2.38125
100
AcDbArc
 50
193.81839
 51
216.5697209999999
  0
LINE
  5
F147
330
EED9
100
AcDbEntity
  8
1
  6
Continuous
100
AcDbLine
 10
561.6
 20
460.7499999999998
 30
0.0
 11
561.6
 21
459.4
 31
0.0
  0
LINE
  5
F148
330
EED9
100
AcDbEntity
  8
1
  6
Continuous
100
AcDbLine
 10
559.6
 20
460.7499999999998
 30
0.0
 11
559.6
 21
459.4
 31
0.0
  0
ARC
  5
F149
330
EED9
100
AcDbEntity
  8
1
  6
Continuous
100
AcDbCircle
 10
566.85
 20
460.81875
 30
0.0
 40
2.38125
100
AcDbArc
 50
358.3455609999999
 51
21.665296
  0
LINE
  5
F14A
330
EED9
100
AcDbEntity
  8
1
  6
Continuous
100
AcDbLine
 10
574.1
 20
460.7499999999998
 30
0.0
 11
574.1
 21
459.4
 31
0.0
  0
ARC
  5
F14B
330
EED9
100
AcDbEntity
  8
1
  6
Continuous
100
AcDbCircle
 10
566.85
 20
460.81875
 30
0.0
 40
2.38125
100
AcDbArc
 50
323.430279
 51
346.18161
  0
LINE
  5
F14C
330
EED9
100
AcDbEntity
  8
1
  6
Continuous
100
AcDbLine
 10
572.1
 20
460.7499999999998
 30
0.0
 11
572.1
 21
459.4
 31
0.0
  0
LINE
  5
F14D
330
EED9
100
AcDbEntity
  8
1
  6
Continuous
100
AcDbLine
 10
572.1
 20
460.25
 30
0.0
 11
561.6
 21
460.25
 31
0.0
  0
LINE
  5
F14E
330
EED9
100
AcDbEntity
  8
1
  6
Continuous
100
AcDbLine
 10
572.1
 20
460.7499999999998
 30
0.0
 11
561.6
 21
460.7499999999998
 31
0.0
  0
LINE
  5
F14F
330
EED9
100
AcDbEntity
  8
4
  6
CENTER
100
AcDbLine
 10
584.7999999999998
 20
441.8999999999998
 30
0.0
 11
584.7999999999998
 21
452.4
 31
0.0
  0
LINE
  5
F150
330
EED9
100
AcDbEntity
  8
1
  6
Continuous
100
AcDbLine
 10
597.1
 20
433.55
 30
0.0
 11
586.6
 21
433.55
 31
0.0
  0
LINE
  5
F151
330
EED9
100
AcDbEntity
  8
1
  6
Continuous
100
AcDbLine
 10
597.1
 20
434.05
 30
0.0
 11
586.6
 21
434.05
 31
0.0
  0
LINE
  5
F152
330
EED9
100
AcDbEntity
  8
1
  6
Continuous
100
AcDbLine
 10
609.6
 20
434.05
 30
0.0
 11
599.1
 21
434.05
 31
0.0
  0
LINE
  5
F153
330
EED9
100
AcDbEntity
  8
1
  6
Continuous
100
AcDbLine
 10
609.6
 20
433.55
 30
0.0
 11
599.1
 21
433.55
 31
0.0
  0
ARC
  5
F154
330
EED9
100
AcDbEntity
  8
1
  6
Continuous
100
AcDbCircle
 10
616.85
 20
433.4812499999999
 30
0.0
 40
2.38125
100
AcDbArc
 50
178.345561
 51
201.6652959999999
  0
ARC
  5
F155
330
EED9
100
AcDbEntity
  8
1
  6
Continuous
100
AcDbCircle
 10
616.85
 20
433.4812499999999
 30
0.0
 40
2.38125
100
AcDbArc
 50
338.3347039999998
 51
1.654438999999999
  0
LINE
  5
F156
330
EED9
100
AcDbEntity
  8
1
  6
Continuous
100
AcDbLine
 10
622.1
 20
433.55
 30
0.0
 11
611.6
 21
433.55
 31
0.0
  0
LINE
  5
F157
330
EED9
100
AcDbEntity
  8
1
  6
Continuous
100
AcDbLine
 10
622.1
 20
434.05
 30
0.0
 11
611.6
 21
434.05
 31
0.0
  0
ARC
  5
F158
330
EED9
100
AcDbEntity
  8
1
  6
Continuous
100
AcDbCircle
 10
591.85
 20
433.4812499999999
 30
0.0
 40
2.38125
100
AcDbArc
 50
338.3347039999998
 51
1.654438999999999
  0
ARC
  5
F159
330
EED9
100
AcDbEntity
  8
1
  6
Continuous
100
AcDbCircle
 10
604.35
 20
433.4812499999999
 30
0.0
 40
2.38125
100
AcDbArc
 50
178.345561
 51
201.6652959999999
  0
ARC
  5
F15A
330
EED9
100
AcDbEntity
  8
1
  6
Continuous
100
AcDbCircle
 10
604.35
 20
433.4812499999999
 30
0.0
 40
2.38125
100
AcDbArc
 50
338.3347039999998
 51
1.654438999999999
  0
LINE
  5
F15B
330
EED9
100
AcDbEntity
  8
1
  6
Continuous
100
AcDbLine
 10
584.6
 20
434.05
 30
0.0
 11
574.1
 21
434.05
 31
0.0
  0
LINE
  5
F15C
330
EED9
100
AcDbEntity
  8
1
  6
Continuous
100
AcDbLine
 10
584.6
 20
433.55
 30
0.0
 11
574.1
 21
433.55
 31
0.0
  0
ARC
  5
F15D
330
EED9
100
AcDbEntity
  8
1
  6
Continuous
100
AcDbCircle
 10
579.35
 20
433.4812499999999
 30
0.0
 40
2.38125
100
AcDbArc
 50
178.345561
 51
201.6652959999999
  0
ARC
  5
F15E
330
EED9
100
AcDbEntity
  8
1
  6
Continuous
100
AcDbCircle
 10
579.35
 20
433.4812499999999
 30
0.0
 40
2.38125
100
AcDbArc
 50
338.3347039999998
 51
1.654438999999999
  0
ARC
  5
F15F
330
EED9
100
AcDbEntity
  8
1
  6
Continuous
100
AcDbCircle
 10
591.85
 20
433.4812499999999
 30
0.0
 40
2.38125
100
AcDbArc
 50
178.345561
 51
201.6652959999999
  0
ARC
  5
F160
330
EED9
100
AcDbEntity
  8
1
  6
Continuous
100
AcDbCircle
 10
566.85
 20
433.4812499999999
 30
0.0
 40
2.38125
100
AcDbArc
 50
178.345561
 51
201.6652959999999
  0
ARC
  5
F161
330
EED9
100
AcDbEntity
  8
1
  6
Continuous
100
AcDbCircle
 10
566.85
 20
433.4812499999999
 30
0.0
 40
2.38125
100
AcDbArc
 50
338.3347039999998
 51
1.654438999999999
  0
LINE
  5
F162
330
EED9
100
AcDbEntity
  8
1
  6
Continuous
100
AcDbLine
 10
572.1
 20
433.55
 30
0.0
 11
561.6
 21
433.55
 31
0.0
  0
LINE
  5
F163
330
EED9
100
AcDbEntity
  8
1
  6
Continuous
100
AcDbLine
 10
572.1
 20
434.05
 30
0.0
 11
561.6
 21
434.05
 31
0.0
  0
LINE
  5
F164
330
EED9
100
AcDbEntity
  8
1
  6
Continuous
100
AcDbLine
 10
497.1
 20
433.55
 30
0.0
 11
497.1
 21
434.9
 31
0.0
  0
ARC
  5
F165
330
EED9
100
AcDbEntity
  8
1
  6
Continuous
100
AcDbCircle
 10
491.85
 20
433.4812499999999
 30
0.0
 40
2.38125
100
AcDbArc
 50
13.81839
 51
36.569721
  0
LINE
  5
F166
330
EED9
100
AcDbEntity
  8
1
  6
Continuous
100
AcDbLine
 10
499.1
 20
433.55
 30
0.0
 11
499.1
 21
434.9
 31
0.0
  0
ARC
  5
F167
330
EED9
100
AcDbEntity
  8
1
  6
Continuous
100
AcDbCircle
 10
504.35
 20
433.4812499999999
 30
0.0
 40
2.38125
100
AcDbArc
 50
143.430279
 51
166.18161
  0
ARC
  5
F168
330
EED9
100
AcDbEntity
  8
1
  6
Continuous
100
AcDbCircle
 10
504.35
 20
433.4812499999999
 30
0.0
 40
2.38125
100
AcDbArc
 50
13.81839
 51
36.569721
  0
LINE
  5
F169
330
EED9
100
AcDbEntity
  8
1
  6
Continuous
100
AcDbLine
 10
509.6
 20
433.55
 30
0.0
 11
509.6
 21
434.9
 31
0.0
  0
LINE
  5
F16A
330
EED9
100
AcDbEntity
  8
1
  6
Continuous
100
AcDbLine
 10
522.1
 20
433.55
 30
0.0
 11
522.1
 21
434.9
 31
0.0
  0
ARC
  5
F16B
330
EED9
100
AcDbEntity
  8
1
  6
Continuous
100
AcDbCircle
 10
516.85
 20
433.4812499999999
 30
0.0
 40
2.38125
100
AcDbArc
 50
13.81839
 51
36.569721
  0
LINE
  5
F16C
330
EED9
100
AcDbEntity
  8
1
  6
Continuous
100
AcDbLine
 10
511.6
 20
433.55
 30
0.0
 11
511.6
 21
434.9
 31
0.0
  0
ARC
  5
F16D
330
EED9
100
AcDbEntity
  8
1
  6
Continuous
100
AcDbCircle
 10
516.85
 20
433.4812499999999
 30
0.0
 40
2.38125
100
AcDbArc
 50
143.430279
 51
166.18161
  0
ARC
  5
F16E
330
EED9
100
AcDbEntity
  8
1
  6
Continuous
100
AcDbCircle
 10
529.35
 20
433.4812499999999
 30
0.0
 40
2.38125
100
AcDbArc
 50
143.430279
 51
166.18161
  0
LINE
  5
F16F
330
EED9
100
AcDbEntity
  8
1
  6
Continuous
100
AcDbLine
 10
524.1
 20
433.55
 30
0.0
 11
524.1
 21
434.9
 31
0.0
  0
ARC
  5
F170
330
EED9
100
AcDbEntity
  8
1
  6
Continuous
100
AcDbCircle
 10
529.35
 20
433.4812499999999
 30
0.0
 40
2.38125
100
AcDbArc
 50
13.81839
 51
36.569721
  0
LINE
  5
F171
330
EED9
100
AcDbEntity
  8
1
  6
Continuous
100
AcDbLine
 10
534.6
 20
433.55
 30
0.0
 11
534.6
 21
434.9
 31
0.0
  0
LINE
  5
F172
330
EED9
100
AcDbEntity
  8
1
  6
Continuous
100
AcDbLine
 10
547.1
 20
433.55
 30
0.0
 11
547.1
 21
434.9
 31
0.0
  0
ARC
  5
F173
330
EED9
100
AcDbEntity
  8
1
  6
Continuous
100
AcDbCircle
 10
541.85
 20
433.4812499999999
 30
0.0
 40
2.38125
100
AcDbArc
 50
13.81839
 51
36.569721
  0
LINE
  5
F174
330
EED9
100
AcDbEntity
  8
1
  6
Continuous
100
AcDbLine
 10
536.6
 20
433.55
 30
0.0
 11
536.6
 21
434.9
 31
0.0
  0
ARC
  5
F175
330
EED9
100
AcDbEntity
  8
1
  6
Continuous
100
AcDbCircle
 10
541.85
 20
433.4812499999999
 30
0.0
 40
2.38125
100
AcDbArc
 50
143.430279
 51
166.18161
  0
ARC
  5
F176
330
EED9
100
AcDbEntity
  8
1
  6
Continuous
100
AcDbCircle
 10
554.35
 20
433.4812499999999
 30
0.0
 40
2.38125
100
AcDbArc
 50
143.430279
 51
166.18161
  0
LINE
  5
F177
330
EED9
100
AcDbEntity
  8
1
  6
Continuous
100
AcDbLine
 10
549.1
 20
433.55
 30
0.0
 11
549.1
 21
434.9
 31
0.0
  0
ARC
  5
F178
330
EED9
100
AcDbEntity
  8
1
  6
Continuous
100
AcDbCircle
 10
554.35
 20
433.4812499999999
 30
0.0
 40
2.38125
100
AcDbArc
 50
13.81839
 51
36.569721
  0
LINE
  5
F179
330
EED9
100
AcDbEntity
  8
1
  6
Continuous
100
AcDbLine
 10
547.1
 20
460.25
 30
0.0
 11
536.6
 21
460.25
 31
0.0
  0
LINE
  5
F17A
330
EED9
100
AcDbEntity
  8
1
  6
Continuous
100
AcDbLine
 10
547.1
 20
460.7499999999998
 30
0.0
 11
536.6
 21
460.7499999999998
 31
0.0
  0
ARC
  5
F17B
330
EED9
100
AcDbEntity
  8
1
  6
Continuous
100
AcDbCircle
 10
541.85
 20
460.81875
 30
0.0
 40
2.38125
100
AcDbArc
 50
358.3455609999999
 51
21.665296
  0
LINE
  5
F17C
330
EED9
100
AcDbEntity
  8
1
  6
Continuous
100
AcDbLine
 10
549.1
 20
460.7499999999998
 30
0.0
 11
549.1
 21
459.4
 31
0.0
  0
ARC
  5
F17D
330
EED9
100
AcDbEntity
  8
1
  6
Continuous
100
AcDbCircle
 10
541.85
 20
460.81875
 30
0.0
 40
2.38125
100
AcDbArc
 50
323.430279
 51
346.18161
  0
LINE
  5
F17E
330
EED9
100
AcDbEntity
  8
1
  6
Continuous
100
AcDbLine
 10
547.1
 20
460.7499999999998
 30
0.0
 11
547.1
 21
459.4
 31
0.0
  0
ARC
  5
F17F
330
EED9
100
AcDbEntity
  8
1
  6
Continuous
100
AcDbCircle
 10
554.35
 20
460.81875
 30
0.0
 40
2.38125
100
AcDbArc
 50
358.3455609999999
 51
21.665296
  0
ARC
  5
F180
330
EED9
100
AcDbEntity
  8
1
  6
Continuous
100
AcDbCircle
 10
554.35
 20
460.81875
 30
0.0
 40
2.38125
100
AcDbArc
 50
158.3347039999999
 51
181.6544389999999
  0
ARC
  5
F181
330
EED9
100
AcDbEntity
  8
1
  6
Continuous
100
AcDbCircle
 10
554.35
 20
460.81875
 30
0.0
 40
2.38125
100
AcDbArc
 50
323.430279
 51
346.18161
  0
ARC
  5
F182
330
EED9
100
AcDbEntity
  8
1
  6
Continuous
100
AcDbCircle
 10
554.35
 20
460.81875
 30
0.0
 40
2.38125
100
AcDbArc
 50
193.81839
 51
216.5697209999999
  0
ARC
  5
F183
330
EED9
100
AcDbEntity
  8
1
  6
Continuous
100
AcDbCircle
 10
529.35
 20
460.81875
 30
0.0
 40
2.38125
100
AcDbArc
 50
358.3455609999999
 51
21.665296
  0
ARC
  5
F184
330
EED9
100
AcDbEntity
  8
1
  6
Continuous
100
AcDbCircle
 10
529.35
 20
460.81875
 30
0.0
 40
2.38125
100
AcDbArc
 50
158.3347039999999
 51
181.6544389999999
  0
LINE
  5
F185
330
EED9
100
AcDbEntity
  8
1
  6
Continuous
100
AcDbLine
 10
534.6
 20
460.7499999999998
 30
0.0
 11
524.1
 21
460.7499999999998
 31
0.0
  0
LINE
  5
F186
330
EED9
100
AcDbEntity
  8
1
  6
Continuous
100
AcDbLine
 10
534.6
 20
460.25
 30
0.0
 11
524.1
 21
460.25
 31
0.0
  0
LINE
  5
F187
330
EED9
100
AcDbEntity
  8
1
  6
Continuous
100
AcDbLine
 10
534.6
 20
460.7499999999998
 30
0.0
 11
534.6
 21
459.4
 31
0.0
  0
ARC
  5
F188
330
EED9
100
AcDbEntity
  8
1
  6
Continuous
100
AcDbCircle
 10
529.35
 20
460.81875
 30
0.0
 40
2.38125
100
AcDbArc
 50
323.430279
 51
346.18161
  0
LINE
  5
F189
330
EED9
100
AcDbEntity
  8
1
  6
Continuous
100
AcDbLine
 10
524.1
 20
460.7499999999998
 30
0.0
 11
524.1
 21
459.4
 31
0.0
  0
ARC
  5
F18A
330
EED9
100
AcDbEntity
  8
1
  6
Continuous
100
AcDbCircle
 10
529.35
 20
460.81875
 30
0.0
 40
2.38125
100
AcDbArc
 50
193.81839
 51
216.5697209999999
  0
ARC
  5
F18B
330
EED9
100
AcDbEntity
  8
1
  6
Continuous
100
AcDbCircle
 10
541.85
 20
460.81875
 30
0.0
 40
2.38125
100
AcDbArc
 50
158.3347039999999
 51
181.6544389999999
  0
ARC
  5
F18C
330
EED9
100
AcDbEntity
  8
1
  6
Continuous
100
AcDbCircle
 10
541.85
 20
460.81875
 30
0.0
 40
2.38125
100
AcDbArc
 50
193.81839
 51
216.5697209999999
  0
LINE
  5
F18D
330
EED9
100
AcDbEntity
  8
1
  6
Continuous
100
AcDbLine
 10
536.6
 20
460.7499999999998
 30
0.0
 11
536.6
 21
459.4
 31
0.0
  0
LINE
  5
F18E
330
EED9
100
AcDbEntity
  8
1
  6
Continuous
100
AcDbLine
 10
421.6999999999998
 20
437.0625
 30
0.0
 11
421.6999999999998
 21
457.2375
 31
0.0
  0
LINE
  5
F18F
330
EED9
100
AcDbEntity
  8
1
  6
Continuous
100
AcDbLine
 10
509.6
 20
460.7499999999998
 30
0.0
 11
499.1
 21
460.7499999999998
 31
0.0
  0
LINE
  5
F190
330
EED9
100
AcDbEntity
  8
1
  6
Continuous
100
AcDbLine
 10
509.6
 20
460.25
 30
0.0
 11
499.1
 21
460.25
 31
0.0
  0
ARC
  5
F191
330
EED9
100
AcDbEntity
  8
1
  6
Continuous
100
AcDbCircle
 10
516.85
 20
460.81875
 30
0.0
 40
2.38125
100
AcDbArc
 50
158.3347039999999
 51
181.6544389999999
  0
ARC
  5
F192
330
EED9
100
AcDbEntity
  8
1
  6
Continuous
100
AcDbCircle
 10
516.85
 20
460.81875
 30
0.0
 40
2.38125
100
AcDbArc
 50
193.81839
 51
216.5697209999999
  0
LINE
  5
F193
330
EED9
100
AcDbEntity
  8
1
  6
Continuous
100
AcDbLine
 10
511.6
 20
460.7499999999998
 30
0.0
 11
511.6
 21
459.4
 31
0.0
  0
LINE
  5
F194
330
EED9
100
AcDbEntity
  8
1
  6
Continuous
100
AcDbLine
 10
509.6
 20
460.7499999999998
 30
0.0
 11
509.6
 21
459.4
 31
0.0
  0
ARC
  5
F195
330
EED9
100
AcDbEntity
  8
1
  6
Continuous
100
AcDbCircle
 10
516.85
 20
460.81875
 30
0.0
 40
2.38125
100
AcDbArc
 50
358.3455609999999
 51
21.665296
  0
ARC
  5
F196
330
EED9
100
AcDbEntity
  8
1
  6
Continuous
100
AcDbCircle
 10
516.85
 20
460.81875
 30
0.0
 40
2.38125
100
AcDbArc
 50
323.430279
 51
346.18161
  0
LINE
  5
F197
330
EED9
100
AcDbEntity
  8
1
  6
Continuous
100
AcDbLine
 10
522.1
 20
460.7499999999998
 30
0.0
 11
522.1
 21
459.4
 31
0.0
  0
LINE
  5
F198
330
EED9
100
AcDbEntity
  8
1
  6
Continuous
100
AcDbLine
 10
522.1
 20
460.25
 30
0.0
 11
511.6
 21
460.25
 31
0.0
  0
LINE
  5
F199
330
EED9
100
AcDbEntity
  8
1
  6
Continuous
100
AcDbLine
 10
522.1
 20
460.7499999999998
 30
0.0
 11
511.6
 21
460.7499999999998
 31
0.0
  0
ARC
  5
F19A
330
EED9
100
AcDbEntity
  8
1
  6
Continuous
100
AcDbCircle
 10
491.85
 20
460.81875
 30
0.0
 40
2.38125
100
AcDbArc
 50
358.3455609999999
 51
21.665296
  0
LINE
  5
F19B
330
EED9
100
AcDbEntity
  8
1
  6
Continuous
100
AcDbLine
 10
499.1
 20
460.7499999999998
 30
0.0
 11
499.1
 21
459.4
 31
0.0
  0
ARC
  5
F19C
330
EED9
100
AcDbEntity
  8
1
  6
Continuous
100
AcDbCircle
 10
491.85
 20
460.81875
 30
0.0
 40
2.38125
100
AcDbArc
 50
323.430279
 51
346.18161
  0
LINE
  5
F19D
330
EED9
100
AcDbEntity
  8
1
  6
Continuous
100
AcDbLine
 10
497.1
 20
460.7499999999998
 30
0.0
 11
497.1
 21
459.4
 31
0.0
  0
ARC
  5
F19E
330
EED9
100
AcDbEntity
  8
1
  6
Continuous
100
AcDbCircle
 10
504.35
 20
460.81875
 30
0.0
 40
2.38125
100
AcDbArc
 50
358.3455609999999
 51
21.665296
  0
ARC
  5
F19F
330
EED9
100
AcDbEntity
  8
1
  6
Continuous
100
AcDbCircle
 10
504.35
 20
460.81875
 30
0.0
 40
2.38125
100
AcDbArc
 50
158.3347039999999
 51
181.6544389999999
  0
ARC
  5
F1A0
330
EED9
100
AcDbEntity
  8
1
  6
Continuous
100
AcDbCircle
 10
504.35
 20
460.81875
 30
0.0
 40
2.38125
100
AcDbArc
 50
323.430279
 51
346.18161
  0
ARC
  5
F1A1
330
EED9
100
AcDbEntity
  8
1
  6
Continuous
100
AcDbCircle
 10
504.35
 20
460.81875
 30
0.0
 40
2.38125
100
AcDbArc
 50
193.81839
 51
216.5697209999999
  0
CIRCLE
  5
F1A2
330
EED9
100
AcDbEntity
  8
1
  6
Continuous
100
AcDbCircle
 10
408.6999999999998
 20
447.1499999999998
 30
0.0
 40
3.5
  0
LINE
  5
F1A3
330
EED9
100
AcDbEntity
  8
4
  6
CENTER
100
AcDbLine
 10
408.6999999999998
 20
440.65
 30
0.0
 11
408.6999999999998
 21
453.65
 31
0.0
  0
LINE
  5
F1A4
330
EED9
100
AcDbEntity
  8
4
  6
CENTER
100
AcDbLine
 10
499.1
 20
441.8999999999998
 30
0.0
 11
499.1
 21
452.4
 31
0.0
  0
LINE
  5
F1A5
330
EED9
100
AcDbEntity
  8
1
  6
Continuous
100
AcDbLine
 10
547.1
 20
433.55
 30
0.0
 11
536.6
 21
433.55
 31
0.0
  0
LINE
  5
F1A6
330
EED9
100
AcDbEntity
  8
1
  6
Continuous
100
AcDbLine
 10
547.1
 20
434.05
 30
0.0
 11
536.6
 21
434.05
 31
0.0
  0
ARC
  5
F1A7
330
EED9
100
AcDbEntity
  8
1
  6
Continuous
100
AcDbCircle
 10
541.85
 20
433.4812499999999
 30
0.0
 40
2.38125
100
AcDbArc
 50
338.3347039999998
 51
1.654438999999999
  0
ARC
  5
F1A8
330
EED9
100
AcDbEntity
  8
1
  6
Continuous
100
AcDbCircle
 10
554.35
 20
433.4812499999999
 30
0.0
 40
2.38125
100
AcDbArc
 50
178.345561
 51
201.6652959999999
  0
ARC
  5
F1A9
330
EED9
100
AcDbEntity
  8
1
  6
Continuous
100
AcDbCircle
 10
554.35
 20
433.4812499999999
 30
0.0
 40
2.38125
100
AcDbArc
 50
338.3347039999998
 51
1.654438999999999
  0
LINE
  5
F1AA
330
EED9
100
AcDbEntity
  8
1
  6
Continuous
100
AcDbLine
 10
534.6
 20
434.05
 30
0.0
 11
524.1
 21
434.05
 31
0.0
  0
LINE
  5
F1AB
330
EED9
100
AcDbEntity
  8
1
  6
Continuous
100
AcDbLine
 10
534.6
 20
433.55
 30
0.0
 11
524.1
 21
433.55
 31
0.0
  0
ARC
  5
F1AC
330
EED9
100
AcDbEntity
  8
1
  6
Continuous
100
AcDbCircle
 10
529.35
 20
433.4812499999999
 30
0.0
 40
2.38125
100
AcDbArc
 50
178.345561
 51
201.6652959999999
  0
ARC
  5
F1AD
330
EED9
100
AcDbEntity
  8
1
  6
Continuous
100
AcDbCircle
 10
529.35
 20
433.4812499999999
 30
0.0
 40
2.38125
100
AcDbArc
 50
338.3347039999998
 51
1.654438999999999
  0
ARC
  5
F1AE
330
EED9
100
AcDbEntity
  8
1
  6
Continuous
100
AcDbCircle
 10
541.85
 20
433.4812499999999
 30
0.0
 40
2.38125
100
AcDbArc
 50
178.345561
 51
201.6652959999999
  0
LINE
  5
F1AF
330
EED9
100
AcDbEntity
  8
1
  6
Continuous
100
AcDbLine
 10
509.6
 20
434.05
 30
0.0
 11
499.1
 21
434.05
 31
0.0
  0
LINE
  5
F1B0
330
EED9
100
AcDbEntity
  8
1
  6
Continuous
100
AcDbLine
 10
509.6
 20
433.55
 30
0.0
 11
499.1
 21
433.55
 31
0.0
  0
ARC
  5
F1B1
330
EED9
100
AcDbEntity
  8
1
  6
Continuous
100
AcDbCircle
 10
516.85
 20
433.4812499999999
 30
0.0
 40
2.38125
100
AcDbArc
 50
178.345561
 51
201.6652959999999
  0
ARC
  5
F1B2
330
EED9
100
AcDbEntity
  8
1
  6
Continuous
100
AcDbCircle
 10
516.85
 20
433.4812499999999
 30
0.0
 40
2.38125
100
AcDbArc
 50
338.3347039999998
 51
1.654438999999999
  0
LINE
  5
F1B3
330
EED9
100
AcDbEntity
  8
1
  6
Continuous
100
AcDbLine
 10
522.1
 20
433.55
 30
0.0
 11
511.6
 21
433.55
 31
0.0
  0
LINE
  5
F1B4
330
EED9
100
AcDbEntity
  8
1
  6
Continuous
100
AcDbLine
 10
522.1
 20
434.05
 30
0.0
 11
511.6
 21
434.05
 31
0.0
  0
ARC
  5
F1B5
330
EED9
100
AcDbEntity
  8
1
  6
Continuous
100
AcDbCircle
 10
491.85
 20
433.4812499999999
 30
0.0
 40
2.38125
100
AcDbArc
 50
338.3347039999998
 51
1.654438999999999
  0
ARC
  5
F1B6
330
EED9
100
AcDbEntity
  8
1
  6
Continuous
100
AcDbCircle
 10
504.35
 20
433.4812499999999
 30
0.0
 40
2.38125
100
AcDbArc
 50
178.345561
 51
201.6652959999999
  0
ARC
  5
F1B7
330
EED9
100
AcDbEntity
  8
1
  6
Continuous
100
AcDbCircle
 10
504.35
 20
433.4812499999999
 30
0.0
 40
2.38125
100
AcDbArc
 50
338.3347039999998
 51
1.654438999999999
  0
LINE
  5
F1B8
330
EED9
100
AcDbEntity
  8
1
  6
Continuous
100
AcDbLine
 10
486.6
 20
433.55
 30
0.0
 11
486.6
 21
434.9
 31
0.0
  0
ARC
  5
F1B9
330
EED9
100
AcDbEntity
  8
1
  6
Continuous
100
AcDbCircle
 10
491.85
 20
433.4812499999999
 30
0.0
 40
2.38125
100
AcDbArc
 50
143.430279
 51
166.18161
  0
LINE
  5
F1BA
330
EED9
100
AcDbEntity
  8
3
  6
DASHED
100
AcDbLine
 10
386.6999999999999
 20
434.9
 30
0.0
 11
386.6999999999999
 21
459.4
 31
0.0
  0
LINE
  5
F1BB
330
EED9
100
AcDbEntity
  8
1
  6
Continuous
100
AcDbLine
 10
383.6999999999999
 20
434.9
 30
0.0
 11
383.6999999999999
 21
459.4
 31
0.0
  0
ARC
  5
F1BC
330
EED9
100
AcDbEntity
  8
1
  6
Continuous
100
AcDbCircle
 10
491.85
 20
460.81875
 30
0.0
 40
2.38125
100
AcDbArc
 50
158.3347039999999
 51
181.6544389999999
  0
ARC
  5
F1BD
330
EED9
100
AcDbEntity
  8
1
  6
Continuous
100
AcDbCircle
 10
491.85
 20
460.81875
 30
0.0
 40
2.38125
100
AcDbArc
 50
193.81839
 51
216.5697209999999
  0
LINE
  5
F1BE
330
EED9
100
AcDbEntity
  8
1
  6
Continuous
100
AcDbLine
 10
486.6
 20
460.7499999999998
 30
0.0
 11
486.6
 21
459.4
 31
0.0
  0
LINE
  5
F1BF
330
EED9
100
AcDbEntity
  8
1
  6
Continuous
100
AcDbLine
 10
258.1999999999998
 20
449.3999999999998
 30
0.0
 11
257.3999999999999
 21
449.3999999999998
 31
0.0
  0
LINE
  5
F1C0
330
EED9
100
AcDbEntity
  8
4
  6
CENTER
100
AcDbLine
 10
257.8
 20
441.8999999999998
 30
0.0
 11
257.8
 21
452.4
 31
0.0
  0
LINE
  5
F1C1
330
EED9
100
AcDbEntity
  8
1
  6
Continuous
100
AcDbLine
 10
258.1999999999998
 20
444.8999999999998
 30
0.0
 11
257.3999999999999
 21
444.8999999999998
 31
0.0
  0
ARC
  5
F1C2
330
EED9
100
AcDbEntity
  8
1
  6
Continuous
100
AcDbCircle
 10
258.1999999999998
 20
447.1499999999998
 30
0.0
 40
2.25
100
AcDbArc
 50
270.0
 51
90.0
  0
ARC
  5
F1C3
330
EED9
100
AcDbEntity
  8
1
  6
Continuous
100
AcDbCircle
 10
257.3999999999999
 20
447.1499999999998
 30
0.0
 40
2.25
100
AcDbArc
 50
90.0
 51
270.0
  0
ARC
  5
F1C4
330
EED9
100
AcDbEntity
  8
1
  6
Continuous
100
AcDbCircle
 10
491.85
 20
433.4812499999999
 30
0.0
 40
2.38125
100
AcDbArc
 50
178.345561
 51
201.6652959999999
  0
LINE
  5
F1C5
330
EED9
100
AcDbEntity
  8
1
  6
Continuous
100
AcDbLine
 10
120.3289909999998
 20
434.3368169999997
 30
0.0
 11
118.453284
 21
432.0049759999998
 31
0.0
  0
ARC
  5
F1C6
330
EED9
100
AcDbEntity
  8
1
  6
Continuous
100
AcDbCircle
 10
119.7
 20
434.842771
 30
0.0
 40
0.8072289999999997
100
AcDbArc
 50
321.187185
 51
90.0
  0
ARC
  5
F1C7
330
EED9
100
AcDbEntity
  8
1
  6
Continuous
100
AcDbCircle
 10
119.7
 20
459.457229
 30
0.0
 40
0.8072289999999997
100
AcDbArc
 50
270.0
 51
38.812815
  0
ARC
  5
F1C8
330
EED9
100
AcDbEntity
  8
1
  6
Continuous
100
AcDbCircle
 10
146.6999999999998
 20
446.75
 30
0.0
 40
2.25
100
AcDbArc
 50
180.0
 51
0.0
  0
ARC
  5
F1C9
330
EED9
100
AcDbEntity
  8
1
  6
Continuous
100
AcDbCircle
 10
146.6999999999998
 20
447.55
 30
0.0
 40
2.25
100
AcDbArc
 50
0.0
 51
180.0
  0
LINE
  5
F1CA
330
EED9
100
AcDbEntity
  8
4
  6
CENTER
100
AcDbLine
 10
146.6999999999998
 20
441.8999999999998
 30
0.0
 11
146.6999999999998
 21
452.4
 31
0.0
  0
LINE
  5
F1CB
330
EED9
100
AcDbEntity
  8
1
  6
Continuous
100
AcDbLine
 10
144.4499999999998
 20
446.75
 30
0.0
 11
144.4499999999998
 21
447.55
 31
0.0
  0
LINE
  5
F1CC
330
EED9
100
AcDbEntity
  8
1
  6
Continuous
100
AcDbLine
 10
148.9499999999999
 20
446.75
 30
0.0
 11
148.9499999999999
 21
447.55
 31
0.0
  0
LINE
  5
F1CD
330
EED9
100
AcDbEntity
  8
1
  6
Continuous
100
AcDbLine
 10
131.75
 20
446.75
 30
0.0
 11
131.75
 21
447.55
 31
0.0
  0
LINE
  5
F1CE
330
EED9
100
AcDbEntity
  8
4
  6
CENTER
100
AcDbLine
 10
134.0
 20
441.8999999999998
 30
0.0
 11
134.0
 21
452.4
 31
0.0
  0
LINE
  5
F1CF
330
EED9
100
AcDbEntity
  8
1
  6
Continuous
100
AcDbLine
 10
136.25
 20
446.75
 30
0.0
 11
136.25
 21
447.55
 31
0.0
  0
ARC
  5
F1D0
330
EED9
100
AcDbEntity
  8
1
  6
Continuous
100
AcDbCircle
 10
134.0
 20
446.75
 30
0.0
 40
2.25
100
AcDbArc
 50
180.0
 51
0.0
  0
ARC
  5
F1D1
330
EED9
100
AcDbEntity
  8
1
  6
Continuous
100
AcDbCircle
 10
134.0
 20
447.55
 30
0.0
 40
2.25
100
AcDbArc
 50
0.0
 51
180.0
  0
LINE
  5
F1D2
330
EED9
100
AcDbEntity
  8
1
  6
Continuous
100
AcDbLine
 10
118.1
 20
458.65
 30
0.0
 11
118.1
 21
435.6499999999998
 31
0.0
  0
LINE
  5
F1D3
330
EED9
100
AcDbEntity
  8
1
  6
Continuous
100
AcDbLine
 10
119.7
 20
458.65
 30
0.0
 11
119.7
 21
435.6499999999998
 31
0.0
  0
LINE
  5
F1D4
330
EED9
100
AcDbEntity
  8
1
  6
Continuous
100
AcDbLine
 10
118.1
 20
464.8
 30
0.0
 11
118.1
 21
463.2978689999998
 31
0.0
  0
LINE
  5
F1D5
330
EED9
100
AcDbEntity
  8
1
  6
Continuous
100
AcDbLine
 10
120.3289909999998
 20
459.9631829999998
 30
0.0
 11
118.453284
 21
462.295024
 31
0.0
  0
ARC
  5
F1D6
330
EED9
100
AcDbEntity
  8
1
  6
Continuous
100
AcDbCircle
 10
119.7
 20
463.8885629999998
 30
0.0
 40
1.6
100
AcDbArc
 50
180.0
 51
270.0
  0
ARC
  5
F1D7
330
EED9
100
AcDbEntity
  8
1
  6
Continuous
100
AcDbCircle
 10
119.7
 20
463.2978689999998
 30
0.0
 40
1.6
100
AcDbArc
 50
180.0
 51
270.0
  0
LINE
  5
F1D8
330
EED9
100
AcDbEntity
  8
1
  6
Continuous
100
AcDbLine
 10
119.7
 20
458.65
 30
0.0
 11
118.1
 21
458.65
 31
0.0
  0
LINE
  5
F1D9
330
EED9
100
AcDbEntity
  8
1
  6
Continuous
100
AcDbLine
 10
119.7
 20
435.6499999999998
 30
0.0
 11
118.1
 21
435.6499999999998
 31
0.0
  0
LINE
  5
F1DA
330
EED9
100
AcDbEntity
  8
1
  6
Continuous
100
AcDbLine
 10
118.1
 20
431.0021309999998
 30
0.0
 11
118.1
 21
429.4999999999998
 31
0.0
  0
ARC
  5
F1DB
330
EED9
100
AcDbEntity
  8
1
  6
Continuous
100
AcDbCircle
 10
119.7
 20
431.0021309999998
 30
0.0
 40
1.6
100
AcDbArc
 50
90.0
 51
180.0
  0
ARC
  5
F1DC
330
EED9
100
AcDbEntity
  8
1
  6
Continuous
100
AcDbCircle
 10
119.7
 20
430.4114369999998
 30
0.0
 40
1.6
100
AcDbArc
 50
90.0
 51
180.0
  0
LINE
  5
F1DD
330
EED9
100
AcDbEntity
  8
1
  6
Continuous
100
AcDbLine
 10
626.1
 20
57.1
 30
0.0
 11
890.4999999999999
 21
57.1
 31
0.0
  0
LINE
  5
F1DE
330
EED9
100
AcDbEntity
  8
1
  6
Continuous
100
AcDbLine
 10
386.6999999999999
 20
50.6
 30
0.0
 11
890.4999999999999
 21
50.6
 31
0.0
  0
LINE
  5
F1DF
330
EED9
100
AcDbEntity
  8
1
  6
Continuous
100
AcDbLine
 10
383.6999999999999
 20
50.5
 30
0.0
 11
887.5
 21
50.5
 31
0.0
  0
LINE
  5
F1E0
330
EED9
100
AcDbEntity
  8
1
  6
Continuous
100
AcDbLine
 10
648.1
 20
41.0
 30
0.0
 11
1156.1
 21
41.0
 31
0.0
  0
LINE
  5
F1E1
330
EED9
100
AcDbEntity
  8
1
  6
Continuous
100
AcDbLine
 10
648.1
 20
49.7
 30
0.0
 11
1156.1
 21
49.7
 31
0.0
  0
LINE
  5
F1E2
330
EED9
100
AcDbEntity
  8
3
  6
DASHED
100
AcDbLine
 10
648.1
 20
44.0
 30
0.0
 11
887.5
 21
44.0
 31
0.0
  0
LINE
  5
F1E3
330
EED9
100
AcDbEntity
  8
1
  6
Continuous
100
AcDbLine
 10
626.1
 20
60.1
 30
0.0
 11
626.1
 21
51.4
 31
0.0
  0
LINE
  5
F1E4
330
EED9
100
AcDbEntity
  8
4
  6
CENTER
100
AcDbLine
 10
610.2000000000002
 20
40.566515
 30
0.0
 11
610.2000000000002
 21
65.528309
 31
0.0
  0
LINE
  5
F1E5
330
EED9
100
AcDbEntity
  8
3
  6
DASHED
100
AcDbLine
 10
386.6999999999999
 20
51.4
 30
0.0
 11
386.6999999999999
 21
57.1
 31
0.0
  0
LINE
  5
F1E6
330
EED9
100
AcDbEntity
  8
1
  6
Continuous
100
AcDbLine
 10
118.1
 20
60.1
 30
0.0
 11
118.1
 21
51.4
 31
0.0
  0
LINE
  5
F1E7
330
EED9
100
AcDbEntity
  8
1
  6
Continuous
100
AcDbLine
 10
118.1
 20
60.1
 30
0.0
 11
626.1
 21
60.1
 31
0.0
  0
LINE
  5
F1E8
330
EED9
100
AcDbEntity
  8
4
  6
CENTER
100
AcDbLine
 10
146.6999999999998
 20
55.028309
 30
0.0
 11
146.6999999999998
 21
65.528309
 31
0.0
  0
LINE
  5
F1E9
330
EED9
100
AcDbEntity
  8
4
  6
CENTER
100
AcDbLine
 10
134.0
 20
55.028309
 30
0.0
 11
134.0
 21
65.528309
 31
0.0
  0
LINE
  5
F1EA
330
EED9
100
AcDbEntity
  8
3
  6
DASHED
100
AcDbLine
 10
386.6999999999999
 20
57.1
 30
0.0
 11
626.1
 21
57.1
 31
0.0
  0
LINE
  5
F1EB
330
EED9
100
AcDbEntity
  8
4
  6
CENTER
100
AcDbLine
 10
257.8
 20
55.028309
 30
0.0
 11
257.8
 21
65.528309
 31
0.0
  0
LINE
  5
F1EC
330
EED9
100
AcDbEntity
  8
4
  6
CENTER
100
AcDbLine
 10
499.1
 20
55.028309
 30
0.0
 11
499.1
 21
65.528309
 31
0.0
  0
LINE
  5
F1ED
330
EED9
100
AcDbEntity
  8
4
  6
CENTER
100
AcDbLine
 10
584.7999999999998
 20
55.028309
 30
0.0
 11
584.7999999999998
 21
65.528309
 31
0.0
  0
LINE
  5
F1EE
330
EED9
100
AcDbEntity
  8
4
  6
CENTER
100
AcDbLine
 10
597.5
 20
55.028309
 30
0.0
 11
597.5
 21
65.528309
 31
0.0
  0
LINE
  5
F1EF
330
EED9
100
AcDbEntity
  8
1
  6
Continuous
100
AcDbLine
 10
118.1
 20
51.4
 30
0.0
 11
626.1
 21
51.4
 31
0.0
  0
LINE
  5
F1F0
330
EED9
100
AcDbEntity
  8
1
  6
Continuous
100
AcDbLine
 10
383.6999999999999
 20
44.0
 30
0.0
 11
648.1
 21
44.0
 31
0.0
  0
LINE
  5
F1F1
330
EED9
100
AcDbEntity
  8
1
  6
Continuous
100
AcDbLine
 10
386.6999999999999
 20
50.6
 30
0.0
 11
386.6999999999999
 21
51.4
 31
0.0
  0
LINE
  5
F1F2
330
EED9
100
AcDbEntity
  8
1
  6
Continuous
100
AcDbLine
 10
383.6999999999999
 20
44.0
 30
0.0
 11
383.6999999999999
 21
50.5
 31
0.0
  0
LINE
  5
F1F3
330
EED9
100
AcDbEntity
  8
1
  6
Continuous
100
AcDbLine
 10
648.1
 20
49.7
 30
0.0
 11
648.1
 21
41.0
 31
0.0
  0
LINE
  5
F1F4
330
EED9
100
AcDbEntity
  8
1
  6
Continuous
100
AcDbLine
 10
890.4999999999999
 20
50.6
 30
0.0
 11
890.4999999999999
 21
57.1
 31
0.0
  0
LINE
  5
F1F5
330
EED9
100
AcDbEntity
  8
4
  6
CENTER
100
AcDbLine
 10
664.0
 20
36.504411
 30
0.0
 11
664.0
 21
60.034205
 31
0.0
  0
LINE
  5
F1F6
330
EED9
100
AcDbEntity
  8
4
  6
CENTER
100
AcDbLine
 10
676.7000000000003
 20
36.504411
 30
0.0
 11
676.7000000000003
 21
47.00441099999999
 31
0.0
  0
LINE
  5
F1F7
330
EED9
100
AcDbEntity
  8
4
  6
CENTER
100
AcDbLine
 10
689.4
 20
36.504411
 30
0.0
 11
689.4
 21
47.00441099999999
 31
0.0
  0
LINE
  5
F1F8
330
EED9
100
AcDbEntity
  8
3
  6
DASHED
100
AcDbLine
 10
887.5
 20
44.0
 30
0.0
 11
887.5
 21
49.7
 31
0.0
  0
LINE
  5
F1F9
330
EED9
100
AcDbEntity
  8
4
  6
CENTER
100
AcDbLine
 10
775.1
 20
36.504411
 30
0.0
 11
775.1
 21
47.00441099999999
 31
0.0
  0
LINE
  5
F1FA
330
EED9
100
AcDbEntity
  8
1
  6
Continuous
100
AcDbLine
 10
887.5
 20
49.7
 30
0.0
 11
887.5
 21
50.5
 31
0.0
  0
LINE
  5
F1FB
330
EED9
100
AcDbEntity
  8
4
  6
CENTER
100
AcDbLine
 10
1016.399999999998
 20
36.504411
 30
0.0
 11
1016.399999999998
 21
47.00441099999999
 31
0.0
  0
LINE
  5
F1FC
330
EED9
100
AcDbEntity
  8
4
  6
CENTER
100
AcDbLine
 10
1140.2
 20
36.504411
 30
0.0
 11
1140.2
 21
47.00441099999999
 31
0.0
  0
LINE
  5
F1FD
330
EED9
100
AcDbEntity
  8
4
  6
CENTER
100
AcDbLine
 10
1127.5
 20
36.504411
 30
0.0
 11
1127.5
 21
47.00441099999999
 31
0.0
  0
LINE
  5
F1FE
330
EED9
100
AcDbEntity
  8
1
  6
Continuous
100
AcDbLine
 10
1156.1
 20
49.7
 30
0.0
 11
1156.1
 21
41.0
 31
0.0
  0
LINE
  5
F1FF
330
EED9
100
AcDbEntity
  8
1
  6
Continuous
100
AcDbLine
 10
1249.2
 20
170.171084
 30
0.0
 11
1249.2
 21
195.3289159999999
 31
0.0
  0
LINE
  5
F200
330
EED9
100
AcDbEntity
  8
5
  6
PHANTOM
100
AcDbLine
 10
649.7000000000001
 20
171.25
 30
0.0
 11
649.7000000000001
 21
194.25
 31
0.0
  0
ARC
  5
F201
330
EED9
100
AcDbEntity
  8
5
  6
PHANTOM
100
AcDbCircle
 10
649.7000000000001
 20
170.442771
 30
0.0
 40
0.8072289999999997
100
AcDbArc
 50
321.187185
 51
90.0
  0
ARC
  5
F202
330
EED9
100
AcDbEntity
  8
5
  6
PHANTOM
100
AcDbCircle
 10
649.7000000000001
 20
166.602131
 30
0.0
 40
1.6
100
AcDbArc
 50
141.1871849999998
 51
180.0
  0
LINE
  5
F203
330
EED9
100
AcDbEntity
  8
5
  6
PHANTOM
100
AcDbLine
 10
650.3289909999997
 20
169.9368169999999
 30
0.0
 11
648.4532839999999
 21
167.6049759999999
 31
0.0
  0
LINE
  5
F204
330
EED9
100
AcDbEntity
  8
5
  6
PHANTOM
100
AcDbLine
 10
648.1
 20
165.0999999999999
 30
0.0
 11
648.1
 21
166.602131
 31
0.0
  0
ARC
  5
F205
330
EED9
100
AcDbEntity
  8
5
  6
PHANTOM
100
AcDbCircle
 10
649.7000000000001
 20
195.057229
 30
0.0
 40
0.8072289999999997
100
AcDbArc
 50
270.0
 51
38.812815
  0
LINE
  5
F206
330
EED9
100
AcDbEntity
  8
5
  6
PHANTOM
100
AcDbLine
 10
650.3289909999997
 20
195.563183
 30
0.0
 11
648.4532839999999
 21
197.8950239999998
 31
0.0
  0
ARC
  5
F207
330
EED9
100
AcDbEntity
  8
5
  6
PHANTOM
100
AcDbCircle
 10
649.7000000000001
 20
198.8978689999999
 30
0.0
 40
1.6
100
AcDbArc
 50
180.0
 51
218.812815
  0
LINE
  5
F208
330
EED9
100
AcDbEntity
  8
5
  6
PHANTOM
100
AcDbLine
 10
648.1
 20
198.8978689999999
 30
0.0
 11
648.1
 21
200.4
 31
0.0
  0
ARC
  5
F209
330
EED9
100
AcDbEntity
  8
5
  6
PHANTOM
100
AcDbCircle
 10
676.7000000000003
 20
183.15
 30
0.0
 40
2.25
100
AcDbArc
 50
0.0
 51
180.0
  0
ARC
  5
F20A
330
EED9
100
AcDbEntity
  8
5
  6
PHANTOM
100
AcDbCircle
 10
676.7000000000003
 20
182.3499999999999
 30
0.0
 40
2.25
100
AcDbArc
 50
180.0
 51
0.0
  0
LINE
  5
F20B
330
EED9
100
AcDbEntity
  8
5
  6
PHANTOM
100
AcDbLine
 10
674.4500000000003
 20
183.15
 30
0.0
 11
674.4500000000003
 21
182.3499999999999
 31
0.0
  0
LINE
  5
F20C
330
EED9
100
AcDbEntity
  8
5
  6
PHANTOM
100
AcDbLine
 10
678.9500000000002
 20
183.15
 30
0.0
 11
678.9500000000002
 21
182.3499999999999
 31
0.0
  0
LINE
  5
F20D
330
EED9
100
AcDbEntity
  8
5
  6
PHANTOM
100
AcDbLine
 10
788.2
 20
180.4999999999998
 30
0.0
 11
787.3999999999997
 21
180.4999999999998
 31
0.0
  0
LINE
  5
F20E
330
EED9
100
AcDbEntity
  8
4
  6
CENTER
100
AcDbLine
 10
787.7999999999997
 20
188.0
 30
0.0
 11
787.7999999999997
 21
177.5
 31
0.0
  0
LINE
  5
F20F
330
EED9
100
AcDbEntity
  8
5
  6
PHANTOM
100
AcDbLine
 10
788.2
 20
185.0
 30
0.0
 11
787.3999999999997
 21
185.0
 31
0.0
  0
ARC
  5
F210
330
EED9
100
AcDbEntity
  8
5
  6
PHANTOM
100
AcDbCircle
 10
787.3999999999997
 20
182.75
 30
0.0
 40
2.25
100
AcDbArc
 50
90.0
 51
270.0
  0
ARC
  5
F211
330
EED9
100
AcDbEntity
  8
5
  6
PHANTOM
100
AcDbCircle
 10
788.2
 20
182.75
 30
0.0
 40
2.25
100
AcDbArc
 50
270.0
 51
90.0
  0
ARC
  5
F212
330
EED9
100
AcDbEntity
  8
5
  6
PHANTOM
100
AcDbCircle
 10
1029.5
 20
182.75
 30
0.0
 40
2.25
100
AcDbArc
 50
270.0
 51
90.0
  0
LINE
  5
F213
330
EED9
100
AcDbEntity
  8
5
  6
PHANTOM
100
AcDbLine
 10
1029.5
 20
185.0
 30
0.0
 11
1028.7
 21
185.0
 31
0.0
  0
LINE
  5
F214
330
EED9
100
AcDbEntity
  8
4
  6
CENTER
100
AcDbLine
 10
1029.099999999999
 20
188.0
 30
0.0
 11
1029.099999999999
 21
177.5
 31
0.0
  0
LINE
  5
F215
330
EED9
100
AcDbEntity
  8
5
  6
PHANTOM
100
AcDbLine
 10
1029.5
 20
180.4999999999998
 30
0.0
 11
1028.7
 21
180.4999999999998
 31
0.0
  0
ARC
  5
F216
330
EED9
100
AcDbEntity
  8
5
  6
PHANTOM
100
AcDbCircle
 10
1028.7
 20
182.75
 30
0.0
 40
2.25
100
AcDbArc
 50
90.0
 51
270.0
  0
ARC
  5
F217
330
EED9
100
AcDbEntity
  8
5
  6
PHANTOM
100
AcDbCircle
 10
1114.4
 20
182.75
 30
0.0
 40
2.25
100
AcDbArc
 50
90.0
 51
270.0
  0
LINE
  5
F218
330
EED9
100
AcDbEntity
  8
5
  6
PHANTOM
100
AcDbLine
 10
1115.2
 20
185.0
 30
0.0
 11
1114.4
 21
185.0
 31
0.0
  0
LINE
  5
F219
330
EED9
100
AcDbEntity
  8
5
  6
PHANTOM
100
AcDbLine
 10
1115.2
 20
180.4999999999998
 30
0.0
 11
1114.4
 21
180.4999999999998
 31
0.0
  0
ARC
  5
F21A
330
EED9
100
AcDbEntity
  8
5
  6
PHANTOM
100
AcDbCircle
 10
1115.2
 20
182.75
 30
0.0
 40
2.25
100
AcDbArc
 50
270.0
 51
90.0
  0
LINE
  5
F21B
330
EED9
100
AcDbEntity
  8
4
  6
CENTER
100
AcDbLine
 10
1114.8
 20
188.0
 30
0.0
 11
1114.8
 21
177.5
 31
0.0
  0
LINE
  5
F21C
330
EED9
100
AcDbEntity
  8
5
  6
PHANTOM
100
AcDbLine
 10
1156.1
 20
165.0999999999999
 30
0.0
 11
1156.1
 21
175.2499999999998
 31
0.0
  0
LINE
  5
F21D
330
EED9
100
AcDbEntity
  8
5
  6
PHANTOM
100
AcDbLine
 10
1156.1
 20
190.25
 30
0.0
 11
1156.1
 21
200.4
 31
0.0
  0
LINE
  5
F21E
330
EED9
100
AcDbEntity
  8
5
  6
PHANTOM
100
AcDbLine
 10
1153.599999999999
 20
190.25
 30
0.0
 11
1156.1
 21
190.25
 31
0.0
  0
LINE
  5
F21F
330
EED9
100
AcDbEntity
  8
5
  6
PHANTOM
100
AcDbLine
 10
1153.599999999999
 20
175.2499999999998
 30
0.0
 11
1156.1
 21
175.2499999999998
 31
0.0
  0
LINE
  5
F220
330
EED9
100
AcDbEntity
  8
5
  6
PHANTOM
100
AcDbLine
 10
1153.599999999999
 20
175.2499999999998
 30
0.0
 11
1153.599999999999
 21
190.25
 31
0.0
  0
ARC
  5
F221
330
EED9
100
AcDbEntity
  8
1
  6
Continuous
100
AcDbCircle
 10
1242.2
 20
192.75
 30
0.0
 40
1.5
100
AcDbArc
 50
90.0
 51
180.0
  0
ARC
  5
F222
330
EED9
100
AcDbEntity
  8
1
  6
Continuous
100
AcDbCircle
 10
1237.777061
 20
193.177061
 30
0.0
 40
0.6229390000000003
100
AcDbArc
 50
0.0
 51
129.550679
  0
LINE
  5
F223
330
EED9
100
AcDbEntity
  8
1
  6
Continuous
100
AcDbLine
 10
1232.2
 20
190.25
 30
0.0
 11
1232.2
 21
195.398548
 31
0.0
  0
LINE
  5
F224
330
EED9
100
AcDbEntity
  8
1
  6
Continuous
100
AcDbLine
 10
1232.7
 20
190.25
 30
0.0
 11
1232.7
 21
195.4
 31
0.0
  0
LINE
  5
F225
330
EED9
100
AcDbEntity
  8
1
  6
Continuous
100
AcDbLine
 10
1231.7
 20
190.25
 30
0.0
 11
1231.7
 21
195.3289159999999
 31
0.0
  0
LINE
  5
F226
330
EED9
100
AcDbEntity
  8
1
  6
Continuous
100
AcDbLine
 10
1233.1
 20
193.448001
 30
0.0
 11
1233.770157
 21
194.443435
 31
0.0
  0
ARC
  5
F227
330
EED9
100
AcDbEntity
  8
1
  6
Continuous
100
AcDbCircle
 10
1235.1
 20
196.4187499999999
 30
0.0
 40
3.581249999999998
100
AcDbArc
 50
236.0503449999999
 51
309.5506789999999
  0
ARC
  5
F228
330
EED9
100
AcDbEntity
  8
1
  6
Continuous
100
AcDbCircle
 10
1241.522939
 20
193.177061
 30
0.0
 40
1.822938999999999
100
AcDbArc
 50
50.449321
 51
180.0
  0
ARC
  5
F229
330
EED9
100
AcDbEntity
  8
1
  6
Continuous
100
AcDbCircle
 10
1237.777061
 20
193.177061
 30
0.0
 40
1.822938999999999
100
AcDbArc
 50
0.0
 51
129.550679
  0
LINE
  5
F22A
330
EED9
100
AcDbEntity
  8
1
  6
Continuous
100
AcDbLine
 10
1230.1
 20
170.171084
 30
0.0
 11
1230.1
 21
195.3289159999999
 31
0.0
  0
ARC
  5
F22B
330
EED9
100
AcDbEntity
  8
1
  6
Continuous
100
AcDbCircle
 10
1241.522939
 20
172.322939
 30
0.0
 40
1.822938999999999
100
AcDbArc
 50
180.0
 51
309.5506789999999
  0
LINE
  5
F22C
330
EED9
100
AcDbEntity
  8
4
  6
CENTER
100
AcDbLine
 10
1225.1
 20
182.75
 30
0.0
 11
1254.2
 21
182.75
 31
0.0
  0
LINE
  5
F22D
330
EED9
100
AcDbEntity
  8
1
  6
Continuous
100
AcDbLine
 10
1238.599999999999
 20
169.65
 30
0.0
 11
1238.599999999999
 21
169.15
 31
0.0
  0
ARC
  5
F22E
330
EED9
100
AcDbEntity
  8
1
  6
Continuous
100
AcDbCircle
 10
1233.3
 20
170.171084
 30
0.0
 40
3.2
100
AcDbArc
 50
180.0
 51
217.012191
  0
ARC
  5
F22F
330
EED9
100
AcDbEntity
  8
1
  6
Continuous
100
AcDbCircle
 10
1233.3
 20
170.171084
 30
0.0
 40
1.6
100
AcDbArc
 50
180.0
 51
217.012191
  0
ARC
  5
F230
330
EED9
100
AcDbEntity
  8
1
  6
Continuous
100
AcDbCircle
 10
1235.1
 20
169.08125
 30
0.0
 40
2.38125
100
AcDbArc
 50
167.557726
 51
3.719127999999999
  0
LINE
  5
F231
330
EED9
100
AcDbEntity
  8
1
  6
Continuous
100
AcDbLine
 10
1238.599999999999
 20
169.15
 30
0.0
 11
1232.661975
 21
169.6029
 31
0.0
  0
LINE
  5
F232
330
EED9
100
AcDbEntity
  8
1
  6
Continuous
100
AcDbLine
 10
1238.8
 20
167.611437
 30
0.0
 11
1237.31303
 21
168.202131
 31
0.0
  0
LINE
  5
F233
330
EED9
100
AcDbEntity
  8
1
  6
Continuous
100
AcDbLine
 10
1230.744776
 20
168.244732
 30
0.0
 11
1231.920942
 21
166.6845969999999
 31
0.0
  0
LINE
  5
F234
330
EED9
100
AcDbEntity
  8
1
  6
Continuous
100
AcDbLine
 10
1232.022388
 20
169.207908
 30
0.0
 11
1233.198553999998
 21
167.647773
 31
0.0
  0
ARC
  5
F235
330
EED9
100
AcDbEntity
  8
1
  6
Continuous
100
AcDbCircle
 10
1235.1
 20
169.08125
 30
0.0
 40
3.98125
100
AcDbArc
 50
217.012191
 51
338.3347039999998
  0
ARC
  5
F236
330
EED9
100
AcDbEntity
  8
1
  6
Continuous
100
AcDbCircle
 10
1234.7
 20
188.0
 30
0.0
 40
0.5
100
AcDbArc
 50
0.0
 51
36.869898
  0
ARC
  5
F237
330
EED9
100
AcDbEntity
  8
1
  6
Continuous
100
AcDbCircle
 10
1234.7
 20
177.5
 30
0.0
 40
0.5
100
AcDbArc
 50
323.130102
 51
0.0
  0
LINE
  5
F238
330
EED9
100
AcDbEntity
  8
1
  6
Continuous
100
AcDbLine
 10
1235.2
 20
177.5
 30
0.0
 11
1235.2
 21
188.0
 31
0.0
  0
ARC
  5
F239
330
EED9
100
AcDbEntity
  8
1
  6
Continuous
100
AcDbCircle
 10
1236.0
 20
190.4374999999998
 30
0.0
 40
1.199999999999999
100
AcDbArc
 50
0.0
 51
90.0
  0
ARC
  5
F23A
330
EED9
100
AcDbEntity
  8
1
  6
Continuous
100
AcDbCircle
 10
1236.0
 20
190.4374999999998
 30
0.0
 40
2.399999999999999
100
AcDbArc
 50
0.0
 51
90.0
  0
ARC
  5
F23B
330
EED9
100
AcDbEntity
  8
1
  6
Continuous
100
AcDbCircle
 10
1236.0
 20
175.0625
 30
0.0
 40
1.199999999999999
100
AcDbArc
 50
270.0
 51
0.0
  0
ARC
  5
F23C
330
EED9
100
AcDbEntity
  8
1
  6
Continuous
100
AcDbCircle
 10
1236.0
 20
175.0625
 30
0.0
 40
2.399999999999999
100
AcDbArc
 50
270.0
 51
0.0
  0
LINE
  5
F23D
330
EED9
100
AcDbEntity
  8
1
  6
Continuous
100
AcDbLine
 10
1235.1
 20
175.2499999999998
 30
0.0
 11
1235.1
 21
190.25
 31
0.0
  0
LINE
  5
F23E
330
EED9
100
AcDbEntity
  8
1
  6
Continuous
100
AcDbLine
 10
1237.2
 20
175.0625
 30
0.0
 11
1237.2
 21
190.4374999999998
 31
0.0
  0
LINE
  5
F23F
330
EED9
100
AcDbEntity
  8
1
  6
Continuous
100
AcDbLine
 10
1239.7
 20
172.322939
 30
0.0
 11
1239.7
 21
193.177061
 31
0.0
  0
LINE
  5
F240
330
EED9
100
AcDbEntity
  8
1
  6
Continuous
100
AcDbLine
 10
1238.4
 20
172.322939
 30
0.0
 11
1238.4
 21
193.177061
 31
0.0
  0
LINE
  5
F241
330
EED9
100
AcDbEntity
  8
1
  6
Continuous
100
AcDbLine
 10
1239.6
 20
172.322939
 30
0.0
 11
1239.6
 21
193.177061
 31
0.0
  0
LINE
  5
F242
330
EED9
100
AcDbEntity
  8
1
  6
Continuous
100
AcDbLine
 10
1233.4
 20
191.6375
 30
0.0
 11
1233.4
 21
192.8375
 31
0.0
  0
LINE
  5
F243
330
EED9
100
AcDbEntity
  8
1
  6
Continuous
100
AcDbLine
 10
1233.4
 20
173.8625
 30
0.0
 11
1233.4
 21
172.6625
 31
0.0
  0
LINE
  5
F244
330
EED9
100
AcDbEntity
  8
1
  6
Continuous
100
AcDbLine
 10
1233.4
 20
191.6375
 30
0.0
 11
1236.0
 21
191.6375
 31
0.0
  0
LINE
  5
F245
330
EED9
100
AcDbEntity
  8
1
  6
Continuous
100
AcDbLine
 10
1233.4
 20
192.8375
 30
0.0
 11
1236.0
 21
192.8375
 31
0.0
  0
LINE
  5
F246
330
EED9
100
AcDbEntity
  8
1
  6
Continuous
100
AcDbLine
 10
1230.1
 20
190.25
 30
0.0
 11
1235.1
 21
190.25
 31
0.0
  0
LINE
  5
F247
330
EED9
100
AcDbEntity
  8
1
  6
Continuous
100
AcDbLine
 10
1233.4
 20
173.8625
 30
0.0
 11
1236.0
 21
173.8625
 31
0.0
  0
LINE
  5
F248
330
EED9
100
AcDbEntity
  8
1
  6
Continuous
100
AcDbLine
 10
1233.4
 20
172.6625
 30
0.0
 11
1236.0
 21
172.6625
 31
0.0
  0
LINE
  5
F249
330
EED9
100
AcDbEntity
  8
1
  6
Continuous
100
AcDbLine
 10
1230.1
 20
175.2499999999998
 30
0.0
 11
1235.1
 21
175.2499999999998
 31
0.0
  0
LINE
  5
F24A
330
EED9
100
AcDbEntity
  8
1
  6
Continuous
100
AcDbLine
 10
1233.1
 20
172.0519989999999
 30
0.0
 11
1233.770157
 21
171.0565649999998
 31
0.0
  0
ARC
  5
F24B
330
EED9
100
AcDbEntity
  8
1
  6
Continuous
100
AcDbCircle
 10
1232.7
 20
170.101452
 30
0.0
 40
0.5
100
AcDbArc
 50
180.0
 51
265.6384269999999
  0
ARC
  5
F24C
330
EED9
100
AcDbEntity
  8
1
  6
Continuous
100
AcDbCircle
 10
1235.1
 20
169.08125
 30
0.0
 40
2.38125
100
AcDbArc
 50
16.12167
 51
155.1551849999999
  0
LINE
  5
F24D
330
EED9
100
AcDbEntity
  8
1
  6
Continuous
100
AcDbLine
 10
1238.599999999999
 20
169.65
 30
0.0
 11
1232.7
 21
170.1
 31
0.0
  0
LINE
  5
F24E
330
EED9
100
AcDbEntity
  8
1
  6
Continuous
100
AcDbLine
 10
1232.2
 20
175.2499999999998
 30
0.0
 11
1232.2
 21
170.101452
 31
0.0
  0
LINE
  5
F24F
330
EED9
100
AcDbEntity
  8
1
  6
Continuous
100
AcDbLine
 10
1231.7
 20
170.171084
 30
0.0
 11
1231.7
 21
175.2499999999998
 31
0.0
  0
LINE
  5
F250
330
EED9
100
AcDbEntity
  8
1
  6
Continuous
100
AcDbLine
 10
1232.7
 20
175.2499999999998
 30
0.0
 11
1232.7
 21
170.1
 31
0.0
  0
ARC
  5
F251
330
EED9
100
AcDbEntity
  8
1
  6
Continuous
100
AcDbCircle
 10
1235.1
 20
169.08125
 30
0.0
 40
3.581249999999998
100
AcDbArc
 50
50.449321
 51
123.949655
  0
ARC
  5
F252
330
EED9
100
AcDbEntity
  8
1
  6
Continuous
100
AcDbCircle
 10
1237.777061
 20
172.322939
 30
0.0
 40
1.822938999999999
100
AcDbArc
 50
230.4493209999999
 51
0.0
  0
ARC
  5
F253
330
EED9
100
AcDbEntity
  8
1
  6
Continuous
100
AcDbCircle
 10
1237.777061
 20
172.322939
 30
0.0
 40
0.6229390000000003
100
AcDbArc
 50
230.4493209999999
 51
0.0
  0
ARC
  5
F254
330
EED9
100
AcDbEntity
  8
1
  6
Continuous
100
AcDbCircle
 10
1246.0
 20
170.171084
 30
0.0
 40
1.6
100
AcDbArc
 50
322.9878089999999
 51
0.0
  0
ARC
  5
F255
330
EED9
100
AcDbEntity
  8
1
  6
Continuous
100
AcDbCircle
 10
1246.0
 20
170.171084
 30
0.0
 40
3.2
100
AcDbArc
 50
322.9878089999999
 51
0.0
  0
LINE
  5
F256
330
EED9
100
AcDbEntity
  8
1
  6
Continuous
100
AcDbLine
 10
1240.7
 20
169.65
 30
0.0
 11
1240.7
 21
169.15
 31
0.0
  0
ARC
  5
F257
330
EED9
100
AcDbEntity
  8
1
  6
Continuous
100
AcDbCircle
 10
1244.2
 20
169.08125
 30
0.0
 40
2.38125
100
AcDbArc
 50
176.2808719999999
 51
12.44227399999999
  0
LINE
  5
F258
330
EED9
100
AcDbEntity
  8
1
  6
Continuous
100
AcDbLine
 10
1240.7
 20
169.15
 30
0.0
 11
1246.638025
 21
169.6029
 31
0.0
  0
LINE
  5
F259
330
EED9
100
AcDbEntity
  8
1
  6
Continuous
100
AcDbLine
 10
1248.555224
 20
168.244732
 30
0.0
 11
1247.379057999999
 21
166.6845969999999
 31
0.0
  0
LINE
  5
F25A
330
EED9
100
AcDbEntity
  8
1
  6
Continuous
100
AcDbLine
 10
1240.5
 20
167.611437
 30
0.0
 11
1241.98697
 21
168.202131
 31
0.0
  0
ARC
  5
F25B
330
EED9
100
AcDbEntity
  8
1
  6
Continuous
100
AcDbCircle
 10
1244.2
 20
169.08125
 30
0.0
 40
3.98125
100
AcDbArc
 50
201.6652959999999
 51
322.9878089999999
  0
LINE
  5
F25C
330
EED9
100
AcDbEntity
  8
1
  6
Continuous
100
AcDbLine
 10
1247.277611999999
 20
169.207908
 30
0.0
 11
1246.101445999999
 21
167.647773
 31
0.0
  0
LINE
  5
F25D
330
EED9
100
AcDbEntity
  8
1
  6
Continuous
100
AcDbLine
 10
1240.7
 20
172.75
 30
0.0
 11
1240.7
 21
192.75
 31
0.0
  0
LINE
  5
F25E
330
EED9
100
AcDbEntity
  8
1
  6
Continuous
100
AcDbLine
 10
1247.1
 20
171.25
 30
0.0
 11
1247.1
 21
170.101452
 31
0.0
  0
LINE
  5
F25F
330
EED9
100
AcDbEntity
  8
1
  6
Continuous
100
AcDbLine
 10
1247.6
 20
170.171084
 30
0.0
 11
1247.6
 21
171.25
 31
0.0
  0
LINE
  5
F260
330
EED9
100
AcDbEntity
  8
1
  6
Continuous
100
AcDbLine
 10
1246.599999999999
 20
171.25
 30
0.0
 11
1246.599999999999
 21
170.1
 31
0.0
  0
ARC
  5
F261
330
EED9
100
AcDbEntity
  8
1
  6
Continuous
100
AcDbCircle
 10
1246.599999999999
 20
170.101452
 30
0.0
 40
0.5
100
AcDbArc
 50
274.361573
 51
0.0
  0
LINE
  5
F262
330
EED9
100
AcDbEntity
  8
1
  6
Continuous
100
AcDbLine
 10
1245.660069
 20
171.25
 30
0.0
 11
1245.529843
 21
171.0565649999998
 31
0.0
  0
ARC
  5
F263
330
EED9
100
AcDbEntity
  8
1
  6
Continuous
100
AcDbCircle
 10
1244.2
 20
169.08125
 30
0.0
 40
2.38125
100
AcDbArc
 50
114.3892499999999
 51
163.87833
  0
ARC
  5
F264
330
EED9
100
AcDbEntity
  8
1
  6
Continuous
100
AcDbCircle
 10
1244.2
 20
169.08125
 30
0.0
 40
2.38125
100
AcDbArc
 50
24.844815
 51
65.61074999999999
  0
LINE
  5
F265
330
EED9
100
AcDbEntity
  8
1
  6
Continuous
100
AcDbLine
 10
1240.7
 20
169.65
 30
0.0
 11
1246.599999999999
 21
170.1
 31
0.0
  0
LINE
  5
F266
330
EED9
100
AcDbEntity
  8
1
  6
Continuous
100
AcDbLine
 10
1242.2
 20
171.25
 30
0.0
 11
1249.2
 21
171.25
 31
0.0
  0
ARC
  5
F267
330
EED9
100
AcDbEntity
  8
1
  6
Continuous
100
AcDbCircle
 10
1242.2
 20
172.75
 30
0.0
 40
1.5
100
AcDbArc
 50
180.0
 51
270.0
  0
LINE
  5
F268
330
EED9
100
AcDbEntity
  8
1
  6
Continuous
100
AcDbLine
 10
1238.599999999999
 20
195.8499999999999
 30
0.0
 11
1238.599999999999
 21
196.3499999999999
 31
0.0
  0
LINE
  5
F269
330
EED9
100
AcDbEntity
  8
1
  6
Continuous
100
AcDbLine
 10
1238.8
 20
197.8885629999999
 30
0.0
 11
1237.31303
 21
197.2978689999999
 31
0.0
  0
LINE
  5
F26A
330
EED9
100
AcDbEntity
  8
1
  6
Continuous
100
AcDbLine
 10
1230.744776
 20
197.2552679999998
 30
0.0
 11
1231.920942
 21
198.815403
 31
0.0
  0
LINE
  5
F26B
330
EED9
100
AcDbEntity
  8
1
  6
Continuous
100
AcDbLine
 10
1232.022388
 20
196.292092
 30
0.0
 11
1233.198553999998
 21
197.852227
 31
0.0
  0
LINE
  5
F26C
330
EED9
100
AcDbEntity
  8
1
  6
Continuous
100
AcDbLine
 10
1238.599999999999
 20
196.3499999999999
 30
0.0
 11
1232.661975
 21
195.8971
 31
0.0
  0
ARC
  5
F26D
330
EED9
100
AcDbEntity
  8
1
  6
Continuous
100
AcDbCircle
 10
1235.1
 20
196.4187499999999
 30
0.0
 40
3.98125
100
AcDbArc
 50
21.665296
 51
142.987809
  0
ARC
  5
F26E
330
EED9
100
AcDbEntity
  8
1
  6
Continuous
100
AcDbCircle
 10
1235.1
 20
196.4187499999999
 30
0.0
 40
2.38125
100
AcDbArc
 50
356.280872
 51
192.4422739999998
  0
ARC
  5
F26F
330
EED9
100
AcDbEntity
  8
1
  6
Continuous
100
AcDbCircle
 10
1235.1
 20
196.4187499999999
 30
0.0
 40
2.38125
100
AcDbArc
 50
204.844815
 51
343.87833
  0
ARC
  5
F270
330
EED9
100
AcDbEntity
  8
1
  6
Continuous
100
AcDbCircle
 10
1232.7
 20
195.398548
 30
0.0
 40
0.5
100
AcDbArc
 50
94.36157300000001
 51
180.0
  0
ARC
  5
F271
330
EED9
100
AcDbEntity
  8
1
  6
Continuous
100
AcDbCircle
 10
1233.3
 20
195.3289159999999
 30
0.0
 40
3.2
100
AcDbArc
 50
142.987809
 51
180.0
  0
ARC
  5
F272
330
EED9
100
AcDbEntity
  8
1
  6
Continuous
100
AcDbCircle
 10
1233.3
 20
195.3289159999999
 30
0.0
 40
1.6
100
AcDbArc
 50
142.987809
 51
180.0
  0
LINE
  5
F273
330
EED9
100
AcDbEntity
  8
1
  6
Continuous
100
AcDbLine
 10
1238.599999999999
 20
195.8499999999999
 30
0.0
 11
1232.7
 21
195.4
 31
0.0
  0
LINE
  5
F274
330
EED9
100
AcDbEntity
  8
1
  6
Continuous
100
AcDbLine
 10
1248.555224
 20
197.2552679999998
 30
0.0
 11
1247.379057999999
 21
198.815403
 31
0.0
  0
LINE
  5
F275
330
EED9
100
AcDbEntity
  8
1
  6
Continuous
100
AcDbLine
 10
1240.7
 20
195.8499999999999
 30
0.0
 11
1240.7
 21
196.3499999999999
 31
0.0
  0
LINE
  5
F276
330
EED9
100
AcDbEntity
  8
1
  6
Continuous
100
AcDbLine
 10
1240.5
 20
197.8885629999999
 30
0.0
 11
1241.98697
 21
197.2978689999999
 31
0.0
  0
LINE
  5
F277
330
EED9
100
AcDbEntity
  8
1
  6
Continuous
100
AcDbLine
 10
1240.7
 20
196.3499999999999
 30
0.0
 11
1246.638025
 21
195.8971
 31
0.0
  0
LINE
  5
F278
330
EED9
100
AcDbEntity
  8
1
  6
Continuous
100
AcDbLine
 10
1247.277611999999
 20
196.292092
 30
0.0
 11
1246.101445999999
 21
197.852227
 31
0.0
  0
ARC
  5
F279
330
EED9
100
AcDbEntity
  8
1
  6
Continuous
100
AcDbCircle
 10
1244.2
 20
196.4187499999999
 30
0.0
 40
3.98125
100
AcDbArc
 50
37.01219099999998
 51
158.3347039999999
  0
LINE
  5
F27A
330
EED9
100
AcDbEntity
  8
1
  6
Continuous
100
AcDbLine
 10
1247.1
 20
194.25
 30
0.0
 11
1247.1
 21
195.398548
 31
0.0
  0
LINE
  5
F27B
330
EED9
100
AcDbEntity
  8
1
  6
Continuous
100
AcDbLine
 10
1247.6
 20
194.25
 30
0.0
 11
1247.6
 21
195.3289159999999
 31
0.0
  0
LINE
  5
F27C
330
EED9
100
AcDbEntity
  8
1
  6
Continuous
100
AcDbLine
 10
1246.599999999999
 20
194.25
 30
0.0
 11
1246.599999999999
 21
195.4
 31
0.0
  0
LINE
  5
F27D
330
EED9
100
AcDbEntity
  8
1
  6
Continuous
100
AcDbLine
 10
1245.660069
 20
194.25
 30
0.0
 11
1245.529843
 21
194.443435
 31
0.0
  0
LINE
  5
F27E
330
EED9
100
AcDbEntity
  8
1
  6
Continuous
100
AcDbLine
 10
1242.2
 20
194.25
 30
0.0
 11
1249.2
 21
194.25
 31
0.0
  0
ARC
  5
F27F
330
EED9
100
AcDbEntity
  8
1
  6
Continuous
100
AcDbCircle
 10
1246.599999999999
 20
195.398548
 30
0.0
 40
0.5
100
AcDbArc
 50
0.0
 51
85.63842699999998
  0
ARC
  5
F280
330
EED9
100
AcDbEntity
  8
1
  6
Continuous
100
AcDbCircle
 10
1246.0
 20
195.3289159999999
 30
0.0
 40
1.6
100
AcDbArc
 50
0.0
 51
37.01219099999998
  0
ARC
  5
F281
330
EED9
100
AcDbEntity
  8
1
  6
Continuous
100
AcDbCircle
 10
1246.0
 20
195.3289159999999
 30
0.0
 40
3.2
100
AcDbArc
 50
0.0
 51
37.01219099999998
  0
ARC
  5
F282
330
EED9
100
AcDbEntity
  8
1
  6
Continuous
100
AcDbCircle
 10
1244.2
 20
196.4187499999999
 30
0.0
 40
2.38125
100
AcDbArc
 50
294.38925
 51
335.155185
  0
ARC
  5
F283
330
EED9
100
AcDbEntity
  8
1
  6
Continuous
100
AcDbCircle
 10
1244.2
 20
196.4187499999999
 30
0.0
 40
2.38125
100
AcDbArc
 50
196.12167
 51
245.6107499999998
  0
ARC
  5
F284
330
EED9
100
AcDbEntity
  8
1
  6
Continuous
100
AcDbCircle
 10
1244.2
 20
196.4187499999999
 30
0.0
 40
2.38125
100
AcDbArc
 50
347.557726
 51
183.719128
  0
LINE
  5
F285
330
EED9
100
AcDbEntity
  8
1
  6
Continuous
100
AcDbLine
 10
1240.7
 20
195.8499999999999
 30
0.0
 11
1246.599999999999
 21
195.4
 31
0.0
  0
LINE
  5
F286
330
EED9
100
AcDbEntity
  8
1
  6
Continuous
100
AcDbLine
 10
461.6
 20
460.7499999999998
 30
0.0
 11
461.6
 21
459.4
 31
0.0
  0
ARC
  5
F287
330
EED9
100
AcDbEntity
  8
1
  6
Continuous
100
AcDbCircle
 10
466.85
 20
460.81875
 30
0.0
 40
2.38125
100
AcDbArc
 50
193.81839
 51
216.5697209999999
  0
ARC
  5
F288
330
EED9
100
AcDbEntity
  8
1
  6
Continuous
100
AcDbCircle
 10
479.35
 20
460.81875
 30
0.0
 40
2.38125
100
AcDbArc
 50
193.81839
 51
216.5697209999999
  0
ARC
  5
F289
330
EED9
100
AcDbEntity
  8
1
  6
Continuous
100
AcDbCircle
 10
479.35
 20
460.81875
 30
0.0
 40
2.38125
100
AcDbArc
 50
323.430279
 51
346.18161
  0
LINE
  5
F28A
330
EED9
100
AcDbEntity
  8
1
  6
Continuous
100
AcDbLine
 10
472.1
 20
460.7499999999998
 30
0.0
 11
472.1
 21
459.4
 31
0.0
  0
ARC
  5
F28B
330
EED9
100
AcDbEntity
  8
1
  6
Continuous
100
AcDbCircle
 10
466.85
 20
460.81875
 30
0.0
 40
2.38125
100
AcDbArc
 50
323.430279
 51
346.18161
  0
LINE
  5
F28C
330
EED9
100
AcDbEntity
  8
1
  6
Continuous
100
AcDbLine
 10
474.1
 20
460.7499999999998
 30
0.0
 11
474.1
 21
459.4
 31
0.0
  0
LINE
  5
F28D
330
EED9
100
AcDbEntity
  8
1
  6
Continuous
100
AcDbLine
 10
484.6
 20
460.7499999999998
 30
0.0
 11
484.6
 21
459.4
 31
0.0
  0
ARC
  5
F28E
330
EED9
100
AcDbEntity
  8
1
  6
Continuous
100
AcDbCircle
 10
466.85
 20
460.81875
 30
0.0
 40
2.38125
100
AcDbArc
 50
158.3347039999999
 51
181.6544389999999
  0
ARC
  5
F28F
330
EED9
100
AcDbEntity
  8
1
  6
Continuous
100
AcDbCircle
 10
466.85
 20
460.81875
 30
0.0
 40
2.38125
100
AcDbArc
 50
358.3455609999999
 51
21.665296
  0
LINE
  5
F290
330
EED9
100
AcDbEntity
  8
1
  6
Continuous
100
AcDbLine
 10
472.1
 20
460.7499999999998
 30
0.0
 11
461.6
 21
460.7499999999998
 31
0.0
  0
LINE
  5
F291
330
EED9
100
AcDbEntity
  8
1
  6
Continuous
100
AcDbLine
 10
472.1
 20
460.25
 30
0.0
 11
461.6
 21
460.25
 31
0.0
  0
ARC
  5
F292
330
EED9
100
AcDbEntity
  8
1
  6
Continuous
100
AcDbCircle
 10
479.35
 20
460.81875
 30
0.0
 40
2.38125
100
AcDbArc
 50
158.3347039999999
 51
181.6544389999999
  0
ARC
  5
F293
330
EED9
100
AcDbEntity
  8
1
  6
Continuous
100
AcDbCircle
 10
479.35
 20
460.81875
 30
0.0
 40
2.38125
100
AcDbArc
 50
358.3455609999999
 51
21.665296
  0
LINE
  5
F294
330
EED9
100
AcDbEntity
  8
1
  6
Continuous
100
AcDbLine
 10
484.6
 20
460.25
 30
0.0
 11
474.1
 21
460.25
 31
0.0
  0
LINE
  5
F295
330
EED9
100
AcDbEntity
  8
1
  6
Continuous
100
AcDbLine
 10
484.6
 20
460.7499999999998
 30
0.0
 11
474.1
 21
460.7499999999998
 31
0.0
  0
ARC
  5
F296
330
EED9
100
AcDbEntity
  8
1
  6
Continuous
100
AcDbCircle
 10
466.85
 20
433.4812499999999
 30
0.0
 40
2.38125
100
AcDbArc
 50
178.345561
 51
201.6652959999999
  0
ARC
  5
F297
330
EED9
100
AcDbEntity
  8
1
  6
Continuous
100
AcDbCircle
 10
466.85
 20
433.4812499999999
 30
0.0
 40
2.38125
100
AcDbArc
 50
143.430279
 51
166.18161
  0
LINE
  5
F298
330
EED9
100
AcDbEntity
  8
1
  6
Continuous
100
AcDbLine
 10
461.6
 20
433.55
 30
0.0
 11
461.6
 21
434.9
 31
0.0
  0
ARC
  5
F299
330
EED9
100
AcDbEntity
  8
1
  6
Continuous
100
AcDbCircle
 10
466.85
 20
433.4812499999999
 30
0.0
 40
2.38125
100
AcDbArc
 50
338.3347039999998
 51
1.654438999999999
  0
ARC
  5
F29A
330
EED9
100
AcDbEntity
  8
1
  6
Continuous
100
AcDbCircle
 10
466.85
 20
433.4812499999999
 30
0.0
 40
2.38125
100
AcDbArc
 50
13.81839
 51
36.569721
  0
LINE
  5
F29B
330
EED9
100
AcDbEntity
  8
1
  6
Continuous
100
AcDbLine
 10
472.1
 20
433.55
 30
0.0
 11
472.1
 21
434.9
 31
0.0
  0
LINE
  5
F29C
330
EED9
100
AcDbEntity
  8
1
  6
Continuous
100
AcDbLine
 10
472.1
 20
434.05
 30
0.0
 11
461.6
 21
434.05
 31
0.0
  0
LINE
  5
F29D
330
EED9
100
AcDbEntity
  8
1
  6
Continuous
100
AcDbLine
 10
472.1
 20
433.55
 30
0.0
 11
461.6
 21
433.55
 31
0.0
  0
ARC
  5
F29E
330
EED9
100
AcDbEntity
  8
1
  6
Continuous
100
AcDbCircle
 10
479.35
 20
433.4812499999999
 30
0.0
 40
2.38125
100
AcDbArc
 50
338.3347039999998
 51
1.654438999999999
  0
ARC
  5
F29F
330
EED9
100
AcDbEntity
  8
1
  6
Continuous
100
AcDbCircle
 10
479.35
 20
433.4812499999999
 30
0.0
 40
2.38125
100
AcDbArc
 50
178.345561
 51
201.6652959999999
  0
LINE
  5
F2A0
330
EED9
100
AcDbEntity
  8
1
  6
Continuous
100
AcDbLine
 10
484.6
 20
433.55
 30
0.0
 11
474.1
 21
433.55
 31
0.0
  0
LINE
  5
F2A1
330
EED9
100
AcDbEntity
  8
1
  6
Continuous
100
AcDbLine
 10
484.6
 20
434.05
 30
0.0
 11
474.1
 21
434.05
 31
0.0
  0
LINE
  5
F2A2
330
EED9
100
AcDbEntity
  8
1
  6
Continuous
100
AcDbLine
 10
484.6
 20
433.55
 30
0.0
 11
484.6
 21
434.9
 31
0.0
  0
ARC
  5
F2A3
330
EED9
100
AcDbEntity
  8
1
  6
Continuous
100
AcDbCircle
 10
479.35
 20
433.4812499999999
 30
0.0
 40
2.38125
100
AcDbArc
 50
13.81839
 51
36.569721
  0
ARC
  5
F2A4
330
EED9
100
AcDbEntity
  8
1
  6
Continuous
100
AcDbCircle
 10
479.35
 20
433.4812499999999
 30
0.0
 40
2.38125
100
AcDbArc
 50
143.430279
 51
166.18161
  0
LINE
  5
F2A5
330
EED9
100
AcDbEntity
  8
1
  6
Continuous
100
AcDbLine
 10
474.1
 20
433.55
 30
0.0
 11
474.1
 21
434.9
 31
0.0
  0
LINE
  5
F2A6
330
EED9
100
AcDbEntity
  8
1
  6
Continuous
100
AcDbLine
 10
789.6
 20
195.8499999999999
 30
0.0
 11
800.1000000000001
 21
195.8499999999999
 31
0.0
  0
LINE
  5
F2A7
330
EED9
100
AcDbEntity
  8
1
  6
Continuous
100
AcDbLine
 10
789.6
 20
196.3499999999999
 30
0.0
 11
800.1000000000001
 21
196.3499999999999
 31
0.0
  0
ARC
  5
F2A8
330
EED9
100
AcDbEntity
  8
1
  6
Continuous
100
AcDbCircle
 10
794.85
 20
196.4187499999999
 30
0.0
 40
2.38125
100
AcDbArc
 50
158.3347039999999
 51
181.6544389999999
  0
ARC
  5
F2A9
330
EED9
100
AcDbEntity
  8
1
  6
Continuous
100
AcDbCircle
 10
794.85
 20
196.4187499999999
 30
0.0
 40
2.38125
100
AcDbArc
 50
193.81839
 51
216.5697209999999
  0
LINE
  5
F2AA
330
EED9
100
AcDbEntity
  8
1
  6
Continuous
100
AcDbLine
 10
789.6
 20
196.3499999999999
 30
0.0
 11
789.6
 21
195.0
 31
0.0
  0
LINE
  5
F2AB
330
EED9
100
AcDbEntity
  8
1
  6
Continuous
100
AcDbLine
 10
812.6000000000001
 20
196.3499999999999
 30
0.0
 11
812.6000000000001
 21
195.0
 31
0.0
  0
ARC
  5
F2AC
330
EED9
100
AcDbEntity
  8
1
  6
Continuous
100
AcDbCircle
 10
807.3500000000001
 20
196.4187499999999
 30
0.0
 40
2.38125
100
AcDbArc
 50
158.3347039999999
 51
181.6544389999999
  0
ARC
  5
F2AD
330
EED9
100
AcDbEntity
  8
1
  6
Continuous
100
AcDbCircle
 10
807.3500000000001
 20
196.4187499999999
 30
0.0
 40
2.38125
100
AcDbArc
 50
358.3455609999999
 51
21.665296
  0
LINE
  5
F2AE
330
EED9
100
AcDbEntity
  8
1
  6
Continuous
100
AcDbLine
 10
802.1
 20
196.3499999999999
 30
0.0
 11
802.1
 21
195.0
 31
0.0
  0
ARC
  5
F2AF
330
EED9
100
AcDbEntity
  8
1
  6
Continuous
100
AcDbCircle
 10
807.3500000000001
 20
196.4187499999999
 30
0.0
 40
2.38125
100
AcDbArc
 50
193.81839
 51
216.5697209999999
  0
ARC
  5
F2B0
330
EED9
100
AcDbEntity
  8
1
  6
Continuous
100
AcDbCircle
 10
807.3500000000001
 20
196.4187499999999
 30
0.0
 40
2.38125
100
AcDbArc
 50
323.430279
 51
346.18161
  0
LINE
  5
F2B1
330
EED9
100
AcDbEntity
  8
1
  6
Continuous
100
AcDbLine
 10
802.1
 20
196.3499999999999
 30
0.0
 11
812.6000000000001
 21
196.3499999999999
 31
0.0
  0
LINE
  5
F2B2
330
EED9
100
AcDbEntity
  8
1
  6
Continuous
100
AcDbLine
 10
802.1
 20
195.8499999999999
 30
0.0
 11
812.6000000000001
 21
195.8499999999999
 31
0.0
  0
ARC
  5
F2B3
330
EED9
100
AcDbEntity
  8
1
  6
Continuous
100
AcDbCircle
 10
794.85
 20
196.4187499999999
 30
0.0
 40
2.38125
100
AcDbArc
 50
358.3455609999999
 51
21.665296
  0
ARC
  5
F2B4
330
EED9
100
AcDbEntity
  8
1
  6
Continuous
100
AcDbCircle
 10
794.85
 20
196.4187499999999
 30
0.0
 40
2.38125
100
AcDbArc
 50
323.430279
 51
346.18161
  0
LINE
  5
F2B5
330
EED9
100
AcDbEntity
  8
1
  6
Continuous
100
AcDbLine
 10
800.1000000000001
 20
196.3499999999999
 30
0.0
 11
800.1000000000001
 21
195.0
 31
0.0
  0
LINE
  5
F2B6
330
EED9
100
AcDbEntity
  8
1
  6
Continuous
100
AcDbLine
 10
789.6
 20
169.15
 30
0.0
 11
800.1000000000001
 21
169.15
 31
0.0
  0
LINE
  5
F2B7
330
EED9
100
AcDbEntity
  8
1
  6
Continuous
100
AcDbLine
 10
789.6
 20
169.65
 30
0.0
 11
800.1000000000001
 21
169.65
 31
0.0
  0
LINE
  5
F2B8
330
EED9
100
AcDbEntity
  8
1
  6
Continuous
100
AcDbLine
 10
789.6
 20
169.15
 30
0.0
 11
789.6
 21
170.5
 31
0.0
  0
ARC
  5
F2B9
330
EED9
100
AcDbEntity
  8
1
  6
Continuous
100
AcDbCircle
 10
794.85
 20
169.08125
 30
0.0
 40
2.38125
100
AcDbArc
 50
178.345561
 51
201.6652959999999
  0
ARC
  5
F2BA
330
EED9
100
AcDbEntity
  8
1
  6
Continuous
100
AcDbCircle
 10
794.85
 20
169.08125
 30
0.0
 40
2.38125
100
AcDbArc
 50
143.430279
 51
166.18161
  0
LINE
  5
F2BB
330
EED9
100
AcDbEntity
  8
1
  6
Continuous
100
AcDbLine
 10
800.1000000000001
 20
169.15
 30
0.0
 11
800.1000000000001
 21
170.5
 31
0.0
  0
LINE
  5
F2BC
330
EED9
100
AcDbEntity
  8
1
  6
Continuous
100
AcDbLine
 10
802.1
 20
169.15
 30
0.0
 11
802.1
 21
170.5
 31
0.0
  0
LINE
  5
F2BD
330
EED9
100
AcDbEntity
  8
1
  6
Continuous
100
AcDbLine
 10
812.6000000000001
 20
169.15
 30
0.0
 11
812.6000000000001
 21
170.5
 31
0.0
  0
LINE
  5
F2BE
330
EED9
100
AcDbEntity
  8
1
  6
Continuous
100
AcDbLine
 10
802.1
 20
169.15
 30
0.0
 11
812.6000000000001
 21
169.15
 31
0.0
  0
ARC
  5
F2BF
330
EED9
100
AcDbEntity
  8
1
  6
Continuous
100
AcDbCircle
 10
807.3500000000001
 20
169.08125
 30
0.0
 40
2.38125
100
AcDbArc
 50
338.3347039999998
 51
1.654438999999999
  0
ARC
  5
F2C0
330
EED9
100
AcDbEntity
  8
1
  6
Continuous
100
AcDbCircle
 10
807.3500000000001
 20
169.08125
 30
0.0
 40
2.38125
100
AcDbArc
 50
178.345561
 51
201.6652959999999
  0
ARC
  5
F2C1
330
EED9
100
AcDbEntity
  8
1
  6
Continuous
100
AcDbCircle
 10
794.85
 20
169.08125
 30
0.0
 40
2.38125
100
AcDbArc
 50
338.3347039999998
 51
1.654438999999999
  0
LINE
  5
F2C2
330
EED9
100
AcDbEntity
  8
1
  6
Continuous
100
AcDbLine
 10
802.1
 20
169.65
 30
0.0
 11
812.6000000000001
 21
169.65
 31
0.0
  0
ARC
  5
F2C3
330
EED9
100
AcDbEntity
  8
1
  6
Continuous
100
AcDbCircle
 10
807.3500000000001
 20
169.08125
 30
0.0
 40
2.38125
100
AcDbArc
 50
13.81839
 51
36.569721
  0
ARC
  5
F2C4
330
EED9
100
AcDbEntity
  8
1
  6
Continuous
100
AcDbCircle
 10
807.3500000000001
 20
169.08125
 30
0.0
 40
2.38125
100
AcDbArc
 50
143.430279
 51
166.18161
  0
ARC
  5
F2C5
330
EED9
100
AcDbEntity
  8
1
  6
Continuous
100
AcDbCircle
 10
794.85
 20
169.08125
 30
0.0
 40
2.38125
100
AcDbArc
 50
13.81839
 51
36.569721
  0
LINE
  5
F2C6
330
EED9
100
AcDbEntity
  8
1
  6
Continuous
100
AcDbLine
 10
459.6
 20
460.25
 30
0.0
 11
449.1
 21
460.25
 31
0.0
  0
LINE
  5
F2C7
330
EED9
100
AcDbEntity
  8
1
  6
Continuous
100
AcDbLine
 10
459.6
 20
460.7499999999998
 30
0.0
 11
449.1
 21
460.7499999999998
 31
0.0
  0
ARC
  5
F2C8
330
EED9
100
AcDbEntity
  8
1
  6
Continuous
100
AcDbCircle
 10
454.35
 20
460.81875
 30
0.0
 40
2.38125
100
AcDbArc
 50
193.81839
 51
216.5697209999999
  0
LINE
  5
F2C9
330
EED9
100
AcDbEntity
  8
1
  6
Continuous
100
AcDbLine
 10
447.1
 20
460.7499999999998
 30
0.0
 11
447.1
 21
459.4
 31
0.0
  0
LINE
  5
F2CA
330
EED9
100
AcDbEntity
  8
1
  6
Continuous
100
AcDbLine
 10
449.1
 20
460.7499999999998
 30
0.0
 11
449.1
 21
459.4
 31
0.0
  0
ARC
  5
F2CB
330
EED9
100
AcDbEntity
  8
1
  6
Continuous
100
AcDbCircle
 10
454.35
 20
460.81875
 30
0.0
 40
2.38125
100
AcDbArc
 50
158.3347039999999
 51
181.6544389999999
  0
LINE
  5
F2CC
330
EED9
100
AcDbEntity
  8
1
  6
Continuous
100
AcDbLine
 10
436.6
 20
460.7499999999998
 30
0.0
 11
436.6
 21
459.4
 31
0.0
  0
ARC
  5
F2CD
330
EED9
100
AcDbEntity
  8
1
  6
Continuous
100
AcDbCircle
 10
441.85
 20
460.81875
 30
0.0
 40
2.38125
100
AcDbArc
 50
193.81839
 51
216.5697209999999
  0
ARC
  5
F2CE
330
EED9
100
AcDbEntity
  8
1
  6
Continuous
100
AcDbCircle
 10
441.85
 20
460.81875
 30
0.0
 40
2.38125
100
AcDbArc
 50
323.430279
 51
346.18161
  0
ARC
  5
F2CF
330
EED9
100
AcDbEntity
  8
1
  6
Continuous
100
AcDbCircle
 10
441.85
 20
460.81875
 30
0.0
 40
2.38125
100
AcDbArc
 50
158.3347039999999
 51
181.6544389999999
  0
ARC
  5
F2D0
330
EED9
100
AcDbEntity
  8
1
  6
Continuous
100
AcDbCircle
 10
441.85
 20
460.81875
 30
0.0
 40
2.38125
100
AcDbArc
 50
358.3455609999999
 51
21.665296
  0
LINE
  5
F2D1
330
EED9
100
AcDbEntity
  8
1
  6
Continuous
100
AcDbLine
 10
447.1
 20
460.7499999999998
 30
0.0
 11
436.6
 21
460.7499999999998
 31
0.0
  0
LINE
  5
F2D2
330
EED9
100
AcDbEntity
  8
1
  6
Continuous
100
AcDbLine
 10
447.1
 20
460.25
 30
0.0
 11
436.6
 21
460.25
 31
0.0
  0
ARC
  5
F2D3
330
EED9
100
AcDbEntity
  8
1
  6
Continuous
100
AcDbCircle
 10
454.35
 20
460.81875
 30
0.0
 40
2.38125
100
AcDbArc
 50
323.430279
 51
346.18161
  0
LINE
  5
F2D4
330
EED9
100
AcDbEntity
  8
1
  6
Continuous
100
AcDbLine
 10
459.6
 20
460.7499999999998
 30
0.0
 11
459.6
 21
459.4
 31
0.0
  0
ARC
  5
F2D5
330
EED9
100
AcDbEntity
  8
1
  6
Continuous
100
AcDbCircle
 10
454.35
 20
460.81875
 30
0.0
 40
2.38125
100
AcDbArc
 50
358.3455609999999
 51
21.665296
  0
LINE
  5
F2D6
330
EED9
100
AcDbEntity
  8
1
  6
Continuous
100
AcDbLine
 10
459.6
 20
433.55
 30
0.0
 11
449.1
 21
433.55
 31
0.0
  0
LINE
  5
F2D7
330
EED9
100
AcDbEntity
  8
1
  6
Continuous
100
AcDbLine
 10
459.6
 20
434.05
 30
0.0
 11
449.1
 21
434.05
 31
0.0
  0
LINE
  5
F2D8
330
EED9
100
AcDbEntity
  8
1
  6
Continuous
100
AcDbLine
 10
447.1
 20
433.55
 30
0.0
 11
447.1
 21
434.9
 31
0.0
  0
ARC
  5
F2D9
330
EED9
100
AcDbEntity
  8
1
  6
Continuous
100
AcDbCircle
 10
454.35
 20
433.4812499999999
 30
0.0
 40
2.38125
100
AcDbArc
 50
178.345561
 51
201.6652959999999
  0
ARC
  5
F2DA
330
EED9
100
AcDbEntity
  8
1
  6
Continuous
100
AcDbCircle
 10
454.35
 20
433.4812499999999
 30
0.0
 40
2.38125
100
AcDbArc
 50
143.430279
 51
166.18161
  0
LINE
  5
F2DB
330
EED9
100
AcDbEntity
  8
1
  6
Continuous
100
AcDbLine
 10
449.1
 20
433.55
 30
0.0
 11
449.1
 21
434.9
 31
0.0
  0
ARC
  5
F2DC
330
EED9
100
AcDbEntity
  8
1
  6
Continuous
100
AcDbCircle
 10
441.85
 20
433.4812499999999
 30
0.0
 40
2.38125
100
AcDbArc
 50
178.345561
 51
201.6652959999999
  0
ARC
  5
F2DD
330
EED9
100
AcDbEntity
  8
1
  6
Continuous
100
AcDbCircle
 10
441.85
 20
433.4812499999999
 30
0.0
 40
2.38125
100
AcDbArc
 50
143.430279
 51
166.18161
  0
LINE
  5
F2DE
330
EED9
100
AcDbEntity
  8
1
  6
Continuous
100
AcDbLine
 10
436.6
 20
433.55
 30
0.0
 11
436.6
 21
434.9
 31
0.0
  0
ARC
  5
F2DF
330
EED9
100
AcDbEntity
  8
1
  6
Continuous
100
AcDbCircle
 10
441.85
 20
433.4812499999999
 30
0.0
 40
2.38125
100
AcDbArc
 50
338.3347039999998
 51
1.654438999999999
  0
ARC
  5
F2E0
330
EED9
100
AcDbEntity
  8
1
  6
Continuous
100
AcDbCircle
 10
441.85
 20
433.4812499999999
 30
0.0
 40
2.38125
100
AcDbArc
 50
13.81839
 51
36.569721
  0
LINE
  5
F2E1
330
EED9
100
AcDbEntity
  8
1
  6
Continuous
100
AcDbLine
 10
447.1
 20
434.05
 30
0.0
 11
436.6
 21
434.05
 31
0.0
  0
LINE
  5
F2E2
330
EED9
100
AcDbEntity
  8
1
  6
Continuous
100
AcDbLine
 10
447.1
 20
433.55
 30
0.0
 11
436.6
 21
433.55
 31
0.0
  0
ARC
  5
F2E3
330
EED9
100
AcDbEntity
  8
1
  6
Continuous
100
AcDbCircle
 10
454.35
 20
433.4812499999999
 30
0.0
 40
2.38125
100
AcDbArc
 50
338.3347039999998
 51
1.654438999999999
  0
LINE
  5
F2E4
330
EED9
100
AcDbEntity
  8
1
  6
Continuous
100
AcDbLine
 10
459.6
 20
433.55
 30
0.0
 11
459.6
 21
434.9
 31
0.0
  0
ARC
  5
F2E5
330
EED9
100
AcDbEntity
  8
1
  6
Continuous
100
AcDbCircle
 10
454.35
 20
433.4812499999999
 30
0.0
 40
2.38125
100
AcDbArc
 50
13.81839
 51
36.569721
  0
LINE
  5
F2E6
330
EED9
100
AcDbEntity
  8
1
  6
Continuous
100
AcDbLine
 10
814.6
 20
196.3499999999999
 30
0.0
 11
825.1000000000001
 21
196.3499999999999
 31
0.0
  0
LINE
  5
F2E7
330
EED9
100
AcDbEntity
  8
1
  6
Continuous
100
AcDbLine
 10
814.6
 20
195.8499999999999
 30
0.0
 11
825.1000000000001
 21
195.8499999999999
 31
0.0
  0
LINE
  5
F2E8
330
EED9
100
AcDbEntity
  8
1
  6
Continuous
100
AcDbLine
 10
814.6
 20
196.3499999999999
 30
0.0
 11
814.6
 21
195.0
 31
0.0
  0
ARC
  5
F2E9
330
EED9
100
AcDbEntity
  8
1
  6
Continuous
100
AcDbCircle
 10
819.8500000000001
 20
196.4187499999999
 30
0.0
 40
2.38125
100
AcDbArc
 50
323.430279
 51
346.18161
  0
ARC
  5
F2EA
330
EED9
100
AcDbEntity
  8
1
  6
Continuous
100
AcDbCircle
 10
819.8500000000001
 20
196.4187499999999
 30
0.0
 40
2.38125
100
AcDbArc
 50
358.3455609999999
 51
21.665296
  0
ARC
  5
F2EB
330
EED9
100
AcDbEntity
  8
1
  6
Continuous
100
AcDbCircle
 10
819.8500000000001
 20
196.4187499999999
 30
0.0
 40
2.38125
100
AcDbArc
 50
193.81839
 51
216.5697209999999
  0
ARC
  5
F2EC
330
EED9
100
AcDbEntity
  8
1
  6
Continuous
100
AcDbCircle
 10
819.8500000000001
 20
196.4187499999999
 30
0.0
 40
2.38125
100
AcDbArc
 50
158.3347039999999
 51
181.6544389999999
  0
LINE
  5
F2ED
330
EED9
100
AcDbEntity
  8
1
  6
Continuous
100
AcDbLine
 10
827.1
 20
195.8499999999999
 30
0.0
 11
837.6000000000001
 21
195.8499999999999
 31
0.0
  0
LINE
  5
F2EE
330
EED9
100
AcDbEntity
  8
1
  6
Continuous
100
AcDbLine
 10
827.1
 20
196.3499999999999
 30
0.0
 11
837.6000000000001
 21
196.3499999999999
 31
0.0
  0
LINE
  5
F2EF
330
EED9
100
AcDbEntity
  8
1
  6
Continuous
100
AcDbLine
 10
825.1000000000001
 20
196.3499999999999
 30
0.0
 11
825.1000000000001
 21
195.0
 31
0.0
  0
ARC
  5
F2F0
330
EED9
100
AcDbEntity
  8
1
  6
Continuous
100
AcDbCircle
 10
832.3500000000001
 20
196.4187499999999
 30
0.0
 40
2.38125
100
AcDbArc
 50
323.430279
 51
346.18161
  0
ARC
  5
F2F1
330
EED9
100
AcDbEntity
  8
1
  6
Continuous
100
AcDbCircle
 10
832.3500000000001
 20
196.4187499999999
 30
0.0
 40
2.38125
100
AcDbArc
 50
193.81839
 51
216.5697209999999
  0
LINE
  5
F2F2
330
EED9
100
AcDbEntity
  8
1
  6
Continuous
100
AcDbLine
 10
827.1
 20
196.3499999999999
 30
0.0
 11
827.1
 21
195.0
 31
0.0
  0
ARC
  5
F2F3
330
EED9
100
AcDbEntity
  8
1
  6
Continuous
100
AcDbCircle
 10
832.3500000000001
 20
196.4187499999999
 30
0.0
 40
2.38125
100
AcDbArc
 50
358.3455609999999
 51
21.665296
  0
ARC
  5
F2F4
330
EED9
100
AcDbEntity
  8
1
  6
Continuous
100
AcDbCircle
 10
832.3500000000001
 20
196.4187499999999
 30
0.0
 40
2.38125
100
AcDbArc
 50
158.3347039999999
 51
181.6544389999999
  0
LINE
  5
F2F5
330
EED9
100
AcDbEntity
  8
1
  6
Continuous
100
AcDbLine
 10
837.6000000000001
 20
196.3499999999999
 30
0.0
 11
837.6000000000001
 21
195.0
 31
0.0
  0
LINE
  5
F2F6
330
EED9
100
AcDbEntity
  8
1
  6
Continuous
100
AcDbLine
 10
814.6
 20
169.65
 30
0.0
 11
825.1000000000001
 21
169.65
 31
0.0
  0
LINE
  5
F2F7
330
EED9
100
AcDbEntity
  8
1
  6
Continuous
100
AcDbLine
 10
814.6
 20
169.15
 30
0.0
 11
825.1000000000001
 21
169.15
 31
0.0
  0
LINE
  5
F2F8
330
EED9
100
AcDbEntity
  8
1
  6
Continuous
100
AcDbLine
 10
814.6
 20
169.15
 30
0.0
 11
814.6
 21
170.5
 31
0.0
  0
ARC
  5
F2F9
330
EED9
100
AcDbEntity
  8
1
  6
Continuous
100
AcDbCircle
 10
819.8500000000001
 20
169.08125
 30
0.0
 40
2.38125
100
AcDbArc
 50
13.81839
 51
36.569721
  0
ARC
  5
F2FA
330
EED9
100
AcDbEntity
  8
1
  6
Continuous
100
AcDbCircle
 10
819.8500000000001
 20
169.08125
 30
0.0
 40
2.38125
100
AcDbArc
 50
338.3347039999998
 51
1.654438999999999
  0
ARC
  5
F2FB
330
EED9
100
AcDbEntity
  8
1
  6
Continuous
100
AcDbCircle
 10
819.8500000000001
 20
169.08125
 30
0.0
 40
2.38125
100
AcDbArc
 50
143.430279
 51
166.18161
  0
ARC
  5
F2FC
330
EED9
100
AcDbEntity
  8
1
  6
Continuous
100
AcDbCircle
 10
819.8500000000001
 20
169.08125
 30
0.0
 40
2.38125
100
AcDbArc
 50
178.345561
 51
201.6652959999999
  0
LINE
  5
F2FD
330
EED9
100
AcDbEntity
  8
1
  6
Continuous
100
AcDbLine
 10
827.1
 20
169.65
 30
0.0
 11
837.6000000000001
 21
169.65
 31
0.0
  0
LINE
  5
F2FE
330
EED9
100
AcDbEntity
  8
1
  6
Continuous
100
AcDbLine
 10
827.1
 20
169.15
 30
0.0
 11
837.6000000000001
 21
169.15
 31
0.0
  0
ARC
  5
F2FF
330
EED9
100
AcDbEntity
  8
1
  6
Continuous
100
AcDbCircle
 10
832.3500000000001
 20
169.08125
 30
0.0
 40
2.38125
100
AcDbArc
 50
143.430279
 51
166.18161
  0
ARC
  5
F300
330
EED9
100
AcDbEntity
  8
1
  6
Continuous
100
AcDbCircle
 10
832.3500000000001
 20
169.08125
 30
0.0
 40
2.38125
100
AcDbArc
 50
13.81839
 51
36.569721
  0
ARC
  5
F301
330
EED9
100
AcDbEntity
  8
1
  6
Continuous
100
AcDbCircle
 10
832.3500000000001
 20
169.08125
 30
0.0
 40
2.38125
100
AcDbArc
 50
178.345561
 51
201.6652959999999
  0
ARC
  5
F302
330
EED9
100
AcDbEntity
  8
1
  6
Continuous
100
AcDbCircle
 10
832.3500000000001
 20
169.08125
 30
0.0
 40
2.38125
100
AcDbArc
 50
338.3347039999998
 51
1.654438999999999
  0
LINE
  5
F303
330
EED9
100
AcDbEntity
  8
1
  6
Continuous
100
AcDbLine
 10
827.1
 20
169.15
 30
0.0
 11
827.1
 21
170.5
 31
0.0
  0
LINE
  5
F304
330
EED9
100
AcDbEntity
  8
1
  6
Continuous
100
AcDbLine
 10
825.1000000000001
 20
169.15
 30
0.0
 11
825.1000000000001
 21
170.5
 31
0.0
  0
LINE
  5
F305
330
EED9
100
AcDbEntity
  8
1
  6
Continuous
100
AcDbLine
 10
837.6000000000001
 20
169.15
 30
0.0
 11
837.6000000000001
 21
170.5
 31
0.0
  0
LINE
  5
F306
330
EED9
100
AcDbEntity
  8
1
  6
Continuous
100
AcDbLine
 10
434.6
 20
460.7499999999998
 30
0.0
 11
424.1
 21
460.7499999999998
 31
0.0
  0
LINE
  5
F307
330
EED9
100
AcDbEntity
  8
1
  6
Continuous
100
AcDbLine
 10
434.6
 20
460.25
 30
0.0
 11
424.1
 21
460.25
 31
0.0
  0
LINE
  5
F308
330
EED9
100
AcDbEntity
  8
1
  6
Continuous
100
AcDbLine
 10
422.1
 20
460.25
 30
0.0
 11
411.6
 21
460.25
 31
0.0
  0
LINE
  5
F309
330
EED9
100
AcDbEntity
  8
1
  6
Continuous
100
AcDbLine
 10
422.1
 20
460.7499999999998
 30
0.0
 11
411.6
 21
460.7499999999998
 31
0.0
  0
ARC
  5
F30A
330
EED9
100
AcDbEntity
  8
1
  6
Continuous
100
AcDbCircle
 10
416.8499999999998
 20
460.81875
 30
0.0
 40
2.38125
100
AcDbArc
 50
358.3455609999999
 51
21.665296
  0
ARC
  5
F30B
330
EED9
100
AcDbEntity
  8
1
  6
Continuous
100
AcDbCircle
 10
416.8499999999998
 20
460.81875
 30
0.0
 40
2.38125
100
AcDbArc
 50
158.3347039999999
 51
181.6544389999999
  0
ARC
  5
F30C
330
EED9
100
AcDbEntity
  8
1
  6
Continuous
100
AcDbCircle
 10
416.8499999999998
 20
460.81875
 30
0.0
 40
2.38125
100
AcDbArc
 50
323.430279
 51
346.18161
  0
ARC
  5
F30D
330
EED9
100
AcDbEntity
  8
1
  6
Continuous
100
AcDbCircle
 10
416.8499999999998
 20
460.81875
 30
0.0
 40
2.38125
100
AcDbArc
 50
193.81839
 51
216.5697209999999
  0
LINE
  5
F30E
330
EED9
100
AcDbEntity
  8
1
  6
Continuous
100
AcDbLine
 10
411.6
 20
460.7499999999998
 30
0.0
 11
411.6
 21
459.4
 31
0.0
  0
LINE
  5
F30F
330
EED9
100
AcDbEntity
  8
1
  6
Continuous
100
AcDbLine
 10
424.1
 20
460.7499999999998
 30
0.0
 11
424.1
 21
459.4
 31
0.0
  0
LINE
  5
F310
330
EED9
100
AcDbEntity
  8
1
  6
Continuous
100
AcDbLine
 10
422.1
 20
460.7499999999998
 30
0.0
 11
422.1
 21
459.4
 31
0.0
  0
ARC
  5
F311
330
EED9
100
AcDbEntity
  8
1
  6
Continuous
100
AcDbCircle
 10
429.35
 20
460.81875
 30
0.0
 40
2.38125
100
AcDbArc
 50
358.3455609999999
 51
21.665296
  0
LINE
  5
F312
330
EED9
100
AcDbEntity
  8
1
  6
Continuous
100
AcDbLine
 10
434.6
 20
460.7499999999998
 30
0.0
 11
434.6
 21
459.4
 31
0.0
  0
ARC
  5
F313
330
EED9
100
AcDbEntity
  8
1
  6
Continuous
100
AcDbCircle
 10
429.35
 20
460.81875
 30
0.0
 40
2.38125
100
AcDbArc
 50
323.430279
 51
346.18161
  0
ARC
  5
F314
330
EED9
100
AcDbEntity
  8
1
  6
Continuous
100
AcDbCircle
 10
429.35
 20
460.81875
 30
0.0
 40
2.38125
100
AcDbArc
 50
158.3347039999999
 51
181.6544389999999
  0
ARC
  5
F315
330
EED9
100
AcDbEntity
  8
1
  6
Continuous
100
AcDbCircle
 10
429.35
 20
460.81875
 30
0.0
 40
2.38125
100
AcDbArc
 50
193.81839
 51
216.5697209999999
  0
LINE
  5
F316
330
EED9
100
AcDbEntity
  8
1
  6
Continuous
100
AcDbLine
 10
434.6
 20
434.05
 30
0.0
 11
424.1
 21
434.05
 31
0.0
  0
LINE
  5
F317
330
EED9
100
AcDbEntity
  8
1
  6
Continuous
100
AcDbLine
 10
434.6
 20
433.55
 30
0.0
 11
424.1
 21
433.55
 31
0.0
  0
LINE
  5
F318
330
EED9
100
AcDbEntity
  8
1
  6
Continuous
100
AcDbLine
 10
422.1
 20
433.55
 30
0.0
 11
411.6
 21
433.55
 31
0.0
  0
LINE
  5
F319
330
EED9
100
AcDbEntity
  8
1
  6
Continuous
100
AcDbLine
 10
422.1
 20
434.05
 30
0.0
 11
411.6
 21
434.05
 31
0.0
  0
ARC
  5
F31A
330
EED9
100
AcDbEntity
  8
1
  6
Continuous
100
AcDbCircle
 10
416.8499999999998
 20
433.4812499999999
 30
0.0
 40
2.38125
100
AcDbArc
 50
13.81839
 51
36.569721
  0
ARC
  5
F31B
330
EED9
100
AcDbEntity
  8
1
  6
Continuous
100
AcDbCircle
 10
416.8499999999998
 20
433.4812499999999
 30
0.0
 40
2.38125
100
AcDbArc
 50
338.3347039999998
 51
1.654438999999999
  0
LINE
  5
F31C
330
EED9
100
AcDbEntity
  8
1
  6
Continuous
100
AcDbLine
 10
411.6
 20
433.55
 30
0.0
 11
411.6
 21
434.9
 31
0.0
  0
ARC
  5
F31D
330
EED9
100
AcDbEntity
  8
1
  6
Continuous
100
AcDbCircle
 10
416.8499999999998
 20
433.4812499999999
 30
0.0
 40
2.38125
100
AcDbArc
 50
143.430279
 51
166.18161
  0
ARC
  5
F31E
330
EED9
100
AcDbEntity
  8
1
  6
Continuous
100
AcDbCircle
 10
416.8499999999998
 20
433.4812499999999
 30
0.0
 40
2.38125
100
AcDbArc
 50
178.345561
 51
201.6652959999999
  0
LINE
  5
F31F
330
EED9
100
AcDbEntity
  8
1
  6
Continuous
100
AcDbLine
 10
424.1
 20
433.55
 30
0.0
 11
424.1
 21
434.9
 31
0.0
  0
LINE
  5
F320
330
EED9
100
AcDbEntity
  8
1
  6
Continuous
100
AcDbLine
 10
422.1
 20
433.55
 30
0.0
 11
422.1
 21
434.9
 31
0.0
  0
ARC
  5
F321
330
EED9
100
AcDbEntity
  8
1
  6
Continuous
100
AcDbCircle
 10
429.35
 20
433.4812499999999
 30
0.0
 40
2.38125
100
AcDbArc
 50
13.81839
 51
36.569721
  0
LINE
  5
F322
330
EED9
100
AcDbEntity
  8
1
  6
Continuous
100
AcDbLine
 10
434.6
 20
433.55
 30
0.0
 11
434.6
 21
434.9
 31
0.0
  0
ARC
  5
F323
330
EED9
100
AcDbEntity
  8
1
  6
Continuous
100
AcDbCircle
 10
429.35
 20
433.4812499999999
 30
0.0
 40
2.38125
100
AcDbArc
 50
338.3347039999998
 51
1.654438999999999
  0
ARC
  5
F324
330
EED9
100
AcDbEntity
  8
1
  6
Continuous
100
AcDbCircle
 10
429.35
 20
433.4812499999999
 30
0.0
 40
2.38125
100
AcDbArc
 50
143.430279
 51
166.18161
  0
ARC
  5
F325
330
EED9
100
AcDbEntity
  8
1
  6
Continuous
100
AcDbCircle
 10
429.35
 20
433.4812499999999
 30
0.0
 40
2.38125
100
AcDbArc
 50
178.345561
 51
201.6652959999999
  0
LINE
  5
F326
330
EED9
100
AcDbEntity
  8
1
  6
Continuous
100
AcDbLine
 10
862.6000000000001
 20
196.3499999999999
 30
0.0
 11
862.6000000000001
 21
195.0
 31
0.0
  0
ARC
  5
F327
330
EED9
100
AcDbEntity
  8
1
  6
Continuous
100
AcDbCircle
 10
857.3500000000001
 20
196.4187499999999
 30
0.0
 40
2.38125
100
AcDbArc
 50
158.3347039999999
 51
181.6544389999999
  0
ARC
  5
F328
330
EED9
100
AcDbEntity
  8
1
  6
Continuous
100
AcDbCircle
 10
857.3500000000001
 20
196.4187499999999
 30
0.0
 40
2.38125
100
AcDbArc
 50
358.3455609999999
 51
21.665296
  0
LINE
  5
F329
330
EED9
100
AcDbEntity
  8
1
  6
Continuous
100
AcDbLine
 10
852.1
 20
196.3499999999999
 30
0.0
 11
852.1
 21
195.0
 31
0.0
  0
ARC
  5
F32A
330
EED9
100
AcDbEntity
  8
1
  6
Continuous
100
AcDbCircle
 10
857.3500000000001
 20
196.4187499999999
 30
0.0
 40
2.38125
100
AcDbArc
 50
193.81839
 51
216.5697209999999
  0
ARC
  5
F32B
330
EED9
100
AcDbEntity
  8
1
  6
Continuous
100
AcDbCircle
 10
857.3500000000001
 20
196.4187499999999
 30
0.0
 40
2.38125
100
AcDbArc
 50
323.430279
 51
346.18161
  0
LINE
  5
F32C
330
EED9
100
AcDbEntity
  8
1
  6
Continuous
100
AcDbLine
 10
850.1000000000001
 20
196.3499999999999
 30
0.0
 11
850.1000000000001
 21
195.0
 31
0.0
  0
LINE
  5
F32D
330
EED9
100
AcDbEntity
  8
1
  6
Continuous
100
AcDbLine
 10
852.1
 20
196.3499999999999
 30
0.0
 11
862.6000000000001
 21
196.3499999999999
 31
0.0
  0
LINE
  5
F32E
330
EED9
100
AcDbEntity
  8
1
  6
Continuous
100
AcDbLine
 10
852.1
 20
195.8499999999999
 30
0.0
 11
862.6000000000001
 21
195.8499999999999
 31
0.0
  0
ARC
  5
F32F
330
EED9
100
AcDbEntity
  8
1
  6
Continuous
100
AcDbCircle
 10
844.8500000000001
 20
196.4187499999999
 30
0.0
 40
2.38125
100
AcDbArc
 50
158.3347039999999
 51
181.6544389999999
  0
ARC
  5
F330
330
EED9
100
AcDbEntity
  8
1
  6
Continuous
100
AcDbCircle
 10
844.8500000000001
 20
196.4187499999999
 30
0.0
 40
2.38125
100
AcDbArc
 50
193.81839
 51
216.5697209999999
  0
ARC
  5
F331
330
EED9
100
AcDbEntity
  8
1
  6
Continuous
100
AcDbCircle
 10
844.8500000000001
 20
196.4187499999999
 30
0.0
 40
2.38125
100
AcDbArc
 50
358.3455609999999
 51
21.665296
  0
ARC
  5
F332
330
EED9
100
AcDbEntity
  8
1
  6
Continuous
100
AcDbCircle
 10
844.8500000000001
 20
196.4187499999999
 30
0.0
 40
2.38125
100
AcDbArc
 50
323.430279
 51
346.18161
  0
LINE
  5
F333
330
EED9
100
AcDbEntity
  8
1
  6
Continuous
100
AcDbLine
 10
839.6
 20
196.3499999999999
 30
0.0
 11
839.6
 21
195.0
 31
0.0
  0
LINE
  5
F334
330
EED9
100
AcDbEntity
  8
1
  6
Continuous
100
AcDbLine
 10
839.6
 20
195.8499999999999
 30
0.0
 11
850.1000000000001
 21
195.8499999999999
 31
0.0
  0
LINE
  5
F335
330
EED9
100
AcDbEntity
  8
1
  6
Continuous
100
AcDbLine
 10
839.6
 20
196.3499999999999
 30
0.0
 11
850.1000000000001
 21
196.3499999999999
 31
0.0
  0
LINE
  5
F336
330
EED9
100
AcDbEntity
  8
1
  6
Continuous
100
AcDbLine
 10
862.6000000000001
 20
169.15
 30
0.0
 11
862.6000000000001
 21
170.5
 31
0.0
  0
LINE
  5
F337
330
EED9
100
AcDbEntity
  8
1
  6
Continuous
100
AcDbLine
 10
850.1000000000001
 20
169.15
 30
0.0
 11
850.1000000000001
 21
170.5
 31
0.0
  0
LINE
  5
F338
330
EED9
100
AcDbEntity
  8
1
  6
Continuous
100
AcDbLine
 10
852.1
 20
169.15
 30
0.0
 11
852.1
 21
170.5
 31
0.0
  0
ARC
  5
F339
330
EED9
100
AcDbEntity
  8
1
  6
Continuous
100
AcDbCircle
 10
857.3500000000001
 20
169.08125
 30
0.0
 40
2.38125
100
AcDbArc
 50
338.3347039999998
 51
1.654438999999999
  0
ARC
  5
F33A
330
EED9
100
AcDbEntity
  8
1
  6
Continuous
100
AcDbCircle
 10
857.3500000000001
 20
169.08125
 30
0.0
 40
2.38125
100
AcDbArc
 50
178.345561
 51
201.6652959999999
  0
ARC
  5
F33B
330
EED9
100
AcDbEntity
  8
1
  6
Continuous
100
AcDbCircle
 10
857.3500000000001
 20
169.08125
 30
0.0
 40
2.38125
100
AcDbArc
 50
13.81839
 51
36.569721
  0
ARC
  5
F33C
330
EED9
100
AcDbEntity
  8
1
  6
Continuous
100
AcDbCircle
 10
857.3500000000001
 20
169.08125
 30
0.0
 40
2.38125
100
AcDbArc
 50
143.430279
 51
166.18161
  0
LINE
  5
F33D
330
EED9
100
AcDbEntity
  8
1
  6
Continuous
100
AcDbLine
 10
852.1
 20
169.15
 30
0.0
 11
862.6000000000001
 21
169.15
 31
0.0
  0
LINE
  5
F33E
330
EED9
100
AcDbEntity
  8
1
  6
Continuous
100
AcDbLine
 10
852.1
 20
169.65
 30
0.0
 11
862.6000000000001
 21
169.65
 31
0.0
  0
ARC
  5
F33F
330
EED9
100
AcDbEntity
  8
1
  6
Continuous
100
AcDbCircle
 10
844.8500000000001
 20
169.08125
 30
0.0
 40
2.38125
100
AcDbArc
 50
178.345561
 51
201.6652959999999
  0
ARC
  5
F340
330
EED9
100
AcDbEntity
  8
1
  6
Continuous
100
AcDbCircle
 10
844.8500000000001
 20
169.08125
 30
0.0
 40
2.38125
100
AcDbArc
 50
143.430279
 51
166.18161
  0
ARC
  5
F341
330
EED9
100
AcDbEntity
  8
1
  6
Continuous
100
AcDbCircle
 10
844.8500000000001
 20
169.08125
 30
0.0
 40
2.38125
100
AcDbArc
 50
338.3347039999998
 51
1.654438999999999
  0
ARC
  5
F342
330
EED9
100
AcDbEntity
  8
1
  6
Continuous
100
AcDbCircle
 10
844.8500000000001
 20
169.08125
 30
0.0
 40
2.38125
100
AcDbArc
 50
13.81839
 51
36.569721
  0
LINE
  5
F343
330
EED9
100
AcDbEntity
  8
1
  6
Continuous
100
AcDbLine
 10
839.6
 20
169.15
 30
0.0
 11
839.6
 21
170.5
 31
0.0
  0
LINE
  5
F344
330
EED9
100
AcDbEntity
  8
1
  6
Continuous
100
AcDbLine
 10
839.6
 20
169.15
 30
0.0
 11
850.1000000000001
 21
169.15
 31
0.0
  0
LINE
  5
F345
330
EED9
100
AcDbEntity
  8
1
  6
Continuous
100
AcDbLine
 10
839.6
 20
169.65
 30
0.0
 11
850.1000000000001
 21
169.65
 31
0.0
  0
ARC
  5
F346
330
EED9
100
AcDbEntity
  8
1
  6
Continuous
100
AcDbCircle
 10
902.5
 20
447.1499999999998
 30
0.0
 40
2.25
100
AcDbArc
 50
270.0
 51
90.0
  0
LINE
  5
F347
330
EED9
100
AcDbEntity
  8
1
  6
Continuous
100
AcDbLine
 10
901.7000000000001
 20
449.3999999999998
 30
0.0
 11
902.5
 21
449.3999999999998
 31
0.0
  0
LINE
  5
F348
330
EED9
100
AcDbEntity
  8
4
  6
CENTER
100
AcDbLine
 10
902.1
 20
441.8999999999998
 30
0.0
 11
902.1
 21
452.4
 31
0.0
  0
LINE
  5
F349
330
EED9
100
AcDbEntity
  8
1
  6
Continuous
100
AcDbLine
 10
901.7000000000001
 20
444.8999999999998
 30
0.0
 11
902.5
 21
444.8999999999998
 31
0.0
  0
ARC
  5
F34A
330
EED9
100
AcDbEntity
  8
1
  6
Continuous
100
AcDbCircle
 10
901.7000000000001
 20
447.1499999999998
 30
0.0
 40
2.25
100
AcDbArc
 50
90.0
 51
270.0
  0
LINE
  5
F34B
330
EED9
100
AcDbEntity
  8
4
  6
CENTER
100
AcDbLine
 10
902.1
 20
328.9955889999998
 30
0.0
 11
902.1
 21
318.4955889999999
 31
0.0
  0
ARC
  5
F34C
330
EED9
100
AcDbEntity
  8
1
  6
Continuous
100
AcDbCircle
 10
371.7
 20
447.1499999999998
 30
0.0
 40
2.25
100
AcDbArc
 50
90.0
 51
270.0
  0
ARC
  5
F34D
330
EED9
100
AcDbEntity
  8
1
  6
Continuous
100
AcDbCircle
 10
372.5
 20
447.1499999999998
 30
0.0
 40
2.25
100
AcDbArc
 50
270.0
 51
90.0
  0
LINE
  5
F34E
330
EED9
100
AcDbEntity
  8
1
  6
Continuous
100
AcDbLine
 10
372.5
 20
444.8999999999998
 30
0.0
 11
371.7
 21
444.8999999999998
 31
0.0
  0
LINE
  5
F34F
330
EED9
100
AcDbEntity
  8
4
  6
CENTER
100
AcDbLine
 10
372.1
 20
441.8999999999998
 30
0.0
 11
372.1
 21
452.4
 31
0.0
  0
LINE
  5
F350
330
EED9
100
AcDbEntity
  8
1
  6
Continuous
100
AcDbLine
 10
372.5
 20
449.3999999999998
 30
0.0
 11
371.7
 21
449.3999999999998
 31
0.0
  0
LINE
  5
F351
330
EED9
100
AcDbEntity
  8
4
  6
CENTER
100
AcDbLine
 10
372.1
 20
310.471691
 30
0.0
 11
372.1
 21
299.971691
 31
0.0
  0
ARC
  5
F352
330
EED9
100
AcDbEntity
  8
1
  6
Continuous
100
AcDbCircle
 10
902.5
 20
182.75
 30
0.0
 40
2.25
100
AcDbArc
 50
270.0
 51
90.0
  0
LINE
  5
F353
330
EED9
100
AcDbEntity
  8
1
  6
Continuous
100
AcDbLine
 10
901.7000000000001
 20
180.4999999999998
 30
0.0
 11
902.5
 21
180.4999999999998
 31
0.0
  0
LINE
  5
F354
330
EED9
100
AcDbEntity
  8
4
  6
CENTER
100
AcDbLine
 10
902.1
 20
188.0
 30
0.0
 11
902.1
 21
177.5
 31
0.0
  0
LINE
  5
F355
330
EED9
100
AcDbEntity
  8
1
  6
Continuous
100
AcDbLine
 10
901.7000000000001
 20
185.0
 30
0.0
 11
902.5
 21
185.0
 31
0.0
  0
ARC
  5
F356
330
EED9
100
AcDbEntity
  8
1
  6
Continuous
100
AcDbCircle
 10
901.7000000000001
 20
182.75
 30
0.0
 40
2.25
100
AcDbArc
 50
90.0
 51
270.0
  0
LINE
  5
F357
330
EED9
100
AcDbEntity
  8
4
  6
CENTER
100
AcDbLine
 10
902.1
 20
36.504411
 30
0.0
 11
902.1
 21
47.00441099999999
 31
0.0
  0
LINE
  5
F358
330
EED9
100
AcDbEntity
  8
4
  6
CENTER
100
AcDbLine
 10
372.1
 20
55.028309
 30
0.0
 11
372.1
 21
65.528309
 31
0.0
  0
ARC
  5
F359
330
EED9
100
AcDbEntity
  8
1
  6
Continuous
100
AcDbCircle
 10
372.5
 20
182.75
 30
0.0
 40
2.25
100
AcDbArc
 50
270.0
 51
90.0
  0
ARC
  5
F35A
330
EED9
100
AcDbEntity
  8
1
  6
Continuous
100
AcDbCircle
 10
371.7
 20
182.75
 30
0.0
 40
2.25
100
AcDbArc
 50
90.0
 51
270.0
  0
LINE
  5
F35B
330
EED9
100
AcDbEntity
  8
1
  6
Continuous
100
AcDbLine
 10
372.5
 20
185.0
 30
0.0
 11
371.7
 21
185.0
 31
0.0
  0
LINE
  5
F35C
330
EED9
100
AcDbEntity
  8
4
  6
CENTER
100
AcDbLine
 10
372.1
 20
188.0
 30
0.0
 11
372.1
 21
177.5
 31
0.0
  0
LINE
  5
F35D
330
EED9
100
AcDbEntity
  8
1
  6
Continuous
100
AcDbLine
 10
372.5
 20
180.4999999999998
 30
0.0
 11
371.7
 21
180.4999999999998
 31
0.0
  0
LINE
  5
F35E
330
EED9
100
AcDbEntity
  8
1
  6
Continuous
100
AcDbLine
 10
409.6
 20
460.7499999999998
 30
0.0
 11
399.1
 21
460.7499999999998
 31
0.0
  0
LINE
  5
F35F
330
EED9
100
AcDbEntity
  8
1
  6
Continuous
100
AcDbLine
 10
409.6
 20
460.25
 30
0.0
 11
399.1
 21
460.25
 31
0.0
  0
LINE
  5
F360
330
EED9
100
AcDbEntity
  8
1
  6
Continuous
100
AcDbLine
 10
397.1
 20
460.25
 30
0.0
 11
386.6
 21
460.25
 31
0.0
  0
LINE
  5
F361
330
EED9
100
AcDbEntity
  8
1
  6
Continuous
100
AcDbLine
 10
397.1
 20
460.7499999999998
 30
0.0
 11
386.6
 21
460.7499999999998
 31
0.0
  0
ARC
  5
F362
330
EED9
100
AcDbEntity
  8
1
  6
Continuous
100
AcDbCircle
 10
391.85
 20
460.81875
 30
0.0
 40
2.38125
100
AcDbArc
 50
358.3455609999999
 51
21.665296
  0
ARC
  5
F363
330
EED9
100
AcDbEntity
  8
1
  6
Continuous
100
AcDbCircle
 10
391.85
 20
460.81875
 30
0.0
 40
2.38125
100
AcDbArc
 50
158.3347039999999
 51
181.6544389999999
  0
ARC
  5
F364
330
EED9
100
AcDbEntity
  8
1
  6
Continuous
100
AcDbCircle
 10
391.85
 20
460.81875
 30
0.0
 40
2.38125
100
AcDbArc
 50
323.430279
 51
346.18161
  0
ARC
  5
F365
330
EED9
100
AcDbEntity
  8
1
  6
Continuous
100
AcDbCircle
 10
391.85
 20
460.81875
 30
0.0
 40
2.38125
100
AcDbArc
 50
193.81839
 51
216.5697209999999
  0
LINE
  5
F366
330
EED9
100
AcDbEntity
  8
1
  6
Continuous
100
AcDbLine
 10
386.6
 20
460.7499999999998
 30
0.0
 11
386.6
 21
459.4
 31
0.0
  0
LINE
  5
F367
330
EED9
100
AcDbEntity
  8
1
  6
Continuous
100
AcDbLine
 10
399.1
 20
460.7499999999998
 30
0.0
 11
399.1
 21
459.4
 31
0.0
  0
LINE
  5
F368
330
EED9
100
AcDbEntity
  8
1
  6
Continuous
100
AcDbLine
 10
397.1
 20
460.7499999999998
 30
0.0
 11
397.1
 21
459.4
 31
0.0
  0
ARC
  5
F369
330
EED9
100
AcDbEntity
  8
1
  6
Continuous
100
AcDbCircle
 10
404.3499999999998
 20
460.81875
 30
0.0
 40
2.38125
100
AcDbArc
 50
358.3455609999999
 51
21.665296
  0
LINE
  5
F36A
330
EED9
100
AcDbEntity
  8
1
  6
Continuous
100
AcDbLine
 10
409.6
 20
460.7499999999998
 30
0.0
 11
409.6
 21
459.4
 31
0.0
  0
ARC
  5
F36B
330
EED9
100
AcDbEntity
  8
1
  6
Continuous
100
AcDbCircle
 10
404.3499999999998
 20
460.81875
 30
0.0
 40
2.38125
100
AcDbArc
 50
323.430279
 51
346.18161
  0
ARC
  5
F36C
330
EED9
100
AcDbEntity
  8
1
  6
Continuous
100
AcDbCircle
 10
404.3499999999998
 20
460.81875
 30
0.0
 40
2.38125
100
AcDbArc
 50
158.3347039999999
 51
181.6544389999999
  0
ARC
  5
F36D
330
EED9
100
AcDbEntity
  8
1
  6
Continuous
100
AcDbCircle
 10
404.3499999999998
 20
460.81875
 30
0.0
 40
2.38125
100
AcDbArc
 50
193.81839
 51
216.5697209999999
  0
LINE
  5
F36E
330
EED9
100
AcDbEntity
  8
1
  6
Continuous
100
AcDbLine
 10
409.6
 20
434.05
 30
0.0
 11
399.1
 21
434.05
 31
0.0
  0
LINE
  5
F36F
330
EED9
100
AcDbEntity
  8
1
  6
Continuous
100
AcDbLine
 10
409.6
 20
433.55
 30
0.0
 11
399.1
 21
433.55
 31
0.0
  0
LINE
  5
F370
330
EED9
100
AcDbEntity
  8
1
  6
Continuous
100
AcDbLine
 10
397.1
 20
433.55
 30
0.0
 11
386.6
 21
433.55
 31
0.0
  0
LINE
  5
F371
330
EED9
100
AcDbEntity
  8
1
  6
Continuous
100
AcDbLine
 10
397.1
 20
434.05
 30
0.0
 11
386.6
 21
434.05
 31
0.0
  0
ARC
  5
F372
330
EED9
100
AcDbEntity
  8
1
  6
Continuous
100
AcDbCircle
 10
391.85
 20
433.4812499999999
 30
0.0
 40
2.38125
100
AcDbArc
 50
13.81839
 51
36.569721
  0
ARC
  5
F373
330
EED9
100
AcDbEntity
  8
1
  6
Continuous
100
AcDbCircle
 10
391.85
 20
433.4812499999999
 30
0.0
 40
2.38125
100
AcDbArc
 50
338.3347039999998
 51
1.654438999999999
  0
LINE
  5
F374
330
EED9
100
AcDbEntity
  8
1
  6
Continuous
100
AcDbLine
 10
386.6
 20
433.55
 30
0.0
 11
386.6
 21
434.9
 31
0.0
  0
ARC
  5
F375
330
EED9
100
AcDbEntity
  8
1
  6
Continuous
100
AcDbCircle
 10
391.85
 20
433.4812499999999
 30
0.0
 40
2.38125
100
AcDbArc
 50
143.430279
 51
166.18161
  0
ARC
  5
F376
330
EED9
100
AcDbEntity
  8
1
  6
Continuous
100
AcDbCircle
 10
391.85
 20
433.4812499999999
 30
0.0
 40
2.38125
100
AcDbArc
 50
178.345561
 51
201.6652959999999
  0
LINE
  5
F377
330
EED9
100
AcDbEntity
  8
1
  6
Continuous
100
AcDbLine
 10
399.1
 20
433.55
 30
0.0
 11
399.1
 21
434.9
 31
0.0
  0
LINE
  5
F378
330
EED9
100
AcDbEntity
  8
1
  6
Continuous
100
AcDbLine
 10
397.1
 20
433.55
 30
0.0
 11
397.1
 21
434.9
 31
0.0
  0
ARC
  5
F379
330
EED9
100
AcDbEntity
  8
1
  6
Continuous
100
AcDbCircle
 10
404.3499999999998
 20
433.4812499999999
 30
0.0
 40
2.38125
100
AcDbArc
 50
13.81839
 51
36.569721
  0
LINE
  5
F37A
330
EED9
100
AcDbEntity
  8
1
  6
Continuous
100
AcDbLine
 10
409.6
 20
433.55
 30
0.0
 11
409.6
 21
434.9
 31
0.0
  0
ARC
  5
F37B
330
EED9
100
AcDbEntity
  8
1
  6
Continuous
100
AcDbCircle
 10
404.3499999999998
 20
433.4812499999999
 30
0.0
 40
2.38125
100
AcDbArc
 50
338.3347039999998
 51
1.654438999999999
  0
ARC
  5
F37C
330
EED9
100
AcDbEntity
  8
1
  6
Continuous
100
AcDbCircle
 10
404.3499999999998
 20
433.4812499999999
 30
0.0
 40
2.38125
100
AcDbArc
 50
143.430279
 51
166.18161
  0
ARC
  5
F37D
330
EED9
100
AcDbEntity
  8
1
  6
Continuous
100
AcDbCircle
 10
404.3499999999998
 20
433.4812499999999
 30
0.0
 40
2.38125
100
AcDbArc
 50
178.345561
 51
201.6652959999999
  0
LINE
  5
F37E
330
EED9
100
AcDbEntity
  8
1
  6
Continuous
100
AcDbLine
 10
887.6000000000001
 20
196.3499999999999
 30
0.0
 11
887.6000000000001
 21
195.0
 31
0.0
  0
ARC
  5
F37F
330
EED9
100
AcDbEntity
  8
1
  6
Continuous
100
AcDbCircle
 10
882.3500000000001
 20
196.4187499999999
 30
0.0
 40
2.38125
100
AcDbArc
 50
158.3347039999999
 51
181.6544389999999
  0
ARC
  5
F380
330
EED9
100
AcDbEntity
  8
1
  6
Continuous
100
AcDbCircle
 10
882.3500000000001
 20
196.4187499999999
 30
0.0
 40
2.38125
100
AcDbArc
 50
358.3455609999999
 51
21.665296
  0
LINE
  5
F381
330
EED9
100
AcDbEntity
  8
1
  6
Continuous
100
AcDbLine
 10
877.1
 20
196.3499999999999
 30
0.0
 11
877.1
 21
195.0
 31
0.0
  0
ARC
  5
F382
330
EED9
100
AcDbEntity
  8
1
  6
Continuous
100
AcDbCircle
 10
882.3500000000001
 20
196.4187499999999
 30
0.0
 40
2.38125
100
AcDbArc
 50
193.81839
 51
216.5697209999999
  0
ARC
  5
F383
330
EED9
100
AcDbEntity
  8
1
  6
Continuous
100
AcDbCircle
 10
882.3500000000001
 20
196.4187499999999
 30
0.0
 40
2.38125
100
AcDbArc
 50
323.430279
 51
346.18161
  0
LINE
  5
F384
330
EED9
100
AcDbEntity
  8
1
  6
Continuous
100
AcDbLine
 10
875.1000000000001
 20
196.3499999999999
 30
0.0
 11
875.1000000000001
 21
195.0
 31
0.0
  0
LINE
  5
F385
330
EED9
100
AcDbEntity
  8
1
  6
Continuous
100
AcDbLine
 10
877.1
 20
196.3499999999999
 30
0.0
 11
887.6000000000001
 21
196.3499999999999
 31
0.0
  0
LINE
  5
F386
330
EED9
100
AcDbEntity
  8
1
  6
Continuous
100
AcDbLine
 10
877.1
 20
195.8499999999999
 30
0.0
 11
887.6000000000001
 21
195.8499999999999
 31
0.0
  0
ARC
  5
F387
330
EED9
100
AcDbEntity
  8
1
  6
Continuous
100
AcDbCircle
 10
869.8500000000001
 20
196.4187499999999
 30
0.0
 40
2.38125
100
AcDbArc
 50
158.3347039999999
 51
181.6544389999999
  0
ARC
  5
F388
330
EED9
100
AcDbEntity
  8
1
  6
Continuous
100
AcDbCircle
 10
869.8500000000001
 20
196.4187499999999
 30
0.0
 40
2.38125
100
AcDbArc
 50
193.81839
 51
216.5697209999999
  0
ARC
  5
F389
330
EED9
100
AcDbEntity
  8
1
  6
Continuous
100
AcDbCircle
 10
869.8500000000001
 20
196.4187499999999
 30
0.0
 40
2.38125
100
AcDbArc
 50
358.3455609999999
 51
21.665296
  0
ARC
  5
F38A
330
EED9
100
AcDbEntity
  8
1
  6
Continuous
100
AcDbCircle
 10
869.8500000000001
 20
196.4187499999999
 30
0.0
 40
2.38125
100
AcDbArc
 50
323.430279
 51
346.18161
  0
LINE
  5
F38B
330
EED9
100
AcDbEntity
  8
1
  6
Continuous
100
AcDbLine
 10
864.6
 20
196.3499999999999
 30
0.0
 11
864.6
 21
195.0
 31
0.0
  0
LINE
  5
F38C
330
EED9
100
AcDbEntity
  8
1
  6
Continuous
100
AcDbLine
 10
864.6
 20
195.8499999999999
 30
0.0
 11
875.1000000000001
 21
195.8499999999999
 31
0.0
  0
LINE
  5
F38D
330
EED9
100
AcDbEntity
  8
1
  6
Continuous
100
AcDbLine
 10
864.6
 20
196.3499999999999
 30
0.0
 11
875.1000000000001
 21
196.3499999999999
 31
0.0
  0
LINE
  5
F38E
330
EED9
100
AcDbEntity
  8
1
  6
Continuous
100
AcDbLine
 10
887.6000000000001
 20
169.15
 30
0.0
 11
887.6000000000001
 21
170.5
 31
0.0
  0
LINE
  5
F38F
330
EED9
100
AcDbEntity
  8
1
  6
Continuous
100
AcDbLine
 10
875.1000000000001
 20
169.15
 30
0.0
 11
875.1000000000001
 21
170.5
 31
0.0
  0
LINE
  5
F390
330
EED9
100
AcDbEntity
  8
1
  6
Continuous
100
AcDbLine
 10
877.1
 20
169.15
 30
0.0
 11
877.1
 21
170.5
 31
0.0
  0
ARC
  5
F391
330
EED9
100
AcDbEntity
  8
1
  6
Continuous
100
AcDbCircle
 10
882.3500000000001
 20
169.08125
 30
0.0
 40
2.38125
100
AcDbArc
 50
338.3347039999998
 51
1.654438999999999
  0
ARC
  5
F392
330
EED9
100
AcDbEntity
  8
1
  6
Continuous
100
AcDbCircle
 10
882.3500000000001
 20
169.08125
 30
0.0
 40
2.38125
100
AcDbArc
 50
178.345561
 51
201.6652959999999
  0
ARC
  5
F393
330
EED9
100
AcDbEntity
  8
1
  6
Continuous
100
AcDbCircle
 10
882.3500000000001
 20
169.08125
 30
0.0
 40
2.38125
100
AcDbArc
 50
13.81839
 51
36.569721
  0
ARC
  5
F394
330
EED9
100
AcDbEntity
  8
1
  6
Continuous
100
AcDbCircle
 10
882.3500000000001
 20
169.08125
 30
0.0
 40
2.38125
100
AcDbArc
 50
143.430279
 51
166.18161
  0
LINE
  5
F395
330
EED9
100
AcDbEntity
  8
1
  6
Continuous
100
AcDbLine
 10
877.1
 20
169.15
 30
0.0
 11
887.6000000000001
 21
169.15
 31
0.0
  0
LINE
  5
F396
330
EED9
100
AcDbEntity
  8
1
  6
Continuous
100
AcDbLine
 10
877.1
 20
169.65
 30
0.0
 11
887.6000000000001
 21
169.65
 31
0.0
  0
ARC
  5
F397
330
EED9
100
AcDbEntity
  8
1
  6
Continuous
100
AcDbCircle
 10
869.8500000000001
 20
169.08125
 30
0.0
 40
2.38125
100
AcDbArc
 50
178.345561
 51
201.6652959999999
  0
ARC
  5
F398
330
EED9
100
AcDbEntity
  8
1
  6
Continuous
100
AcDbCircle
 10
869.8500000000001
 20
169.08125
 30
0.0
 40
2.38125
100
AcDbArc
 50
143.430279
 51
166.18161
  0
ARC
  5
F399
330
EED9
100
AcDbEntity
  8
1
  6
Continuous
100
AcDbCircle
 10
869.8500000000001
 20
169.08125
 30
0.0
 40
2.38125
100
AcDbArc
 50
338.3347039999998
 51
1.654438999999999
  0
ARC
  5
F39A
330
EED9
100
AcDbEntity
  8
1
  6
Continuous
100
AcDbCircle
 10
869.8500000000001
 20
169.08125
 30
0.0
 40
2.38125
100
AcDbArc
 50
13.81839
 51
36.569721
  0
LINE
  5
F39B
330
EED9
100
AcDbEntity
  8
1
  6
Continuous
100
AcDbLine
 10
864.6
 20
169.15
 30
0.0
 11
864.6
 21
170.5
 31
0.0
  0
LINE
  5
F39C
330
EED9
100
AcDbEntity
  8
1
  6
Continuous
100
AcDbLine
 10
864.6
 20
169.15
 30
0.0
 11
875.1000000000001
 21
169.15
 31
0.0
  0
LINE
  5
F39D
330
EED9
100
AcDbEntity
  8
1
  6
Continuous
100
AcDbLine
 10
864.6
 20
169.65
 30
0.0
 11
875.1000000000001
 21
169.65
 31
0.0
  0
ENDSEC
  0
SECTION
  2
OBJECTS
  0
DICTIONARY
  5
EEC7
330
0
100
AcDbDictionary
281
     1
  3
ACAD_CIP_PREVIOUS_PRODUCT_INFO
350
F3FD
  3
ACAD_COLOR
350
F3DF
  3
ACAD_DETAILVIEWSTYLE
350
F3F8
  3
ACAD_GROUP
350
EEC8
  3
ACAD_LAYOUT
350
EED4
  3
ACAD_MATERIAL
350
F3AD
  3
ACAD_MLEADERSTYLE
350
F3F4
  3
ACAD_MLINESTYLE
350
EED1
  3
ACAD_PLOTSETTINGS
350
EED3
  3
ACAD_PLOTSTYLENAME
350
F3AB
  3
ACAD_SCALELIST
350
F3E2
  3
ACAD_SECTIONVIEWSTYLE
350
F3F6
  3
ACAD_TABLESTYLE
350
F3E0
  3
ACAD_VISUALSTYLE
350
F3C6
  3
ACDB_RECOMPOSE_DATA
350
F41B
  3
AcDbVariableDictionary
350
F40E
  3
DWGPROPS
350
F41C
  0
DICTIONARY
  5
F3FE
330
EECB
100
AcDbDictionary
280
     1
281
     1
  3
ADSK_XREC_LAYER_RECONCILED
360
F3FF
  0
DICTIONARY
  5
F400
330
EEE1
100
AcDbDictionary
280
     1
281
     1
  3
ADSK_XREC_LAYER_RECONCILED
360
F401
  0
DICTIONARY
  5
F402
330
EEE2
100
AcDbDictionary
280
     1
281
     1
  3
ADSK_XREC_LAYER_RECONCILED
360
F403
  0
DICTIONARY
  5
F404
330
EEE3
100
AcDbDictionary
280
     1
281
     1
  3
ADSK_XREC_LAYER_RECONCILED
360
F405
  0
DICTIONARY
  5
F406
330
EEE4
100
AcDbDictionary
280
     1
281
     1
  3
ADSK_XREC_LAYER_RECONCILED
360
F407
  0
DICTIONARY
  5
F408
330
EEE5
100
AcDbDictionary
280
     1
281
     1
  3
ADSK_XREC_LAYER_RECONCILED
360
F409
  0
DICTIONARY
  5
F40A
330
EEE6
100
AcDbDictionary
280
     1
281
     1
  3
ADSK_XREC_LAYER_RECONCILED
360
F40B
  0
DICTIONARY
  5
F40C
330
EEE7
100
AcDbDictionary
280
     1
281
     1
  3
ADSK_XREC_LAYER_RECONCILED
360
F40D
  0
DICTIONARY
  5
F3A6
330
EED9
100
AcDbDictionary
281
     1
  3
ACAD_LAYOUTSELFREF
350
F3A7
  0
DICTIONARY
  5
F3A4
330
EED5
100
AcDbDictionary
281
     1
  3
ACAD_LAYOUTSELFREF
350
F3A5
  0
XRECORD
  5
F3FD
102
{ACAD_REACTORS
330
EEC7
102
}
330
EEC7
100
AcDbXrecord
280
     1
300
ACDLT
300
2014
300
ACDLT_F_S
  0
DICTIONARY
  5
F3DF
102
{ACAD_REACTORS
330
EEC7
102
}
330
EEC7
100
AcDbDictionary
281
     1
  0
DICTIONARY
  5
F3F8
102
{ACAD_REACTORS
330
EEC7
102
}
330
EEC7
100
AcDbDictionary
281
     1
  3
Imperial24
350
F3F9
  0
DICTIONARY
  5
EEC8
102
{ACAD_REACTORS
330
EEC7
102
}
330
EEC7
100
AcDbDictionary
281
     1
  0
DICTIONARY
  5
EED4
102
{ACAD_REACTORS
330
EEC7
102
}
330
EEC7
100
AcDbDictionary
281
     1
  3
Model
350
F3FA
  3
レイアウト1
350
F3FB
  0
DICTIONARY
  5
F3AD
102
{ACAD_REACTORS
330
EEC7
102
}
330
EEC7
100
AcDbDictionary
281
     1
  3
ByBlock
350
F3B6
  3
ByLayer
350
F3AE
  3
Global
350
F3BE
  0
DICTIONARY
  5
F3F4
102
{ACAD_REACTORS
330
EEC7
102
}
330
EEC7
100
AcDbDictionary
281
     1
  3
Standard
350
F3F5
  0
DICTIONARY
  5
EED1
102
{ACAD_REACTORS
330
EEC7
102
}
330
EEC7
100
AcDbDictionary
281
     1
  3
STANDARD
350
EED2
  0
DICTIONARY
  5
EED3
102
{ACAD_REACTORS
330
EEC7
102
}
330
EEC7
100
AcDbDictionary
281
     1
  0
ACDBDICTIONARYWDFLT
  5
F3AB
102
{ACAD_REACTORS
330
EEC7
102
}
330
EEC7
100
AcDbDictionary
281
     1
  3
Normal
350
F3AC
100
AcDbDictionaryWithDefault
340
F3AC
  0
DICTIONARY
  5
F3E2
102
{ACAD_REACTORS
330
EEC7
102
}
330
EEC7
100
AcDbDictionary
281
     1
  3
A0
350
F3E3
  3
A1
350
F3E4
  3
A2
350
F3E5
  3
A3
350
F3E6
  3
A4
350
F3E7
  3
A5
350
F3E8
  3
A6
350
F3E9
  3
A7
350
F3EA
  3
A8
350
F3EB
  3
A9
350
F3EC
  3
B0
350
F3ED
  3
B1
350
F3EE
  3
B2
350
F3EF
  3
B3
350
F3F0
  3
B4
350
F3F1
  3
B5
350
F3F2
  3
B6
350
F3F3
  0
DICTIONARY
  5
F3F6
102
{ACAD_REACTORS
330
EEC7
102
}
330
EEC7
100
AcDbDictionary
281
     1
  3
Imperial24
350
F3F7
  0
DICTIONARY
  5
F3E0
102
{ACAD_REACTORS
330
EEC7
102
}
330
EEC7
100
AcDbDictionary
281
     1
  3
Standard
350
F3E1
  0
DICTIONARY
  5
F3C6
102
{ACAD_REACTORS
330
EEC7
102
}
330
EEC7
100
AcDbDictionary
281
     1
  3
2dWireframe
350
F3CC
  3
Basic
350
F3CB
  3
Brighten
350
F3D2
  3
ColorChange
350
F3D6
  3
Conceptual
350
F3CF
  3
Dim
350
F3D1
  3
EdgeColorOff
350
F3DE
  3
Facepattern
350
F3D5
  3
Flat
350
F3C7
  3
FlatWithEdges
350
F3C8
  3
Gouraud
350
F3C9
  3
GouraudWithEdges
350
F3CA
  3
Hidden
350
F3CE
  3
JitterOff
350
F3DC
  3
Linepattern
350
F3D4
  3
OverhangOff
350
F3DD
  3
Realistic
350
F3D0
  3
Shaded
350
F3DB
  3
Shaded with edges
350
F3DA
  3
Shades of Gray
350
F3D7
  3
Sketchy
350
F3D8
  3
Thicken
350
F3D3
  3
Wireframe
350
F3CD
  3
X-Ray
350
F3D9
  0
XRECORD
  5
F41B
102
{ACAD_REACTORS
330
EEC7
102
}
330
EEC7
100
AcDbXrecord
280
     1
 90
        1
330
F3E1
  0
DICTIONARY
  5
F40E
102
{ACAD_REACTORS
330
EEC7
102
}
330
EEC7
100
AcDbDictionary
281
     1
  3
CANNOSCALE
350
F413
  3
CMLEADERSTYLE
350
F410
  3
CTABLESTYLE
350
F40F
  3
CVIEWDETAILSTYLE
350
F411
  3
CVIEWSECTIONSTYLE
350
F412
  3
DIMASSOC
350
F416
  3
INDEXCTL
350
F415
  3
SORTENTS
350
F414
  3
XCLIPFRAME
350
F417
  0
XRECORD
  5
F41C
102
{ACAD_REACTORS
330
EEC7
102
}
330
EEC7
100
AcDbXrecord
280
     1
  1
DWGPROPS COOKIE
  2

  3

  4

  6

  7

  8
Yoshitsune
  9

300
=
301
=
302
=
303
=
304
=
305
=
306
=
307
=
308
=
309
=
 40
0.000013900462963
 41
2451233.36226088
 42
2457192.659553333
  1

 90
        0
  0
XRECORD
  5
F3FF
102
{ACAD_REACTORS
330
F3FE
102
}
330
F3FE
100
AcDbXrecord
280
     1
290
     1
  0
XRECORD
  5
F401
102
{ACAD_REACTORS
330
F400
102
}
330
F400
100
AcDbXrecord
280
     1
290
     1
  0
XRECORD
  5
F403
102
{ACAD_REACTORS
330
F402
102
}
330
F402
100
AcDbXrecord
280
     1
290
     1
  0
XRECORD
  5
F405
102
{ACAD_REACTORS
330
F404
102
}
330
F404
100
AcDbXrecord
280
     1
290
     1
  0
XRECORD
  5
F407
102
{ACAD_REACTORS
330
F406
102
}
330
F406
100
AcDbXrecord
280
     1
290
     1
  0
XRECORD
  5
F409
102
{ACAD_REACTORS
330
F408
102
}
330
F408
100
AcDbXrecord
280
     1
290
     1
  0
XRECORD
  5
F40B
102
{ACAD_REACTORS
330
F40A
102
}
330
F40A
100
AcDbXrecord
280
     1
290
     1
  0
XRECORD
  5
F40D
102
{ACAD_REACTORS
330
F40C
102
}
330
F40C
100
AcDbXrecord
280
     1
290
     1
  0
XRECORD
  5
F3A7
102
{ACAD_REACTORS
330
F3A6
102
}
330
F3A6
100
AcDbXrecord
280
     1
340
EED9
  0
XRECORD
  5
F3A5
102
{ACAD_REACTORS
330
F3A4
102
}
330
F3A4
100
AcDbXrecord
280
     1
340
EED5
  0
ACDBDETAILVIEWSTYLE
  5
F3F9
102
{ACAD_XDICTIONARY
360
F454
102
}
102
{ACAD_REACTORS
330
F3F8
102
}
330
F3F8
100
AcDbModelDocViewStyle
 70
     0
  3
Imperial24
290
     0
100
AcDbDetailViewStyle
 70
     0
 71
     0
 90
        3
 71
     1
340
EECC
 40
0.24
340
0
 40
0.24
300

 40
0.36
280
     3
 71
     2
340
EED0
 90
       25
 71
     3
340
EECC
 40
0.24
 90
        1
 40
0.75
 90
        1
300
%<\AcVar ViewType \f "%tc1">% %<\AcVar ViewDetailId>%\PSCALE %<\AcVar ViewScale \f "%sn">%
 71
     4
340
EED0
 90
       25
340
EED0
 90
       25
280
     0
  0
LAYOUT
  5
F3FA
102
{ACAD_XDICTIONARY
360
F456
102
}
102
{ACAD_REACTORS
330
EED4
102
}
330
EED4
100
AcDbPlotSettings
  1

  2
Canon LBP9100C
  4

  6

 40
0.0
 41
0.0
 42
0.0
 43
0.0
 44
0.0
 45
0.0
 46
0.0
 47
0.0
 48
0.0
 49
0.0
140
0.0
141
0.0
142
1.0
143
1.0
 70
  1712
 72
     0
 73
     0
 74
     0
  7

 75
     0
147
1.0
148
0.0
149
0.0
100
AcDbLayout
  1
Model
 70
     1
 71
     0
 10
0.0
 20
0.0
 11
12.0
 21
9.0
 12
0.0
 22
0.0
 32
0.0
 14
0.0
 24
0.0
 34
0.0
 15
0.0
 25
0.0
 35
0.0
146
0.0
 13
0.0
 23
0.0
 33
0.0
 16
1.0
 26
0.0
 36
0.0
 17
0.0
 27
1.0
 37
0.0
 76
     0
330
EED9
331
F3A3
  0
LAYOUT
  5
F3FB
102
{ACAD_XDICTIONARY
360
F458
102
}
102
{ACAD_REACTORS
330
EED4
102
}
330
EED4
100
AcDbPlotSettings
  1

  2
Canon LBP9100C
  4

  6

 40
0.0
 41
0.0
 42
0.0
 43
0.0
 44
0.0
 45
0.0
 46
0.0
 47
0.0
 48
0.0
 49
0.0
140
0.0
141
0.0
142
1.0
143
1.0
 70
   688
 72
     0
 73
     0
 74
     5
  7

 75
    16
147
1.0
148
0.0
149
0.0
100
AcDbLayout
  1
レイアウト1
 70
     0
 71
     1
 10
0.0
 20
0.0
 11
420.0
 21
297.0
 12
0.0
 22
0.0
 32
0.0
 14
1.000000000000000E+20
 24
1.000000000000000E+20
 34
1.000000000000000E+20
 15
-1.000000000000000E+20
 25
-1.000000000000000E+20
 35
-1.000000000000000E+20
146
0.0
 13
0.0
 23
0.0
 33
0.0
 16
1.0
 26
0.0
 36
0.0
 17
0.0
 27
1.0
 37
0.0
 76
     0
330
EED5
  0
MATERIAL
  5
F3B6
102
{ACAD_XDICTIONARY
360
F3B7
102
}
102
{ACAD_REACTORS
330
F3AD
102
}
330
F3AD
100
AcDbMaterial
  1
ByBlock
 72
     0
 43
0.0208333333333333
 43
0.0
 43
0.0
 43
0.0
 43
0.0
 43
0.0208333333333333
 43
0.0
 43
0.0
 43
0.0
 43
0.0
 43
1.0
 43
0.0
 43
0.0
 43
0.0
 43
0.0
 43
1.0
 77
     0
 47
0.0208333333333333
 47
0.0
 47
0.0
 47
0.0
 47
0.0
 47
0.0208333333333333
 47
0.0
 47
0.0
 47
0.0
 47
0.0
 47
1.0
 47
0.0
 47
0.0
 47
0.0
 47
0.0
 47
1.0
171
     0
 49
0.0208333333333333
 49
0.0
 49
0.0
 49
0.0
 49
0.0
 49
0.0208333333333333
 49
0.0
 49
0.0
 49
0.0
 49
0.0
 49
1.0
 49
0.0
 49
0.0
 49
0.0
 49
0.0
 49
1.0
175
     0
142
0.0208333333333333
142
0.0
142
0.0
142
0.0
142
0.0
142
0.0208333333333333
142
0.0
142
0.0
142
0.0
142
0.0
142
1.0
142
0.0
142
0.0
142
0.0
142
0.0
142
1.0
179
     0
144
0.0208333333333333
144
0.0
144
0.0
144
0.0
144
0.0
144
0.0208333333333333
144
0.0
144
0.0
144
0.0
144
0.0
144
1.0
144
0.0
144
0.0
144
0.0
144
0.0
144
1.0
147
0.0208333333333333
147
0.0
147
0.0
147
0.0
147
0.0
147
0.0208333333333333
147
0.0
147
0.0
147
0.0
147
0.0
147
1.0
147
0.0
147
0.0
147
0.0
147
0.0
147
1.0
  0
MATERIAL
  5
F3AE
102
{ACAD_XDICTIONARY
360
F3AF
102
}
102
{ACAD_REACTORS
330
F3AD
102
}
330
F3AD
100
AcDbMaterial
  1
ByLayer
 72
     0
 43
0.0208333333333333
 43
0.0
 43
0.0
 43
0.0
 43
0.0
 43
0.0208333333333333
 43
0.0
 43
0.0
 43
0.0
 43
0.0
 43
1.0
 43
0.0
 43
0.0
 43
0.0
 43
0.0
 43
1.0
 77
     0
 47
0.0208333333333333
 47
0.0
 47
0.0
 47
0.0
 47
0.0
 47
0.0208333333333333
 47
0.0
 47
0.0
 47
0.0
 47
0.0
 47
1.0
 47
0.0
 47
0.0
 47
0.0
 47
0.0
 47
1.0
171
     0
 49
0.0208333333333333
 49
0.0
 49
0.0
 49
0.0
 49
0.0
 49
0.0208333333333333
 49
0.0
 49
0.0
 49
0.0
 49
0.0
 49
1.0
 49
0.0
 49
0.0
 49
0.0
 49
0.0
 49
1.0
175
     0
142
0.0208333333333333
142
0.0
142
0.0
142
0.0
142
0.0
142
0.0208333333333333
142
0.0
142
0.0
142
0.0
142
0.0
142
1.0
142
0.0
142
0.0
142
0.0
142
0.0
142
1.0
179
     0
144
0.0208333333333333
144
0.0
144
0.0
144
0.0
144
0.0
144
0.0208333333333333
144
0.0
144
0.0
144
0.0
144
0.0
144
1.0
144
0.0
144
0.0
144
0.0
144
0.0
144
1.0
147
0.0208333333333333
147
0.0
147
0.0
147
0.0
147
0.0
147
0.0208333333333333
147
0.0
147
0.0
147
0.0
147
0.0
147
1.0
147
0.0
147
0.0
147
0.0
147
0.0
147
1.0
  0
MATERIAL
  5
F3BE
102
{ACAD_XDICTIONARY
360
F3BF
102
}
102
{ACAD_REACTORS
330
F3AD
102
}
330
F3AD
100
AcDbMaterial
  1
Global
 72
     0
 43
0.0208333333333333
 43
0.0
 43
0.0
 43
0.0
 43
0.0
 43
0.0208333333333333
 43
0.0
 43
0.0
 43
0.0
 43
0.0
 43
1.0
 43
0.0
 43
0.0
 43
0.0
 43
0.0
 43
1.0
 77
     0
 47
0.0208333333333333
 47
0.0
 47
0.0
 47
0.0
 47
0.0
 47
0.0208333333333333
 47
0.0
 47
0.0
 47
0.0
 47
0.0
 47
1.0
 47
0.0
 47
0.0
 47
0.0
 47
0.0
 47
1.0
171
     0
 49
0.0208333333333333
 49
0.0
 49
0.0
 49
0.0
 49
0.0
 49
0.0208333333333333
 49
0.0
 49
0.0
 49
0.0
 49
0.0
 49
1.0
 49
0.0
 49
0.0
 49
0.0
 49
0.0
 49
1.0
175
     0
142
0.0208333333333333
142
0.0
142
0.0
142
0.0
142
0.0
142
0.0208333333333333
142
0.0
142
0.0
142
0.0
142
0.0
142
1.0
142
0.0
142
0.0
142
0.0
142
0.0
142
1.0
179
     0
144
0.0208333333333333
144
0.0
144
0.0
144
0.0
144
0.0
144
0.0208333333333333
144
0.0
144
0.0
144
0.0
144
0.0
144
1.0
144
0.0
144
0.0
144
0.0
144
0.0
144
1.0
147
0.0208333333333333
147
0.0
147
0.0
147
0.0
147
0.0
147
0.0208333333333333
147
0.0
147
0.0
147
0.0
147
0.0
147
1.0
147
0.0
147
0.0
147
0.0
147
0.0
147
1.0
  0
MLEADERSTYLE
  5
F3F5
102
{ACAD_REACTORS
330
F3F4
102
}
330
F3F4
100
AcDbMLeaderStyle
170
     2
171
     1
172
     0
 90
        2
 40
0.0
 41
0.0
173
     1
 91
-1056964608
340
EECE
 92
       -2
290
     1
 42
0.09
291
     1
 43
0.36
  3
Standard
 44
0.18
300

342
EECC
174
     1
178
     6
175
     1
176
     0
 93
-1056964608
 45
0.18
292
     0
297
     0
 46
0.18
 94
-1056964608
 47
1.0
 49
1.0
140
1.0
293
     1
141
0.0
294
     1
177
     0
142
1.0
295
     0
296
     0
143
0.125
1001
ACAD_MLEADERVER
1070
     2
  0
MLINESTYLE
  5
EED2
102
{ACAD_REACTORS
330
EED1
102
}
330
EED1
100
AcDbMlineStyle
  2
STANDARD
 70
     0
  3

 62
   256
 51
90.0
 52
90.0
 71
     2
 49
0.5
 62
   256
  6
BYLAYER
 49
-0.5
 62
   256
  6
BYLAYER
  0
ACDBPLACEHOLDER
  5
F3AC
102
{ACAD_REACTORS
330
F3AB
102
}
330
F3AB
  0
SCALE
  5
F3E3
102
{ACAD_REACTORS
330
F3E2
102
}
330
F3E2
100
AcDbScale
 70
     0
300
1:1
140
1.0
141
1.0
290
     1
  0
SCALE
  5
F3E4
102
{ACAD_REACTORS
330
F3E2
102
}
330
F3E2
100
AcDbScale
 70
     0
300
1/128" = 1'-0"
140
0.0078125
141
12.0
290
     0
  0
SCALE
  5
F3E5
102
{ACAD_REACTORS
330
F3E2
102
}
330
F3E2
100
AcDbScale
 70
     0
300
1/64" = 1'-0"
140
0.015625
141
12.0
290
     0
  0
SCALE
  5
F3E6
102
{ACAD_REACTORS
330
F3E2
102
}
330
F3E2
100
AcDbScale
 70
     0
300
1/32" = 1'-0"
140
0.03125
141
12.0
290
     0
  0
SCALE
  5
F3E7
102
{ACAD_REACTORS
330
F3E2
102
}
330
F3E2
100
AcDbScale
 70
     0
300
1/16" = 1'-0"
140
0.0625
141
12.0
290
     0
  0
SCALE
  5
F3E8
102
{ACAD_REACTORS
330
F3E2
102
}
330
F3E2
100
AcDbScale
 70
     0
300
3/32" = 1'-0"
140
0.09375
141
12.0
290
     0
  0
SCALE
  5
F3E9
102
{ACAD_REACTORS
330
F3E2
102
}
330
F3E2
100
AcDbScale
 70
     0
300
1/8" = 1'-0"
140
0.125
141
12.0
290
     0
  0
SCALE
  5
F3EA
102
{ACAD_REACTORS
330
F3E2
102
}
330
F3E2
100
AcDbScale
 70
     0
300
3/16" = 1'-0"
140
0.1875
141
12.0
290
     0
  0
SCALE
  5
F3EB
102
{ACAD_REACTORS
330
F3E2
102
}
330
F3E2
100
AcDbScale
 70
     0
300
1/4" = 1'-0"
140
0.25
141
12.0
290
     0
  0
SCALE
  5
F3EC
102
{ACAD_REACTORS
330
F3E2
102
}
330
F3E2
100
AcDbScale
 70
     0
300
3/8" = 1'-0"
140
0.375
141
12.0
290
     0
  0
SCALE
  5
F3ED
102
{ACAD_REACTORS
330
F3E2
102
}
330
F3E2
100
AcDbScale
 70
     0
300
1/2" = 1'-0"
140
0.5
141
12.0
290
     0
  0
SCALE
  5
F3EE
102
{ACAD_REACTORS
330
F3E2
102
}
330
F3E2
100
AcDbScale
 70
     0
300
3/4" = 1'-0"
140
0.75
141
12.0
290
     0
  0
SCALE
  5
F3EF
102
{ACAD_REACTORS
330
F3E2
102
}
330
F3E2
100
AcDbScale
 70
     0
300
1" = 1'-0"
140
1.0
141
12.0
290
     0
  0
SCALE
  5
F3F0
102
{ACAD_REACTORS
330
F3E2
102
}
330
F3E2
100
AcDbScale
 70
     0
300
1-1/2" = 1'-0"
140
1.5
141
12.0
290
     0
  0
SCALE
  5
F3F1
102
{ACAD_REACTORS
330
F3E2
102
}
330
F3E2
100
AcDbScale
 70
     0
300
3" = 1'-0"
140
3.0
141
12.0
290
     0
  0
SCALE
  5
F3F2
102
{ACAD_REACTORS
330
F3E2
102
}
330
F3E2
100
AcDbScale
 70
     0
300
6" = 1'-0"
140
6.0
141
12.0
290
     0
  0
SCALE
  5
F3F3
102
{ACAD_REACTORS
330
F3E2
102
}
330
F3E2
100
AcDbScale
 70
     0
300
1'-0" = 1'-0"
140
12.0
141
12.0
290
     0
  0
ACDBSECTIONVIEWSTYLE
  5
F3F7
102
{ACAD_XDICTIONARY
360
F452
102
}
102
{ACAD_REACTORS
330
F3F6
102
}
330
F3F6
100
AcDbModelDocViewStyle
 70
     0
  3
Imperial24
290
     0
100
AcDbSectionViewStyle
 70
     0
 71
     0
 90
       78
 71
     1
340
EECC
 40
0.24
340
0
340
0
 40
0.24
300
I, O, Q, S, X, Z
 40
0.48
 90
        3
 40
0.18
 90
        1
 71
     2
340
EED0
 90
       25
340
EED0
 90
       50
 40
0.24
 40
0.0
 40
0.24
 71
     3
340
EECC
 40
0.24
 90
        1
 40
0.75
 90
        1
300
%<\AcVar ViewType \f "%tc1">% %<\AcVar ViewSectionStartId>%-%<\AcVar ViewSectionEndId>%\PSCALE %<\AcVar ViewScale \f "%sn">%
 71
     4
300
ANSI31
 40
1.0
 90
        0
290
     0
290
     0
 90
        6
 40
0.0
 40
1.570796326794896
 40
0.2617993877991494
 40
1.308996938995747
 40
-0.2617993877991494
 40
1.832595714594046
  0
TABLESTYLE
  5
F3E1
102
{ACAD_XDICTIONARY
360
F419
102
}
102
{ACAD_REACTORS
330
F3E0
102
}
330
F3E0
100
AcDbTableStyle
  3
Standard
 70
     0
 71
     0
 40
0.06
 41
0.06
280
     0
281
     0
  7
STANDARD
140
0.18
170
     2
 62
     0
 63
     7
283
     0
274
    -2
284
     1
 64
     0
275
    -2
285
     1
 65
     0
276
    -2
286
     1
 66
     0
277
    -2
287
     1
 67
     0
278
    -2
288
     1
 68
     0
279
    -2
289
     1
 69
     0
  7
STANDARD
140
0.25
170
     5
 62
     0
 63
     7
283
     0
274
    -2
284
     1
 64
     0
275
    -2
285
     1
 65
     0
276
    -2
286
     1
 66
     0
277
    -2
287
     1
 67
     0
278
    -2
288
     1
 68
     0
279
    -2
289
     1
 69
     0
  7
STANDARD
140
0.18
170
     5
 62
     0
 63
     7
283
     0
274
    -2
284
     1
 64
     0
275
    -2
285
     1
 65
     0
276
    -2
286
     1
 66
     0
277
    -2
287
     1
 67
     0
278
    -2
288
     1
 68
     0
279
    -2
289
     1
 69
     0
  0
VISUALSTYLE
  5
F3CC
102
{ACAD_XDICTIONARY
360
F42A
102
}
102
{ACAD_REACTORS
330
F3C6
102
}
330
F3C6
100
AcDbVisualStyle
  2
2dWireframe
 70
     4
 71
     0
 72
     2
 73
     0
 90
        0
 40
-0.6
 41
-30.0
 62
     5
 63
     7
 74
     1
 91
        4
 64
     7
 65
   257
 75
     1
175
     1
 42
1.0
 92
        0
 66
   257
 43
1.0
 76
     1
 77
     6
 78
     2
 67
     7
 79
     5
170
     0
171
     0
290
     0
174
     0
 93
        1
 44
0.0
173
     0
291
     0
 45
0.0
1001
ACAD
1000
AcDbSavedByObjectVersion
1070
     0
  0
VISUALSTYLE
  5
F3CB
102
{ACAD_XDICTIONARY
360
F428
102
}
102
{ACAD_REACTORS
330
F3C6
102
}
330
F3C6
100
AcDbVisualStyle
  2
Basic
 70
     7
 71
     1
 72
     0
 73
     1
 90
        0
 40
-0.6
 41
-30.0
 62
     5
 63
     7
 74
     0
 91
        4
 64
     7
 65
   257
 75
     1
175
     1
 42
1.0
 92
        8
 66
     7
 43
1.0
 76
     1
 77
     6
 78
     2
 67
     7
 79
     5
170
     0
171
     0
290
     0
174
     0
 93
        1
 44
0.0
173
     0
291
     1
 45
0.0
1001
ACAD
1000
AcDbSavedByObjectVersion
1070
     0
  0
VISUALSTYLE
  5
F3D2
102
{ACAD_XDICTIONARY
360
F436
102
}
102
{ACAD_REACTORS
330
F3C6
102
}
330
F3C6
100
AcDbVisualStyle
  2
Brighten
 70
    12
 71
     2
 72
     2
 73
     0
 90
        0
 40
-0.6
 41
-30.0
 62
     5
 63
     7
 74
     1
 91
        4
 64
     7
 65
   257
 75
     1
175
     1
 42
1.0
 92
        8
 66
     7
 43
1.0
 76
     1
 77
     6
 78
     2
 67
     7
 79
     5
170
     0
171
     0
290
     0
174
     0
 93
        1
 44
50.0
173
     0
291
     1
 45
0.0
1001
ACAD
1000
AcDbSavedByObjectVersion
1070
     0
  0
VISUALSTYLE
  5
F3D6
102
{ACAD_XDICTIONARY
360
F43E
102
}
102
{ACAD_REACTORS
330
F3C6
102
}
330
F3C6
100
AcDbVisualStyle
  2
ColorChange
 70
    16
 71
     2
 72
     2
 73
     3
 90
        0
 40
-0.6
 41
-30.0
 62
     5
 63
     8
 74
     1
 91
        4
 64
     7
 65
   257
 75
     1
175
     1
 42
1.0
 92
        8
 66
     8
 43
1.0
 76
     1
 77
     6
 78
     2
 67
     7
 79
     5
170
     0
171
     0
290
     0
174
     0
 93
        1
 44
0.0
173
     0
291
     1
 45
0.0
1001
ACAD
1000
AcDbSavedByObjectVersion
1070
     0
  0
VISUALSTYLE
  5
F3CF
102
{ACAD_XDICTIONARY
360
F430
102
}
102
{ACAD_REACTORS
330
F3C6
102
}
330
F3C6
100
AcDbVisualStyle
  2
Conceptual
 70
     9
 71
     3
 72
     2
 73
     0
 90
        0
 40
-0.6
 41
-30.0
 62
     5
 63
     7
 74
     2
 91
        2
 64
     7
 65
   257
 75
     1
175
     1
 42
179.0
 92
        8
 66
     7
 43
1.0
 76
     1
 77
     6
 78
     2
 67
     7
 79
     3
170
     0
171
     0
290
     0
174
     0
 93
        1
 44
0.0
173
     0
291
     0
 45
0.0
1001
ACAD
1000
AcDbSavedByObjectVersion
1070
     0
  0
VISUALSTYLE
  5
F3D1
102
{ACAD_XDICTIONARY
360
F434
102
}
102
{ACAD_REACTORS
330
F3C6
102
}
330
F3C6
100
AcDbVisualStyle
  2
Dim
 70
    11
 71
     2
 72
     2
 73
     0
 90
        0
 40
-0.6
 41
-30.0
 62
     5
 63
     7
 74
     1
 91
        4
 64
     7
 65
   257
 75
     1
175
     1
 42
1.0
 92
        8
 66
     7
 43
1.0
 76
     1
 77
     6
 78
     2
 67
     7
 79
     5
170
     0
171
     0
290
     0
174
     0
 93
        1
 44
-50.0
173
     0
291
     1
 45
0.0
1001
ACAD
1000
AcDbSavedByObjectVersion
1070
     0
  0
VISUALSTYLE
  5
F3DE
102
{ACAD_XDICTIONARY
360
F44E
102
}
102
{ACAD_REACTORS
330
F3C6
102
}
330
F3C6
100
AcDbVisualStyle
  2
EdgeColorOff
 70
    22
 71
     2
 72
     2
 73
     0
 90
        0
 40
-0.6
 41
-30.0
 62
     5
 63
     7
 74
     1
 91
        4
 64
     7
 65
   257
 75
     1
175
     1
 42
1.0
 92
        8
 66
     7
 43
1.0
 76
     1
 77
     6
 78
     2
 67
     7
 79
     5
170
     0
171
     0
290
     0
174
     0
 93
        1
 44
0.0
173
     0
291
     1
 45
0.0
1001
ACAD
1000
AcDbSavedByObjectVersion
1070
     0
  0
VISUALSTYLE
  5
F3D5
102
{ACAD_XDICTIONARY
360
F43C
102
}
102
{ACAD_REACTORS
330
F3C6
102
}
330
F3C6
100
AcDbVisualStyle
  2
Facepattern
 70
    15
 71
     2
 72
     2
 73
     0
 90
        0
 40
-0.6
 41
-30.0
 62
     5
 63
     7
 74
     1
 91
        4
 64
     7
 65
   257
 75
     1
175
     1
 42
1.0
 92
        8
 66
     7
 43
1.0
 76
     1
 77
     6
 78
     2
 67
     7
 79
     5
170
     0
171
     0
290
     0
174
     0
 93
        1
 44
0.0
173
     0
291
     1
 45
0.0
1001
ACAD
1000
AcDbSavedByObjectVersion
1070
     0
  0
VISUALSTYLE
  5
F3C7
102
{ACAD_XDICTIONARY
360
F420
102
}
102
{ACAD_REACTORS
330
F3C6
102
}
330
F3C6
100
AcDbVisualStyle
  2
Flat
 70
     0
 71
     2
 72
     1
 73
     1
 90
        2
 40
-0.6
 41
30.0
 62
     5
 63
     7
 74
     0
 91
        0
 64
     7
 65
   257
 75
     1
175
     1
 42
1.0
 92
        8
 66
     7
 43
1.0
 76
     1
 77
     6
 78
     2
 67
     7
 79
     5
170
     0
171
     0
290
     0
174
     0
 93
       13
 44
0.0
173
     0
291
     1
 45
0.0
1001
ACAD
1000
AcDbSavedByObjectVersion
1070
     0
  0
VISUALSTYLE
  5
F3C8
102
{ACAD_XDICTIONARY
360
F422
102
}
102
{ACAD_REACTORS
330
F3C6
102
}
330
F3C6
100
AcDbVisualStyle
  2
FlatWithEdges
 70
     1
 71
     2
 72
     1
 73
     1
 90
        2
 40
-0.6
 41
30.0
 62
     5
 63
     7
 74
     1
 91
        0
 64
     7
 65
   257
 75
     1
175
     1
 42
1.0
 92
        0
 66
   257
 43
1.0
 76
     1
 77
     6
 78
     2
 67
     7
 79
     5
170
     0
171
     0
290
     0
174
     0
 93
       13
 44
0.0
173
     0
291
     1
 45
0.0
1001
ACAD
1000
AcDbSavedByObjectVersion
1070
     0
  0
VISUALSTYLE
  5
F3C9
102
{ACAD_XDICTIONARY
360
F424
102
}
102
{ACAD_REACTORS
330
F3C6
102
}
330
F3C6
100
AcDbVisualStyle
  2
Gouraud
 70
     2
 71
     2
 72
     2
 73
     1
 90
        2
 40
-0.6
 41
30.0
 62
     5
 63
     7
 74
     0
 91
        0
 64
     7
 65
   257
 75
     1
175
     1
 42
1.0
 92
        0
 66
     7
 43
1.0
 76
     1
 77
     6
 78
     2
 67
     7
 79
     5
170
     0
171
     0
290
     0
174
     0
 93
       13
 44
0.0
173
     0
291
     1
 45
0.0
1001
ACAD
1000
AcDbSavedByObjectVersion
1070
     0
  0
VISUALSTYLE
  5
F3CA
102
{ACAD_XDICTIONARY
360
F426
102
}
102
{ACAD_REACTORS
330
F3C6
102
}
330
F3C6
100
AcDbVisualStyle
  2
GouraudWithEdges
 70
     3
 71
     2
 72
     2
 73
     1
 90
        2
 40
-0.6
 41
30.0
 62
     5
 63
     7
 74
     1
 91
        0
 64
     7
 65
   257
 75
     1
175
     1
 42
1.0
 92
        0
 66
   257
 43
1.0
 76
     1
 77
     6
 78
     2
 67
     7
 79
     5
170
     0
171
     0
290
     0
174
     0
 93
       13
 44
0.0
173
     0
291
     1
 45
0.0
1001
ACAD
1000
AcDbSavedByObjectVersion
1070
     0
  0
VISUALSTYLE
  5
F3CE
102
{ACAD_XDICTIONARY
360
F42E
102
}
102
{ACAD_REACTORS
330
F3C6
102
}
330
F3C6
100
AcDbVisualStyle
  2
Hidden
 70
     6
 71
     1
 72
     2
 73
     2
 90
        0
 40
-0.6
 41
-30.0
 62
     5
 63
     7
 74
     2
 91
        2
 64
     7
 65
   257
 75
     2
175
     1
 42
40.0
 92
        0
 66
   257
 43
1.0
 76
     1
 77
     6
 78
     2
 67
     7
 79
     3
170
     0
171
     0
290
     0
174
     0
 93
        1
 44
0.0
173
     0
291
     0
 45
0.0
1001
ACAD
1000
AcDbSavedByObjectVersion
1070
     0
  0
VISUALSTYLE
  5
F3DC
102
{ACAD_XDICTIONARY
360
F44A
102
}
102
{ACAD_REACTORS
330
F3C6
102
}
330
F3C6
100
AcDbVisualStyle
  2
JitterOff
 70
    20
 71
     2
 72
     2
 73
     0
 90
        0
 40
-0.6
 41
-30.0
 62
     5
 63
     7
 74
     1
 91
        4
 64
     7
 65
   257
 75
     1
175
     1
 42
1.0
 92
       10
 66
     7
 43
1.0
 76
     1
 77
     6
 78
     2
 67
     7
 79
     5
170
     0
171
     0
290
     0
174
     0
 93
        1
 44
0.0
173
     0
291
     1
 45
0.0
1001
ACAD
1000
AcDbSavedByObjectVersion
1070
     0
  0
VISUALSTYLE
  5
F3D4
102
{ACAD_XDICTIONARY
360
F43A
102
}
102
{ACAD_REACTORS
330
F3C6
102
}
330
F3C6
100
AcDbVisualStyle
  2
Linepattern
 70
    14
 71
     2
 72
     2
 73
     0
 90
        0
 40
-0.6
 41
-30.0
 62
     5
 63
     7
 74
     1
 91
        4
 64
     7
 65
   257
 75
     7
175
     7
 42
1.0
 92
        8
 66
     7
 43
1.0
 76
     1
 77
     6
 78
     2
 67
     7
 79
     5
170
     0
171
     0
290
     0
174
     0
 93
        1
 44
0.0
173
     0
291
     1
 45
0.0
1001
ACAD
1000
AcDbSavedByObjectVersion
1070
     0
  0
VISUALSTYLE
  5
F3DD
102
{ACAD_XDICTIONARY
360
F44C
102
}
102
{ACAD_REACTORS
330
F3C6
102
}
330
F3C6
100
AcDbVisualStyle
  2
OverhangOff
 70
    21
 71
     2
 72
     2
 73
     0
 90
        0
 40
-0.6
 41
-30.0
 62
     5
 63
     7
 74
     1
 91
        4
 64
     7
 65
   257
 75
     1
175
     1
 42
1.0
 92
        9
 66
     7
 43
1.0
 76
     1
 77
     6
 78
     2
 67
     7
 79
     5
170
     0
171
     0
290
     0
174
     0
 93
        1
 44
0.0
173
     0
291
     1
 45
0.0
1001
ACAD
1000
AcDbSavedByObjectVersion
1070
     0
  0
VISUALSTYLE
  5
F3D0
102
{ACAD_XDICTIONARY
360
F432
102
}
102
{ACAD_REACTORS
330
F3C6
102
}
330
F3C6
100
AcDbVisualStyle
  2
Realistic
 70
     8
 71
     2
 72
     3
 73
     0
 90
        2
 40
-0.6
 41
30.0
 62
     5
 63
     7
 74
     0
 91
        0
 64
     7
 65
   257
 75
     1
175
     1
 42
1.0
 92
        8
 66
   257
 43
1.0
 76
     1
 77
     6
 78
     2
 67
     7
 79
     3
170
     0
171
     0
290
     0
174
     0
 93
       13
 44
0.0
173
     0
291
     0
 45
0.0
1001
ACAD
1000
AcDbSavedByObjectVersion
1070
     0
  0
VISUALSTYLE
  5
F3DB
102
{ACAD_XDICTIONARY
360
F448
102
}
102
{ACAD_REACTORS
330
F3C6
102
}
330
F3C6
100
AcDbVisualStyle
  2
Shaded
 70
    27
 71
     2
 72
     2
 73
     1
 90
        2
 40
-0.6
 41
30.0
 62
     5
 63
     7
 74
     0
 91
        4
 64
     7
 65
   257
 75
     1
175
     1
 42
1.0
 92
        8
 66
   257
 43
1.0
 76
     1
 77
     6
 78
     2
 67
     8
 79
     3
170
     0
171
     0
290
     0
174
     0
 93
        5
 44
0.0
173
     0
291
     0
 45
0.0
1001
ACAD
1000
AcDbSavedByObjectVersion
1070
     0
  0
VISUALSTYLE
  5
F3DA
102
{ACAD_XDICTIONARY
360
F446
102
}
102
{ACAD_REACTORS
330
F3C6
102
}
330
F3C6
100
AcDbVisualStyle
  2
Shaded with edges
 70
    26
 71
     2
 72
     2
 73
     1
 90
        2
 40
-0.6
 41
30.0
 62
     5
 63
     7
 74
     1
 91
       10
 64
     7
 65
   257
 75
     2
175
     1
 42
1.0
 92
        8
 66
   257
 43
1.0
 76
     1
 77
     6
 78
     2
 67
     7
 79
     3
170
     0
171
     0
290
     0
174
     0
 93
        5
 44
0.0
173
     0
291
     0
 45
0.0
1001
ACAD
1000
AcDbSavedByObjectVersion
1070
     0
  0
VISUALSTYLE
  5
F3D7
102
{ACAD_XDICTIONARY
360
F440
102
}
102
{ACAD_REACTORS
330
F3C6
102
}
330
F3C6
100
AcDbVisualStyle
  2
Shades of Gray
 70
    23
 71
     2
 72
     2
 73
     3
 90
        0
 40
-0.6
 41
-30.0
 62
     5
 63
     7
 74
     2
 91
        2
 64
     7
 65
     7
 75
     1
175
     1
 42
40.0
 92
        8
 66
     7
 43
1.0
 76
     1
 77
     6
 78
     2
 67
     7
 79
     3
170
     0
171
     0
290
     0
174
     0
 93
        1
 44
0.0
173
     0
291
     0
 45
0.0
1001
ACAD
1000
AcDbSavedByObjectVersion
1070
     0
  0
VISUALSTYLE
  5
F3D8
102
{ACAD_XDICTIONARY
360
F442
102
}
102
{ACAD_REACTORS
330
F3C6
102
}
330
F3C6
100
AcDbVisualStyle
  2
Sketchy
 70
    24
 71
     1
 72
     2
 73
     2
 90
        0
 40
-0.6
 41
-30.0
 62
     5
 63
     7
 74
     2
 91
        2
 64
     7
 65
     7
 75
     1
175
     1
 42
40.0
 92
       11
 66
     7
 43
1.0
 76
     1
 77
     6
 78
     2
 67
     7
 79
     6
170
     0
171
     0
290
     0
174
     0
 93
        1
 44
0.0
173
     0
291
     0
 45
0.0
1001
ACAD
1000
AcDbSavedByObjectVersion
1070
     0
  0
VISUALSTYLE
  5
F3D3
102
{ACAD_XDICTIONARY
360
F438
102
}
102
{ACAD_REACTORS
330
F3C6
102
}
330
F3C6
100
AcDbVisualStyle
  2
Thicken
 70
    13
 71
     2
 72
     2
 73
     0
 90
        0
 40
-0.6
 41
-30.0
 62
     5
 63
     7
 74
     1
 91
        4
 64
     7
 65
   257
 75
     1
175
     1
 42
1.0
 92
       12
 66
     7
 43
1.0
 76
     1
 77
     6
 78
     2
 67
     7
 79
     5
170
     0
171
     0
290
     0
174
     0
 93
        1
 44
0.0
173
     0
291
     1
 45
0.0
1001
ACAD
1000
AcDbSavedByObjectVersion
1070
     0
  0
VISUALSTYLE
  5
F3CD
102
{ACAD_XDICTIONARY
360
F42C
102
}
102
{ACAD_REACTORS
330
F3C6
102
}
330
F3C6
100
AcDbVisualStyle
  2
Wireframe
 70
     5
 71
     0
 72
     2
 73
     0
 90
        0
 40
-0.6
 41
-30.0
 62
     5
 63
     7
 74
     1
 91
        4
 64
     7
 65
   257
 75
     1
175
     1
 42
1.0
 92
        0
 66
   257
 43
1.0
 76
     1
 77
     6
 78
     2
 67
     7
 79
     3
170
     0
171
     0
290
     0
174
     0
 93
        1
 44
0.0
173
     0
291
     0
 45
0.0
1001
ACAD
1000
AcDbSavedByObjectVersion
1070
     0
  0
VISUALSTYLE
  5
F3D9
102
{ACAD_XDICTIONARY
360
F444
102
}
102
{ACAD_REACTORS
330
F3C6
102
}
330
F3C6
100
AcDbVisualStyle
  2
X-Ray
 70
    25
 71
     2
 72
     2
 73
     1
 90
        1
 40
0.5
 41
-30.0
 62
     5
 63
     7
 74
     1
 91
        0
 64
     7
 65
   257
 75
     1
175
     1
 42
1.0
 92
        8
 66
     7
 43
1.0
 76
     1
 77
     6
 78
     2
 67
     7
 79
     3
170
     0
171
     0
290
     0
174
     0
 93
       13
 44
0.0
173
     0
291
     0
 45
0.0
1001
ACAD
1000
AcDbSavedByObjectVersion
1070
     0
  0
DICTIONARYVAR
  5
F413
102
{ACAD_REACTORS
330
F40E
102
}
330
F40E
100
DictionaryVariables
280
     0
  1
1:1
  0
DICTIONARYVAR
  5
F410
102
{ACAD_REACTORS
330
F40E
102
}
330
F40E
100
DictionaryVariables
280
     0
  1
STANDARD
  0
DICTIONARYVAR
  5
F40F
102
{ACAD_REACTORS
330
F40E
102
}
330
F40E
100
DictionaryVariables
280
     0
  1
STANDARD
  0
DICTIONARYVAR
  5
F411
102
{ACAD_REACTORS
330
F40E
102
}
330
F40E
100
DictionaryVariables
280
     0
  1
Imperial24
  0
DICTIONARYVAR
  5
F412
102
{ACAD_REACTORS
330
F40E
102
}
330
F40E
100
DictionaryVariables
280
     0
  1
Imperial24
  0
DICTIONARYVAR
  5
F416
102
{ACAD_REACTORS
330
F40E
102
}
330
F40E
100
DictionaryVariables
280
     0
  1
1
  0
DICTIONARYVAR
  5
F415
102
{ACAD_REACTORS
330
F40E
102
}
330
F40E
100
DictionaryVariables
280
     0
  1
0
  0
DICTIONARYVAR
  5
F414
102
{ACAD_REACTORS
330
F40E
102
}
330
F40E
100
DictionaryVariables
280
     0
  1
127
  0
DICTIONARYVAR
  5
F417
102
{ACAD_REACTORS
330
F40E
102
}
330
F40E
100
DictionaryVariables
280
     0
  1
2
  0
DICTIONARY
  5
F454
330
F3F9
100
AcDbDictionary
280
     1
281
     1
  3
ACAD_XREC_ROUNDTRIP
360
F455
  0
DICTIONARY
  5
F456
330
F3FA
100
AcDbDictionary
280
     1
281
     1
  3
ACAD_XREC_ROUNDTRIP
360
F457
  0
DICTIONARY
  5
F458
330
F3FB
100
AcDbDictionary
280
     1
281
     1
  3
ACAD_XREC_ROUNDTRIP
360
F459
  0
DICTIONARY
  5
F3B7
330
F3B6
100
AcDbDictionary
280
     1
281
     1
  3
ACAD_XREC_ROUNDTRIP
360
F41E
  3
BUMPTILE
360
F3B9
  3
DIFFUSETILE
360
F3B8
  3
OPACITYTILE
360
F3BC
  3
REFLECTIONTILE
360
F3BB
  3
REFRACTIONTILE
360
F3BD
  3
SPECULARTILE
360
F3BA
  0
DICTIONARY
  5
F3AF
330
F3AE
100
AcDbDictionary
280
     1
281
     1
  3
ACAD_XREC_ROUNDTRIP
360
F41D
  3
BUMPTILE
360
F3B1
  3
DIFFUSETILE
360
F3B0
  3
OPACITYTILE
360
F3B4
  3
REFLECTIONTILE
360
F3B3
  3
REFRACTIONTILE
360
F3B5
  3
SPECULARTILE
360
F3B2
  0
DICTIONARY
  5
F3BF
330
F3BE
100
AcDbDictionary
280
     1
281
     1
  3
ACAD_XREC_ROUNDTRIP
360
F41F
  3
BUMPTILE
360
F3C1
  3
DIFFUSETILE
360
F3C0
  3
OPACITYTILE
360
F3C4
  3
REFLECTIONTILE
360
F3C3
  3
REFRACTIONTILE
360
F3C5
  3
SPECULARTILE
360
F3C2
  0
DICTIONARY
  5
F452
330
F3F7
100
AcDbDictionary
280
     1
281
     1
  3
ACAD_XREC_ROUNDTRIP
360
F453
  0
DICTIONARY
  5
F419
330
F3E1
100
AcDbDictionary
280
     1
281
     1
  3
ACAD_ROUNDTRIP_2008_TABLESTYLE_CELLSTYLEMAP
360
F41A
  3
ACAD_XREC_ROUNDTRIP
360
F450
  0
DICTIONARY
  5
F42A
330
F3CC
100
AcDbDictionary
280
     1
281
     1
  3
ACAD_XREC_ROUNDTRIP
360
F42B
  0
DICTIONARY
  5
F428
330
F3CB
100
AcDbDictionary
280
     1
281
     1
  3
ACAD_XREC_ROUNDTRIP
360
F429
  0
DICTIONARY
  5
F436
330
F3D2
100
AcDbDictionary
280
     1
281
     1
  3
ACAD_XREC_ROUNDTRIP
360
F437
  0
DICTIONARY
  5
F43E
330
F3D6
100
AcDbDictionary
280
     1
281
     1
  3
ACAD_XREC_ROUNDTRIP
360
F43F
  0
DICTIONARY
  5
F430
330
F3CF
100
AcDbDictionary
280
     1
281
     1
  3
ACAD_XREC_ROUNDTRIP
360
F431
  0
DICTIONARY
  5
F434
330
F3D1
100
AcDbDictionary
280
     1
281
     1
  3
ACAD_XREC_ROUNDTRIP
360
F435
  0
DICTIONARY
  5
F44E
330
F3DE
100
AcDbDictionary
280
     1
281
     1
  3
ACAD_XREC_ROUNDTRIP
360
F44F
  0
DICTIONARY
  5
F43C
330
F3D5
100
AcDbDictionary
280
     1
281
     1
  3
ACAD_XREC_ROUNDTRIP
360
F43D
  0
DICTIONARY
  5
F420
330
F3C7
100
AcDbDictionary
280
     1
281
     1
  3
ACAD_XREC_ROUNDTRIP
360
F421
  0
DICTIONARY
  5
F422
330
F3C8
100
AcDbDictionary
280
     1
281
     1
  3
ACAD_XREC_ROUNDTRIP
360
F423
  0
DICTIONARY
  5
F424
330
F3C9
100
AcDbDictionary
280
     1
281
     1
  3
ACAD_XREC_ROUNDTRIP
360
F425
  0
DICTIONARY
  5
F426
330
F3CA
100
AcDbDictionary
280
     1
281
     1
  3
ACAD_XREC_ROUNDTRIP
360
F427
  0
DICTIONARY
  5
F42E
330
F3CE
100
AcDbDictionary
280
     1
281
     1
  3
ACAD_XREC_ROUNDTRIP
360
F42F
  0
DICTIONARY
  5
F44A
330
F3DC
100
AcDbDictionary
280
     1
281
     1
  3
ACAD_XREC_ROUNDTRIP
360
F44B
  0
DICTIONARY
  5
F43A
330
F3D4
100
AcDbDictionary
280
     1
281
     1
  3
ACAD_XREC_ROUNDTRIP
360
F43B
  0
DICTIONARY
  5
F44C
330
F3DD
100
AcDbDictionary
280
     1
281
     1
  3
ACAD_XREC_ROUNDTRIP
360
F44D
  0
DICTIONARY
  5
F432
330
F3D0
100
AcDbDictionary
280
     1
281
     1
  3
ACAD_XREC_ROUNDTRIP
360
F433
  0
DICTIONARY
  5
F448
330
F3DB
100
AcDbDictionary
280
     1
281
     1
  3
ACAD_XREC_ROUNDTRIP
360
F449
  0
DICTIONARY
  5
F446
330
F3DA
100
AcDbDictionary
280
     1
281
     1
  3
ACAD_XREC_ROUNDTRIP
360
F447
  0
DICTIONARY
  5
F440
330
F3D7
100
AcDbDictionary
280
     1
281
     1
  3
ACAD_XREC_ROUNDTRIP
360
F441
  0
DICTIONARY
  5
F442
330
F3D8
100
AcDbDictionary
280
     1
281
     1
  3
ACAD_XREC_ROUNDTRIP
360
F443
  0
DICTIONARY
  5
F438
330
F3D3
100
AcDbDictionary
280
     1
281
     1
  3
ACAD_XREC_ROUNDTRIP
360
F439
  0
DICTIONARY
  5
F42C
330
F3CD
100
AcDbDictionary
280
     1
281
     1
  3
ACAD_XREC_ROUNDTRIP
360
F42D
  0
DICTIONARY
  5
F444
330
F3D9
100
AcDbDictionary
280
     1
281
     1
  3
ACAD_XREC_ROUNDTRIP
360
F445
  0
XRECORD
  5
F455
102
{ACAD_REACTORS
330
F454
102
}
330
F454
100
AcDbXrecord
280
     1
102
DISPLAYNAME
  1
Imperial24
102
FLAGS
 90
        0
  0
XRECORD
  5
F457
102
{ACAD_REACTORS
330
F456
102
}
330
F456
100
AcDbXrecord
280
     1
102
SHADEPLOT
 70
     0
102
SHADEPLOTRESLEVEL
 70
     2
102
SHADEPLOTCUSTOMDPI
 70
   300
  0
XRECORD
  5
F459
102
{ACAD_REACTORS
330
F458
102
}
330
F458
100
AcDbXrecord
280
     1
102
SHADEPLOT
 70
     0
102
SHADEPLOTRESLEVEL
 70
     2
102
SHADEPLOTCUSTOMDPI
 70
   300
  0
XRECORD
  5
F41E
102
{ACAD_REACTORS
330
F3B7
102
}
330
F3B7
100
AcDbXrecord
280
     1
102
MATERIAL
148
0.0
149
0.0
149
0.0
 93
        0
 94
      127
282
     0
 72
     0
 77
     0
171
     0
175
     0
179
     0
273
     0
  0
XRECORD
  5
F3B9
102
{ACAD_REACTORS
330
F3B7
102
}
330
F3B7
100
AcDbXrecord
280
     1
270
     1
271
     1
  0
XRECORD
  5
F3B8
102
{ACAD_REACTORS
330
F3B7
102
}
330
F3B7
100
AcDbXrecord
280
     1
270
     1
271
     1
  0
XRECORD
  5
F3BC
102
{ACAD_REACTORS
330
F3B7
102
}
330
F3B7
100
AcDbXrecord
280
     1
270
     1
271
     1
  0
XRECORD
  5
F3BB
102
{ACAD_REACTORS
330
F3B7
102
}
330
F3B7
100
AcDbXrecord
280
     1
270
     1
271
     1
  0
XRECORD
  5
F3BD
102
{ACAD_REACTORS
330
F3B7
102
}
330
F3B7
100
AcDbXrecord
280
     1
270
     1
271
     1
  0
XRECORD
  5
F3BA
102
{ACAD_REACTORS
330
F3B7
102
}
330
F3B7
100
AcDbXrecord
280
     1
270
     1
271
     1
  0
XRECORD
  5
F41D
102
{ACAD_REACTORS
330
F3AF
102
}
330
F3AF
100
AcDbXrecord
280
     1
102
MATERIAL
148
0.0
149
0.0
149
0.0
 93
        0
 94
      127
282
     0
 72
     0
 77
     0
171
     0
175
     0
179
     0
273
     0
  0
XRECORD
  5
F3B1
102
{ACAD_REACTORS
330
F3AF
102
}
330
F3AF
100
AcDbXrecord
280
     1
270
     1
271
     1
  0
XRECORD
  5
F3B0
102
{ACAD_REACTORS
330
F3AF
102
}
330
F3AF
100
AcDbXrecord
280
     1
270
     1
271
     1
  0
XRECORD
  5
F3B4
102
{ACAD_REACTORS
330
F3AF
102
}
330
F3AF
100
AcDbXrecord
280
     1
270
     1
271
     1
  0
XRECORD
  5
F3B3
102
{ACAD_REACTORS
330
F3AF
102
}
330
F3AF
100
AcDbXrecord
280
     1
270
     1
271
     1
  0
XRECORD
  5
F3B5
102
{ACAD_REACTORS
330
F3AF
102
}
330
F3AF
100
AcDbXrecord
280
     1
270
     1
271
     1
  0
XRECORD
  5
F3B2
102
{ACAD_REACTORS
330
F3AF
102
}
330
F3AF
100
AcDbXrecord
280
     1
270
     1
271
     1
  0
XRECORD
  5
F41F
102
{ACAD_REACTORS
330
F3BF
102
}
330
F3BF
100
AcDbXrecord
280
     1
102
MATERIAL
148
0.0
149
0.0
149
0.0
 93
        0
 94
      127
282
     0
 72
     0
 77
     0
171
     0
175
     0
179
     0
273
     0
  0
XRECORD
  5
F3C1
102
{ACAD_REACTORS
330
F3BF
102
}
330
F3BF
100
AcDbXrecord
280
     1
270
     1
271
     1
  0
XRECORD
  5
F3C0
102
{ACAD_REACTORS
330
F3BF
102
}
330
F3BF
100
AcDbXrecord
280
     1
270
     1
271
     1
  0
XRECORD
  5
F3C4
102
{ACAD_REACTORS
330
F3BF
102
}
330
F3BF
100
AcDbXrecord
280
     1
270
     1
271
     1
  0
XRECORD
  5
F3C3
102
{ACAD_REACTORS
330
F3BF
102
}
330
F3BF
100
AcDbXrecord
280
     1
270
     1
271
     1
  0
XRECORD
  5
F3C5
102
{ACAD_REACTORS
330
F3BF
102
}
330
F3BF
100
AcDbXrecord
280
     1
270
     1
271
     1
  0
XRECORD
  5
F3C2
102
{ACAD_REACTORS
330
F3BF
102
}
330
F3BF
100
AcDbXrecord
280
     1
270
     1
271
     1
  0
XRECORD
  5
F453
102
{ACAD_REACTORS
330
F452
102
}
330
F452
100
AcDbXrecord
280
     1
102
DISPLAYNAME
  1
Imperial24
102
FLAGS
 90
        0
  0
CELLSTYLEMAP
  5
F41A
102
{ACAD_REACTORS
330
F419
102
}
330
F419
100
AcDbCellStyleMap
 90
        3
300
CELLSTYLE
  1
TABLEFORMAT_BEGIN
 90
        5
170
     1
 91
        0
 92
    32768
 62
   257
 93
        1
300
CONTENTFORMAT
  1
CONTENTFORMAT_BEGIN
 90
        0
 91
        0
 92
      512
 93
        0
300

 40
0.0
140
1.0
 94
        5
 62
     0
340
EECC
144
0.25
309
CONTENTFORMAT_END
171
     0
 94
        0
309
TABLEFORMAT_END
  1
CELLSTYLE_BEGIN
 90
        1
 91
        1
300
_TITLE
309
CELLSTYLE_END
300
CELLSTYLE
  1
TABLEFORMAT_BEGIN
 90
        5
170
     1
 91
        0
 92
        0
 62
   257
 93
        1
300
CONTENTFORMAT
  1
CONTENTFORMAT_BEGIN
 90
        0
 91
        0
 92
      512
 93
        0
300

 40
0.0
140
1.0
 94
        5
 62
     0
340
EECC
144
0.18
309
CONTENTFORMAT_END
171
     0
 94
        0
309
TABLEFORMAT_END
  1
CELLSTYLE_BEGIN
 90
        2
 91
        1
300
_HEADER
309
CELLSTYLE_END
300
CELLSTYLE
  1
TABLEFORMAT_BEGIN
 90
        5
170
     1
 91
        0
 92
        0
 62
   257
 93
        1
300
CONTENTFORMAT
  1
CONTENTFORMAT_BEGIN
 90
        0
 91
        0
 92
      512
 93
        0
300

 40
0.0
140
1.0
 94
        2
 62
     0
340
EECC
144
0.18
309
CONTENTFORMAT_END
171
     0
 94
        0
309
TABLEFORMAT_END
  1
CELLSTYLE_BEGIN
 90
        3
 91
        2
300
_DATA
309
CELLSTYLE_END
  0
XRECORD
  5
F450
102
{ACAD_REACTORS
330
F419
102
}
330
F419
100
AcDbXrecord
280
     1
102
ACAD_ROUNDTRIP_PRE2007_TABLESTYLE
 90
      512
 91
        0
  1

 92
      512
 93
        0
  2

 94
      512
 95
        0
  3

  0
XRECORD
  5
F42B
102
{ACAD_REACTORS
330
F42A
102
}
330
F42A
100
AcDbXrecord
280
     1
102
RTVSPost2010Prop28
280
     1
102
RTVSPost2010PropOp28
 70
     1
102
RTVSPost2010Prop29
280
     1
102
RTVSPost2010PropOp29
 70
     1
102
RTVSPost2010Prop30
280
     0
102
RTVSPost2010PropOp30
 70
     1
102
RTVSPost2010Prop31
280
     0
102
RTVSPost2010PropOp31
 70
     1
102
RTVSPost2010Prop32
280
     0
102
RTVSPost2010PropOp32
 70
     1
102
RTVSPost2010Prop33
280
     0
102
RTVSPost2010PropOp33
 70
     1
102
RTVSPost2010Prop34
280
     0
102
RTVSPost2010PropOp34
 70
     1
102
RTVSPost2010Prop35
280
     0
102
RTVSPost2010PropOp35
 70
     1
102
RTVSPost2010Prop36
280
     0
102
RTVSPost2010PropOp36
 70
     1
102
RTVSPost2010Prop37
 90
       50
102
RTVSPost2010PropOp37
 70
     1
102
RTVSPost2010Prop38
140
0.0
102
RTVSPost2010PropOp38
 70
     1
102
RTVSPost2010Prop39
140
1.0
102
RTVSPost2010PropOp39
 70
     1
102
RTVSPost2010Prop40
 90
        0
102
RTVSPost2010PropOp40
 70
     1
102
RTVSPost2010Prop41ColorIndex
 90
       18
102
RTVSPost2010Prop41ColorRGB
 90
        0
102
RTVSPost2010PropOp41
 70
     1
102
RTVSPost2010Prop42
 90
       50
102
RTVSPost2010PropOp42
 70
     1
102
RTVSPost2010Prop43
 90
        3
102
RTVSPost2010PropOp43
 70
     1
102
RTVSPost2010Prop44ColorIndex
 90
        5
102
RTVSPost2010Prop44ColorRGB
 90
      255
102
RTVSPost2010PropOp44
 70
     1
102
RTVSPost2010Prop45
280
     0
102
RTVSPost2010PropOp45
 70
     1
102
RTVSPost2010Prop46
 90
       50
102
RTVSPost2010PropOp46
 70
     1
102
RTVSPost2010Prop47
 90
       50
102
RTVSPost2010PropOp47
 70
     1
102
RTVSPost2010Prop48
 90
       50
102
RTVSPost2010PropOp48
 70
     1
102
RTVSPost2010Prop49
280
     0
102
RTVSPost2010PropOp49
 70
     1
102
RTVSPost2010Prop50
 90
       50
102
RTVSPost2010PropOp50
 70
     1
102
RTVSPost2010Prop51ColorIndex
 90
      256
102
RTVSPost2010Prop51ColorRGB
 90
-16777216
102
RTVSPost2010PropOp51
 70
     0
102
RTVSPost2010Prop52
140
1.0
102
RTVSPost2010PropOp52
 70
     0
102
RTVSPost2010Prop53
 90
        2
102
RTVSPost2010PropOp53
 70
     1
102
RTVSPost2010Prop54
  1
strokes_ogs.tif
102
RTVSPost2010PropOp54
 70
     1
102
RTVSPost2010Prop55
280
     0
102
RTVSPost2010PropOp55
 70
     1
102
RTVSPost2010Prop56
140
1.0
102
RTVSPost2010PropOp56
 70
     1
102
RTVSPost2010Prop57
140
1.0
102
RTVSPost2010PropOp57
 70
     1
102
RTVSPropertyOp0
 70
     1
102
RTVSPropertyOp1
 70
     1
102
RTVSPropertyOp2
 70
     1
102
RTVSPropertyOp3
 70
     1
102
RTVSPropertyOp4
 70
     1
102
RTVSPropertyOp5
 70
     1
102
RTVSPropertyOp6
 70
     1
102
RTVSPropertyOp7
 70
     1
102
RTVSPropertyOp8
 70
     1
102
RTVSPropertyOp9
 70
     1
102
RTVSPropertyOp10
 70
     1
102
RTVSPropertyOp11
 70
     1
102
RTVSPropertyOp12
 70
     1
102
RTVSPropertyOp13
 70
     1
102
RTVSPropertyOp14
 70
     1
102
RTVSPropertyOp15
 70
     1
102
RTVSPropertyOp16
 70
     1
102
RTVSPropertyOp17
 70
     1
102
RTVSPropertyOp18
 70
     1
102
RTVSPropertyOp19
 70
     1
102
RTVSPropertyOp20
 70
     1
102
RTVSPropertyOp21
 70
     1
102
RTVSPropertyOp22
 70
     1
102
RTVSPropertyOp23
 70
     1
102
RTVSPropertyOp24
 70
     1
102
RTVSPropertyOp25
 70
     1
102
RTVSPropertyOp26
 70
     1
102
RTVSPropertyOp27
 70
     1
102
RTVSPropertyOp28
 70
     1
102
RTVSPropertyOp29
 70
     1
102
RTVSPropertyOp30
 70
     1
102
RTVSPropertyOp31
 70
     1
102
RTVSPropertyOp32
 70
     1
102
RTVSPropertyOp33
 70
     1
102
RTVSPropertyOp34
 70
     1
102
RTVSPropertyOp35
 70
     1
102
RTVSPropertyOp36
 70
     1
102
RTVSPropertyOp37
 70
     1
102
RTVSPropertyOp38
 70
     1
102
RTVSPropertyOp39
 70
     1
102
RTVSPropertyOp40
 70
     1
102
RTVSPropertyOp41
 70
     1
102
RTVSPropertyOp42
 70
     1
102
RTVSPropertyOp43
 70
     1
102
RTVSPropertyOp44
 70
     1
102
RTVSPropertyOp45
 70
     1
102
RTVSPropertyOp46
 70
     1
102
RTVSPropertyOp47
 70
     1
102
RTVSPropertyOp48
 70
     1
102
RTVSPropertyOp49
 70
     1
102
RTVSPropertyOp50
 70
     1
102
RTVSPropertyOp51
 70
     0
102
RTVSPropertyOp52
 70
     0
102
RTVSPropertyOp53
 70
     1
102
RTVSPropertyOp54
 70
     1
102
RTVSPropertyOp55
 70
     1
102
RTVSPropertyOp56
 70
     1
102
RTVSPropertyOp57
 70
     1
102
RTVSPropertyOp58
 70
     1
102
RTVSPropertyOp59
 70
     1
102
RTVSPropertyOp60
 70
     1
102
RTVSPropertyOp61
 70
     1
102
RTVSPropertyOp62
 70
     1
  0
XRECORD
  5
F429
102
{ACAD_REACTORS
330
F428
102
}
330
F428
100
AcDbXrecord
280
     1
102
RTVSPost2010Prop28
280
     0
102
RTVSPost2010PropOp28
 70
     1
102
RTVSPost2010Prop29
280
     1
102
RTVSPost2010PropOp29
 70
     1
102
RTVSPost2010Prop30
280
     1
102
RTVSPost2010PropOp30
 70
     1
102
RTVSPost2010Prop31
280
     0
102
RTVSPost2010PropOp31
 70
     1
102
RTVSPost2010Prop32
280
     0
102
RTVSPost2010PropOp32
 70
     1
102
RTVSPost2010Prop33
280
     0
102
RTVSPost2010PropOp33
 70
     1
102
RTVSPost2010Prop34
280
     0
102
RTVSPost2010PropOp34
 70
     1
102
RTVSPost2010Prop35
280
     0
102
RTVSPost2010PropOp35
 70
     1
102
RTVSPost2010Prop36
280
     0
102
RTVSPost2010PropOp36
 70
     1
102
RTVSPost2010Prop37
 90
       50
102
RTVSPost2010PropOp37
 70
     1
102
RTVSPost2010Prop38
140
0.0
102
RTVSPost2010PropOp38
 70
     1
102
RTVSPost2010Prop39
140
1.0
102
RTVSPost2010PropOp39
 70
     1
102
RTVSPost2010Prop40
 90
        0
102
RTVSPost2010PropOp40
 70
     1
102
RTVSPost2010Prop41ColorIndex
 90
       18
102
RTVSPost2010Prop41ColorRGB
 90
        0
102
RTVSPost2010PropOp41
 70
     1
102
RTVSPost2010Prop42
 90
       50
102
RTVSPost2010PropOp42
 70
     1
102
RTVSPost2010Prop43
 90
        3
102
RTVSPost2010PropOp43
 70
     1
102
RTVSPost2010Prop44ColorIndex
 90
        5
102
RTVSPost2010Prop44ColorRGB
 90
      255
102
RTVSPost2010PropOp44
 70
     1
102
RTVSPost2010Prop45
280
     0
102
RTVSPost2010PropOp45
 70
     1
102
RTVSPost2010Prop46
 90
       50
102
RTVSPost2010PropOp46
 70
     1
102
RTVSPost2010Prop47
 90
       50
102
RTVSPost2010PropOp47
 70
     1
102
RTVSPost2010Prop48
 90
       50
102
RTVSPost2010PropOp48
 70
     1
102
RTVSPost2010Prop49
280
     0
102
RTVSPost2010PropOp49
 70
     1
102
RTVSPost2010Prop50
 90
       50
102
RTVSPost2010PropOp50
 70
     1
102
RTVSPost2010Prop51ColorIndex
 90
      256
102
RTVSPost2010Prop51ColorRGB
 90
-16777216
102
RTVSPost2010PropOp51
 70
     0
102
RTVSPost2010Prop52
140
1.0
102
RTVSPost2010PropOp52
 70
     0
102
RTVSPost2010Prop53
 90
        2
102
RTVSPost2010PropOp53
 70
     1
102
RTVSPost2010Prop54
  1
strokes_ogs.tif
102
RTVSPost2010PropOp54
 70
     1
102
RTVSPost2010Prop55
280
     0
102
RTVSPost2010PropOp55
 70
     1
102
RTVSPost2010Prop56
140
1.0
102
RTVSPost2010PropOp56
 70
     1
102
RTVSPost2010Prop57
140
1.0
102
RTVSPost2010PropOp57
 70
     1
102
RTVSPropertyOp0
 70
     1
102
RTVSPropertyOp1
 70
     1
102
RTVSPropertyOp2
 70
     1
102
RTVSPropertyOp3
 70
     1
102
RTVSPropertyOp4
 70
     1
102
RTVSPropertyOp5
 70
     1
102
RTVSPropertyOp6
 70
     1
102
RTVSPropertyOp7
 70
     1
102
RTVSPropertyOp8
 70
     1
102
RTVSPropertyOp9
 70
     1
102
RTVSPropertyOp10
 70
     1
102
RTVSPropertyOp11
 70
     1
102
RTVSPropertyOp12
 70
     1
102
RTVSPropertyOp13
 70
     1
102
RTVSPropertyOp14
 70
     1
102
RTVSPropertyOp15
 70
     1
102
RTVSPropertyOp16
 70
     1
102
RTVSPropertyOp17
 70
     1
102
RTVSPropertyOp18
 70
     1
102
RTVSPropertyOp19
 70
     1
102
RTVSPropertyOp20
 70
     1
102
RTVSPropertyOp21
 70
     1
102
RTVSPropertyOp22
 70
     1
102
RTVSPropertyOp23
 70
     1
102
RTVSPropertyOp24
 70
     1
102
RTVSPropertyOp25
 70
     1
102
RTVSPropertyOp26
 70
     1
102
RTVSPropertyOp27
 70
     1
102
RTVSPropertyOp28
 70
     1
102
RTVSPropertyOp29
 70
     1
102
RTVSPropertyOp30
 70
     1
102
RTVSPropertyOp31
 70
     1
102
RTVSPropertyOp32
 70
     1
102
RTVSPropertyOp33
 70
     1
102
RTVSPropertyOp34
 70
     1
102
RTVSPropertyOp35
 70
     1
102
RTVSPropertyOp36
 70
     1
102
RTVSPropertyOp37
 70
     1
102
RTVSPropertyOp38
 70
     1
102
RTVSPropertyOp39
 70
     1
102
RTVSPropertyOp40
 70
     1
102
RTVSPropertyOp41
 70
     1
102
RTVSPropertyOp42
 70
     1
102
RTVSPropertyOp43
 70
     1
102
RTVSPropertyOp44
 70
     1
102
RTVSPropertyOp45
 70
     1
102
RTVSPropertyOp46
 70
     1
102
RTVSPropertyOp47
 70
     1
102
RTVSPropertyOp48
 70
     1
102
RTVSPropertyOp49
 70
     1
102
RTVSPropertyOp50
 70
     1
102
RTVSPropertyOp51
 70
     0
102
RTVSPropertyOp52
 70
     0
102
RTVSPropertyOp53
 70
     1
102
RTVSPropertyOp54
 70
     1
102
RTVSPropertyOp55
 70
     1
102
RTVSPropertyOp56
 70
     1
102
RTVSPropertyOp57
 70
     1
102
RTVSPropertyOp58
 70
     1
102
RTVSPropertyOp59
 70
     1
102
RTVSPropertyOp60
 70
     1
102
RTVSPropertyOp61
 70
     1
102
RTVSPropertyOp62
 70
     1
  0
XRECORD
  5
F437
102
{ACAD_REACTORS
330
F436
102
}
330
F436
100
AcDbXrecord
280
     1
102
RTVSPost2010Prop28
280
     0
102
RTVSPost2010PropOp28
 70
     1
102
RTVSPost2010Prop29
280
     1
102
RTVSPost2010PropOp29
 70
     1
102
RTVSPost2010Prop30
280
     1
102
RTVSPost2010PropOp30
 70
     1
102
RTVSPost2010Prop31
280
     0
102
RTVSPost2010PropOp31
 70
     1
102
RTVSPost2010Prop32
280
     0
102
RTVSPost2010PropOp32
 70
     1
102
RTVSPost2010Prop33
280
     0
102
RTVSPost2010PropOp33
 70
     1
102
RTVSPost2010Prop34
280
     0
102
RTVSPost2010PropOp34
 70
     1
102
RTVSPost2010Prop35
280
     0
102
RTVSPost2010PropOp35
 70
     1
102
RTVSPost2010Prop36
280
     0
102
RTVSPost2010PropOp36
 70
     1
102
RTVSPost2010Prop37
 90
       50
102
RTVSPost2010PropOp37
 70
     1
102
RTVSPost2010Prop38
140
0.0
102
RTVSPost2010PropOp38
 70
     1
102
RTVSPost2010Prop39
140
1.0
102
RTVSPost2010PropOp39
 70
     1
102
RTVSPost2010Prop40
 90
        0
102
RTVSPost2010PropOp40
 70
     1
102
RTVSPost2010Prop41ColorIndex
 90
       18
102
RTVSPost2010Prop41ColorRGB
 90
        0
102
RTVSPost2010PropOp41
 70
     1
102
RTVSPost2010Prop42
 90
       50
102
RTVSPost2010PropOp42
 70
     1
102
RTVSPost2010Prop43
 90
        3
102
RTVSPost2010PropOp43
 70
     1
102
RTVSPost2010Prop44ColorIndex
 90
        5
102
RTVSPost2010Prop44ColorRGB
 90
      255
102
RTVSPost2010PropOp44
 70
     1
102
RTVSPost2010Prop45
280
     0
102
RTVSPost2010PropOp45
 70
     1
102
RTVSPost2010Prop46
 90
       50
102
RTVSPost2010PropOp46
 70
     1
102
RTVSPost2010Prop47
 90
       50
102
RTVSPost2010PropOp47
 70
     1
102
RTVSPost2010Prop48
 90
       50
102
RTVSPost2010PropOp48
 70
     1
102
RTVSPost2010Prop49
280
     0
102
RTVSPost2010PropOp49
 70
     1
102
RTVSPost2010Prop50
 90
       50
102
RTVSPost2010PropOp50
 70
     1
102
RTVSPost2010Prop51ColorIndex
 90
      256
102
RTVSPost2010Prop51ColorRGB
 90
-16777216
102
RTVSPost2010PropOp51
 70
     0
102
RTVSPost2010Prop52
140
1.0
102
RTVSPost2010PropOp52
 70
     0
102
RTVSPost2010Prop53
 90
        2
102
RTVSPost2010PropOp53
 70
     1
102
RTVSPost2010Prop54
  1
strokes_ogs.tif
102
RTVSPost2010PropOp54
 70
     1
102
RTVSPost2010Prop55
280
     0
102
RTVSPost2010PropOp55
 70
     1
102
RTVSPost2010Prop56
140
1.0
102
RTVSPost2010PropOp56
 70
     1
102
RTVSPost2010Prop57
140
1.0
102
RTVSPost2010PropOp57
 70
     1
102
RTVSPropertyOp0
 70
     1
102
RTVSPropertyOp1
 70
     1
102
RTVSPropertyOp2
 70
     1
102
RTVSPropertyOp3
 70
     1
102
RTVSPropertyOp4
 70
     1
102
RTVSPropertyOp5
 70
     1
102
RTVSPropertyOp6
 70
     1
102
RTVSPropertyOp7
 70
     1
102
RTVSPropertyOp8
 70
     1
102
RTVSPropertyOp9
 70
     1
102
RTVSPropertyOp10
 70
     1
102
RTVSPropertyOp11
 70
     1
102
RTVSPropertyOp12
 70
     1
102
RTVSPropertyOp13
 70
     1
102
RTVSPropertyOp14
 70
     1
102
RTVSPropertyOp15
 70
     1
102
RTVSPropertyOp16
 70
     1
102
RTVSPropertyOp17
 70
     1
102
RTVSPropertyOp18
 70
     1
102
RTVSPropertyOp19
 70
     1
102
RTVSPropertyOp20
 70
     1
102
RTVSPropertyOp21
 70
     1
102
RTVSPropertyOp22
 70
     1
102
RTVSPropertyOp23
 70
     1
102
RTVSPropertyOp24
 70
     1
102
RTVSPropertyOp25
 70
     1
102
RTVSPropertyOp26
 70
     1
102
RTVSPropertyOp27
 70
     1
102
RTVSPropertyOp28
 70
     1
102
RTVSPropertyOp29
 70
     1
102
RTVSPropertyOp30
 70
     1
102
RTVSPropertyOp31
 70
     1
102
RTVSPropertyOp32
 70
     1
102
RTVSPropertyOp33
 70
     1
102
RTVSPropertyOp34
 70
     1
102
RTVSPropertyOp35
 70
     1
102
RTVSPropertyOp36
 70
     1
102
RTVSPropertyOp37
 70
     1
102
RTVSPropertyOp38
 70
     1
102
RTVSPropertyOp39
 70
     1
102
RTVSPropertyOp40
 70
     1
102
RTVSPropertyOp41
 70
     1
102
RTVSPropertyOp42
 70
     1
102
RTVSPropertyOp43
 70
     1
102
RTVSPropertyOp44
 70
     1
102
RTVSPropertyOp45
 70
     1
102
RTVSPropertyOp46
 70
     1
102
RTVSPropertyOp47
 70
     1
102
RTVSPropertyOp48
 70
     1
102
RTVSPropertyOp49
 70
     1
102
RTVSPropertyOp50
 70
     1
102
RTVSPropertyOp51
 70
     0
102
RTVSPropertyOp52
 70
     0
102
RTVSPropertyOp53
 70
     1
102
RTVSPropertyOp54
 70
     1
102
RTVSPropertyOp55
 70
     1
102
RTVSPropertyOp56
 70
     1
102
RTVSPropertyOp57
 70
     1
102
RTVSPropertyOp58
 70
     1
102
RTVSPropertyOp59
 70
     1
102
RTVSPropertyOp60
 70
     1
102
RTVSPropertyOp61
 70
     1
102
RTVSPropertyOp62
 70
     1
  0
XRECORD
  5
F43F
102
{ACAD_REACTORS
330
F43E
102
}
330
F43E
100
AcDbXrecord
280
     1
102
RTVSPost2010Prop28
280
     0
102
RTVSPost2010PropOp28
 70
     1
102
RTVSPost2010Prop29
280
     1
102
RTVSPost2010PropOp29
 70
     1
102
RTVSPost2010Prop30
280
     1
102
RTVSPost2010PropOp30
 70
     1
102
RTVSPost2010Prop31
280
     0
102
RTVSPost2010PropOp31
 70
     1
102
RTVSPost2010Prop32
280
     0
102
RTVSPost2010PropOp32
 70
     1
102
RTVSPost2010Prop33
280
     0
102
RTVSPost2010PropOp33
 70
     1
102
RTVSPost2010Prop34
280
     0
102
RTVSPost2010PropOp34
 70
     1
102
RTVSPost2010Prop35
280
     0
102
RTVSPost2010PropOp35
 70
     1
102
RTVSPost2010Prop36
280
     0
102
RTVSPost2010PropOp36
 70
     1
102
RTVSPost2010Prop37
 90
       50
102
RTVSPost2010PropOp37
 70
     1
102
RTVSPost2010Prop38
140
0.0
102
RTVSPost2010PropOp38
 70
     1
102
RTVSPost2010Prop39
140
1.0
102
RTVSPost2010PropOp39
 70
     1
102
RTVSPost2010Prop40
 90
        0
102
RTVSPost2010PropOp40
 70
     1
102
RTVSPost2010Prop41ColorIndex
 90
       18
102
RTVSPost2010Prop41ColorRGB
 90
        0
102
RTVSPost2010PropOp41
 70
     1
102
RTVSPost2010Prop42
 90
       50
102
RTVSPost2010PropOp42
 70
     1
102
RTVSPost2010Prop43
 90
        3
102
RTVSPost2010PropOp43
 70
     1
102
RTVSPost2010Prop44ColorIndex
 90
        5
102
RTVSPost2010Prop44ColorRGB
 90
      255
102
RTVSPost2010PropOp44
 70
     1
102
RTVSPost2010Prop45
280
     0
102
RTVSPost2010PropOp45
 70
     1
102
RTVSPost2010Prop46
 90
       50
102
RTVSPost2010PropOp46
 70
     1
102
RTVSPost2010Prop47
 90
       50
102
RTVSPost2010PropOp47
 70
     1
102
RTVSPost2010Prop48
 90
       50
102
RTVSPost2010PropOp48
 70
     1
102
RTVSPost2010Prop49
280
     0
102
RTVSPost2010PropOp49
 70
     1
102
RTVSPost2010Prop50
 90
       50
102
RTVSPost2010PropOp50
 70
     1
102
RTVSPost2010Prop51ColorIndex
 90
      256
102
RTVSPost2010Prop51ColorRGB
 90
-16777216
102
RTVSPost2010PropOp51
 70
     0
102
RTVSPost2010Prop52
140
1.0
102
RTVSPost2010PropOp52
 70
     0
102
RTVSPost2010Prop53
 90
        2
102
RTVSPost2010PropOp53
 70
     1
102
RTVSPost2010Prop54
  1
strokes_ogs.tif
102
RTVSPost2010PropOp54
 70
     1
102
RTVSPost2010Prop55
280
     0
102
RTVSPost2010PropOp55
 70
     1
102
RTVSPost2010Prop56
140
1.0
102
RTVSPost2010PropOp56
 70
     1
102
RTVSPost2010Prop57
140
1.0
102
RTVSPost2010PropOp57
 70
     1
102
RTVSPropertyOp0
 70
     1
102
RTVSPropertyOp1
 70
     1
102
RTVSPropertyOp2
 70
     1
102
RTVSPropertyOp3
 70
     1
102
RTVSPropertyOp4
 70
     1
102
RTVSPropertyOp5
 70
     1
102
RTVSPropertyOp6
 70
     1
102
RTVSPropertyOp7
 70
     1
102
RTVSPropertyOp8
 70
     1
102
RTVSPropertyOp9
 70
     1
102
RTVSPropertyOp10
 70
     1
102
RTVSPropertyOp11
 70
     1
102
RTVSPropertyOp12
 70
     1
102
RTVSPropertyOp13
 70
     1
102
RTVSPropertyOp14
 70
     1
102
RTVSPropertyOp15
 70
     1
102
RTVSPropertyOp16
 70
     1
102
RTVSPropertyOp17
 70
     1
102
RTVSPropertyOp18
 70
     1
102
RTVSPropertyOp19
 70
     1
102
RTVSPropertyOp20
 70
     1
102
RTVSPropertyOp21
 70
     1
102
RTVSPropertyOp22
 70
     1
102
RTVSPropertyOp23
 70
     1
102
RTVSPropertyOp24
 70
     1
102
RTVSPropertyOp25
 70
     1
102
RTVSPropertyOp26
 70
     1
102
RTVSPropertyOp27
 70
     1
102
RTVSPropertyOp28
 70
     1
102
RTVSPropertyOp29
 70
     1
102
RTVSPropertyOp30
 70
     1
102
RTVSPropertyOp31
 70
     1
102
RTVSPropertyOp32
 70
     1
102
RTVSPropertyOp33
 70
     1
102
RTVSPropertyOp34
 70
     1
102
RTVSPropertyOp35
 70
     1
102
RTVSPropertyOp36
 70
     1
102
RTVSPropertyOp37
 70
     1
102
RTVSPropertyOp38
 70
     1
102
RTVSPropertyOp39
 70
     1
102
RTVSPropertyOp40
 70
     1
102
RTVSPropertyOp41
 70
     1
102
RTVSPropertyOp42
 70
     1
102
RTVSPropertyOp43
 70
     1
102
RTVSPropertyOp44
 70
     1
102
RTVSPropertyOp45
 70
     1
102
RTVSPropertyOp46
 70
     1
102
RTVSPropertyOp47
 70
     1
102
RTVSPropertyOp48
 70
     1
102
RTVSPropertyOp49
 70
     1
102
RTVSPropertyOp50
 70
     1
102
RTVSPropertyOp51
 70
     0
102
RTVSPropertyOp52
 70
     0
102
RTVSPropertyOp53
 70
     1
102
RTVSPropertyOp54
 70
     1
102
RTVSPropertyOp55
 70
     1
102
RTVSPropertyOp56
 70
     1
102
RTVSPropertyOp57
 70
     1
102
RTVSPropertyOp58
 70
     1
102
RTVSPropertyOp59
 70
     1
102
RTVSPropertyOp60
 70
     1
102
RTVSPropertyOp61
 70
     1
102
RTVSPropertyOp62
 70
     1
  0
XRECORD
  5
F431
102
{ACAD_REACTORS
330
F430
102
}
330
F430
100
AcDbXrecord
280
     1
102
RTVSPost2010Prop28
280
     0
102
RTVSPost2010PropOp28
 70
     1
102
RTVSPost2010Prop29
280
     1
102
RTVSPost2010PropOp29
 70
     1
102
RTVSPost2010Prop30
280
     1
102
RTVSPost2010PropOp30
 70
     1
102
RTVSPost2010Prop31
280
     0
102
RTVSPost2010PropOp31
 70
     1
102
RTVSPost2010Prop32
280
     0
102
RTVSPost2010PropOp32
 70
     1
102
RTVSPost2010Prop33
280
     0
102
RTVSPost2010PropOp33
 70
     1
102
RTVSPost2010Prop34
280
     0
102
RTVSPost2010PropOp34
 70
     1
102
RTVSPost2010Prop35
280
     0
102
RTVSPost2010PropOp35
 70
     1
102
RTVSPost2010Prop36
280
     0
102
RTVSPost2010PropOp36
 70
     1
102
RTVSPost2010Prop37
 90
       50
102
RTVSPost2010PropOp37
 70
     1
102
RTVSPost2010Prop38
140
0.0
102
RTVSPost2010PropOp38
 70
     1
102
RTVSPost2010Prop39
140
1.0
102
RTVSPost2010PropOp39
 70
     1
102
RTVSPost2010Prop40
 90
        0
102
RTVSPost2010PropOp40
 70
     1
102
RTVSPost2010Prop41ColorIndex
 90
       18
102
RTVSPost2010Prop41ColorRGB
 90
        0
102
RTVSPost2010PropOp41
 70
     1
102
RTVSPost2010Prop42
 90
       50
102
RTVSPost2010PropOp42
 70
     1
102
RTVSPost2010Prop43
 90
        3
102
RTVSPost2010PropOp43
 70
     1
102
RTVSPost2010Prop44ColorIndex
 90
        5
102
RTVSPost2010Prop44ColorRGB
 90
      255
102
RTVSPost2010PropOp44
 70
     1
102
RTVSPost2010Prop45
280
     0
102
RTVSPost2010PropOp45
 70
     1
102
RTVSPost2010Prop46
 90
       50
102
RTVSPost2010PropOp46
 70
     1
102
RTVSPost2010Prop47
 90
       50
102
RTVSPost2010PropOp47
 70
     1
102
RTVSPost2010Prop48
 90
       50
102
RTVSPost2010PropOp48
 70
     1
102
RTVSPost2010Prop49
280
     0
102
RTVSPost2010PropOp49
 70
     1
102
RTVSPost2010Prop50
 90
       50
102
RTVSPost2010PropOp50
 70
     1
102
RTVSPost2010Prop51ColorIndex
 90
      256
102
RTVSPost2010Prop51ColorRGB
 90
-16777216
102
RTVSPost2010PropOp51
 70
     0
102
RTVSPost2010Prop52
140
1.0
102
RTVSPost2010PropOp52
 70
     0
102
RTVSPost2010Prop53
 90
        2
102
RTVSPost2010PropOp53
 70
     1
102
RTVSPost2010Prop54
  1
strokes_ogs.tif
102
RTVSPost2010PropOp54
 70
     1
102
RTVSPost2010Prop55
280
     0
102
RTVSPost2010PropOp55
 70
     1
102
RTVSPost2010Prop56
140
1.0
102
RTVSPost2010PropOp56
 70
     1
102
RTVSPost2010Prop57
140
1.0
102
RTVSPost2010PropOp57
 70
     1
102
RTVSPropertyOp0
 70
     1
102
RTVSPropertyOp1
 70
     1
102
RTVSPropertyOp2
 70
     1
102
RTVSPropertyOp3
 70
     1
102
RTVSPropertyOp4
 70
     1
102
RTVSPropertyOp5
 70
     1
102
RTVSPropertyOp6
 70
     1
102
RTVSPropertyOp7
 70
     1
102
RTVSPropertyOp8
 70
     1
102
RTVSPropertyOp9
 70
     1
102
RTVSPropertyOp10
 70
     1
102
RTVSPropertyOp11
 70
     1
102
RTVSPropertyOp12
 70
     1
102
RTVSPropertyOp13
 70
     1
102
RTVSPropertyOp14
 70
     1
102
RTVSPropertyOp15
 70
     1
102
RTVSPropertyOp16
 70
     1
102
RTVSPropertyOp17
 70
     1
102
RTVSPropertyOp18
 70
     1
102
RTVSPropertyOp19
 70
     1
102
RTVSPropertyOp20
 70
     1
102
RTVSPropertyOp21
 70
     1
102
RTVSPropertyOp22
 70
     1
102
RTVSPropertyOp23
 70
     1
102
RTVSPropertyOp24
 70
     1
102
RTVSPropertyOp25
 70
     1
102
RTVSPropertyOp26
 70
     1
102
RTVSPropertyOp27
 70
     1
102
RTVSPropertyOp28
 70
     1
102
RTVSPropertyOp29
 70
     1
102
RTVSPropertyOp30
 70
     1
102
RTVSPropertyOp31
 70
     1
102
RTVSPropertyOp32
 70
     1
102
RTVSPropertyOp33
 70
     1
102
RTVSPropertyOp34
 70
     1
102
RTVSPropertyOp35
 70
     1
102
RTVSPropertyOp36
 70
     1
102
RTVSPropertyOp37
 70
     1
102
RTVSPropertyOp38
 70
     1
102
RTVSPropertyOp39
 70
     1
102
RTVSPropertyOp40
 70
     1
102
RTVSPropertyOp41
 70
     1
102
RTVSPropertyOp42
 70
     1
102
RTVSPropertyOp43
 70
     1
102
RTVSPropertyOp44
 70
     1
102
RTVSPropertyOp45
 70
     1
102
RTVSPropertyOp46
 70
     1
102
RTVSPropertyOp47
 70
     1
102
RTVSPropertyOp48
 70
     1
102
RTVSPropertyOp49
 70
     1
102
RTVSPropertyOp50
 70
     1
102
RTVSPropertyOp51
 70
     0
102
RTVSPropertyOp52
 70
     0
102
RTVSPropertyOp53
 70
     1
102
RTVSPropertyOp54
 70
     1
102
RTVSPropertyOp55
 70
     1
102
RTVSPropertyOp56
 70
     1
102
RTVSPropertyOp57
 70
     1
102
RTVSPropertyOp58
 70
     1
102
RTVSPropertyOp59
 70
     1
102
RTVSPropertyOp60
 70
     1
102
RTVSPropertyOp61
 70
     1
102
RTVSPropertyOp62
 70
     1
  0
XRECORD
  5
F435
102
{ACAD_REACTORS
330
F434
102
}
330
F434
100
AcDbXrecord
280
     1
102
RTVSPost2010Prop28
280
     0
102
RTVSPost2010PropOp28
 70
     1
102
RTVSPost2010Prop29
280
     1
102
RTVSPost2010PropOp29
 70
     1
102
RTVSPost2010Prop30
280
     1
102
RTVSPost2010PropOp30
 70
     1
102
RTVSPost2010Prop31
280
     0
102
RTVSPost2010PropOp31
 70
     1
102
RTVSPost2010Prop32
280
     0
102
RTVSPost2010PropOp32
 70
     1
102
RTVSPost2010Prop33
280
     0
102
RTVSPost2010PropOp33
 70
     1
102
RTVSPost2010Prop34
280
     0
102
RTVSPost2010PropOp34
 70
     1
102
RTVSPost2010Prop35
280
     0
102
RTVSPost2010PropOp35
 70
     1
102
RTVSPost2010Prop36
280
     0
102
RTVSPost2010PropOp36
 70
     1
102
RTVSPost2010Prop37
 90
       50
102
RTVSPost2010PropOp37
 70
     1
102
RTVSPost2010Prop38
140
0.0
102
RTVSPost2010PropOp38
 70
     1
102
RTVSPost2010Prop39
140
1.0
102
RTVSPost2010PropOp39
 70
     1
102
RTVSPost2010Prop40
 90
        0
102
RTVSPost2010PropOp40
 70
     1
102
RTVSPost2010Prop41ColorIndex
 90
       18
102
RTVSPost2010Prop41ColorRGB
 90
        0
102
RTVSPost2010PropOp41
 70
     1
102
RTVSPost2010Prop42
 90
       50
102
RTVSPost2010PropOp42
 70
     1
102
RTVSPost2010Prop43
 90
        3
102
RTVSPost2010PropOp43
 70
     1
102
RTVSPost2010Prop44ColorIndex
 90
        5
102
RTVSPost2010Prop44ColorRGB
 90
      255
102
RTVSPost2010PropOp44
 70
     1
102
RTVSPost2010Prop45
280
     0
102
RTVSPost2010PropOp45
 70
     1
102
RTVSPost2010Prop46
 90
       50
102
RTVSPost2010PropOp46
 70
     1
102
RTVSPost2010Prop47
 90
       50
102
RTVSPost2010PropOp47
 70
     1
102
RTVSPost2010Prop48
 90
       50
102
RTVSPost2010PropOp48
 70
     1
102
RTVSPost2010Prop49
280
     0
102
RTVSPost2010PropOp49
 70
     1
102
RTVSPost2010Prop50
 90
       50
102
RTVSPost2010PropOp50
 70
     1
102
RTVSPost2010Prop51ColorIndex
 90
      256
102
RTVSPost2010Prop51ColorRGB
 90
-16777216
102
RTVSPost2010PropOp51
 70
     0
102
RTVSPost2010Prop52
140
1.0
102
RTVSPost2010PropOp52
 70
     0
102
RTVSPost2010Prop53
 90
        2
102
RTVSPost2010PropOp53
 70
     1
102
RTVSPost2010Prop54
  1
strokes_ogs.tif
102
RTVSPost2010PropOp54
 70
     1
102
RTVSPost2010Prop55
280
     0
102
RTVSPost2010PropOp55
 70
     1
102
RTVSPost2010Prop56
140
1.0
102
RTVSPost2010PropOp56
 70
     1
102
RTVSPost2010Prop57
140
1.0
102
RTVSPost2010PropOp57
 70
     1
102
RTVSPropertyOp0
 70
     1
102
RTVSPropertyOp1
 70
     1
102
RTVSPropertyOp2
 70
     1
102
RTVSPropertyOp3
 70
     1
102
RTVSPropertyOp4
 70
     1
102
RTVSPropertyOp5
 70
     1
102
RTVSPropertyOp6
 70
     1
102
RTVSPropertyOp7
 70
     1
102
RTVSPropertyOp8
 70
     1
102
RTVSPropertyOp9
 70
     1
102
RTVSPropertyOp10
 70
     1
102
RTVSPropertyOp11
 70
     1
102
RTVSPropertyOp12
 70
     1
102
RTVSPropertyOp13
 70
     1
102
RTVSPropertyOp14
 70
     1
102
RTVSPropertyOp15
 70
     1
102
RTVSPropertyOp16
 70
     1
102
RTVSPropertyOp17
 70
     1
102
RTVSPropertyOp18
 70
     1
102
RTVSPropertyOp19
 70
     1
102
RTVSPropertyOp20
 70
     1
102
RTVSPropertyOp21
 70
     1
102
RTVSPropertyOp22
 70
     1
102
RTVSPropertyOp23
 70
     1
102
RTVSPropertyOp24
 70
     1
102
RTVSPropertyOp25
 70
     1
102
RTVSPropertyOp26
 70
     1
102
RTVSPropertyOp27
 70
     1
102
RTVSPropertyOp28
 70
     1
102
RTVSPropertyOp29
 70
     1
102
RTVSPropertyOp30
 70
     1
102
RTVSPropertyOp31
 70
     1
102
RTVSPropertyOp32
 70
     1
102
RTVSPropertyOp33
 70
     1
102
RTVSPropertyOp34
 70
     1
102
RTVSPropertyOp35
 70
     1
102
RTVSPropertyOp36
 70
     1
102
RTVSPropertyOp37
 70
     1
102
RTVSPropertyOp38
 70
     1
102
RTVSPropertyOp39
 70
     1
102
RTVSPropertyOp40
 70
     1
102
RTVSPropertyOp41
 70
     1
102
RTVSPropertyOp42
 70
     1
102
RTVSPropertyOp43
 70
     1
102
RTVSPropertyOp44
 70
     1
102
RTVSPropertyOp45
 70
     1
102
RTVSPropertyOp46
 70
     1
102
RTVSPropertyOp47
 70
     1
102
RTVSPropertyOp48
 70
     1
102
RTVSPropertyOp49
 70
     1
102
RTVSPropertyOp50
 70
     1
102
RTVSPropertyOp51
 70
     0
102
RTVSPropertyOp52
 70
     0
102
RTVSPropertyOp53
 70
     1
102
RTVSPropertyOp54
 70
     1
102
RTVSPropertyOp55
 70
     1
102
RTVSPropertyOp56
 70
     1
102
RTVSPropertyOp57
 70
     1
102
RTVSPropertyOp58
 70
     1
102
RTVSPropertyOp59
 70
     1
102
RTVSPropertyOp60
 70
     1
102
RTVSPropertyOp61
 70
     1
102
RTVSPropertyOp62
 70
     1
  0
XRECORD
  5
F44F
102
{ACAD_REACTORS
330
F44E
102
}
330
F44E
100
AcDbXrecord
280
     1
102
RTVSPost2010Prop28
280
     0
102
RTVSPost2010PropOp28
 70
     1
102
RTVSPost2010Prop29
280
     1
102
RTVSPost2010PropOp29
 70
     1
102
RTVSPost2010Prop30
280
     1
102
RTVSPost2010PropOp30
 70
     1
102
RTVSPost2010Prop31
280
     0
102
RTVSPost2010PropOp31
 70
     1
102
RTVSPost2010Prop32
280
     0
102
RTVSPost2010PropOp32
 70
     1
102
RTVSPost2010Prop33
280
     0
102
RTVSPost2010PropOp33
 70
     1
102
RTVSPost2010Prop34
280
     0
102
RTVSPost2010PropOp34
 70
     1
102
RTVSPost2010Prop35
280
     0
102
RTVSPost2010PropOp35
 70
     1
102
RTVSPost2010Prop36
280
     0
102
RTVSPost2010PropOp36
 70
     1
102
RTVSPost2010Prop37
 90
       50
102
RTVSPost2010PropOp37
 70
     0
102
RTVSPost2010Prop38
140
0.0
102
RTVSPost2010PropOp38
 70
     0
102
RTVSPost2010Prop39
140
1.0
102
RTVSPost2010PropOp39
 70
     0
102
RTVSPost2010Prop40
 90
        0
102
RTVSPost2010PropOp40
 70
     0
102
RTVSPost2010Prop41ColorIndex
 90
       18
102
RTVSPost2010Prop41ColorRGB
 90
        0
102
RTVSPost2010PropOp41
 70
     0
102
RTVSPost2010Prop42
 90
       50
102
RTVSPost2010PropOp42
 70
     0
102
RTVSPost2010Prop43
 90
        3
102
RTVSPost2010PropOp43
 70
     0
102
RTVSPost2010Prop44ColorIndex
 90
        5
102
RTVSPost2010Prop44ColorRGB
 90
      255
102
RTVSPost2010PropOp44
 70
     0
102
RTVSPost2010Prop45
280
     0
102
RTVSPost2010PropOp45
 70
     1
102
RTVSPost2010Prop46
 90
       50
102
RTVSPost2010PropOp46
 70
     0
102
RTVSPost2010Prop47
 90
       50
102
RTVSPost2010PropOp47
 70
     0
102
RTVSPost2010Prop48
 90
       50
102
RTVSPost2010PropOp48
 70
     0
102
RTVSPost2010Prop49
280
     0
102
RTVSPost2010PropOp49
 70
     1
102
RTVSPost2010Prop50
 90
       50
102
RTVSPost2010PropOp50
 70
     0
102
RTVSPost2010Prop51ColorIndex
 90
      256
102
RTVSPost2010Prop51ColorRGB
 90
-16777216
102
RTVSPost2010PropOp51
 70
     0
102
RTVSPost2010Prop52
140
1.0
102
RTVSPost2010PropOp52
 70
     0
102
RTVSPost2010Prop53
 90
        2
102
RTVSPost2010PropOp53
 70
     0
102
RTVSPost2010Prop54
  1
strokes_ogs.tif
102
RTVSPost2010PropOp54
 70
     0
102
RTVSPost2010Prop55
280
     0
102
RTVSPost2010PropOp55
 70
     1
102
RTVSPost2010Prop56
140
1.0
102
RTVSPost2010PropOp56
 70
     0
102
RTVSPost2010Prop57
140
1.0
102
RTVSPost2010PropOp57
 70
     0
102
RTVSPropertyOp0
 70
     0
102
RTVSPropertyOp1
 70
     0
102
RTVSPropertyOp2
 70
     0
102
RTVSPropertyOp3
 70
     0
102
RTVSPropertyOp4
 70
     0
102
RTVSPropertyOp5
 70
     0
102
RTVSPropertyOp6
 70
     0
102
RTVSPropertyOp7
 70
     0
102
RTVSPropertyOp8
 70
     0
102
RTVSPropertyOp9
 70
     0
102
RTVSPropertyOp10
 70
     0
102
RTVSPropertyOp11
 70
     0
102
RTVSPropertyOp12
 70
     0
102
RTVSPropertyOp13
 70
     0
102
RTVSPropertyOp14
 70
     2
102
RTVSPropertyOp15
 70
     0
102
RTVSPropertyOp16
 70
     0
102
RTVSPropertyOp17
 70
     0
102
RTVSPropertyOp18
 70
     0
102
RTVSPropertyOp19
 70
     0
102
RTVSPropertyOp20
 70
     0
102
RTVSPropertyOp21
 70
     0
102
RTVSPropertyOp22
 70
     0
102
RTVSPropertyOp23
 70
     0
102
RTVSPropertyOp24
 70
     0
102
RTVSPropertyOp25
 70
     0
102
RTVSPropertyOp26
 70
     0
102
RTVSPropertyOp27
 70
     0
102
RTVSPropertyOp28
 70
     1
102
RTVSPropertyOp29
 70
     1
102
RTVSPropertyOp30
 70
     1
102
RTVSPropertyOp31
 70
     1
102
RTVSPropertyOp32
 70
     1
102
RTVSPropertyOp33
 70
     1
102
RTVSPropertyOp34
 70
     1
102
RTVSPropertyOp35
 70
     1
102
RTVSPropertyOp36
 70
     1
102
RTVSPropertyOp37
 70
     0
102
RTVSPropertyOp38
 70
     0
102
RTVSPropertyOp39
 70
     0
102
RTVSPropertyOp40
 70
     0
102
RTVSPropertyOp41
 70
     0
102
RTVSPropertyOp42
 70
     0
102
RTVSPropertyOp43
 70
     0
102
RTVSPropertyOp44
 70
     0
102
RTVSPropertyOp45
 70
     1
102
RTVSPropertyOp46
 70
     0
102
RTVSPropertyOp47
 70
     0
102
RTVSPropertyOp48
 70
     0
102
RTVSPropertyOp49
 70
     1
102
RTVSPropertyOp50
 70
     0
102
RTVSPropertyOp51
 70
     0
102
RTVSPropertyOp52
 70
     0
102
RTVSPropertyOp53
 70
     0
102
RTVSPropertyOp54
 70
     0
102
RTVSPropertyOp55
 70
     1
102
RTVSPropertyOp56
 70
     0
102
RTVSPropertyOp57
 70
     0
102
RTVSPropertyOp58
 70
     0
102
RTVSPropertyOp59
 70
     0
102
RTVSPropertyOp60
 70
     0
102
RTVSPropertyOp61
 70
     0
102
RTVSPropertyOp62
 70
     0
  0
XRECORD
  5
F43D
102
{ACAD_REACTORS
330
F43C
102
}
330
F43C
100
AcDbXrecord
280
     1
102
RTVSPost2010Prop28
280
     0
102
RTVSPost2010PropOp28
 70
     1
102
RTVSPost2010Prop29
280
     1
102
RTVSPost2010PropOp29
 70
     1
102
RTVSPost2010Prop30
280
     1
102
RTVSPost2010PropOp30
 70
     1
102
RTVSPost2010Prop31
280
     0
102
RTVSPost2010PropOp31
 70
     1
102
RTVSPost2010Prop32
280
     0
102
RTVSPost2010PropOp32
 70
     1
102
RTVSPost2010Prop33
280
     0
102
RTVSPost2010PropOp33
 70
     1
102
RTVSPost2010Prop34
280
     0
102
RTVSPost2010PropOp34
 70
     1
102
RTVSPost2010Prop35
280
     0
102
RTVSPost2010PropOp35
 70
     1
102
RTVSPost2010Prop36
280
     0
102
RTVSPost2010PropOp36
 70
     1
102
RTVSPost2010Prop37
 90
       50
102
RTVSPost2010PropOp37
 70
     1
102
RTVSPost2010Prop38
140
0.0
102
RTVSPost2010PropOp38
 70
     1
102
RTVSPost2010Prop39
140
1.0
102
RTVSPost2010PropOp39
 70
     1
102
RTVSPost2010Prop40
 90
        0
102
RTVSPost2010PropOp40
 70
     1
102
RTVSPost2010Prop41ColorIndex
 90
       18
102
RTVSPost2010Prop41ColorRGB
 90
        0
102
RTVSPost2010PropOp41
 70
     1
102
RTVSPost2010Prop42
 90
       50
102
RTVSPost2010PropOp42
 70
     1
102
RTVSPost2010Prop43
 90
        3
102
RTVSPost2010PropOp43
 70
     1
102
RTVSPost2010Prop44ColorIndex
 90
        5
102
RTVSPost2010Prop44ColorRGB
 90
      255
102
RTVSPost2010PropOp44
 70
     1
102
RTVSPost2010Prop45
280
     0
102
RTVSPost2010PropOp45
 70
     1
102
RTVSPost2010Prop46
 90
       50
102
RTVSPost2010PropOp46
 70
     1
102
RTVSPost2010Prop47
 90
       50
102
RTVSPost2010PropOp47
 70
     1
102
RTVSPost2010Prop48
 90
       50
102
RTVSPost2010PropOp48
 70
     1
102
RTVSPost2010Prop49
280
     0
102
RTVSPost2010PropOp49
 70
     1
102
RTVSPost2010Prop50
 90
       50
102
RTVSPost2010PropOp50
 70
     1
102
RTVSPost2010Prop51ColorIndex
 90
      256
102
RTVSPost2010Prop51ColorRGB
 90
-16777216
102
RTVSPost2010PropOp51
 70
     0
102
RTVSPost2010Prop52
140
1.0
102
RTVSPost2010PropOp52
 70
     0
102
RTVSPost2010Prop53
 90
        2
102
RTVSPost2010PropOp53
 70
     1
102
RTVSPost2010Prop54
  1
strokes_ogs.tif
102
RTVSPost2010PropOp54
 70
     1
102
RTVSPost2010Prop55
280
     0
102
RTVSPost2010PropOp55
 70
     1
102
RTVSPost2010Prop56
140
1.0
102
RTVSPost2010PropOp56
 70
     1
102
RTVSPost2010Prop57
140
1.0
102
RTVSPost2010PropOp57
 70
     1
102
RTVSPropertyOp0
 70
     1
102
RTVSPropertyOp1
 70
     1
102
RTVSPropertyOp2
 70
     1
102
RTVSPropertyOp3
 70
     1
102
RTVSPropertyOp4
 70
     1
102
RTVSPropertyOp5
 70
     1
102
RTVSPropertyOp6
 70
     1
102
RTVSPropertyOp7
 70
     1
102
RTVSPropertyOp8
 70
     1
102
RTVSPropertyOp9
 70
     1
102
RTVSPropertyOp10
 70
     1
102
RTVSPropertyOp11
 70
     1
102
RTVSPropertyOp12
 70
     1
102
RTVSPropertyOp13
 70
     1
102
RTVSPropertyOp14
 70
     1
102
RTVSPropertyOp15
 70
     1
102
RTVSPropertyOp16
 70
     1
102
RTVSPropertyOp17
 70
     1
102
RTVSPropertyOp18
 70
     1
102
RTVSPropertyOp19
 70
     1
102
RTVSPropertyOp20
 70
     1
102
RTVSPropertyOp21
 70
     1
102
RTVSPropertyOp22
 70
     1
102
RTVSPropertyOp23
 70
     1
102
RTVSPropertyOp24
 70
     1
102
RTVSPropertyOp25
 70
     1
102
RTVSPropertyOp26
 70
     1
102
RTVSPropertyOp27
 70
     1
102
RTVSPropertyOp28
 70
     1
102
RTVSPropertyOp29
 70
     1
102
RTVSPropertyOp30
 70
     1
102
RTVSPropertyOp31
 70
     1
102
RTVSPropertyOp32
 70
     1
102
RTVSPropertyOp33
 70
     1
102
RTVSPropertyOp34
 70
     1
102
RTVSPropertyOp35
 70
     1
102
RTVSPropertyOp36
 70
     1
102
RTVSPropertyOp37
 70
     1
102
RTVSPropertyOp38
 70
     1
102
RTVSPropertyOp39
 70
     1
102
RTVSPropertyOp40
 70
     1
102
RTVSPropertyOp41
 70
     1
102
RTVSPropertyOp42
 70
     1
102
RTVSPropertyOp43
 70
     1
102
RTVSPropertyOp44
 70
     1
102
RTVSPropertyOp45
 70
     1
102
RTVSPropertyOp46
 70
     1
102
RTVSPropertyOp47
 70
     1
102
RTVSPropertyOp48
 70
     1
102
RTVSPropertyOp49
 70
     1
102
RTVSPropertyOp50
 70
     1
102
RTVSPropertyOp51
 70
     0
102
RTVSPropertyOp52
 70
     0
102
RTVSPropertyOp53
 70
     1
102
RTVSPropertyOp54
 70
     1
102
RTVSPropertyOp55
 70
     1
102
RTVSPropertyOp56
 70
     1
102
RTVSPropertyOp57
 70
     1
102
RTVSPropertyOp58
 70
     1
102
RTVSPropertyOp59
 70
     1
102
RTVSPropertyOp60
 70
     1
102
RTVSPropertyOp61
 70
     1
102
RTVSPropertyOp62
 70
     1
  0
XRECORD
  5
F421
102
{ACAD_REACTORS
330
F420
102
}
330
F420
100
AcDbXrecord
280
     1
102
RTVSPost2010Prop28
280
     0
102
RTVSPost2010PropOp28
 70
     1
102
RTVSPost2010Prop29
280
     1
102
RTVSPost2010PropOp29
 70
     1
102
RTVSPost2010Prop30
280
     1
102
RTVSPost2010PropOp30
 70
     1
102
RTVSPost2010Prop31
280
     0
102
RTVSPost2010PropOp31
 70
     1
102
RTVSPost2010Prop32
280
     0
102
RTVSPost2010PropOp32
 70
     1
102
RTVSPost2010Prop33
280
     0
102
RTVSPost2010PropOp33
 70
     1
102
RTVSPost2010Prop34
280
     0
102
RTVSPost2010PropOp34
 70
     1
102
RTVSPost2010Prop35
280
     0
102
RTVSPost2010PropOp35
 70
     1
102
RTVSPost2010Prop36
280
     0
102
RTVSPost2010PropOp36
 70
     1
102
RTVSPost2010Prop37
 90
       50
102
RTVSPost2010PropOp37
 70
     1
102
RTVSPost2010Prop38
140
0.0
102
RTVSPost2010PropOp38
 70
     1
102
RTVSPost2010Prop39
140
1.0
102
RTVSPost2010PropOp39
 70
     1
102
RTVSPost2010Prop40
 90
        0
102
RTVSPost2010PropOp40
 70
     1
102
RTVSPost2010Prop41ColorIndex
 90
       18
102
RTVSPost2010Prop41ColorRGB
 90
        0
102
RTVSPost2010PropOp41
 70
     1
102
RTVSPost2010Prop42
 90
       50
102
RTVSPost2010PropOp42
 70
     1
102
RTVSPost2010Prop43
 90
        3
102
RTVSPost2010PropOp43
 70
     1
102
RTVSPost2010Prop44ColorIndex
 90
        5
102
RTVSPost2010Prop44ColorRGB
 90
      255
102
RTVSPost2010PropOp44
 70
     1
102
RTVSPost2010Prop45
280
     0
102
RTVSPost2010PropOp45
 70
     1
102
RTVSPost2010Prop46
 90
       50
102
RTVSPost2010PropOp46
 70
     1
102
RTVSPost2010Prop47
 90
       50
102
RTVSPost2010PropOp47
 70
     1
102
RTVSPost2010Prop48
 90
       50
102
RTVSPost2010PropOp48
 70
     1
102
RTVSPost2010Prop49
280
     0
102
RTVSPost2010PropOp49
 70
     1
102
RTVSPost2010Prop50
 90
       50
102
RTVSPost2010PropOp50
 70
     1
102
RTVSPost2010Prop51ColorIndex
 90
      256
102
RTVSPost2010Prop51ColorRGB
 90
-16777216
102
RTVSPost2010PropOp51
 70
     0
102
RTVSPost2010Prop52
140
1.0
102
RTVSPost2010PropOp52
 70
     0
102
RTVSPost2010Prop53
 90
        2
102
RTVSPost2010PropOp53
 70
     1
102
RTVSPost2010Prop54
  1
strokes_ogs.tif
102
RTVSPost2010PropOp54
 70
     1
102
RTVSPost2010Prop55
280
     0
102
RTVSPost2010PropOp55
 70
     1
102
RTVSPost2010Prop56
140
1.0
102
RTVSPost2010PropOp56
 70
     1
102
RTVSPost2010Prop57
140
1.0
102
RTVSPost2010PropOp57
 70
     1
102
RTVSPropertyOp0
 70
     1
102
RTVSPropertyOp1
 70
     1
102
RTVSPropertyOp2
 70
     1
102
RTVSPropertyOp3
 70
     1
102
RTVSPropertyOp4
 70
     1
102
RTVSPropertyOp5
 70
     1
102
RTVSPropertyOp6
 70
     1
102
RTVSPropertyOp7
 70
     1
102
RTVSPropertyOp8
 70
     1
102
RTVSPropertyOp9
 70
     1
102
RTVSPropertyOp10
 70
     1
102
RTVSPropertyOp11
 70
     1
102
RTVSPropertyOp12
 70
     1
102
RTVSPropertyOp13
 70
     1
102
RTVSPropertyOp14
 70
     1
102
RTVSPropertyOp15
 70
     1
102
RTVSPropertyOp16
 70
     1
102
RTVSPropertyOp17
 70
     1
102
RTVSPropertyOp18
 70
     1
102
RTVSPropertyOp19
 70
     1
102
RTVSPropertyOp20
 70
     1
102
RTVSPropertyOp21
 70
     1
102
RTVSPropertyOp22
 70
     1
102
RTVSPropertyOp23
 70
     1
102
RTVSPropertyOp24
 70
     1
102
RTVSPropertyOp25
 70
     1
102
RTVSPropertyOp26
 70
     1
102
RTVSPropertyOp27
 70
     1
102
RTVSPropertyOp28
 70
     1
102
RTVSPropertyOp29
 70
     1
102
RTVSPropertyOp30
 70
     1
102
RTVSPropertyOp31
 70
     1
102
RTVSPropertyOp32
 70
     1
102
RTVSPropertyOp33
 70
     1
102
RTVSPropertyOp34
 70
     1
102
RTVSPropertyOp35
 70
     1
102
RTVSPropertyOp36
 70
     1
102
RTVSPropertyOp37
 70
     1
102
RTVSPropertyOp38
 70
     1
102
RTVSPropertyOp39
 70
     1
102
RTVSPropertyOp40
 70
     1
102
RTVSPropertyOp41
 70
     1
102
RTVSPropertyOp42
 70
     1
102
RTVSPropertyOp43
 70
     1
102
RTVSPropertyOp44
 70
     1
102
RTVSPropertyOp45
 70
     1
102
RTVSPropertyOp46
 70
     1
102
RTVSPropertyOp47
 70
     1
102
RTVSPropertyOp48
 70
     1
102
RTVSPropertyOp49
 70
     1
102
RTVSPropertyOp50
 70
     1
102
RTVSPropertyOp51
 70
     0
102
RTVSPropertyOp52
 70
     0
102
RTVSPropertyOp53
 70
     1
102
RTVSPropertyOp54
 70
     1
102
RTVSPropertyOp55
 70
     1
102
RTVSPropertyOp56
 70
     1
102
RTVSPropertyOp57
 70
     1
102
RTVSPropertyOp58
 70
     1
102
RTVSPropertyOp59
 70
     1
102
RTVSPropertyOp60
 70
     1
102
RTVSPropertyOp61
 70
     1
102
RTVSPropertyOp62
 70
     1
  0
XRECORD
  5
F423
102
{ACAD_REACTORS
330
F422
102
}
330
F422
100
AcDbXrecord
280
     1
102
RTVSPost2010Prop28
280
     0
102
RTVSPost2010PropOp28
 70
     1
102
RTVSPost2010Prop29
280
     1
102
RTVSPost2010PropOp29
 70
     1
102
RTVSPost2010Prop30
280
     1
102
RTVSPost2010PropOp30
 70
     1
102
RTVSPost2010Prop31
280
     0
102
RTVSPost2010PropOp31
 70
     1
102
RTVSPost2010Prop32
280
     0
102
RTVSPost2010PropOp32
 70
     1
102
RTVSPost2010Prop33
280
     0
102
RTVSPost2010PropOp33
 70
     1
102
RTVSPost2010Prop34
280
     0
102
RTVSPost2010PropOp34
 70
     1
102
RTVSPost2010Prop35
280
     0
102
RTVSPost2010PropOp35
 70
     1
102
RTVSPost2010Prop36
280
     0
102
RTVSPost2010PropOp36
 70
     1
102
RTVSPost2010Prop37
 90
       50
102
RTVSPost2010PropOp37
 70
     1
102
RTVSPost2010Prop38
140
0.0
102
RTVSPost2010PropOp38
 70
     1
102
RTVSPost2010Prop39
140
1.0
102
RTVSPost2010PropOp39
 70
     1
102
RTVSPost2010Prop40
 90
        0
102
RTVSPost2010PropOp40
 70
     1
102
RTVSPost2010Prop41ColorIndex
 90
       18
102
RTVSPost2010Prop41ColorRGB
 90
        0
102
RTVSPost2010PropOp41
 70
     1
102
RTVSPost2010Prop42
 90
       50
102
RTVSPost2010PropOp42
 70
     1
102
RTVSPost2010Prop43
 90
        3
102
RTVSPost2010PropOp43
 70
     1
102
RTVSPost2010Prop44ColorIndex
 90
        5
102
RTVSPost2010Prop44ColorRGB
 90
      255
102
RTVSPost2010PropOp44
 70
     1
102
RTVSPost2010Prop45
280
     0
102
RTVSPost2010PropOp45
 70
     1
102
RTVSPost2010Prop46
 90
       50
102
RTVSPost2010PropOp46
 70
     1
102
RTVSPost2010Prop47
 90
       50
102
RTVSPost2010PropOp47
 70
     1
102
RTVSPost2010Prop48
 90
       50
102
RTVSPost2010PropOp48
 70
     1
102
RTVSPost2010Prop49
280
     0
102
RTVSPost2010PropOp49
 70
     1
102
RTVSPost2010Prop50
 90
       50
102
RTVSPost2010PropOp50
 70
     1
102
RTVSPost2010Prop51ColorIndex
 90
      256
102
RTVSPost2010Prop51ColorRGB
 90
-16777216
102
RTVSPost2010PropOp51
 70
     0
102
RTVSPost2010Prop52
140
1.0
102
RTVSPost2010PropOp52
 70
     0
102
RTVSPost2010Prop53
 90
        2
102
RTVSPost2010PropOp53
 70
     1
102
RTVSPost2010Prop54
  1
strokes_ogs.tif
102
RTVSPost2010PropOp54
 70
     1
102
RTVSPost2010Prop55
280
     0
102
RTVSPost2010PropOp55
 70
     1
102
RTVSPost2010Prop56
140
1.0
102
RTVSPost2010PropOp56
 70
     1
102
RTVSPost2010Prop57
140
1.0
102
RTVSPost2010PropOp57
 70
     1
102
RTVSPropertyOp0
 70
     1
102
RTVSPropertyOp1
 70
     1
102
RTVSPropertyOp2
 70
     1
102
RTVSPropertyOp3
 70
     1
102
RTVSPropertyOp4
 70
     1
102
RTVSPropertyOp5
 70
     1
102
RTVSPropertyOp6
 70
     1
102
RTVSPropertyOp7
 70
     1
102
RTVSPropertyOp8
 70
     1
102
RTVSPropertyOp9
 70
     1
102
RTVSPropertyOp10
 70
     1
102
RTVSPropertyOp11
 70
     1
102
RTVSPropertyOp12
 70
     1
102
RTVSPropertyOp13
 70
     1
102
RTVSPropertyOp14
 70
     1
102
RTVSPropertyOp15
 70
     1
102
RTVSPropertyOp16
 70
     1
102
RTVSPropertyOp17
 70
     1
102
RTVSPropertyOp18
 70
     1
102
RTVSPropertyOp19
 70
     1
102
RTVSPropertyOp20
 70
     1
102
RTVSPropertyOp21
 70
     1
102
RTVSPropertyOp22
 70
     1
102
RTVSPropertyOp23
 70
     1
102
RTVSPropertyOp24
 70
     1
102
RTVSPropertyOp25
 70
     1
102
RTVSPropertyOp26
 70
     1
102
RTVSPropertyOp27
 70
     1
102
RTVSPropertyOp28
 70
     1
102
RTVSPropertyOp29
 70
     1
102
RTVSPropertyOp30
 70
     1
102
RTVSPropertyOp31
 70
     1
102
RTVSPropertyOp32
 70
     1
102
RTVSPropertyOp33
 70
     1
102
RTVSPropertyOp34
 70
     1
102
RTVSPropertyOp35
 70
     1
102
RTVSPropertyOp36
 70
     1
102
RTVSPropertyOp37
 70
     1
102
RTVSPropertyOp38
 70
     1
102
RTVSPropertyOp39
 70
     1
102
RTVSPropertyOp40
 70
     1
102
RTVSPropertyOp41
 70
     1
102
RTVSPropertyOp42
 70
     1
102
RTVSPropertyOp43
 70
     1
102
RTVSPropertyOp44
 70
     1
102
RTVSPropertyOp45
 70
     1
102
RTVSPropertyOp46
 70
     1
102
RTVSPropertyOp47
 70
     1
102
RTVSPropertyOp48
 70
     1
102
RTVSPropertyOp49
 70
     1
102
RTVSPropertyOp50
 70
     1
102
RTVSPropertyOp51
 70
     0
102
RTVSPropertyOp52
 70
     0
102
RTVSPropertyOp53
 70
     1
102
RTVSPropertyOp54
 70
     1
102
RTVSPropertyOp55
 70
     1
102
RTVSPropertyOp56
 70
     1
102
RTVSPropertyOp57
 70
     1
102
RTVSPropertyOp58
 70
     1
102
RTVSPropertyOp59
 70
     1
102
RTVSPropertyOp60
 70
     1
102
RTVSPropertyOp61
 70
     1
102
RTVSPropertyOp62
 70
     1
  0
XRECORD
  5
F425
102
{ACAD_REACTORS
330
F424
102
}
330
F424
100
AcDbXrecord
280
     1
102
RTVSPost2010Prop28
280
     0
102
RTVSPost2010PropOp28
 70
     1
102
RTVSPost2010Prop29
280
     1
102
RTVSPost2010PropOp29
 70
     1
102
RTVSPost2010Prop30
280
     1
102
RTVSPost2010PropOp30
 70
     1
102
RTVSPost2010Prop31
280
     0
102
RTVSPost2010PropOp31
 70
     1
102
RTVSPost2010Prop32
280
     0
102
RTVSPost2010PropOp32
 70
     1
102
RTVSPost2010Prop33
280
     0
102
RTVSPost2010PropOp33
 70
     1
102
RTVSPost2010Prop34
280
     0
102
RTVSPost2010PropOp34
 70
     1
102
RTVSPost2010Prop35
280
     0
102
RTVSPost2010PropOp35
 70
     1
102
RTVSPost2010Prop36
280
     0
102
RTVSPost2010PropOp36
 70
     1
102
RTVSPost2010Prop37
 90
       50
102
RTVSPost2010PropOp37
 70
     1
102
RTVSPost2010Prop38
140
0.0
102
RTVSPost2010PropOp38
 70
     1
102
RTVSPost2010Prop39
140
1.0
102
RTVSPost2010PropOp39
 70
     1
102
RTVSPost2010Prop40
 90
        0
102
RTVSPost2010PropOp40
 70
     1
102
RTVSPost2010Prop41ColorIndex
 90
       18
102
RTVSPost2010Prop41ColorRGB
 90
        0
102
RTVSPost2010PropOp41
 70
     1
102
RTVSPost2010Prop42
 90
       50
102
RTVSPost2010PropOp42
 70
     1
102
RTVSPost2010Prop43
 90
        3
102
RTVSPost2010PropOp43
 70
     1
102
RTVSPost2010Prop44ColorIndex
 90
        5
102
RTVSPost2010Prop44ColorRGB
 90
      255
102
RTVSPost2010PropOp44
 70
     1
102
RTVSPost2010Prop45
280
     0
102
RTVSPost2010PropOp45
 70
     1
102
RTVSPost2010Prop46
 90
       50
102
RTVSPost2010PropOp46
 70
     1
102
RTVSPost2010Prop47
 90
       50
102
RTVSPost2010PropOp47
 70
     1
102
RTVSPost2010Prop48
 90
       50
102
RTVSPost2010PropOp48
 70
     1
102
RTVSPost2010Prop49
280
     0
102
RTVSPost2010PropOp49
 70
     1
102
RTVSPost2010Prop50
 90
       50
102
RTVSPost2010PropOp50
 70
     1
102
RTVSPost2010Prop51ColorIndex
 90
      256
102
RTVSPost2010Prop51ColorRGB
 90
-16777216
102
RTVSPost2010PropOp51
 70
     0
102
RTVSPost2010Prop52
140
1.0
102
RTVSPost2010PropOp52
 70
     0
102
RTVSPost2010Prop53
 90
        2
102
RTVSPost2010PropOp53
 70
     1
102
RTVSPost2010Prop54
  1
strokes_ogs.tif
102
RTVSPost2010PropOp54
 70
     1
102
RTVSPost2010Prop55
280
     0
102
RTVSPost2010PropOp55
 70
     1
102
RTVSPost2010Prop56
140
1.0
102
RTVSPost2010PropOp56
 70
     1
102
RTVSPost2010Prop57
140
1.0
102
RTVSPost2010PropOp57
 70
     1
102
RTVSPropertyOp0
 70
     1
102
RTVSPropertyOp1
 70
     1
102
RTVSPropertyOp2
 70
     1
102
RTVSPropertyOp3
 70
     1
102
RTVSPropertyOp4
 70
     1
102
RTVSPropertyOp5
 70
     1
102
RTVSPropertyOp6
 70
     1
102
RTVSPropertyOp7
 70
     1
102
RTVSPropertyOp8
 70
     1
102
RTVSPropertyOp9
 70
     1
102
RTVSPropertyOp10
 70
     1
102
RTVSPropertyOp11
 70
     1
102
RTVSPropertyOp12
 70
     1
102
RTVSPropertyOp13
 70
     1
102
RTVSPropertyOp14
 70
     1
102
RTVSPropertyOp15
 70
     1
102
RTVSPropertyOp16
 70
     1
102
RTVSPropertyOp17
 70
     1
102
RTVSPropertyOp18
 70
     1
102
RTVSPropertyOp19
 70
     1
102
RTVSPropertyOp20
 70
     1
102
RTVSPropertyOp21
 70
     1
102
RTVSPropertyOp22
 70
     1
102
RTVSPropertyOp23
 70
     1
102
RTVSPropertyOp24
 70
     1
102
RTVSPropertyOp25
 70
     1
102
RTVSPropertyOp26
 70
     1
102
RTVSPropertyOp27
 70
     1
102
RTVSPropertyOp28
 70
     1
102
RTVSPropertyOp29
 70
     1
102
RTVSPropertyOp30
 70
     1
102
RTVSPropertyOp31
 70
     1
102
RTVSPropertyOp32
 70
     1
102
RTVSPropertyOp33
 70
     1
102
RTVSPropertyOp34
 70
     1
102
RTVSPropertyOp35
 70
     1
102
RTVSPropertyOp36
 70
     1
102
RTVSPropertyOp37
 70
     1
102
RTVSPropertyOp38
 70
     1
102
RTVSPropertyOp39
 70
     1
102
RTVSPropertyOp40
 70
     1
102
RTVSPropertyOp41
 70
     1
102
RTVSPropertyOp42
 70
     1
102
RTVSPropertyOp43
 70
     1
102
RTVSPropertyOp44
 70
     1
102
RTVSPropertyOp45
 70
     1
102
RTVSPropertyOp46
 70
     1
102
RTVSPropertyOp47
 70
     1
102
RTVSPropertyOp48
 70
     1
102
RTVSPropertyOp49
 70
     1
102
RTVSPropertyOp50
 70
     1
102
RTVSPropertyOp51
 70
     0
102
RTVSPropertyOp52
 70
     0
102
RTVSPropertyOp53
 70
     1
102
RTVSPropertyOp54
 70
     1
102
RTVSPropertyOp55
 70
     1
102
RTVSPropertyOp56
 70
     1
102
RTVSPropertyOp57
 70
     1
102
RTVSPropertyOp58
 70
     1
102
RTVSPropertyOp59
 70
     1
102
RTVSPropertyOp60
 70
     1
102
RTVSPropertyOp61
 70
     1
102
RTVSPropertyOp62
 70
     1
  0
XRECORD
  5
F427
102
{ACAD_REACTORS
330
F426
102
}
330
F426
100
AcDbXrecord
280
     1
102
RTVSPost2010Prop28
280
     0
102
RTVSPost2010PropOp28
 70
     1
102
RTVSPost2010Prop29
280
     1
102
RTVSPost2010PropOp29
 70
     1
102
RTVSPost2010Prop30
280
     1
102
RTVSPost2010PropOp30
 70
     1
102
RTVSPost2010Prop31
280
     0
102
RTVSPost2010PropOp31
 70
     1
102
RTVSPost2010Prop32
280
     0
102
RTVSPost2010PropOp32
 70
     1
102
RTVSPost2010Prop33
280
     0
102
RTVSPost2010PropOp33
 70
     1
102
RTVSPost2010Prop34
280
     0
102
RTVSPost2010PropOp34
 70
     1
102
RTVSPost2010Prop35
280
     0
102
RTVSPost2010PropOp35
 70
     1
102
RTVSPost2010Prop36
280
     0
102
RTVSPost2010PropOp36
 70
     1
102
RTVSPost2010Prop37
 90
       50
102
RTVSPost2010PropOp37
 70
     1
102
RTVSPost2010Prop38
140
0.0
102
RTVSPost2010PropOp38
 70
     1
102
RTVSPost2010Prop39
140
1.0
102
RTVSPost2010PropOp39
 70
     1
102
RTVSPost2010Prop40
 90
        0
102
RTVSPost2010PropOp40
 70
     1
102
RTVSPost2010Prop41ColorIndex
 90
       18
102
RTVSPost2010Prop41ColorRGB
 90
        0
102
RTVSPost2010PropOp41
 70
     1
102
RTVSPost2010Prop42
 90
       50
102
RTVSPost2010PropOp42
 70
     1
102
RTVSPost2010Prop43
 90
        3
102
RTVSPost2010PropOp43
 70
     1
102
RTVSPost2010Prop44ColorIndex
 90
        5
102
RTVSPost2010Prop44ColorRGB
 90
      255
102
RTVSPost2010PropOp44
 70
     1
102
RTVSPost2010Prop45
280
     0
102
RTVSPost2010PropOp45
 70
     1
102
RTVSPost2010Prop46
 90
       50
102
RTVSPost2010PropOp46
 70
     1
102
RTVSPost2010Prop47
 90
       50
102
RTVSPost2010PropOp47
 70
     1
102
RTVSPost2010Prop48
 90
       50
102
RTVSPost2010PropOp48
 70
     1
102
RTVSPost2010Prop49
280
     0
102
RTVSPost2010PropOp49
 70
     1
102
RTVSPost2010Prop50
 90
       50
102
RTVSPost2010PropOp50
 70
     1
102
RTVSPost2010Prop51ColorIndex
 90
      256
102
RTVSPost2010Prop51ColorRGB
 90
-16777216
102
RTVSPost2010PropOp51
 70
     0
102
RTVSPost2010Prop52
140
1.0
102
RTVSPost2010PropOp52
 70
     0
102
RTVSPost2010Prop53
 90
        2
102
RTVSPost2010PropOp53
 70
     1
102
RTVSPost2010Prop54
  1
strokes_ogs.tif
102
RTVSPost2010PropOp54
 70
     1
102
RTVSPost2010Prop55
280
     0
102
RTVSPost2010PropOp55
 70
     1
102
RTVSPost2010Prop56
140
1.0
102
RTVSPost2010PropOp56
 70
     1
102
RTVSPost2010Prop57
140
1.0
102
RTVSPost2010PropOp57
 70
     1
102
RTVSPropertyOp0
 70
     1
102
RTVSPropertyOp1
 70
     1
102
RTVSPropertyOp2
 70
     1
102
RTVSPropertyOp3
 70
     1
102
RTVSPropertyOp4
 70
     1
102
RTVSPropertyOp5
 70
     1
102
RTVSPropertyOp6
 70
     1
102
RTVSPropertyOp7
 70
     1
102
RTVSPropertyOp8
 70
     1
102
RTVSPropertyOp9
 70
     1
102
RTVSPropertyOp10
 70
     1
102
RTVSPropertyOp11
 70
     1
102
RTVSPropertyOp12
 70
     1
102
RTVSPropertyOp13
 70
     1
102
RTVSPropertyOp14
 70
     1
102
RTVSPropertyOp15
 70
     1
102
RTVSPropertyOp16
 70
     1
102
RTVSPropertyOp17
 70
     1
102
RTVSPropertyOp18
 70
     1
102
RTVSPropertyOp19
 70
     1
102
RTVSPropertyOp20
 70
     1
102
RTVSPropertyOp21
 70
     1
102
RTVSPropertyOp22
 70
     1
102
RTVSPropertyOp23
 70
     1
102
RTVSPropertyOp24
 70
     1
102
RTVSPropertyOp25
 70
     1
102
RTVSPropertyOp26
 70
     1
102
RTVSPropertyOp27
 70
     1
102
RTVSPropertyOp28
 70
     1
102
RTVSPropertyOp29
 70
     1
102
RTVSPropertyOp30
 70
     1
102
RTVSPropertyOp31
 70
     1
102
RTVSPropertyOp32
 70
     1
102
RTVSPropertyOp33
 70
     1
102
RTVSPropertyOp34
 70
     1
102
RTVSPropertyOp35
 70
     1
102
RTVSPropertyOp36
 70
     1
102
RTVSPropertyOp37
 70
     1
102
RTVSPropertyOp38
 70
     1
102
RTVSPropertyOp39
 70
     1
102
RTVSPropertyOp40
 70
     1
102
RTVSPropertyOp41
 70
     1
102
RTVSPropertyOp42
 70
     1
102
RTVSPropertyOp43
 70
     1
102
RTVSPropertyOp44
 70
     1
102
RTVSPropertyOp45
 70
     1
102
RTVSPropertyOp46
 70
     1
102
RTVSPropertyOp47
 70
     1
102
RTVSPropertyOp48
 70
     1
102
RTVSPropertyOp49
 70
     1
102
RTVSPropertyOp50
 70
     1
102
RTVSPropertyOp51
 70
     0
102
RTVSPropertyOp52
 70
     0
102
RTVSPropertyOp53
 70
     1
102
RTVSPropertyOp54
 70
     1
102
RTVSPropertyOp55
 70
     1
102
RTVSPropertyOp56
 70
     1
102
RTVSPropertyOp57
 70
     1
102
RTVSPropertyOp58
 70
     1
102
RTVSPropertyOp59
 70
     1
102
RTVSPropertyOp60
 70
     1
102
RTVSPropertyOp61
 70
     1
102
RTVSPropertyOp62
 70
     1
  0
XRECORD
  5
F42F
102
{ACAD_REACTORS
330
F42E
102
}
330
F42E
100
AcDbXrecord
280
     1
102
RTVSPost2010Prop28
280
     0
102
RTVSPost2010PropOp28
 70
     1
102
RTVSPost2010Prop29
280
     1
102
RTVSPost2010PropOp29
 70
     1
102
RTVSPost2010Prop30
280
     1
102
RTVSPost2010PropOp30
 70
     1
102
RTVSPost2010Prop31
280
     0
102
RTVSPost2010PropOp31
 70
     1
102
RTVSPost2010Prop32
280
     0
102
RTVSPost2010PropOp32
 70
     1
102
RTVSPost2010Prop33
280
     0
102
RTVSPost2010PropOp33
 70
     1
102
RTVSPost2010Prop34
280
     0
102
RTVSPost2010PropOp34
 70
     1
102
RTVSPost2010Prop35
280
     0
102
RTVSPost2010PropOp35
 70
     1
102
RTVSPost2010Prop36
280
     0
102
RTVSPost2010PropOp36
 70
     1
102
RTVSPost2010Prop37
 90
       50
102
RTVSPost2010PropOp37
 70
     1
102
RTVSPost2010Prop38
140
0.0
102
RTVSPost2010PropOp38
 70
     1
102
RTVSPost2010Prop39
140
1.0
102
RTVSPost2010PropOp39
 70
     1
102
RTVSPost2010Prop40
 90
        0
102
RTVSPost2010PropOp40
 70
     1
102
RTVSPost2010Prop41ColorIndex
 90
       18
102
RTVSPost2010Prop41ColorRGB
 90
        0
102
RTVSPost2010PropOp41
 70
     1
102
RTVSPost2010Prop42
 90
       50
102
RTVSPost2010PropOp42
 70
     1
102
RTVSPost2010Prop43
 90
        3
102
RTVSPost2010PropOp43
 70
     1
102
RTVSPost2010Prop44ColorIndex
 90
        5
102
RTVSPost2010Prop44ColorRGB
 90
      255
102
RTVSPost2010PropOp44
 70
     1
102
RTVSPost2010Prop45
280
     0
102
RTVSPost2010PropOp45
 70
     1
102
RTVSPost2010Prop46
 90
       50
102
RTVSPost2010PropOp46
 70
     1
102
RTVSPost2010Prop47
 90
       50
102
RTVSPost2010PropOp47
 70
     1
102
RTVSPost2010Prop48
 90
       50
102
RTVSPost2010PropOp48
 70
     1
102
RTVSPost2010Prop49
280
     0
102
RTVSPost2010PropOp49
 70
     1
102
RTVSPost2010Prop50
 90
       50
102
RTVSPost2010PropOp50
 70
     1
102
RTVSPost2010Prop51ColorIndex
 90
      256
102
RTVSPost2010Prop51ColorRGB
 90
-16777216
102
RTVSPost2010PropOp51
 70
     0
102
RTVSPost2010Prop52
140
1.0
102
RTVSPost2010PropOp52
 70
     0
102
RTVSPost2010Prop53
 90
        2
102
RTVSPost2010PropOp53
 70
     1
102
RTVSPost2010Prop54
  1
strokes_ogs.tif
102
RTVSPost2010PropOp54
 70
     1
102
RTVSPost2010Prop55
280
     0
102
RTVSPost2010PropOp55
 70
     1
102
RTVSPost2010Prop56
140
1.0
102
RTVSPost2010PropOp56
 70
     1
102
RTVSPost2010Prop57
140
1.0
102
RTVSPost2010PropOp57
 70
     1
102
RTVSPropertyOp0
 70
     1
102
RTVSPropertyOp1
 70
     1
102
RTVSPropertyOp2
 70
     1
102
RTVSPropertyOp3
 70
     1
102
RTVSPropertyOp4
 70
     1
102
RTVSPropertyOp5
 70
     1
102
RTVSPropertyOp6
 70
     1
102
RTVSPropertyOp7
 70
     1
102
RTVSPropertyOp8
 70
     1
102
RTVSPropertyOp9
 70
     1
102
RTVSPropertyOp10
 70
     1
102
RTVSPropertyOp11
 70
     1
102
RTVSPropertyOp12
 70
     1
102
RTVSPropertyOp13
 70
     1
102
RTVSPropertyOp14
 70
     1
102
RTVSPropertyOp15
 70
     1
102
RTVSPropertyOp16
 70
     1
102
RTVSPropertyOp17
 70
     1
102
RTVSPropertyOp18
 70
     1
102
RTVSPropertyOp19
 70
     1
102
RTVSPropertyOp20
 70
     1
102
RTVSPropertyOp21
 70
     1
102
RTVSPropertyOp22
 70
     1
102
RTVSPropertyOp23
 70
     1
102
RTVSPropertyOp24
 70
     1
102
RTVSPropertyOp25
 70
     1
102
RTVSPropertyOp26
 70
     1
102
RTVSPropertyOp27
 70
     1
102
RTVSPropertyOp28
 70
     1
102
RTVSPropertyOp29
 70
     1
102
RTVSPropertyOp30
 70
     1
102
RTVSPropertyOp31
 70
     1
102
RTVSPropertyOp32
 70
     1
102
RTVSPropertyOp33
 70
     1
102
RTVSPropertyOp34
 70
     1
102
RTVSPropertyOp35
 70
     1
102
RTVSPropertyOp36
 70
     1
102
RTVSPropertyOp37
 70
     1
102
RTVSPropertyOp38
 70
     1
102
RTVSPropertyOp39
 70
     1
102
RTVSPropertyOp40
 70
     1
102
RTVSPropertyOp41
 70
     1
102
RTVSPropertyOp42
 70
     1
102
RTVSPropertyOp43
 70
     1
102
RTVSPropertyOp44
 70
     1
102
RTVSPropertyOp45
 70
     1
102
RTVSPropertyOp46
 70
     1
102
RTVSPropertyOp47
 70
     1
102
RTVSPropertyOp48
 70
     1
102
RTVSPropertyOp49
 70
     1
102
RTVSPropertyOp50
 70
     1
102
RTVSPropertyOp51
 70
     0
102
RTVSPropertyOp52
 70
     0
102
RTVSPropertyOp53
 70
     1
102
RTVSPropertyOp54
 70
     1
102
RTVSPropertyOp55
 70
     1
102
RTVSPropertyOp56
 70
     1
102
RTVSPropertyOp57
 70
     1
102
RTVSPropertyOp58
 70
     1
102
RTVSPropertyOp59
 70
     1
102
RTVSPropertyOp60
 70
     1
102
RTVSPropertyOp61
 70
     1
102
RTVSPropertyOp62
 70
     1
  0
XRECORD
  5
F44B
102
{ACAD_REACTORS
330
F44A
102
}
330
F44A
100
AcDbXrecord
280
     1
102
RTVSPost2010Prop28
280
     0
102
RTVSPost2010PropOp28
 70
     1
102
RTVSPost2010Prop29
280
     1
102
RTVSPost2010PropOp29
 70
     1
102
RTVSPost2010Prop30
280
     1
102
RTVSPost2010PropOp30
 70
     1
102
RTVSPost2010Prop31
280
     0
102
RTVSPost2010PropOp31
 70
     1
102
RTVSPost2010Prop32
280
     0
102
RTVSPost2010PropOp32
 70
     1
102
RTVSPost2010Prop33
280
     0
102
RTVSPost2010PropOp33
 70
     1
102
RTVSPost2010Prop34
280
     0
102
RTVSPost2010PropOp34
 70
     1
102
RTVSPost2010Prop35
280
     0
102
RTVSPost2010PropOp35
 70
     1
102
RTVSPost2010Prop36
280
     0
102
RTVSPost2010PropOp36
 70
     1
102
RTVSPost2010Prop37
 90
       50
102
RTVSPost2010PropOp37
 70
     0
102
RTVSPost2010Prop38
140
0.0
102
RTVSPost2010PropOp38
 70
     0
102
RTVSPost2010Prop39
140
1.0
102
RTVSPost2010PropOp39
 70
     0
102
RTVSPost2010Prop40
 90
        0
102
RTVSPost2010PropOp40
 70
     0
102
RTVSPost2010Prop41ColorIndex
 90
       18
102
RTVSPost2010Prop41ColorRGB
 90
        0
102
RTVSPost2010PropOp41
 70
     0
102
RTVSPost2010Prop42
 90
       50
102
RTVSPost2010PropOp42
 70
     0
102
RTVSPost2010Prop43
 90
        3
102
RTVSPost2010PropOp43
 70
     0
102
RTVSPost2010Prop44ColorIndex
 90
        5
102
RTVSPost2010Prop44ColorRGB
 90
      255
102
RTVSPost2010PropOp44
 70
     0
102
RTVSPost2010Prop45
280
     0
102
RTVSPost2010PropOp45
 70
     1
102
RTVSPost2010Prop46
 90
       50
102
RTVSPost2010PropOp46
 70
     0
102
RTVSPost2010Prop47
 90
       50
102
RTVSPost2010PropOp47
 70
     0
102
RTVSPost2010Prop48
 90
       50
102
RTVSPost2010PropOp48
 70
     0
102
RTVSPost2010Prop49
280
     0
102
RTVSPost2010PropOp49
 70
     1
102
RTVSPost2010Prop50
 90
       50
102
RTVSPost2010PropOp50
 70
     0
102
RTVSPost2010Prop51ColorIndex
 90
      256
102
RTVSPost2010Prop51ColorRGB
 90
-16777216
102
RTVSPost2010PropOp51
 70
     0
102
RTVSPost2010Prop52
140
1.0
102
RTVSPost2010PropOp52
 70
     0
102
RTVSPost2010Prop53
 90
        2
102
RTVSPost2010PropOp53
 70
     0
102
RTVSPost2010Prop54
  1
strokes_ogs.tif
102
RTVSPost2010PropOp54
 70
     0
102
RTVSPost2010Prop55
280
     0
102
RTVSPost2010PropOp55
 70
     1
102
RTVSPost2010Prop56
140
1.0
102
RTVSPost2010PropOp56
 70
     0
102
RTVSPost2010Prop57
140
1.0
102
RTVSPost2010PropOp57
 70
     0
102
RTVSPropertyOp0
 70
     0
102
RTVSPropertyOp1
 70
     0
102
RTVSPropertyOp2
 70
     0
102
RTVSPropertyOp3
 70
     0
102
RTVSPropertyOp4
 70
     0
102
RTVSPropertyOp5
 70
     0
102
RTVSPropertyOp6
 70
     0
102
RTVSPropertyOp7
 70
     0
102
RTVSPropertyOp8
 70
     0
102
RTVSPropertyOp9
 70
     0
102
RTVSPropertyOp10
 70
     0
102
RTVSPropertyOp11
 70
     0
102
RTVSPropertyOp12
 70
     0
102
RTVSPropertyOp13
 70
     0
102
RTVSPropertyOp14
 70
     2
102
RTVSPropertyOp15
 70
     0
102
RTVSPropertyOp16
 70
     0
102
RTVSPropertyOp17
 70
     0
102
RTVSPropertyOp18
 70
     0
102
RTVSPropertyOp19
 70
     0
102
RTVSPropertyOp20
 70
     0
102
RTVSPropertyOp21
 70
     0
102
RTVSPropertyOp22
 70
     0
102
RTVSPropertyOp23
 70
     0
102
RTVSPropertyOp24
 70
     0
102
RTVSPropertyOp25
 70
     0
102
RTVSPropertyOp26
 70
     0
102
RTVSPropertyOp27
 70
     0
102
RTVSPropertyOp28
 70
     1
102
RTVSPropertyOp29
 70
     1
102
RTVSPropertyOp30
 70
     1
102
RTVSPropertyOp31
 70
     1
102
RTVSPropertyOp32
 70
     1
102
RTVSPropertyOp33
 70
     1
102
RTVSPropertyOp34
 70
     1
102
RTVSPropertyOp35
 70
     1
102
RTVSPropertyOp36
 70
     1
102
RTVSPropertyOp37
 70
     0
102
RTVSPropertyOp38
 70
     0
102
RTVSPropertyOp39
 70
     0
102
RTVSPropertyOp40
 70
     0
102
RTVSPropertyOp41
 70
     0
102
RTVSPropertyOp42
 70
     0
102
RTVSPropertyOp43
 70
     0
102
RTVSPropertyOp44
 70
     0
102
RTVSPropertyOp45
 70
     1
102
RTVSPropertyOp46
 70
     0
102
RTVSPropertyOp47
 70
     0
102
RTVSPropertyOp48
 70
     0
102
RTVSPropertyOp49
 70
     1
102
RTVSPropertyOp50
 70
     0
102
RTVSPropertyOp51
 70
     0
102
RTVSPropertyOp52
 70
     0
102
RTVSPropertyOp53
 70
     0
102
RTVSPropertyOp54
 70
     0
102
RTVSPropertyOp55
 70
     1
102
RTVSPropertyOp56
 70
     0
102
RTVSPropertyOp57
 70
     0
102
RTVSPropertyOp58
 70
     0
102
RTVSPropertyOp59
 70
     0
102
RTVSPropertyOp60
 70
     0
102
RTVSPropertyOp61
 70
     0
102
RTVSPropertyOp62
 70
     0
  0
XRECORD
  5
F43B
102
{ACAD_REACTORS
330
F43A
102
}
330
F43A
100
AcDbXrecord
280
     1
102
RTVSPost2010Prop28
280
     0
102
RTVSPost2010PropOp28
 70
     1
102
RTVSPost2010Prop29
280
     1
102
RTVSPost2010PropOp29
 70
     1
102
RTVSPost2010Prop30
280
     1
102
RTVSPost2010PropOp30
 70
     1
102
RTVSPost2010Prop31
280
     0
102
RTVSPost2010PropOp31
 70
     1
102
RTVSPost2010Prop32
280
     0
102
RTVSPost2010PropOp32
 70
     1
102
RTVSPost2010Prop33
280
     0
102
RTVSPost2010PropOp33
 70
     1
102
RTVSPost2010Prop34
280
     0
102
RTVSPost2010PropOp34
 70
     1
102
RTVSPost2010Prop35
280
     0
102
RTVSPost2010PropOp35
 70
     1
102
RTVSPost2010Prop36
280
     0
102
RTVSPost2010PropOp36
 70
     1
102
RTVSPost2010Prop37
 90
       50
102
RTVSPost2010PropOp37
 70
     1
102
RTVSPost2010Prop38
140
0.0
102
RTVSPost2010PropOp38
 70
     1
102
RTVSPost2010Prop39
140
1.0
102
RTVSPost2010PropOp39
 70
     1
102
RTVSPost2010Prop40
 90
        0
102
RTVSPost2010PropOp40
 70
     1
102
RTVSPost2010Prop41ColorIndex
 90
       18
102
RTVSPost2010Prop41ColorRGB
 90
        0
102
RTVSPost2010PropOp41
 70
     1
102
RTVSPost2010Prop42
 90
       50
102
RTVSPost2010PropOp42
 70
     1
102
RTVSPost2010Prop43
 90
        3
102
RTVSPost2010PropOp43
 70
     1
102
RTVSPost2010Prop44ColorIndex
 90
        5
102
RTVSPost2010Prop44ColorRGB
 90
      255
102
RTVSPost2010PropOp44
 70
     1
102
RTVSPost2010Prop45
280
     0
102
RTVSPost2010PropOp45
 70
     1
102
RTVSPost2010Prop46
 90
       50
102
RTVSPost2010PropOp46
 70
     1
102
RTVSPost2010Prop47
 90
       50
102
RTVSPost2010PropOp47
 70
     1
102
RTVSPost2010Prop48
 90
       50
102
RTVSPost2010PropOp48
 70
     1
102
RTVSPost2010Prop49
280
     0
102
RTVSPost2010PropOp49
 70
     1
102
RTVSPost2010Prop50
 90
       50
102
RTVSPost2010PropOp50
 70
     1
102
RTVSPost2010Prop51ColorIndex
 90
      256
102
RTVSPost2010Prop51ColorRGB
 90
-16777216
102
RTVSPost2010PropOp51
 70
     0
102
RTVSPost2010Prop52
140
1.0
102
RTVSPost2010PropOp52
 70
     0
102
RTVSPost2010Prop53
 90
        2
102
RTVSPost2010PropOp53
 70
     1
102
RTVSPost2010Prop54
  1
strokes_ogs.tif
102
RTVSPost2010PropOp54
 70
     1
102
RTVSPost2010Prop55
280
     0
102
RTVSPost2010PropOp55
 70
     1
102
RTVSPost2010Prop56
140
1.0
102
RTVSPost2010PropOp56
 70
     1
102
RTVSPost2010Prop57
140
1.0
102
RTVSPost2010PropOp57
 70
     1
102
RTVSPropertyOp0
 70
     1
102
RTVSPropertyOp1
 70
     1
102
RTVSPropertyOp2
 70
     1
102
RTVSPropertyOp3
 70
     1
102
RTVSPropertyOp4
 70
     1
102
RTVSPropertyOp5
 70
     1
102
RTVSPropertyOp6
 70
     1
102
RTVSPropertyOp7
 70
     1
102
RTVSPropertyOp8
 70
     1
102
RTVSPropertyOp9
 70
     1
102
RTVSPropertyOp10
 70
     1
102
RTVSPropertyOp11
 70
     1
102
RTVSPropertyOp12
 70
     1
102
RTVSPropertyOp13
 70
     1
102
RTVSPropertyOp14
 70
     1
102
RTVSPropertyOp15
 70
     1
102
RTVSPropertyOp16
 70
     1
102
RTVSPropertyOp17
 70
     1
102
RTVSPropertyOp18
 70
     1
102
RTVSPropertyOp19
 70
     1
102
RTVSPropertyOp20
 70
     1
102
RTVSPropertyOp21
 70
     1
102
RTVSPropertyOp22
 70
     1
102
RTVSPropertyOp23
 70
     1
102
RTVSPropertyOp24
 70
     1
102
RTVSPropertyOp25
 70
     1
102
RTVSPropertyOp26
 70
     1
102
RTVSPropertyOp27
 70
     1
102
RTVSPropertyOp28
 70
     1
102
RTVSPropertyOp29
 70
     1
102
RTVSPropertyOp30
 70
     1
102
RTVSPropertyOp31
 70
     1
102
RTVSPropertyOp32
 70
     1
102
RTVSPropertyOp33
 70
     1
102
RTVSPropertyOp34
 70
     1
102
RTVSPropertyOp35
 70
     1
102
RTVSPropertyOp36
 70
     1
102
RTVSPropertyOp37
 70
     1
102
RTVSPropertyOp38
 70
     1
102
RTVSPropertyOp39
 70
     1
102
RTVSPropertyOp40
 70
     1
102
RTVSPropertyOp41
 70
     1
102
RTVSPropertyOp42
 70
     1
102
RTVSPropertyOp43
 70
     1
102
RTVSPropertyOp44
 70
     1
102
RTVSPropertyOp45
 70
     1
102
RTVSPropertyOp46
 70
     1
102
RTVSPropertyOp47
 70
     1
102
RTVSPropertyOp48
 70
     1
102
RTVSPropertyOp49
 70
     1
102
RTVSPropertyOp50
 70
     1
102
RTVSPropertyOp51
 70
     0
102
RTVSPropertyOp52
 70
     0
102
RTVSPropertyOp53
 70
     1
102
RTVSPropertyOp54
 70
     1
102
RTVSPropertyOp55
 70
     1
102
RTVSPropertyOp56
 70
     1
102
RTVSPropertyOp57
 70
     1
102
RTVSPropertyOp58
 70
     1
102
RTVSPropertyOp59
 70
     1
102
RTVSPropertyOp60
 70
     1
102
RTVSPropertyOp61
 70
     1
102
RTVSPropertyOp62
 70
     1
  0
XRECORD
  5
F44D
102
{ACAD_REACTORS
330
F44C
102
}
330
F44C
100
AcDbXrecord
280
     1
102
RTVSPost2010Prop28
280
     0
102
RTVSPost2010PropOp28
 70
     1
102
RTVSPost2010Prop29
280
     1
102
RTVSPost2010PropOp29
 70
     1
102
RTVSPost2010Prop30
280
     1
102
RTVSPost2010PropOp30
 70
     1
102
RTVSPost2010Prop31
280
     0
102
RTVSPost2010PropOp31
 70
     1
102
RTVSPost2010Prop32
280
     0
102
RTVSPost2010PropOp32
 70
     1
102
RTVSPost2010Prop33
280
     0
102
RTVSPost2010PropOp33
 70
     1
102
RTVSPost2010Prop34
280
     0
102
RTVSPost2010PropOp34
 70
     1
102
RTVSPost2010Prop35
280
     0
102
RTVSPost2010PropOp35
 70
     1
102
RTVSPost2010Prop36
280
     0
102
RTVSPost2010PropOp36
 70
     1
102
RTVSPost2010Prop37
 90
       50
102
RTVSPost2010PropOp37
 70
     0
102
RTVSPost2010Prop38
140
0.0
102
RTVSPost2010PropOp38
 70
     0
102
RTVSPost2010Prop39
140
1.0
102
RTVSPost2010PropOp39
 70
     0
102
RTVSPost2010Prop40
 90
        0
102
RTVSPost2010PropOp40
 70
     0
102
RTVSPost2010Prop41ColorIndex
 90
       18
102
RTVSPost2010Prop41ColorRGB
 90
        0
102
RTVSPost2010PropOp41
 70
     0
102
RTVSPost2010Prop42
 90
       50
102
RTVSPost2010PropOp42
 70
     0
102
RTVSPost2010Prop43
 90
        3
102
RTVSPost2010PropOp43
 70
     0
102
RTVSPost2010Prop44ColorIndex
 90
        5
102
RTVSPost2010Prop44ColorRGB
 90
      255
102
RTVSPost2010PropOp44
 70
     0
102
RTVSPost2010Prop45
280
     0
102
RTVSPost2010PropOp45
 70
     1
102
RTVSPost2010Prop46
 90
       50
102
RTVSPost2010PropOp46
 70
     0
102
RTVSPost2010Prop47
 90
       50
102
RTVSPost2010PropOp47
 70
     0
102
RTVSPost2010Prop48
 90
       50
102
RTVSPost2010PropOp48
 70
     0
102
RTVSPost2010Prop49
280
     0
102
RTVSPost2010PropOp49
 70
     1
102
RTVSPost2010Prop50
 90
       50
102
RTVSPost2010PropOp50
 70
     0
102
RTVSPost2010Prop51ColorIndex
 90
      256
102
RTVSPost2010Prop51ColorRGB
 90
-16777216
102
RTVSPost2010PropOp51
 70
     0
102
RTVSPost2010Prop52
140
1.0
102
RTVSPost2010PropOp52
 70
     0
102
RTVSPost2010Prop53
 90
        2
102
RTVSPost2010PropOp53
 70
     0
102
RTVSPost2010Prop54
  1
strokes_ogs.tif
102
RTVSPost2010PropOp54
 70
     0
102
RTVSPost2010Prop55
280
     0
102
RTVSPost2010PropOp55
 70
     1
102
RTVSPost2010Prop56
140
1.0
102
RTVSPost2010PropOp56
 70
     0
102
RTVSPost2010Prop57
140
1.0
102
RTVSPost2010PropOp57
 70
     0
102
RTVSPropertyOp0
 70
     0
102
RTVSPropertyOp1
 70
     0
102
RTVSPropertyOp2
 70
     0
102
RTVSPropertyOp3
 70
     0
102
RTVSPropertyOp4
 70
     0
102
RTVSPropertyOp5
 70
     0
102
RTVSPropertyOp6
 70
     0
102
RTVSPropertyOp7
 70
     0
102
RTVSPropertyOp8
 70
     0
102
RTVSPropertyOp9
 70
     0
102
RTVSPropertyOp10
 70
     0
102
RTVSPropertyOp11
 70
     0
102
RTVSPropertyOp12
 70
     0
102
RTVSPropertyOp13
 70
     0
102
RTVSPropertyOp14
 70
     2
102
RTVSPropertyOp15
 70
     0
102
RTVSPropertyOp16
 70
     0
102
RTVSPropertyOp17
 70
     0
102
RTVSPropertyOp18
 70
     0
102
RTVSPropertyOp19
 70
     0
102
RTVSPropertyOp20
 70
     0
102
RTVSPropertyOp21
 70
     0
102
RTVSPropertyOp22
 70
     0
102
RTVSPropertyOp23
 70
     0
102
RTVSPropertyOp24
 70
     0
102
RTVSPropertyOp25
 70
     0
102
RTVSPropertyOp26
 70
     0
102
RTVSPropertyOp27
 70
     0
102
RTVSPropertyOp28
 70
     1
102
RTVSPropertyOp29
 70
     1
102
RTVSPropertyOp30
 70
     1
102
RTVSPropertyOp31
 70
     1
102
RTVSPropertyOp32
 70
     1
102
RTVSPropertyOp33
 70
     1
102
RTVSPropertyOp34
 70
     1
102
RTVSPropertyOp35
 70
     1
102
RTVSPropertyOp36
 70
     1
102
RTVSPropertyOp37
 70
     0
102
RTVSPropertyOp38
 70
     0
102
RTVSPropertyOp39
 70
     0
102
RTVSPropertyOp40
 70
     0
102
RTVSPropertyOp41
 70
     0
102
RTVSPropertyOp42
 70
     0
102
RTVSPropertyOp43
 70
     0
102
RTVSPropertyOp44
 70
     0
102
RTVSPropertyOp45
 70
     1
102
RTVSPropertyOp46
 70
     0
102
RTVSPropertyOp47
 70
     0
102
RTVSPropertyOp48
 70
     0
102
RTVSPropertyOp49
 70
     1
102
RTVSPropertyOp50
 70
     0
102
RTVSPropertyOp51
 70
     0
102
RTVSPropertyOp52
 70
     0
102
RTVSPropertyOp53
 70
     0
102
RTVSPropertyOp54
 70
     0
102
RTVSPropertyOp55
 70
     1
102
RTVSPropertyOp56
 70
     0
102
RTVSPropertyOp57
 70
     0
102
RTVSPropertyOp58
 70
     0
102
RTVSPropertyOp59
 70
     0
102
RTVSPropertyOp60
 70
     0
102
RTVSPropertyOp61
 70
     0
102
RTVSPropertyOp62
 70
     0
  0
XRECORD
  5
F433
102
{ACAD_REACTORS
330
F432
102
}
330
F432
100
AcDbXrecord
280
     1
102
RTVSPost2010Prop28
280
     0
102
RTVSPost2010PropOp28
 70
     1
102
RTVSPost2010Prop29
280
     1
102
RTVSPost2010PropOp29
 70
     1
102
RTVSPost2010Prop30
280
     1
102
RTVSPost2010PropOp30
 70
     1
102
RTVSPost2010Prop31
280
     0
102
RTVSPost2010PropOp31
 70
     1
102
RTVSPost2010Prop32
280
     0
102
RTVSPost2010PropOp32
 70
     1
102
RTVSPost2010Prop33
280
     0
102
RTVSPost2010PropOp33
 70
     1
102
RTVSPost2010Prop34
280
     0
102
RTVSPost2010PropOp34
 70
     1
102
RTVSPost2010Prop35
280
     0
102
RTVSPost2010PropOp35
 70
     1
102
RTVSPost2010Prop36
280
     0
102
RTVSPost2010PropOp36
 70
     1
102
RTVSPost2010Prop37
 90
       50
102
RTVSPost2010PropOp37
 70
     1
102
RTVSPost2010Prop38
140
0.0
102
RTVSPost2010PropOp38
 70
     1
102
RTVSPost2010Prop39
140
1.0
102
RTVSPost2010PropOp39
 70
     1
102
RTVSPost2010Prop40
 90
        0
102
RTVSPost2010PropOp40
 70
     1
102
RTVSPost2010Prop41ColorIndex
 90
       18
102
RTVSPost2010Prop41ColorRGB
 90
        0
102
RTVSPost2010PropOp41
 70
     1
102
RTVSPost2010Prop42
 90
       50
102
RTVSPost2010PropOp42
 70
     1
102
RTVSPost2010Prop43
 90
        3
102
RTVSPost2010PropOp43
 70
     1
102
RTVSPost2010Prop44ColorIndex
 90
        5
102
RTVSPost2010Prop44ColorRGB
 90
      255
102
RTVSPost2010PropOp44
 70
     1
102
RTVSPost2010Prop45
280
     0
102
RTVSPost2010PropOp45
 70
     1
102
RTVSPost2010Prop46
 90
       50
102
RTVSPost2010PropOp46
 70
     1
102
RTVSPost2010Prop47
 90
       50
102
RTVSPost2010PropOp47
 70
     1
102
RTVSPost2010Prop48
 90
       50
102
RTVSPost2010PropOp48
 70
     1
102
RTVSPost2010Prop49
280
     0
102
RTVSPost2010PropOp49
 70
     1
102
RTVSPost2010Prop50
 90
       50
102
RTVSPost2010PropOp50
 70
     1
102
RTVSPost2010Prop51ColorIndex
 90
      256
102
RTVSPost2010Prop51ColorRGB
 90
-16777216
102
RTVSPost2010PropOp51
 70
     0
102
RTVSPost2010Prop52
140
1.0
102
RTVSPost2010PropOp52
 70
     0
102
RTVSPost2010Prop53
 90
        2
102
RTVSPost2010PropOp53
 70
     1
102
RTVSPost2010Prop54
  1
strokes_ogs.tif
102
RTVSPost2010PropOp54
 70
     1
102
RTVSPost2010Prop55
280
     0
102
RTVSPost2010PropOp55
 70
     1
102
RTVSPost2010Prop56
140
1.0
102
RTVSPost2010PropOp56
 70
     1
102
RTVSPost2010Prop57
140
1.0
102
RTVSPost2010PropOp57
 70
     1
102
RTVSPropertyOp0
 70
     1
102
RTVSPropertyOp1
 70
     1
102
RTVSPropertyOp2
 70
     1
102
RTVSPropertyOp3
 70
     1
102
RTVSPropertyOp4
 70
     1
102
RTVSPropertyOp5
 70
     1
102
RTVSPropertyOp6
 70
     1
102
RTVSPropertyOp7
 70
     1
102
RTVSPropertyOp8
 70
     1
102
RTVSPropertyOp9
 70
     1
102
RTVSPropertyOp10
 70
     1
102
RTVSPropertyOp11
 70
     1
102
RTVSPropertyOp12
 70
     1
102
RTVSPropertyOp13
 70
     1
102
RTVSPropertyOp14
 70
     1
102
RTVSPropertyOp15
 70
     1
102
RTVSPropertyOp16
 70
     1
102
RTVSPropertyOp17
 70
     1
102
RTVSPropertyOp18
 70
     1
102
RTVSPropertyOp19
 70
     1
102
RTVSPropertyOp20
 70
     1
102
RTVSPropertyOp21
 70
     1
102
RTVSPropertyOp22
 70
     1
102
RTVSPropertyOp23
 70
     1
102
RTVSPropertyOp24
 70
     1
102
RTVSPropertyOp25
 70
     1
102
RTVSPropertyOp26
 70
     1
102
RTVSPropertyOp27
 70
     1
102
RTVSPropertyOp28
 70
     1
102
RTVSPropertyOp29
 70
     1
102
RTVSPropertyOp30
 70
     1
102
RTVSPropertyOp31
 70
     1
102
RTVSPropertyOp32
 70
     1
102
RTVSPropertyOp33
 70
     1
102
RTVSPropertyOp34
 70
     1
102
RTVSPropertyOp35
 70
     1
102
RTVSPropertyOp36
 70
     1
102
RTVSPropertyOp37
 70
     1
102
RTVSPropertyOp38
 70
     1
102
RTVSPropertyOp39
 70
     1
102
RTVSPropertyOp40
 70
     1
102
RTVSPropertyOp41
 70
     1
102
RTVSPropertyOp42
 70
     1
102
RTVSPropertyOp43
 70
     1
102
RTVSPropertyOp44
 70
     1
102
RTVSPropertyOp45
 70
     1
102
RTVSPropertyOp46
 70
     1
102
RTVSPropertyOp47
 70
     1
102
RTVSPropertyOp48
 70
     1
102
RTVSPropertyOp49
 70
     1
102
RTVSPropertyOp50
 70
     1
102
RTVSPropertyOp51
 70
     0
102
RTVSPropertyOp52
 70
     0
102
RTVSPropertyOp53
 70
     1
102
RTVSPropertyOp54
 70
     1
102
RTVSPropertyOp55
 70
     1
102
RTVSPropertyOp56
 70
     1
102
RTVSPropertyOp57
 70
     1
102
RTVSPropertyOp58
 70
     1
102
RTVSPropertyOp59
 70
     1
102
RTVSPropertyOp60
 70
     1
102
RTVSPropertyOp61
 70
     1
102
RTVSPropertyOp62
 70
     1
  0
XRECORD
  5
F449
102
{ACAD_REACTORS
330
F448
102
}
330
F448
100
AcDbXrecord
280
     1
102
RTVSPost2010Prop28
280
     0
102
RTVSPost2010PropOp28
 70
     1
102
RTVSPost2010Prop29
280
     1
102
RTVSPost2010PropOp29
 70
     1
102
RTVSPost2010Prop30
280
     1
102
RTVSPost2010PropOp30
 70
     1
102
RTVSPost2010Prop31
280
     0
102
RTVSPost2010PropOp31
 70
     1
102
RTVSPost2010Prop32
280
     0
102
RTVSPost2010PropOp32
 70
     1
102
RTVSPost2010Prop33
280
     0
102
RTVSPost2010PropOp33
 70
     1
102
RTVSPost2010Prop34
280
     0
102
RTVSPost2010PropOp34
 70
     1
102
RTVSPost2010Prop35
280
     0
102
RTVSPost2010PropOp35
 70
     1
102
RTVSPost2010Prop36
280
     0
102
RTVSPost2010PropOp36
 70
     1
102
RTVSPost2010Prop37
 90
       50
102
RTVSPost2010PropOp37
 70
     1
102
RTVSPost2010Prop38
140
0.0
102
RTVSPost2010PropOp38
 70
     1
102
RTVSPost2010Prop39
140
1.0
102
RTVSPost2010PropOp39
 70
     1
102
RTVSPost2010Prop40
 90
        0
102
RTVSPost2010PropOp40
 70
     1
102
RTVSPost2010Prop41ColorIndex
 90
       18
102
RTVSPost2010Prop41ColorRGB
 90
        0
102
RTVSPost2010PropOp41
 70
     1
102
RTVSPost2010Prop42
 90
       50
102
RTVSPost2010PropOp42
 70
     1
102
RTVSPost2010Prop43
 90
        3
102
RTVSPost2010PropOp43
 70
     1
102
RTVSPost2010Prop44ColorIndex
 90
        5
102
RTVSPost2010Prop44ColorRGB
 90
      255
102
RTVSPost2010PropOp44
 70
     1
102
RTVSPost2010Prop45
280
     0
102
RTVSPost2010PropOp45
 70
     1
102
RTVSPost2010Prop46
 90
       50
102
RTVSPost2010PropOp46
 70
     1
102
RTVSPost2010Prop47
 90
       50
102
RTVSPost2010PropOp47
 70
     1
102
RTVSPost2010Prop48
 90
       50
102
RTVSPost2010PropOp48
 70
     1
102
RTVSPost2010Prop49
280
     0
102
RTVSPost2010PropOp49
 70
     1
102
RTVSPost2010Prop50
 90
       50
102
RTVSPost2010PropOp50
 70
     1
102
RTVSPost2010Prop51ColorIndex
 90
      256
102
RTVSPost2010Prop51ColorRGB
 90
-16777216
102
RTVSPost2010PropOp51
 70
     0
102
RTVSPost2010Prop52
140
1.0
102
RTVSPost2010PropOp52
 70
     0
102
RTVSPost2010Prop53
 90
        2
102
RTVSPost2010PropOp53
 70
     1
102
RTVSPost2010Prop54
  1
strokes_ogs.tif
102
RTVSPost2010PropOp54
 70
     1
102
RTVSPost2010Prop55
280
     0
102
RTVSPost2010PropOp55
 70
     1
102
RTVSPost2010Prop56
140
1.0
102
RTVSPost2010PropOp56
 70
     1
102
RTVSPost2010Prop57
140
1.0
102
RTVSPost2010PropOp57
 70
     1
102
RTVSPropertyOp0
 70
     1
102
RTVSPropertyOp1
 70
     1
102
RTVSPropertyOp2
 70
     1
102
RTVSPropertyOp3
 70
     1
102
RTVSPropertyOp4
 70
     1
102
RTVSPropertyOp5
 70
     1
102
RTVSPropertyOp6
 70
     1
102
RTVSPropertyOp7
 70
     1
102
RTVSPropertyOp8
 70
     1
102
RTVSPropertyOp9
 70
     1
102
RTVSPropertyOp10
 70
     1
102
RTVSPropertyOp11
 70
     1
102
RTVSPropertyOp12
 70
     1
102
RTVSPropertyOp13
 70
     1
102
RTVSPropertyOp14
 70
     1
102
RTVSPropertyOp15
 70
     1
102
RTVSPropertyOp16
 70
     1
102
RTVSPropertyOp17
 70
     1
102
RTVSPropertyOp18
 70
     1
102
RTVSPropertyOp19
 70
     1
102
RTVSPropertyOp20
 70
     1
102
RTVSPropertyOp21
 70
     1
102
RTVSPropertyOp22
 70
     1
102
RTVSPropertyOp23
 70
     1
102
RTVSPropertyOp24
 70
     1
102
RTVSPropertyOp25
 70
     1
102
RTVSPropertyOp26
 70
     1
102
RTVSPropertyOp27
 70
     1
102
RTVSPropertyOp28
 70
     1
102
RTVSPropertyOp29
 70
     1
102
RTVSPropertyOp30
 70
     1
102
RTVSPropertyOp31
 70
     1
102
RTVSPropertyOp32
 70
     1
102
RTVSPropertyOp33
 70
     1
102
RTVSPropertyOp34
 70
     1
102
RTVSPropertyOp35
 70
     1
102
RTVSPropertyOp36
 70
     1
102
RTVSPropertyOp37
 70
     1
102
RTVSPropertyOp38
 70
     1
102
RTVSPropertyOp39
 70
     1
102
RTVSPropertyOp40
 70
     1
102
RTVSPropertyOp41
 70
     1
102
RTVSPropertyOp42
 70
     1
102
RTVSPropertyOp43
 70
     1
102
RTVSPropertyOp44
 70
     1
102
RTVSPropertyOp45
 70
     1
102
RTVSPropertyOp46
 70
     1
102
RTVSPropertyOp47
 70
     1
102
RTVSPropertyOp48
 70
     1
102
RTVSPropertyOp49
 70
     1
102
RTVSPropertyOp50
 70
     1
102
RTVSPropertyOp51
 70
     0
102
RTVSPropertyOp52
 70
     0
102
RTVSPropertyOp53
 70
     1
102
RTVSPropertyOp54
 70
     1
102
RTVSPropertyOp55
 70
     1
102
RTVSPropertyOp56
 70
     1
102
RTVSPropertyOp57
 70
     1
102
RTVSPropertyOp58
 70
     1
102
RTVSPropertyOp59
 70
     1
102
RTVSPropertyOp60
 70
     1
102
RTVSPropertyOp61
 70
     1
102
RTVSPropertyOp62
 70
     1
  0
XRECORD
  5
F447
102
{ACAD_REACTORS
330
F446
102
}
330
F446
100
AcDbXrecord
280
     1
102
RTVSPost2010Prop28
280
     0
102
RTVSPost2010PropOp28
 70
     1
102
RTVSPost2010Prop29
280
     1
102
RTVSPost2010PropOp29
 70
     1
102
RTVSPost2010Prop30
280
     1
102
RTVSPost2010PropOp30
 70
     1
102
RTVSPost2010Prop31
280
     0
102
RTVSPost2010PropOp31
 70
     1
102
RTVSPost2010Prop32
280
     0
102
RTVSPost2010PropOp32
 70
     1
102
RTVSPost2010Prop33
280
     0
102
RTVSPost2010PropOp33
 70
     1
102
RTVSPost2010Prop34
280
     0
102
RTVSPost2010PropOp34
 70
     1
102
RTVSPost2010Prop35
280
     0
102
RTVSPost2010PropOp35
 70
     1
102
RTVSPost2010Prop36
280
     0
102
RTVSPost2010PropOp36
 70
     1
102
RTVSPost2010Prop37
 90
       50
102
RTVSPost2010PropOp37
 70
     1
102
RTVSPost2010Prop38
140
0.0
102
RTVSPost2010PropOp38
 70
     1
102
RTVSPost2010Prop39
140
1.0
102
RTVSPost2010PropOp39
 70
     1
102
RTVSPost2010Prop40
 90
        0
102
RTVSPost2010PropOp40
 70
     1
102
RTVSPost2010Prop41ColorIndex
 90
       18
102
RTVSPost2010Prop41ColorRGB
 90
        0
102
RTVSPost2010PropOp41
 70
     1
102
RTVSPost2010Prop42
 90
       50
102
RTVSPost2010PropOp42
 70
     1
102
RTVSPost2010Prop43
 90
        3
102
RTVSPost2010PropOp43
 70
     1
102
RTVSPost2010Prop44ColorIndex
 90
        5
102
RTVSPost2010Prop44ColorRGB
 90
      255
102
RTVSPost2010PropOp44
 70
     1
102
RTVSPost2010Prop45
280
     0
102
RTVSPost2010PropOp45
 70
     1
102
RTVSPost2010Prop46
 90
       50
102
RTVSPost2010PropOp46
 70
     1
102
RTVSPost2010Prop47
 90
       50
102
RTVSPost2010PropOp47
 70
     1
102
RTVSPost2010Prop48
 90
       50
102
RTVSPost2010PropOp48
 70
     1
102
RTVSPost2010Prop49
280
     0
102
RTVSPost2010PropOp49
 70
     1
102
RTVSPost2010Prop50
 90
       50
102
RTVSPost2010PropOp50
 70
     1
102
RTVSPost2010Prop51ColorIndex
 90
      256
102
RTVSPost2010Prop51ColorRGB
 90
-16777216
102
RTVSPost2010PropOp51
 70
     0
102
RTVSPost2010Prop52
140
1.0
102
RTVSPost2010PropOp52
 70
     0
102
RTVSPost2010Prop53
 90
        2
102
RTVSPost2010PropOp53
 70
     1
102
RTVSPost2010Prop54
  1
strokes_ogs.tif
102
RTVSPost2010PropOp54
 70
     1
102
RTVSPost2010Prop55
280
     0
102
RTVSPost2010PropOp55
 70
     1
102
RTVSPost2010Prop56
140
1.0
102
RTVSPost2010PropOp56
 70
     1
102
RTVSPost2010Prop57
140
1.0
102
RTVSPost2010PropOp57
 70
     1
102
RTVSPropertyOp0
 70
     1
102
RTVSPropertyOp1
 70
     1
102
RTVSPropertyOp2
 70
     1
102
RTVSPropertyOp3
 70
     1
102
RTVSPropertyOp4
 70
     1
102
RTVSPropertyOp5
 70
     1
102
RTVSPropertyOp6
 70
     1
102
RTVSPropertyOp7
 70
     1
102
RTVSPropertyOp8
 70
     1
102
RTVSPropertyOp9
 70
     1
102
RTVSPropertyOp10
 70
     1
102
RTVSPropertyOp11
 70
     1
102
RTVSPropertyOp12
 70
     1
102
RTVSPropertyOp13
 70
     1
102
RTVSPropertyOp14
 70
     1
102
RTVSPropertyOp15
 70
     1
102
RTVSPropertyOp16
 70
     1
102
RTVSPropertyOp17
 70
     1
102
RTVSPropertyOp18
 70
     1
102
RTVSPropertyOp19
 70
     1
102
RTVSPropertyOp20
 70
     1
102
RTVSPropertyOp21
 70
     1
102
RTVSPropertyOp22
 70
     1
102
RTVSPropertyOp23
 70
     1
102
RTVSPropertyOp24
 70
     1
102
RTVSPropertyOp25
 70
     1
102
RTVSPropertyOp26
 70
     1
102
RTVSPropertyOp27
 70
     1
102
RTVSPropertyOp28
 70
     1
102
RTVSPropertyOp29
 70
     1
102
RTVSPropertyOp30
 70
     1
102
RTVSPropertyOp31
 70
     1
102
RTVSPropertyOp32
 70
     1
102
RTVSPropertyOp33
 70
     1
102
RTVSPropertyOp34
 70
     1
102
RTVSPropertyOp35
 70
     1
102
RTVSPropertyOp36
 70
     1
102
RTVSPropertyOp37
 70
     1
102
RTVSPropertyOp38
 70
     1
102
RTVSPropertyOp39
 70
     1
102
RTVSPropertyOp40
 70
     1
102
RTVSPropertyOp41
 70
     1
102
RTVSPropertyOp42
 70
     1
102
RTVSPropertyOp43
 70
     1
102
RTVSPropertyOp44
 70
     1
102
RTVSPropertyOp45
 70
     1
102
RTVSPropertyOp46
 70
     1
102
RTVSPropertyOp47
 70
     1
102
RTVSPropertyOp48
 70
     1
102
RTVSPropertyOp49
 70
     1
102
RTVSPropertyOp50
 70
     1
102
RTVSPropertyOp51
 70
     0
102
RTVSPropertyOp52
 70
     0
102
RTVSPropertyOp53
 70
     1
102
RTVSPropertyOp54
 70
     1
102
RTVSPropertyOp55
 70
     1
102
RTVSPropertyOp56
 70
     1
102
RTVSPropertyOp57
 70
     1
102
RTVSPropertyOp58
 70
     1
102
RTVSPropertyOp59
 70
     1
102
RTVSPropertyOp60
 70
     1
102
RTVSPropertyOp61
 70
     1
102
RTVSPropertyOp62
 70
     1
  0
XRECORD
  5
F441
102
{ACAD_REACTORS
330
F440
102
}
330
F440
100
AcDbXrecord
280
     1
102
RTVSPost2010Prop28
280
     0
102
RTVSPost2010PropOp28
 70
     1
102
RTVSPost2010Prop29
280
     1
102
RTVSPost2010PropOp29
 70
     1
102
RTVSPost2010Prop30
280
     1
102
RTVSPost2010PropOp30
 70
     1
102
RTVSPost2010Prop31
280
     0
102
RTVSPost2010PropOp31
 70
     1
102
RTVSPost2010Prop32
280
     0
102
RTVSPost2010PropOp32
 70
     1
102
RTVSPost2010Prop33
280
     0
102
RTVSPost2010PropOp33
 70
     1
102
RTVSPost2010Prop34
280
     0
102
RTVSPost2010PropOp34
 70
     1
102
RTVSPost2010Prop35
280
     0
102
RTVSPost2010PropOp35
 70
     1
102
RTVSPost2010Prop36
280
     0
102
RTVSPost2010PropOp36
 70
     1
102
RTVSPost2010Prop37
 90
       50
102
RTVSPost2010PropOp37
 70
     1
102
RTVSPost2010Prop38
140
0.0
102
RTVSPost2010PropOp38
 70
     1
102
RTVSPost2010Prop39
140
1.0
102
RTVSPost2010PropOp39
 70
     1
102
RTVSPost2010Prop40
 90
        0
102
RTVSPost2010PropOp40
 70
     1
102
RTVSPost2010Prop41ColorIndex
 90
       18
102
RTVSPost2010Prop41ColorRGB
 90
        0
102
RTVSPost2010PropOp41
 70
     1
102
RTVSPost2010Prop42
 90
       50
102
RTVSPost2010PropOp42
 70
     1
102
RTVSPost2010Prop43
 90
        3
102
RTVSPost2010PropOp43
 70
     1
102
RTVSPost2010Prop44ColorIndex
 90
        5
102
RTVSPost2010Prop44ColorRGB
 90
      255
102
RTVSPost2010PropOp44
 70
     1
102
RTVSPost2010Prop45
280
     0
102
RTVSPost2010PropOp45
 70
     1
102
RTVSPost2010Prop46
 90
       50
102
RTVSPost2010PropOp46
 70
     1
102
RTVSPost2010Prop47
 90
       50
102
RTVSPost2010PropOp47
 70
     1
102
RTVSPost2010Prop48
 90
       50
102
RTVSPost2010PropOp48
 70
     1
102
RTVSPost2010Prop49
280
     0
102
RTVSPost2010PropOp49
 70
     1
102
RTVSPost2010Prop50
 90
       50
102
RTVSPost2010PropOp50
 70
     1
102
RTVSPost2010Prop51ColorIndex
 90
      256
102
RTVSPost2010Prop51ColorRGB
 90
-16777216
102
RTVSPost2010PropOp51
 70
     0
102
RTVSPost2010Prop52
140
1.0
102
RTVSPost2010PropOp52
 70
     0
102
RTVSPost2010Prop53
 90
        2
102
RTVSPost2010PropOp53
 70
     1
102
RTVSPost2010Prop54
  1
strokes_ogs.tif
102
RTVSPost2010PropOp54
 70
     1
102
RTVSPost2010Prop55
280
     0
102
RTVSPost2010PropOp55
 70
     1
102
RTVSPost2010Prop56
140
1.0
102
RTVSPost2010PropOp56
 70
     1
102
RTVSPost2010Prop57
140
1.0
102
RTVSPost2010PropOp57
 70
     1
102
RTVSPropertyOp0
 70
     1
102
RTVSPropertyOp1
 70
     1
102
RTVSPropertyOp2
 70
     1
102
RTVSPropertyOp3
 70
     1
102
RTVSPropertyOp4
 70
     1
102
RTVSPropertyOp5
 70
     1
102
RTVSPropertyOp6
 70
     1
102
RTVSPropertyOp7
 70
     1
102
RTVSPropertyOp8
 70
     1
102
RTVSPropertyOp9
 70
     1
102
RTVSPropertyOp10
 70
     1
102
RTVSPropertyOp11
 70
     1
102
RTVSPropertyOp12
 70
     1
102
RTVSPropertyOp13
 70
     1
102
RTVSPropertyOp14
 70
     1
102
RTVSPropertyOp15
 70
     1
102
RTVSPropertyOp16
 70
     1
102
RTVSPropertyOp17
 70
     1
102
RTVSPropertyOp18
 70
     1
102
RTVSPropertyOp19
 70
     1
102
RTVSPropertyOp20
 70
     1
102
RTVSPropertyOp21
 70
     1
102
RTVSPropertyOp22
 70
     1
102
RTVSPropertyOp23
 70
     1
102
RTVSPropertyOp24
 70
     1
102
RTVSPropertyOp25
 70
     1
102
RTVSPropertyOp26
 70
     1
102
RTVSPropertyOp27
 70
     1
102
RTVSPropertyOp28
 70
     1
102
RTVSPropertyOp29
 70
     1
102
RTVSPropertyOp30
 70
     1
102
RTVSPropertyOp31
 70
     1
102
RTVSPropertyOp32
 70
     1
102
RTVSPropertyOp33
 70
     1
102
RTVSPropertyOp34
 70
     1
102
RTVSPropertyOp35
 70
     1
102
RTVSPropertyOp36
 70
     1
102
RTVSPropertyOp37
 70
     1
102
RTVSPropertyOp38
 70
     1
102
RTVSPropertyOp39
 70
     1
102
RTVSPropertyOp40
 70
     1
102
RTVSPropertyOp41
 70
     1
102
RTVSPropertyOp42
 70
     1
102
RTVSPropertyOp43
 70
     1
102
RTVSPropertyOp44
 70
     1
102
RTVSPropertyOp45
 70
     1
102
RTVSPropertyOp46
 70
     1
102
RTVSPropertyOp47
 70
     1
102
RTVSPropertyOp48
 70
     1
102
RTVSPropertyOp49
 70
     1
102
RTVSPropertyOp50
 70
     1
102
RTVSPropertyOp51
 70
     0
102
RTVSPropertyOp52
 70
     0
102
RTVSPropertyOp53
 70
     1
102
RTVSPropertyOp54
 70
     1
102
RTVSPropertyOp55
 70
     1
102
RTVSPropertyOp56
 70
     1
102
RTVSPropertyOp57
 70
     1
102
RTVSPropertyOp58
 70
     1
102
RTVSPropertyOp59
 70
     1
102
RTVSPropertyOp60
 70
     1
102
RTVSPropertyOp61
 70
     1
102
RTVSPropertyOp62
 70
     1
  0
XRECORD
  5
F443
102
{ACAD_REACTORS
330
F442
102
}
330
F442
100
AcDbXrecord
280
     1
102
RTVSPost2010Prop28
280
     0
102
RTVSPost2010PropOp28
 70
     1
102
RTVSPost2010Prop29
280
     1
102
RTVSPost2010PropOp29
 70
     1
102
RTVSPost2010Prop30
280
     1
102
RTVSPost2010PropOp30
 70
     1
102
RTVSPost2010Prop31
280
     0
102
RTVSPost2010PropOp31
 70
     1
102
RTVSPost2010Prop32
280
     0
102
RTVSPost2010PropOp32
 70
     1
102
RTVSPost2010Prop33
280
     0
102
RTVSPost2010PropOp33
 70
     1
102
RTVSPost2010Prop34
280
     0
102
RTVSPost2010PropOp34
 70
     1
102
RTVSPost2010Prop35
280
     0
102
RTVSPost2010PropOp35
 70
     1
102
RTVSPost2010Prop36
280
     0
102
RTVSPost2010PropOp36
 70
     1
102
RTVSPost2010Prop37
 90
       50
102
RTVSPost2010PropOp37
 70
     1
102
RTVSPost2010Prop38
140
0.0
102
RTVSPost2010PropOp38
 70
     1
102
RTVSPost2010Prop39
140
1.0
102
RTVSPost2010PropOp39
 70
     1
102
RTVSPost2010Prop40
 90
        0
102
RTVSPost2010PropOp40
 70
     1
102
RTVSPost2010Prop41ColorIndex
 90
       18
102
RTVSPost2010Prop41ColorRGB
 90
        0
102
RTVSPost2010PropOp41
 70
     1
102
RTVSPost2010Prop42
 90
       50
102
RTVSPost2010PropOp42
 70
     1
102
RTVSPost2010Prop43
 90
        3
102
RTVSPost2010PropOp43
 70
     1
102
RTVSPost2010Prop44ColorIndex
 90
        5
102
RTVSPost2010Prop44ColorRGB
 90
      255
102
RTVSPost2010PropOp44
 70
     1
102
RTVSPost2010Prop45
280
     0
102
RTVSPost2010PropOp45
 70
     1
102
RTVSPost2010Prop46
 90
       50
102
RTVSPost2010PropOp46
 70
     1
102
RTVSPost2010Prop47
 90
       50
102
RTVSPost2010PropOp47
 70
     1
102
RTVSPost2010Prop48
 90
       50
102
RTVSPost2010PropOp48
 70
     1
102
RTVSPost2010Prop49
280
     0
102
RTVSPost2010PropOp49
 70
     1
102
RTVSPost2010Prop50
 90
       50
102
RTVSPost2010PropOp50
 70
     1
102
RTVSPost2010Prop51ColorIndex
 90
      256
102
RTVSPost2010Prop51ColorRGB
 90
-16777216
102
RTVSPost2010PropOp51
 70
     0
102
RTVSPost2010Prop52
140
1.0
102
RTVSPost2010PropOp52
 70
     0
102
RTVSPost2010Prop53
 90
        2
102
RTVSPost2010PropOp53
 70
     1
102
RTVSPost2010Prop54
  1
strokes_ogs.tif
102
RTVSPost2010PropOp54
 70
     1
102
RTVSPost2010Prop55
280
     0
102
RTVSPost2010PropOp55
 70
     1
102
RTVSPost2010Prop56
140
1.0
102
RTVSPost2010PropOp56
 70
     1
102
RTVSPost2010Prop57
140
1.0
102
RTVSPost2010PropOp57
 70
     1
102
RTVSPropertyOp0
 70
     1
102
RTVSPropertyOp1
 70
     1
102
RTVSPropertyOp2
 70
     1
102
RTVSPropertyOp3
 70
     1
102
RTVSPropertyOp4
 70
     1
102
RTVSPropertyOp5
 70
     1
102
RTVSPropertyOp6
 70
     1
102
RTVSPropertyOp7
 70
     1
102
RTVSPropertyOp8
 70
     1
102
RTVSPropertyOp9
 70
     1
102
RTVSPropertyOp10
 70
     1
102
RTVSPropertyOp11
 70
     1
102
RTVSPropertyOp12
 70
     1
102
RTVSPropertyOp13
 70
     1
102
RTVSPropertyOp14
 70
     1
102
RTVSPropertyOp15
 70
     1
102
RTVSPropertyOp16
 70
     1
102
RTVSPropertyOp17
 70
     1
102
RTVSPropertyOp18
 70
     1
102
RTVSPropertyOp19
 70
     1
102
RTVSPropertyOp20
 70
     1
102
RTVSPropertyOp21
 70
     1
102
RTVSPropertyOp22
 70
     1
102
RTVSPropertyOp23
 70
     1
102
RTVSPropertyOp24
 70
     1
102
RTVSPropertyOp25
 70
     1
102
RTVSPropertyOp26
 70
     1
102
RTVSPropertyOp27
 70
     1
102
RTVSPropertyOp28
 70
     1
102
RTVSPropertyOp29
 70
     1
102
RTVSPropertyOp30
 70
     1
102
RTVSPropertyOp31
 70
     1
102
RTVSPropertyOp32
 70
     1
102
RTVSPropertyOp33
 70
     1
102
RTVSPropertyOp34
 70
     1
102
RTVSPropertyOp35
 70
     1
102
RTVSPropertyOp36
 70
     1
102
RTVSPropertyOp37
 70
     1
102
RTVSPropertyOp38
 70
     1
102
RTVSPropertyOp39
 70
     1
102
RTVSPropertyOp40
 70
     1
102
RTVSPropertyOp41
 70
     1
102
RTVSPropertyOp42
 70
     1
102
RTVSPropertyOp43
 70
     1
102
RTVSPropertyOp44
 70
     1
102
RTVSPropertyOp45
 70
     1
102
RTVSPropertyOp46
 70
     1
102
RTVSPropertyOp47
 70
     1
102
RTVSPropertyOp48
 70
     1
102
RTVSPropertyOp49
 70
     1
102
RTVSPropertyOp50
 70
     1
102
RTVSPropertyOp51
 70
     0
102
RTVSPropertyOp52
 70
     0
102
RTVSPropertyOp53
 70
     1
102
RTVSPropertyOp54
 70
     1
102
RTVSPropertyOp55
 70
     1
102
RTVSPropertyOp56
 70
     1
102
RTVSPropertyOp57
 70
     1
102
RTVSPropertyOp58
 70
     1
102
RTVSPropertyOp59
 70
     1
102
RTVSPropertyOp60
 70
     1
102
RTVSPropertyOp61
 70
     1
102
RTVSPropertyOp62
 70
     1
  0
XRECORD
  5
F439
102
{ACAD_REACTORS
330
F438
102
}
330
F438
100
AcDbXrecord
280
     1
102
RTVSPost2010Prop28
280
     0
102
RTVSPost2010PropOp28
 70
     1
102
RTVSPost2010Prop29
280
     1
102
RTVSPost2010PropOp29
 70
     1
102
RTVSPost2010Prop30
280
     1
102
RTVSPost2010PropOp30
 70
     1
102
RTVSPost2010Prop31
280
     0
102
RTVSPost2010PropOp31
 70
     1
102
RTVSPost2010Prop32
280
     0
102
RTVSPost2010PropOp32
 70
     1
102
RTVSPost2010Prop33
280
     0
102
RTVSPost2010PropOp33
 70
     1
102
RTVSPost2010Prop34
280
     0
102
RTVSPost2010PropOp34
 70
     1
102
RTVSPost2010Prop35
280
     0
102
RTVSPost2010PropOp35
 70
     1
102
RTVSPost2010Prop36
280
     0
102
RTVSPost2010PropOp36
 70
     1
102
RTVSPost2010Prop37
 90
       50
102
RTVSPost2010PropOp37
 70
     1
102
RTVSPost2010Prop38
140
0.0
102
RTVSPost2010PropOp38
 70
     1
102
RTVSPost2010Prop39
140
1.0
102
RTVSPost2010PropOp39
 70
     1
102
RTVSPost2010Prop40
 90
        0
102
RTVSPost2010PropOp40
 70
     1
102
RTVSPost2010Prop41ColorIndex
 90
       18
102
RTVSPost2010Prop41ColorRGB
 90
        0
102
RTVSPost2010PropOp41
 70
     1
102
RTVSPost2010Prop42
 90
       50
102
RTVSPost2010PropOp42
 70
     1
102
RTVSPost2010Prop43
 90
        3
102
RTVSPost2010PropOp43
 70
     1
102
RTVSPost2010Prop44ColorIndex
 90
        5
102
RTVSPost2010Prop44ColorRGB
 90
      255
102
RTVSPost2010PropOp44
 70
     1
102
RTVSPost2010Prop45
280
     0
102
RTVSPost2010PropOp45
 70
     1
102
RTVSPost2010Prop46
 90
       50
102
RTVSPost2010PropOp46
 70
     1
102
RTVSPost2010Prop47
 90
       50
102
RTVSPost2010PropOp47
 70
     1
102
RTVSPost2010Prop48
 90
       50
102
RTVSPost2010PropOp48
 70
     1
102
RTVSPost2010Prop49
280
     0
102
RTVSPost2010PropOp49
 70
     1
102
RTVSPost2010Prop50
 90
       50
102
RTVSPost2010PropOp50
 70
     1
102
RTVSPost2010Prop51ColorIndex
 90
      256
102
RTVSPost2010Prop51ColorRGB
 90
-16777216
102
RTVSPost2010PropOp51
 70
     0
102
RTVSPost2010Prop52
140
1.0
102
RTVSPost2010PropOp52
 70
     0
102
RTVSPost2010Prop53
 90
        2
102
RTVSPost2010PropOp53
 70
     1
102
RTVSPost2010Prop54
  1
strokes_ogs.tif
102
RTVSPost2010PropOp54
 70
     1
102
RTVSPost2010Prop55
280
     0
102
RTVSPost2010PropOp55
 70
     1
102
RTVSPost2010Prop56
140
1.0
102
RTVSPost2010PropOp56
 70
     1
102
RTVSPost2010Prop57
140
1.0
102
RTVSPost2010PropOp57
 70
     1
102
RTVSPropertyOp0
 70
     1
102
RTVSPropertyOp1
 70
     1
102
RTVSPropertyOp2
 70
     1
102
RTVSPropertyOp3
 70
     1
102
RTVSPropertyOp4
 70
     1
102
RTVSPropertyOp5
 70
     1
102
RTVSPropertyOp6
 70
     1
102
RTVSPropertyOp7
 70
     1
102
RTVSPropertyOp8
 70
     1
102
RTVSPropertyOp9
 70
     1
102
RTVSPropertyOp10
 70
     1
102
RTVSPropertyOp11
 70
     1
102
RTVSPropertyOp12
 70
     1
102
RTVSPropertyOp13
 70
     1
102
RTVSPropertyOp14
 70
     1
102
RTVSPropertyOp15
 70
     1
102
RTVSPropertyOp16
 70
     1
102
RTVSPropertyOp17
 70
     1
102
RTVSPropertyOp18
 70
     1
102
RTVSPropertyOp19
 70
     1
102
RTVSPropertyOp20
 70
     1
102
RTVSPropertyOp21
 70
     1
102
RTVSPropertyOp22
 70
     1
102
RTVSPropertyOp23
 70
     1
102
RTVSPropertyOp24
 70
     1
102
RTVSPropertyOp25
 70
     1
102
RTVSPropertyOp26
 70
     1
102
RTVSPropertyOp27
 70
     1
102
RTVSPropertyOp28
 70
     1
102
RTVSPropertyOp29
 70
     1
102
RTVSPropertyOp30
 70
     1
102
RTVSPropertyOp31
 70
     1
102
RTVSPropertyOp32
 70
     1
102
RTVSPropertyOp33
 70
     1
102
RTVSPropertyOp34
 70
     1
102
RTVSPropertyOp35
 70
     1
102
RTVSPropertyOp36
 70
     1
102
RTVSPropertyOp37
 70
     1
102
RTVSPropertyOp38
 70
     1
102
RTVSPropertyOp39
 70
     1
102
RTVSPropertyOp40
 70
     1
102
RTVSPropertyOp41
 70
     1
102
RTVSPropertyOp42
 70
     1
102
RTVSPropertyOp43
 70
     1
102
RTVSPropertyOp44
 70
     1
102
RTVSPropertyOp45
 70
     1
102
RTVSPropertyOp46
 70
     1
102
RTVSPropertyOp47
 70
     1
102
RTVSPropertyOp48
 70
     1
102
RTVSPropertyOp49
 70
     1
102
RTVSPropertyOp50
 70
     1
102
RTVSPropertyOp51
 70
     0
102
RTVSPropertyOp52
 70
     0
102
RTVSPropertyOp53
 70
     1
102
RTVSPropertyOp54
 70
     1
102
RTVSPropertyOp55
 70
     1
102
RTVSPropertyOp56
 70
     1
102
RTVSPropertyOp57
 70
     1
102
RTVSPropertyOp58
 70
     1
102
RTVSPropertyOp59
 70
     1
102
RTVSPropertyOp60
 70
     1
102
RTVSPropertyOp61
 70
     1
102
RTVSPropertyOp62
 70
     1
  0
XRECORD
  5
F42D
102
{ACAD_REACTORS
330
F42C
102
}
330
F42C
100
AcDbXrecord
280
     1
102
RTVSPost2010Prop28
280
     0
102
RTVSPost2010PropOp28
 70
     1
102
RTVSPost2010Prop29
280
     1
102
RTVSPost2010PropOp29
 70
     1
102
RTVSPost2010Prop30
280
     1
102
RTVSPost2010PropOp30
 70
     1
102
RTVSPost2010Prop31
280
     0
102
RTVSPost2010PropOp31
 70
     1
102
RTVSPost2010Prop32
280
     0
102
RTVSPost2010PropOp32
 70
     1
102
RTVSPost2010Prop33
280
     0
102
RTVSPost2010PropOp33
 70
     1
102
RTVSPost2010Prop34
280
     0
102
RTVSPost2010PropOp34
 70
     1
102
RTVSPost2010Prop35
280
     0
102
RTVSPost2010PropOp35
 70
     1
102
RTVSPost2010Prop36
280
     0
102
RTVSPost2010PropOp36
 70
     1
102
RTVSPost2010Prop37
 90
       50
102
RTVSPost2010PropOp37
 70
     1
102
RTVSPost2010Prop38
140
0.0
102
RTVSPost2010PropOp38
 70
     1
102
RTVSPost2010Prop39
140
1.0
102
RTVSPost2010PropOp39
 70
     1
102
RTVSPost2010Prop40
 90
        0
102
RTVSPost2010PropOp40
 70
     1
102
RTVSPost2010Prop41ColorIndex
 90
       18
102
RTVSPost2010Prop41ColorRGB
 90
        0
102
RTVSPost2010PropOp41
 70
     1
102
RTVSPost2010Prop42
 90
       50
102
RTVSPost2010PropOp42
 70
     1
102
RTVSPost2010Prop43
 90
        3
102
RTVSPost2010PropOp43
 70
     1
102
RTVSPost2010Prop44ColorIndex
 90
        5
102
RTVSPost2010Prop44ColorRGB
 90
      255
102
RTVSPost2010PropOp44
 70
     1
102
RTVSPost2010Prop45
280
     0
102
RTVSPost2010PropOp45
 70
     1
102
RTVSPost2010Prop46
 90
       50
102
RTVSPost2010PropOp46
 70
     1
102
RTVSPost2010Prop47
 90
       50
102
RTVSPost2010PropOp47
 70
     1
102
RTVSPost2010Prop48
 90
       50
102
RTVSPost2010PropOp48
 70
     1
102
RTVSPost2010Prop49
280
     0
102
RTVSPost2010PropOp49
 70
     1
102
RTVSPost2010Prop50
 90
       50
102
RTVSPost2010PropOp50
 70
     1
102
RTVSPost2010Prop51ColorIndex
 90
      256
102
RTVSPost2010Prop51ColorRGB
 90
-16777216
102
RTVSPost2010PropOp51
 70
     0
102
RTVSPost2010Prop52
140
1.0
102
RTVSPost2010PropOp52
 70
     0
102
RTVSPost2010Prop53
 90
        2
102
RTVSPost2010PropOp53
 70
     1
102
RTVSPost2010Prop54
  1
strokes_ogs.tif
102
RTVSPost2010PropOp54
 70
     1
102
RTVSPost2010Prop55
280
     0
102
RTVSPost2010PropOp55
 70
     1
102
RTVSPost2010Prop56
140
1.0
102
RTVSPost2010PropOp56
 70
     1
102
RTVSPost2010Prop57
140
1.0
102
RTVSPost2010PropOp57
 70
     1
102
RTVSPropertyOp0
 70
     1
102
RTVSPropertyOp1
 70
     1
102
RTVSPropertyOp2
 70
     1
102
RTVSPropertyOp3
 70
     1
102
RTVSPropertyOp4
 70
     1
102
RTVSPropertyOp5
 70
     1
102
RTVSPropertyOp6
 70
     1
102
RTVSPropertyOp7
 70
     1
102
RTVSPropertyOp8
 70
     1
102
RTVSPropertyOp9
 70
     1
102
RTVSPropertyOp10
 70
     1
102
RTVSPropertyOp11
 70
     1
102
RTVSPropertyOp12
 70
     1
102
RTVSPropertyOp13
 70
     1
102
RTVSPropertyOp14
 70
     1
102
RTVSPropertyOp15
 70
     1
102
RTVSPropertyOp16
 70
     1
102
RTVSPropertyOp17
 70
     1
102
RTVSPropertyOp18
 70
     1
102
RTVSPropertyOp19
 70
     1
102
RTVSPropertyOp20
 70
     1
102
RTVSPropertyOp21
 70
     1
102
RTVSPropertyOp22
 70
     1
102
RTVSPropertyOp23
 70
     1
102
RTVSPropertyOp24
 70
     1
102
RTVSPropertyOp25
 70
     1
102
RTVSPropertyOp26
 70
     1
102
RTVSPropertyOp27
 70
     1
102
RTVSPropertyOp28
 70
     1
102
RTVSPropertyOp29
 70
     1
102
RTVSPropertyOp30
 70
     1
102
RTVSPropertyOp31
 70
     1
102
RTVSPropertyOp32
 70
     1
102
RTVSPropertyOp33
 70
     1
102
RTVSPropertyOp34
 70
     1
102
RTVSPropertyOp35
 70
     1
102
RTVSPropertyOp36
 70
     1
102
RTVSPropertyOp37
 70
     1
102
RTVSPropertyOp38
 70
     1
102
RTVSPropertyOp39
 70
     1
102
RTVSPropertyOp40
 70
     1
102
RTVSPropertyOp41
 70
     1
102
RTVSPropertyOp42
 70
     1
102
RTVSPropertyOp43
 70
     1
102
RTVSPropertyOp44
 70
     1
102
RTVSPropertyOp45
 70
     1
102
RTVSPropertyOp46
 70
     1
102
RTVSPropertyOp47
 70
     1
102
RTVSPropertyOp48
 70
     1
102
RTVSPropertyOp49
 70
     1
102
RTVSPropertyOp50
 70
     1
102
RTVSPropertyOp51
 70
     0
102
RTVSPropertyOp52
 70
     0
102
RTVSPropertyOp53
 70
     1
102
RTVSPropertyOp54
 70
     1
102
RTVSPropertyOp55
 70
     1
102
RTVSPropertyOp56
 70
     1
102
RTVSPropertyOp57
 70
     1
102
RTVSPropertyOp58
 70
     1
102
RTVSPropertyOp59
 70
     1
102
RTVSPropertyOp60
 70
     1
102
RTVSPropertyOp61
 70
     1
102
RTVSPropertyOp62
 70
     1
  0
XRECORD
  5
F445
102
{ACAD_REACTORS
330
F444
102
}
330
F444
100
AcDbXrecord
280
     1
102
RTVSPost2010Prop28
280
     0
102
RTVSPost2010PropOp28
 70
     1
102
RTVSPost2010Prop29
280
     1
102
RTVSPost2010PropOp29
 70
     1
102
RTVSPost2010Prop30
280
     1
102
RTVSPost2010PropOp30
 70
     1
102
RTVSPost2010Prop31
280
     0
102
RTVSPost2010PropOp31
 70
     1
102
RTVSPost2010Prop32
280
     0
102
RTVSPost2010PropOp32
 70
     1
102
RTVSPost2010Prop33
280
     0
102
RTVSPost2010PropOp33
 70
     1
102
RTVSPost2010Prop34
280
     0
102
RTVSPost2010PropOp34
 70
     1
102
RTVSPost2010Prop35
280
     0
102
RTVSPost2010PropOp35
 70
     1
102
RTVSPost2010Prop36
280
     0
102
RTVSPost2010PropOp36
 70
     1
102
RTVSPost2010Prop37
 90
       50
102
RTVSPost2010PropOp37
 70
     1
102
RTVSPost2010Prop38
140
0.0
102
RTVSPost2010PropOp38
 70
     1
102
RTVSPost2010Prop39
140
1.0
102
RTVSPost2010PropOp39
 70
     1
102
RTVSPost2010Prop40
 90
        0
102
RTVSPost2010PropOp40
 70
     1
102
RTVSPost2010Prop41ColorIndex
 90
       18
102
RTVSPost2010Prop41ColorRGB
 90
        0
102
RTVSPost2010PropOp41
 70
     1
102
RTVSPost2010Prop42
 90
       50
102
RTVSPost2010PropOp42
 70
     1
102
RTVSPost2010Prop43
 90
        3
102
RTVSPost2010PropOp43
 70
     1
102
RTVSPost2010Prop44ColorIndex
 90
        5
102
RTVSPost2010Prop44ColorRGB
 90
      255
102
RTVSPost2010PropOp44
 70
     1
102
RTVSPost2010Prop45
280
     0
102
RTVSPost2010PropOp45
 70
     1
102
RTVSPost2010Prop46
 90
       50
102
RTVSPost2010PropOp46
 70
     1
102
RTVSPost2010Prop47
 90
       50
102
RTVSPost2010PropOp47
 70
     1
102
RTVSPost2010Prop48
 90
       50
102
RTVSPost2010PropOp48
 70
     1
102
RTVSPost2010Prop49
280
     0
102
RTVSPost2010PropOp49
 70
     1
102
RTVSPost2010Prop50
 90
       50
102
RTVSPost2010PropOp50
 70
     1
102
RTVSPost2010Prop51ColorIndex
 90
      256
102
RTVSPost2010Prop51ColorRGB
 90
-16777216
102
RTVSPost2010PropOp51
 70
     0
102
RTVSPost2010Prop52
140
1.0
102
RTVSPost2010PropOp52
 70
     0
102
RTVSPost2010Prop53
 90
        2
102
RTVSPost2010PropOp53
 70
     1
102
RTVSPost2010Prop54
  1
strokes_ogs.tif
102
RTVSPost2010PropOp54
 70
     1
102
RTVSPost2010Prop55
280
     0
102
RTVSPost2010PropOp55
 70
     1
102
RTVSPost2010Prop56
140
1.0
102
RTVSPost2010PropOp56
 70
     1
102
RTVSPost2010Prop57
140
1.0
102
RTVSPost2010PropOp57
 70
     1
102
RTVSPropertyOp0
 70
     1
102
RTVSPropertyOp1
 70
     1
102
RTVSPropertyOp2
 70
     1
102
RTVSPropertyOp3
 70
     1
102
RTVSPropertyOp4
 70
     1
102
RTVSPropertyOp5
 70
     1
102
RTVSPropertyOp6
 70
     1
102
RTVSPropertyOp7
 70
     1
102
RTVSPropertyOp8
 70
     1
102
RTVSPropertyOp9
 70
     1
102
RTVSPropertyOp10
 70
     1
102
RTVSPropertyOp11
 70
     1
102
RTVSPropertyOp12
 70
     1
102
RTVSPropertyOp13
 70
     1
102
RTVSPropertyOp14
 70
     1
102
RTVSPropertyOp15
 70
     1
102
RTVSPropertyOp16
 70
     1
102
RTVSPropertyOp17
 70
     1
102
RTVSPropertyOp18
 70
     1
102
RTVSPropertyOp19
 70
     1
102
RTVSPropertyOp20
 70
     1
102
RTVSPropertyOp21
 70
     1
102
RTVSPropertyOp22
 70
     1
102
RTVSPropertyOp23
 70
     1
102
RTVSPropertyOp24
 70
     1
102
RTVSPropertyOp25
 70
     1
102
RTVSPropertyOp26
 70
     1
102
RTVSPropertyOp27
 70
     1
102
RTVSPropertyOp28
 70
     1
102
RTVSPropertyOp29
 70
     1
102
RTVSPropertyOp30
 70
     1
102
RTVSPropertyOp31
 70
     1
102
RTVSPropertyOp32
 70
     1
102
RTVSPropertyOp33
 70
     1
102
RTVSPropertyOp34
 70
     1
102
RTVSPropertyOp35
 70
     1
102
RTVSPropertyOp36
 70
     1
102
RTVSPropertyOp37
 70
     1
102
RTVSPropertyOp38
 70
     1
102
RTVSPropertyOp39
 70
     1
102
RTVSPropertyOp40
 70
     1
102
RTVSPropertyOp41
 70
     1
102
RTVSPropertyOp42
 70
     1
102
RTVSPropertyOp43
 70
     1
102
RTVSPropertyOp44
 70
     1
102
RTVSPropertyOp45
 70
     1
102
RTVSPropertyOp46
 70
     1
102
RTVSPropertyOp47
 70
     1
102
RTVSPropertyOp48
 70
     1
102
RTVSPropertyOp49
 70
     1
102
RTVSPropertyOp50
 70
     1
102
RTVSPropertyOp51
 70
     0
102
RTVSPropertyOp52
 70
     0
102
RTVSPropertyOp53
 70
     1
102
RTVSPropertyOp54
 70
     1
102
RTVSPropertyOp55
 70
     1
102
RTVSPropertyOp56
 70
     1
102
RTVSPropertyOp57
 70
     1
102
RTVSPropertyOp58
 70
     1
102
RTVSPropertyOp59
 70
     1
102
RTVSPropertyOp60
 70
     1
102
RTVSPropertyOp61
 70
     1
102
RTVSPropertyOp62
 70
     1
  0
ENDSEC
  0
EOF
