  0
SECTION
  2
HEADER
  9
$ACADVER
  1
AC1014
  9
$DWGCODEPAGE
  3
ANSI_932
  9
$LTSCALE
 40
20.0
  9
$FILLMODE
 70
     1
  9
$CLAYER
  8
0
  9
$PDMODE
 70
     0
  9
$SPLFRAME
 70
     0
  9
$SPLINETYPE
 70
     6
  9
$SPLINESEGS
 70
     8
  9
$DIMASZ
 40
2.000000
  9
$DIMEXE
 40
1.500000
  9
$DIMEXO
 40
0.800000
  9
$DIMTAD
 70
     1
  9
$DIMTIH
 70
     0
  9
$DIMTOH
 70
     0
  9
$DIMTVP
 40
0.500000
  9
$DIMTXT
 40
3.100000
  9
$EXTMIN
 10
0.000000
 20
0.000000
 30
0.000000
  9
$EXTMAX
 10
297.000000
 20
420.000000
 30
0.000000
  9
$MEASUREMENT
 70
  1
  9
$LIMMIN
 10
0.000000
 20
0.000000
  9
$LIMMAX
 10
297.000000
 20
420.000000
  9
$HANDLING
 70
     1
  9
$HANDSEED
  5
14B
  9
$DIMBLK
  1
_OPEN
  9
$DIMDEC
 70
     2
  9
$DIMAUNIT
 70
     0
  9
$DIMZIN
 70
     8
  9
$DIMTOFL
 70
     1
  0
ENDSEC
  0
SECTION
  2
CLASSES
  0
ENDSEC
  0
SECTION
  2
TABLES
  0
TABLE
  2
VPORT
  5
119
100
AcDbSymbolTable
 70
     1
  0
VPORT
  5
11A
100
AcDbSymbolTableRecord
100
AcDbViewportTableRecord
  2
*ACTIVE
 70
     0
 12
76.887097
 22
102.801212
 40
169.602423
 41
0.788752
  0
ENDTAB
  0
TABLE
  2
LTYPE
  5
11B
100
AcDbSymbolTable
 70
     4
  0
LTYPE
  5
11C
100
AcDbSymbolTableRecord
100
AcDbLinetypeTableRecord
  2
BYBLOCK
 70
     0
  3

 72
    65
 73
     0
 40
0.0
  0
LTYPE
  5
11D
100
AcDbSymbolTableRecord
100
AcDbLinetypeTableRecord
  2
BYLAYER
 70
     0
  3

 72
    65
 73
     0
 40
0.0
  0
LTYPE
  5
11E
100
AcDbSymbolTableRecord
100
AcDbLinetypeTableRecord
  2
CONTINUOUS
 70
     0
  3
Solid line (NEC CAE2D for Win R18.0 : 2026.04.08)
 72
    65
 73
     0
 40
0.0
  0
LTYPE
  5
11F
100
AcDbSymbolTableRecord
100
AcDbLinetypeTableRecord
  2
DASHED
 70
     0
  3
__ __ __ __ __ __ __ __ __ __ __ __ __ _
 72
    65
 73
     2
 40
0.75
 49
0.5
 74
     0
 49
-0.25
 74
     0
  0
LTYPE
  5
120
100
AcDbSymbolTableRecord
100
AcDbLinetypeTableRecord
  2
CENTER
 70
     0
  3
____ _ ____ _ ____ _ ____ _ ____ _ ____
 72
    65
 73
     4
 40
2.0
 49
1.25
 74
     0
 49
-0.25
 74
     0
 49
0.25
 74
     0
 49
-0.25
 74
     0
  0
LTYPE
  5
121
100
AcDbSymbolTableRecord
100
AcDbLinetypeTableRecord
  2
PHANTOM
 70
     0
  3
______  __  __  ______  __  __  ______ 
 72
    65
 73
     6
 40
2.5
 49
1.25
 74
     0
 49
-0.25
 74
     0
 49
0.25
 74
     0
 49
-0.25
 74
     0
 49
0.25
 74
     0
 49
-0.25
 74
     0
  0
ENDTAB
  0
TABLE
  2
LAYER
  5
122
100
AcDbSymbolTable
 70
    17
  0
LAYER
  5
123
100
AcDbSymbolTableRecord
100
AcDbLayerTableRecord
  2
0
 70
     0
 62
     7
  6
CONTINUOUS
  0
LAYER
  5
124
100
AcDbSymbolTableRecord
100
AcDbLayerTableRecord
  2
A0
 70
     0
 62
     9
  6
CONTINUOUS
  0
LAYER
  5
125
100
AcDbSymbolTableRecord
100
AcDbLayerTableRecord
  2
A1
 70
     0
 62
    12
  6
CONTINUOUS
  0
LAYER
  5
126
100
AcDbSymbolTableRecord
100
AcDbLayerTableRecord
  2
A2
 70
     0
 62
    13
  6
CONTINUOUS
  0
LAYER
  5
127
100
AcDbSymbolTableRecord
100
AcDbLayerTableRecord
  2
A3
 70
     0
 62
    12
  6
CONTINUOUS
  0
LAYER
  5
128
100
AcDbSymbolTableRecord
100
AcDbLayerTableRecord
  2
A4
 70
     0
 62
     9
  6
CONTINUOUS
  0
LAYER
  5
129
100
AcDbSymbolTableRecord
100
AcDbLayerTableRecord
  2
A5
 70
     0
 62
     8
  6
CONTINUOUS
  0
LAYER
  5
12A
100
AcDbSymbolTableRecord
100
AcDbLayerTableRecord
  2
A6
 70
     0
 62
    12
  6
CONTINUOUS
  0
LAYER
  5
12B
100
AcDbSymbolTableRecord
100
AcDbLayerTableRecord
  2
A7
 70
     0
 62
    10
  6
CONTINUOUS
  0
LAYER
  5
12C
100
AcDbSymbolTableRecord
100
AcDbLayerTableRecord
  2
A8
 70
     0
 62
    10
  6
CONTINUOUS
  0
LAYER
  5
12D
100
AcDbSymbolTableRecord
100
AcDbLayerTableRecord
  2
A9
 70
     0
 62
     9
  6
CONTINUOUS
  0
LAYER
  5
12E
100
AcDbSymbolTableRecord
100
AcDbLayerTableRecord
  2
A10
 70
     0
 62
     6
  6
CONTINUOUS
  0
LAYER
  5
12F
100
AcDbSymbolTableRecord
100
AcDbLayerTableRecord
  2
A20
 70
     0
 62
     1
  6
CONTINUOUS
  0
LAYER
  5
130
100
AcDbSymbolTableRecord
100
AcDbLayerTableRecord
  2
A30
 70
     0
 62
     1
  6
CONTINUOUS
  0
LAYER
  5
131
100
AcDbSymbolTableRecord
100
AcDbLayerTableRecord
  2
A40
 70
     0
 62
     9
  6
CONTINUOUS
  0
LAYER
  5
132
100
AcDbSymbolTableRecord
100
AcDbLayerTableRecord
  2
A50
 70
     0
 62
    12
  6
CONTINUOUS
  0
LAYER
  5
133
100
AcDbSymbolTableRecord
100
AcDbLayerTableRecord
  2
A1023
 70
     0
 62
    16
  6
CONTINUOUS
  0
ENDTAB
  0
TABLE
  2
STYLE
  5
134
100
AcDbSymbolTable
 70
     4
  0
STYLE
  5
135
100
AcDbSymbolTableRecord
100
AcDbTextStyleTableRecord
  2
STANDARD
 70
    64
 40
0.0
 41
1.0
 50
0.0
 71
     0
 42
3.000000000000000
  3
TXT
  4

  0
STYLE
  5
136
100
AcDbSymbolTableRecord
100
AcDbTextStyleTableRecord
  2
ANKTATE
 70
    68
 40
0.0
 41
1.0
 50
0.0
 71
     0
 42
3.000000000000000
  3
TXT
  4

  0
STYLE
  5
137
100
AcDbSymbolTableRecord
100
AcDbTextStyleTableRecord
  2
KNJYOKO
 70
    64
 40
0.0
 41
1.0
 50
0.0
 71
     0
 42
3.000000000000000
  3
TXT
  4
BIGFONT
  0
STYLE
  5
138
100
AcDbSymbolTableRecord
100
AcDbTextStyleTableRecord
  2
KNJTATE
 70
    68
 40
0.0
 41
1.0
 50
0.0
 71
     0
 42
3.000000000000000
  3
TXT
  4
BIGFONT
  0
ENDTAB
  0
TABLE
  2
VIEW
  5
139
100
AcDbSymbolTable
 70
     0
  0
ENDTAB
  0
TABLE
  2
UCS
  5
13A
100
AcDbSymbolTable
 70
     0
  0
ENDTAB
  0
TABLE
  2
APPID
  5
13B
100
AcDbSymbolTable
 70
     1
  0
APPID
  5
13C
100
AcDbSymbolTableRecord
100
AcDbRegAppTableRecord
  2
ACAD
 70
     0
  0
ENDTAB
  0
TABLE
  2
DIMSTYLE
  5
13D
100
AcDbSymbolTable
 70
     2
  0
DIMSTYLE
105
13E
100
AcDbSymbolTableRecord
100
AcDbDimStyleTableRecord
  2
STANDARD
 70
     0
 41
2.000000
 44
1.500000
 42
0.800000
145
0.661290
140
3.100000
144
1.000000
146
0.645161
340
135
  0
DIMSTYLE
105
13F
100
AcDbSymbolTableRecord
100
AcDbDimStyleTableRecord
  2
A001
 70
     0
 41
2.000000
 44
1.500000
 42
0.800000
145
0.661290
140
3.100000
144
1.000000
146
0.645161
 77
     1
 73
     0
 74
     0
271
     2
275
     0
 78
     8
172
     1
340
135
  0
ENDTAB
  0
TABLE
  2
BLOCK_RECORD
  5
140
100
AcDbSymbolTable
 70
    12
  0
BLOCK_RECORD
  5
141
100
AcDbSymbolTableRecord
100
AcDbBlockTableRecord
  2
*MODEL_SPACE
  0
BLOCK_RECORD
  5
142
100
AcDbSymbolTableRecord
100
AcDbBlockTableRecord
  2
*PAPER_SPACE
  0
BLOCK_RECORD
  5
1
100
AcDbSymbolTableRecord
100
AcDbBlockTableRecord
  2
_NONE
  0
BLOCK_RECORD
  5
4
100
AcDbSymbolTableRecord
100
AcDbBlockTableRecord
  2
_CLOSED
  0
BLOCK_RECORD
  5
B
100
AcDbSymbolTableRecord
100
AcDbBlockTableRecord
  2
_DOT
  0
BLOCK_RECORD
  5
13
100
AcDbSymbolTableRecord
100
AcDbBlockTableRecord
  2
_OPEN
  0
BLOCK_RECORD
  5
19
100
AcDbSymbolTableRecord
100
AcDbBlockTableRecord
  2
_ORIGIN
  0
BLOCK_RECORD
  5
1E
100
AcDbSymbolTableRecord
100
AcDbBlockTableRecord
  2
_OPEN30
  0
BLOCK_RECORD
  5
24
100
AcDbSymbolTableRecord
100
AcDbBlockTableRecord
  2
_BOXFILLED
  0
BLOCK_RECORD
  5
29
100
AcDbSymbolTableRecord
100
AcDbBlockTableRecord
  2
_BOXBLANK
  0
BLOCK_RECORD
  5
31
100
AcDbSymbolTableRecord
100
AcDbBlockTableRecord
  2
_OBLIQUE
  0
BLOCK_RECORD
  5
35
100
AcDbSymbolTableRecord
100
AcDbBlockTableRecord
  2
_OPEN90
  0
BLOCK_RECORD
  5
3B
100
AcDbSymbolTableRecord
100
AcDbBlockTableRecord
  2
_CLOSEDBLANK
  0
BLOCK_RECORD
  5
41
100
AcDbSymbolTableRecord
100
AcDbBlockTableRecord
  2
_DOTBLANK
  0
ENDTAB
  0
ENDSEC
  0
SECTION
  2
BLOCKS
  0
BLOCK
  5
143
100
AcDbEntity
  8
0
100
AcDbBlockBegin
  2
*MODEL_SPACE
 70
     0
 10
0.0
 20
0.0
 30
0.0
  3
*MODEL_SPACE
  1

  0
ENDBLK
  5
144
100
AcDbEntity
  8
0
100
AcDbBlockEnd
  0
BLOCK
  5
145
100
AcDbEntity
  8
0
100
AcDbBlockBegin
  2
*PAPER_SPACE
 70
     0
 10
0.0
 20
0.0
 30
0.0
  3
*PAPER_SPACE
  1

  0
ENDBLK
  5
146
100
AcDbEntity
  8
0
100
AcDbBlockEnd
  0
BLOCK
  5
2
100
AcDbEntity
  8
0
100
AcDbBlockBegin
  2
_NONE
 70
     0
 10
0.0
 20
0.0
 30
0.0
  3
_NONE
  1

  0
ENDBLK
  5
3
100
AcDbEntity
  8
0
100
AcDbBlockEnd
  0
BLOCK
  5
5
100
AcDbEntity
  8
0
100
AcDbBlockBegin
  2
_CLOSED
 70
     0
 10
0.0
 20
0.0
 30
0.0
  3
_CLOSED
  1

  0
LINE
  5
6
100
AcDbEntity
  8
0
  6
BYBLOCK
 62
     0
100
AcDbLine
 10
-1.0
 20
0.166667
 30
0.0
 11
0.0
 21
0.0
 31
0.0
  0
LINE
  5
7
100
AcDbEntity
  8
0
  6
BYBLOCK
 62
     0
100
AcDbLine
 10
0.0
 20
0.0
 30
0.0
 11
-1.0
 21
-0.166667
 31
0.0
  0
LINE
  5
8
100
AcDbEntity
  8
0
  6
BYBLOCK
 62
     0
100
AcDbLine
 10
-1.0
 20
0.166667
 30
0.0
 11
-1.0
 21
-0.166667
 31
0.0
  0
LINE
  5
9
100
AcDbEntity
  8
0
  6
BYBLOCK
 62
     0
100
AcDbLine
 10
0.0
 20
0.0
 30
0.0
 11
-1.0
 21
0.0
 31
0.0
  0
ENDBLK
  5
A
100
AcDbEntity
  8
0
100
AcDbBlockEnd
  0
BLOCK
  5
C
100
AcDbEntity
  8
0
100
AcDbBlockBegin
  2
_DOT
 70
     0
 10
0.0
 20
0.0
 30
0.0
  3
_DOT
  1

  0
POLYLINE
  5
D
100
AcDbEntity
  8
0
  6
BYBLOCK
 62
     0
100
AcDb2dPolyline
 66
     1
 10
0.0
 20
0.0
 30
0.0
 70
     1
 40
0.5
 41
0.5
  0
VERTEX
  5
E
100
AcDbEntity
  8
0
  6
BYBLOCK
 62
     0
100
AcDbVertex
100
AcDb2dVertex
 10
-0.25
 20
0.0
 30
0.0
 42
1.0
  0
VERTEX
  5
F
100
AcDbEntity
  8
0
  6
BYBLOCK
 62
     0
100
AcDbVertex
100
AcDb2dVertex
 10
0.25
 20
0.0
 30
0.0
 42
1.0
  0
SEQEND
  5
10
100
AcDbEntity
  8
0
  6
BYBLOCK
 62
     0
  0
LINE
  5
11
100
AcDbEntity
  8
0
  6
BYBLOCK
 62
     0
100
AcDbLine
 10
-0.5
 20
0.0
 30
0.0
 11
-1.0
 21
0.0
 31
0.0
  0
ENDBLK
  5
12
100
AcDbEntity
  8
0
100
AcDbBlockEnd
  0
BLOCK
  5
14
100
AcDbEntity
  8
0
100
AcDbBlockBegin
  2
_OPEN
 70
     0
 10
0.0
 20
0.0
 30
0.0
  3
_OPEN
  1

  0
LINE
  5
15
100
AcDbEntity
  8
0
  6
BYBLOCK
 62
     0
100
AcDbLine
 10
-1.0
 20
0.166667
 30
0.0
 11
0.0
 21
0.0
 31
0.0
  0
LINE
  5
16
100
AcDbEntity
  8
0
  6
BYBLOCK
 62
     0
100
AcDbLine
 10
0.0
 20
0.0
 30
0.0
 11
-1.0
 21
-0.166667
 31
0.0
  0
LINE
  5
17
100
AcDbEntity
  8
0
  6
BYBLOCK
 62
     0
100
AcDbLine
 10
0.0
 20
0.0
 30
0.0
 11
-1.0
 21
0.0
 31
0.0
  0
ENDBLK
  5
18
100
AcDbEntity
  8
0
100
AcDbBlockEnd
  0
BLOCK
  5
1A
100
AcDbEntity
  8
0
100
AcDbBlockBegin
  2
_ORIGIN
 70
     0
 10
0.0
 20
0.0
 30
0.0
  3
_ORIGIN
  1

  0
CIRCLE
  5
1B
100
AcDbEntity
  8
0
  6
BYBLOCK
 62
     0
100
AcDbCircle
 10
0.0
 20
0.0
 30
0.0
 40
0.5
  0
LINE
  5
1C
100
AcDbEntity
  8
0
  6
BYBLOCK
 62
     0
100
AcDbLine
 10
0.0
 20
0.0
 30
0.0
 11
-1.0
 21
0.0
 31
0.0
  0
ENDBLK
  5
1D
100
AcDbEntity
  8
0
100
AcDbBlockEnd
  0
BLOCK
  5
1F
100
AcDbEntity
  8
0
100
AcDbBlockBegin
  2
_OPEN30
 70
     0
 10
0.0
 20
0.0
 30
0.0
  3
_OPEN30
  1

  0
LINE
  5
20
100
AcDbEntity
  8
0
  6
BYBLOCK
 62
     0
100
AcDbLine
 10
-1.0
 20
0.267949
 30
0.0
 11
0.0
 21
0.0
 31
0.0
  0
LINE
  5
21
100
AcDbEntity
  8
0
  6
BYBLOCK
 62
     0
100
AcDbLine
 10
0.0
 20
0.0
 30
0.0
 11
-1.0
 21
-0.267949
 31
0.0
  0
LINE
  5
22
100
AcDbEntity
  8
0
  6
BYBLOCK
 62
     0
100
AcDbLine
 10
0.0
 20
0.0
 30
0.0
 11
-1.0
 21
0.0
 31
0.0
  0
ENDBLK
  5
23
100
AcDbEntity
  8
0
100
AcDbBlockEnd
  0
BLOCK
  5
25
100
AcDbEntity
  8
0
100
AcDbBlockBegin
  2
_BOXFILLED
 70
     0
 10
0.0
 20
0.0
 30
0.0
  3
_BOXFILLED
  1

  0
SOLID
  5
26
100
AcDbEntity
  8
0
  6
BYBLOCK
 62
     0
100
AcDbTrace
 10
-0.5
 20
0.5
 30
0.0
 11
0.5
 21
0.5
 31
0.0
 12
-0.5
 22
-0.5
 32
0.0
 13
0.5
 23
-0.5
 33
0.0
  0
LINE
  5
27
100
AcDbEntity
  8
0
  6
BYBLOCK
 62
     0
100
AcDbLine
 10
-0.5
 20
0.0
 30
0.0
 11
-1.0
 21
0.0
 31
0.0
  0
ENDBLK
  5
28
100
AcDbEntity
  8
0
100
AcDbBlockEnd
  0
BLOCK
  5
2A
100
AcDbEntity
  8
0
100
AcDbBlockBegin
  2
_BOXBLANK
 70
     0
 10
0.0
 20
0.0
 30
0.0
  3
_BOXBLANK
  1

  0
LINE
  5
2B
100
AcDbEntity
  8
0
  6
BYBLOCK
 62
     0
100
AcDbLine
 10
-0.5
 20
-0.5
 30
0.0
 11
0.5
 21
-0.5
 31
0.0
  0
LINE
  5
2C
100
AcDbEntity
  8
0
  6
BYBLOCK
 62
     0
100
AcDbLine
 10
0.5
 20
-0.5
 30
0.0
 11
0.5
 21
0.5
 31
0.0
  0
LINE
  5
2D
100
AcDbEntity
  8
0
  6
BYBLOCK
 62
     0
100
AcDbLine
 10
0.5
 20
0.5
 30
0.0
 11
-0.5
 21
0.5
 31
0.0
  0
LINE
  5
2E
100
AcDbEntity
  8
0
  6
BYBLOCK
 62
     0
100
AcDbLine
 10
-0.5
 20
0.5
 30
0.0
 11
-0.5
 21
-0.5
 31
0.0
  0
LINE
  5
2F
100
AcDbEntity
  8
0
  6
BYBLOCK
 62
     0
100
AcDbLine
 10
-0.5
 20
0.0
 30
0.0
 11
-1.0
 21
0.0
 31
0.0
  0
ENDBLK
  5
30
100
AcDbEntity
  8
0
100
AcDbBlockEnd
  0
BLOCK
  5
32
100
AcDbEntity
  8
0
100
AcDbBlockBegin
  2
_OBLIQUE
 70
     0
 10
0.0
 20
0.0
 30
0.0
  3
_OBLIQUE
  1

  0
LINE
  5
33
100
AcDbEntity
  8
0
  6
BYBLOCK
 62
     0
100
AcDbLine
 10
-0.5
 20
-0.5
 30
0.0
 11
0.5
 21
0.5
 31
0.0
  0
ENDBLK
  5
34
100
AcDbEntity
  8
0
100
AcDbBlockEnd
  0
BLOCK
  5
36
100
AcDbEntity
  8
0
100
AcDbBlockBegin
  2
_OPEN90
 70
     0
 10
0.0
 20
0.0
 30
0.0
  3
_OPEN90
  1

  0
LINE
  5
37
100
AcDbEntity
  8
0
  6
BYBLOCK
 62
     0
100
AcDbLine
 10
-0.5
 20
0.5
 30
0.0
 11
0.0
 21
0.0
 31
0.0
  0
LINE
  5
38
100
AcDbEntity
  8
0
  6
BYBLOCK
 62
     0
100
AcDbLine
 10
0.0
 20
0.0
 30
0.0
 11
-0.5
 21
-0.5
 31
0.0
  0
LINE
  5
39
100
AcDbEntity
  8
0
  6
BYBLOCK
 62
     0
100
AcDbLine
 10
0.0
 20
0.0
 30
0.0
 11
-1.0
 21
0.0
 31
0.0
  0
ENDBLK
  5
3A
100
AcDbEntity
  8
0
100
AcDbBlockEnd
  0
BLOCK
  5
3C
100
AcDbEntity
  8
0
100
AcDbBlockBegin
  2
_CLOSEDBLANK
 70
     0
 10
0.0
 20
0.0
 30
0.0
  3
_CLOSEDBLANK
  1

  0
LINE
  5
3D
100
AcDbEntity
  8
0
  6
BYBLOCK
 62
     0
100
AcDbLine
 10
-1.0
 20
0.1666666666666666
 30
0.0
 11
0.0
 21
0.0
 31
0.0
  0
LINE
  5
3E
100
AcDbEntity
  8
0
  6
BYBLOCK
 62
     0
100
AcDbLine
 10
0.0
 20
0.0
 30
0.0
 11
-1.0
 21
-0.1666666666666666
 31
0.0
  0
LINE
  5
3F
100
AcDbEntity
  8
0
  6
BYBLOCK
 62
     0
100
AcDbLine
 10
-1.0
 20
0.1666666666666666
 30
0.0
 11
-1.0
 21
-0.1666666666666666
 31
0.0
  0
ENDBLK
  5
40
100
AcDbEntity
  8
0
100
AcDbBlockEnd
  0
BLOCK
  5
42
100
AcDbEntity
  8
0
100
AcDbBlockBegin
  2
_DOTBLANK
 70
     0
 10
0.0
 20
0.0
 30
0.0
  3
_DOTBLANK
  1

  0
CIRCLE
  5
43
100
AcDbEntity
  8
0
  6
BYBLOCK
 62
     0
100
AcDbCircle
 10
0.0
 20
0.0
 30
0.0
 40
0.5
  0
LINE
  5
44
100
AcDbEntity
  8
0
  6
BYBLOCK
 62
     0
100
AcDbLine
 10
-0.5
 20
0.0
 30
0.0
 11
-1.0
 21
0.0
 31
0.0
  0
ENDBLK
  5
45
100
AcDbEntity
  8
0
100
AcDbBlockEnd
  0
ENDSEC
  0
SECTION
  2
ENTITIES
  0
MTEXT
  5
46
100
AcDbEntity
  8
A7
  6
CONTINUOUS
 62
3
100
AcDbMText
 10
9.999997526638502
 20
18.00000076076889
 30
0.000000000000000
 40
3.000000000000000
 41
0.000000000000000
 71
     7
 72
     1
  1
{\H0.93x;{TYPE No.TM-179-1}}
 11
1.000000000000000
 21
0.000000000000000
 31
0.000000000000000
  7
STANDARD
  0
LINE
  5
47
100
AcDbEntity
  8
A1
  6
CONTINUOUS
 62
7
100
AcDbLine
 10
35.25957522656280
 20
113.9526557776948
 30
0.000000000000000
 11
35.25957522656280
 21
108.7764080880569
 31
0.000000000000000
  0
LINE
  5
48
100
AcDbEntity
  8
A1
  6
CONTINUOUS
 62
7
100
AcDbLine
 10
36.08497205195962
 20
107.9510112626601
 30
0.000000000000000
 11
52.59290855989613
 21
107.9510112626601
 31
0.000000000000000
  0
LINE
  5
49
100
AcDbEntity
  8
A1
  6
CONTINUOUS
 62
7
100
AcDbLine
 10
35.25957522656279
 20
110.9525985642474
 30
0.000000000000000
 11
53.41830538529297
 21
110.9525985642474
 31
0.000000000000000
  0
LINE
  5
4A
100
AcDbEntity
  8
A1
  6
CONTINUOUS
 62
7
100
AcDbLine
 10
53.41830538529295
 20
108.7764080880568
 30
0.000000000000000
 11
53.41830538529295
 21
113.9526557776948
 31
0.000000000000000
  0
LINE
  5
4B
100
AcDbEntity
  8
A1
  6
CONTINUOUS
 62
7
100
AcDbLine
 10
42.56356426304698
 20
144.0521603024839
 30
0.000000000000000
 11
46.11431634881076
 21
144.0521603024839
 31
0.000000000000000
  0
ARC
  5
4C
100
AcDbEntity
  8
A1
  6
CONTINUOUS
 62
7
100
AcDbCircle
 10
44.33894030592785
 20
114.7780526030915
 30
0.000000000000000
 40
7.428571428571425
100
AcDbArc
 50
173.6206297915572
 51
186.3793702084428
  0
ARC
  5
4D
100
AcDbEntity
  8
A1
  6
CONTINUOUS
 62
7
100
AcDbCircle
 10
44.33894030592785
 20
114.7780526030915
 30
0.000000000000000
 40
7.428571428571425
100
AcDbArc
 50
353.6206297915572
 51
366.3793702084428
  0
LINE
  5
4E
100
AcDbEntity
  8
A1
  6
CONTINUOUS
 62
7
100
AcDbLine
 10
48.13672390571953
 20
115.6034494284882
 30
0.000000000000000
 11
51.72151394592706
 21
115.6034494284882
 31
0.000000000000000
  0
LINE
  5
4F
100
AcDbEntity
  8
A1
  6
CONTINUOUS
 62
7
100
AcDbLine
 10
36.95636666592854
 20
115.6034494284884
 30
0.000000000000000
 11
40.54115670613835
 21
115.6034494284884
 31
0.000000000000000
  0
LINE
  5
50
100
AcDbEntity
  8
A1
  6
CONTINUOUS
 62
7
100
AcDbLine
 10
48.20821209392967
 20
113.9526557776948
 30
0.000000000000000
 11
53.41830538529295
 21
113.9526557776948
 31
0.000000000000000
  0
LINE
  5
51
100
AcDbEntity
  8
A1
  6
CONTINUOUS
 62
7
100
AcDbLine
 10
35.25957522656280
 20
113.9526557776948
 30
0.000000000000000
 11
40.46966851792821
 21
113.9526557776948
 31
0.000000000000000
  0
ARC
  5
52
100
AcDbEntity
  8
A1
  6
CONTINUOUS
 62
7
100
AcDbCircle
 10
42.56356426304698
 20
143.2267634770872
 30
0.000000000000000
 40
0.8253968253968250
100
AcDbArc
 50
90.00000000000000
 51
177.5889702533900
  0
ARC
  5
53
100
AcDbEntity
  8
A1
  6
CONTINUOUS
 62
7
100
AcDbCircle
 10
46.11431634881076
 20
143.2267634770871
 30
0.000000000000000
 40
0.8253968253968250
100
AcDbArc
 50
2.411029746609894
 51
90.00000000000000
  0
ARC
  5
54
100
AcDbEntity
  8
A1
  6
CONTINUOUS
 62
7
100
AcDbCircle
 10
36.08497205195961
 20
108.7764080880569
 30
0.000000000000000
 40
0.8253968253968250
100
AcDbArc
 50
180.0000000000000
 51
270.0000000000000
  0
ARC
  5
55
100
AcDbEntity
  8
A1
  6
CONTINUOUS
 62
7
100
AcDbCircle
 10
52.59290855989610
 20
108.7764080880568
 30
0.000000000000000
 40
0.8253968253968250
100
AcDbArc
 50
270.0000000000000
 51
360.0000000000000
  0
LINE
  5
56
100
AcDbEntity
  8
A1
  6
CONTINUOUS
 62
7
100
AcDbLine
 10
38.31354348053102
 20
104.7632714135951
 30
0.000000000000000
 11
50.36433713132469
 21
104.7632714135951
 31
0.000000000000000
  0
LINE
  5
57
100
AcDbEntity
  8
A1
  6
CONTINUOUS
 62
7
100
AcDbLine
 10
38.31354348053081
 20
104.7632714135951
 30
0.000000000000000
 11
38.31354348052807
 21
93.30724163411058
 31
0.000000000000000
  0
LINE
  5
58
100
AcDbEntity
  8
A1
  6
CONTINUOUS
 62
7
100
AcDbLine
 10
50.36433713132455
 20
104.7632714135951
 30
0.000000000000000
 11
50.36433713132720
 21
93.30724163411088
 31
0.000000000000000
  0
LINE
  5
59
100
AcDbEntity
  8
A1
  6
CONTINUOUS
 62
7
100
AcDbLine
 10
35.50719427418055
 20
99.72835077867450
 30
0.000000000000000
 11
35.50719427417972
 21
96.26168411200780
 31
0.000000000000000
  0
LINE
  5
5A
100
AcDbEntity
  8
A1
  6
CONTINUOUS
 62
7
100
AcDbLine
 10
37.48814665513337
 20
101.4370310708123
 30
0.000000000000000
 11
37.48814665513174
 21
94.55300381986862
 31
0.000000000000000
  0
ARC
  5
5B
100
AcDbEntity
  8
A1
  6
CONTINUOUS
 62
7
100
AcDbCircle
 10
37.90084506783128
 20
97.99501744534035
 30
0.000000000000000
 40
3.466666666666665
100
AcDbArc
 50
83.16285883185685
 51
96.83714116812830
  0
ARC
  5
5C
100
AcDbEntity
  8
A1
  6
CONTINUOUS
 62
7
100
AcDbCircle
 10
37.90084506783128
 20
97.99501744534035
 30
0.000000000000000
 40
3.466666666666665
100
AcDbArc
 50
263.1628588318443
 51
276.8371411681159
  0
ARC
  5
5D
100
AcDbEntity
  8
A1
  6
CONTINUOUS
 62
7
100
AcDbCircle
 10
38.72968104666711
 20
97.99501744534018
 30
0.000000000000000
 40
3.659079862929589
100
AcDbArc
 50
109.8343750916045
 51
151.7247754854991
  0
ARC
  5
5E
100
AcDbEntity
  8
A1
  6
CONTINUOUS
 62
7
100
AcDbCircle
 10
38.72968104666711
 20
97.99501744534018
 30
0.000000000000000
 40
3.659079862929589
100
AcDbArc
 50
208.2752245144736
 51
250.1656249083682
  0
ARC
  5
5F
100
AcDbEntity
  8
A1
  6
CONTINUOUS
 62
7
100
AcDbCircle
 10
135.1953930319554
 20
76.34414097881219
 30
0.000000000000000
 40
98.33856278292932
100
AcDbArc
 50
170.1834864688138
 51
186.0558584368291
  0
ARC
  5
60
100
AcDbEntity
  8
A1
  6
CONTINUOUS
 62
7
100
AcDbCircle
 10
37.15798792497266
 20
93.30724163411091
 30
0.000000000000000
 40
1.155555555555555
100
AcDbArc
 50
350.1834864688138
 51
360.0000000000000
  0
ARC
  5
61
100
AcDbEntity
  8
A1
  6
CONTINUOUS
 62
7
100
AcDbCircle
 10
-46.51751242009962
 20
76.34414097881219
 30
0.000000000000000
 40
98.33856278292932
100
AcDbArc
 50
353.9441415631709
 51
369.8165135311862
  0
ARC
  5
62
100
AcDbEntity
  8
A1
  6
CONTINUOUS
 62
7
100
AcDbCircle
 10
51.51989268688311
 20
93.30724163411091
 30
0.000000000000000
 40
1.155555555555555
100
AcDbArc
 50
180.0000000000000
 51
189.8165135311862
  0
LINE
  5
63
100
AcDbEntity
  8
A1
  6
CONTINUOUS
 62
7
100
AcDbLine
 10
37.73576570275322
 20
63.49343014375391
 30
0.000000000000000
 11
37.73576570275318
 21
56.89025554057790
 31
0.000000000000000
  0
LINE
  5
64
100
AcDbEntity
  8
A1
  6
CONTINUOUS
 62
7
100
AcDbLine
 10
50.94211490910242
 20
63.49343014375395
 30
0.000000000000000
 11
50.94211490910232
 21
56.89025554057785
 31
0.000000000000000
  0
LINE
  5
65
100
AcDbEntity
  8
A1
  6
CONTINUOUS
 62
7
100
AcDbLine
 10
38.89132125830890
 20
63.49343014375388
 30
0.000000000000000
 11
38.89132125830886
 21
56.89025554057796
 31
0.000000000000000
  0
LINE
  5
66
100
AcDbEntity
  8
A1
  6
CONTINUOUS
 62
7
100
AcDbLine
 10
49.78655935354688
 20
63.49343014375388
 30
0.000000000000000
 11
49.78655935354679
 21
56.89025554057790
 31
0.000000000000000
  0
LINE
  5
67
100
AcDbEntity
  8
A1
  6
CONTINUOUS
 62
7
100
AcDbLine
 10
48.30084506783254
 20
56.89025554057926
 30
0.000000000000000
 11
50.94211490910241
 21
56.89025554057926
 31
0.000000000000000
  0
LINE
  5
68
100
AcDbEntity
  8
A1
  6
CONTINUOUS
 62
7
100
AcDbLine
 10
37.73576570275321
 20
56.89025554057926
 30
0.000000000000000
 11
40.37703554402309
 21
56.89025554057926
 31
0.000000000000000
  0
ARC
  5
69
100
AcDbEntity
  8
A1
  6
CONTINUOUS
 62
7
100
AcDbCircle
 10
44.33894030592788
 20
84.41604365483661
 30
0.000000000000000
 40
8.791672203202983
100
AcDbArc
 50
54.31459240566181
 51
125.6854075943382
  0
ARC
  5
6A
100
AcDbEntity
  8
A1
  6
CONTINUOUS
 62
7
100
AcDbCircle
 10
44.33894030592779
 20
93.04408161228943
 30
0.000000000000000
 40
12.21731813520226
100
AcDbArc
 50
239.8691025806063
 51
300.1308974193937
  0
ARC
  5
6B
100
AcDbEntity
  8
A1
  6
CONTINUOUS
 62
7
100
AcDbCircle
 10
44.33894030592779
 20
44.17914442946808
 30
0.000000000000000
 40
4.126984126984125
100
AcDbArc
 50
211.9968830482438
 51
328.0031169517571
  0
ELLIPSE
  5
6C
100
AcDbEntity
  8
A1
  6
CONTINUOUS
 62
7
100
AcDbEllipse
 10
44.33894030592779
 20
62.21406506438882
 30
0.000000000000000
 11
-4.126984126984125
 21
0.000000000000000
 31
0.000000000000000
210
0.000000000000000
220
0.000000000000000
230
1.000000000000000
 40
0.1900000000000000
 41
3.700043613157023
 42
5.724734347612177
  0
ELLIPSE
  5
6D
100
AcDbEntity
  8
A1
  6
CONTINUOUS
 62
7
100
AcDbEllipse
 10
44.33894030592779
 20
62.21406506438882
 30
0.000000000000000
 11
-4.126984126984125
 21
0.000000000000000
 31
0.000000000000000
210
0.000000000000000
220
0.000000000000000
230
1.000000000000000
 40
0.1900000000000000
 41
0.5584509595675426
 42
2.583141694022550
  0
ARC
  5
6E
100
AcDbEntity
  8
A1
  6
CONTINUOUS
 62
7
100
AcDbCircle
 10
28.28497205195941
 20
63.49343014375387
 30
0.000000000000000
 40
9.450793650793825
100
AcDbArc
 50
0.000000000000000
 51
15.18928673718275
  0
ARC
  5
6F
100
AcDbEntity
  8
A1
  6
CONTINUOUS
 62
7
100
AcDbCircle
 10
36.08497205195964
 20
63.49343014375387
 30
0.000000000000000
 40
2.806349206349140
100
AcDbArc
 50
0.000000000000000
 51
61.92751306414806
  0
ARC
  5
70
100
AcDbEntity
  8
A1
  6
CONTINUOUS
 62
7
100
AcDbCircle
 10
52.59290855989595
 20
63.49343014375387
 30
0.000000000000000
 40
2.806349206349140
100
AcDbArc
 50
118.0724869358520
 51
180.0000000000000
  0
ARC
  5
71
100
AcDbEntity
  8
A1
  6
CONTINUOUS
 62
7
100
AcDbCircle
 10
60.39290855989626
 20
63.49343014375387
 30
0.000000000000000
 40
9.450793650793825
100
AcDbArc
 50
164.8107132628172
 51
180.0000000000000
  0
LINE
  5
72
100
AcDbEntity
  8
A4
  6
CENTER
 62
1
100
AcDbLine
 10
55.31671808370719
 20
97.99501744534027
 30
0.000000000000000
 11
32.59441070754705
 21
97.99501744534007
 31
0.000000000000000
  0
LINE
  5
73
100
AcDbEntity
  8
A4
  6
CENTER
 62
1
100
AcDbLine
 10
35.25957522656275
 20
57.79819204851570
 30
0.000000000000000
 11
53.41830538529288
 21
57.79819204851570
 31
0.000000000000000
  0
LINE
  5
74
100
AcDbEntity
  8
A1
  6
CONTINUOUS
 62
7
100
AcDbLine
 10
137.5534438899510
 20
110.9525985642463
 30
0.000000000000000
 11
116.0056511328366
 21
110.9525985642467
 31
0.000000000000000
  0
LINE
  5
75
100
AcDbEntity
  8
A1
  6
CONTINUOUS
 62
7
100
AcDbLine
 10
137.5534761541921
 20
107.9510112626590
 30
0.000000000000000
 11
118.2994371174170
 21
107.9510112626594
 31
0.000000000000000
  0
LINE
  5
76
100
AcDbEntity
  8
A1
  6
CONTINUOUS
 62
7
100
AcDbLine
 10
117.4740402920202
 20
108.7764080880561
 30
0.000000000000000
 11
117.4740402920203
 21
110.9525985642466
 31
0.000000000000000
  0
LINE
  5
77
100
AcDbEntity
  8
A1
  6
CONTINUOUS
 62
7
100
AcDbLine
 10
135.6327704507505
 20
111.7779953896431
 30
0.000000000000000
 11
135.6327704507505
 21
113.9526557776936
 31
0.000000000000000
  0
ARC
  5
78
100
AcDbEntity
  8
A1
  6
CONTINUOUS
 62
7
100
AcDbCircle
 10
116.0056511328367
 20
115.9049795166277
 30
0.000000000000000
 40
4.952380952380950
100
AcDbArc
 50
179.4879082690292
 51
269.9999999999989
  0
LINE
  5
79
100
AcDbEntity
  8
A1
  6
CONTINUOUS
 62
7
100
AcDbLine
 10
133.9359790113847
 20
115.6034494284873
 30
0.000000000000000
 11
119.1708317313863
 21
115.6034494284876
 31
0.000000000000000
  0
ARC
  5
7A
100
AcDbEntity
  8
A1
  6
CONTINUOUS
 62
7
100
AcDbCircle
 10
126.5534053713855
 20
114.7780526030906
 30
0.000000000000000
 40
7.428571428571425
100
AcDbArc
 50
353.6206297915560
 51
366.3793702084416
  0
ARC
  5
7B
100
AcDbEntity
  8
A1
  6
CONTINUOUS
 62
7
100
AcDbCircle
 10
126.5534053713855
 20
114.7780526030906
 30
0.000000000000000
 40
7.428571428571425
100
AcDbArc
 50
173.6206297915561
 51
186.3793702084417
  0
ARC
  5
7C
100
AcDbEntity
  8
A1
  6
CONTINUOUS
 62
7
100
AcDbCircle
 10
118.2994371174171
 20
108.7764080880561
 30
0.000000000000000
 40
0.8253968253968250
100
AcDbArc
 50
179.9999999999989
 51
269.9999999999989
  0
ARC
  5
7D
100
AcDbEntity
  8
A1
  6
CONTINUOUS
 62
7
100
AcDbCircle
 10
134.8073736253537
 20
111.7779953896431
 30
0.000000000000000
 40
0.8253968253968250
100
AcDbArc
 50
269.9999999999989
 51
359.9999999999989
  0
LINE
  5
7E
100
AcDbEntity
  8
A4
  6
CENTER
 62
1
100
AcDbLine
 10
126.5534053713862
 20
151.1218590933441
 30
0.000000000000000
 11
126.5534053713851
 21
92.05216030248229
 31
0.000000000000000
  0
LINE
  5
7F
100
AcDbEntity
  8
A4
  6
CENTER
 62
1
100
AcDbLine
 10
132.4962625142423
 20
97.99501744533939
 30
0.000000000000000
 11
120.6105482285280
 21
97.99501744533961
 31
0.000000000000000
  0
ARC
  5
80
100
AcDbEntity
  8
A1
  6
CONTINUOUS
 62
7
100
AcDbCircle
 10
126.5534053713851
 20
97.99501744533947
 30
0.000000000000000
 40
6.603174603174600
100
AcDbArc
 50
295.8981932192953
 51
449.9999999999989
  0
LINE
  5
81
100
AcDbEntity
  8
A1
  6
CONTINUOUS
 62
7
100
AcDbLine
 10
126.5534053713852
 20
104.5981920485140
 30
0.000000000000000
 11
110.5407069586868
 21
104.5981920485143
 31
0.000000000000000
  0
LINE
  5
82
100
AcDbEntity
  8
A1
  6
CONTINUOUS
 62
7
100
AcDbLine
 10
110.5407069586868
 20
104.5981920485143
 30
0.000000000000000
 11
112.0892239918601
 21
93.91342451959088
 31
0.000000000000000
  0
ARC
  5
83
100
AcDbEntity
  8
A1
  6
CONTINUOUS
 62
7
100
AcDbCircle
 10
115.9353529969232
 20
87.23931659921024
 30
0.000000000000000
 40
7.045439689035121
100
AcDbArc
 50
127.4761145232165
 51
229.2862864052355
  0
ARC
  5
84
100
AcDbEntity
  8
A1
  6
CONTINUOUS
 62
7
100
AcDbCircle
 10
107.5710267258145
 20
77.51959683824941
 30
0.000000000000000
 40
5.777777777777775
100
AcDbArc
 50
6.340191745914350
 51
49.28628640523555
  0
LINE
  5
85
100
AcDbEntity
  8
A1
  6
CONTINUOUS
 62
7
100
AcDbLine
 10
115.1290929088467
 20
61.81700421132141
 30
0.000000000000000
 11
113.3134660817065
 21
78.15764565557122
 31
0.000000000000000
  0
ARC
  5
86
100
AcDbEntity
  8
A1
  6
CONTINUOUS
 62
7
100
AcDbCircle
 10
110.9456161885708
 20
93.74768425824519
 30
0.000000000000000
 40
1.155555555555555
100
AcDbArc
 50
307.4761145232167
 51
368.2463208144474
  0
ARC
  5
87
100
AcDbEntity
  8
A1
  6
CONTINUOUS
 62
7
100
AcDbCircle
 10
105.8959803421823
 20
84.01452061888332
 30
0.000000000000000
 40
27.75583772761527
100
AcDbArc
 50
357.0109831964004
 51
381.0517272287697
  0
ARC
  5
88
100
AcDbEntity
  8
A1
  6
CONTINUOUS
 62
7
100
AcDbCircle
 10
141.8567967414431
 20
82.13680638877793
 30
0.000000000000000
 40
8.253968253968250
100
AcDbArc
 50
177.0109831964003
 51
191.6265250828658
  0
ARC
  5
89
100
AcDbEntity
  8
A1
  6
CONTINUOUS
 62
7
100
AcDbCircle
 10
137.0140208123377
 20
79.61388834447220
 30
0.000000000000000
 40
14.54606610249233
100
AcDbArc
 50
121.3487499652133
 51
179.0647650767995
  0
ARC
  5
8A
100
AcDbEntity
  8
A1
  6
CONTINUOUS
 62
7
100
AcDbCircle
 10
124.8982546273926
 20
83.60757056746411
 30
0.000000000000000
 40
0.4952380952380951
100
AcDbArc
 50
190.4999999999943
 51
370.5000000000050
  0
LINE
  5
8B
100
AcDbEntity
  8
A1
  6
CONTINUOUS
 62
7
100
AcDbLine
 10
124.4113093398371
 20
83.51732059293451
 30
0.000000000000000
 11
123.9494094440975
 21
86.00950941321345
 31
0.000000000000000
  0
ARC
  5
8C
100
AcDbEntity
  8
A1
  6
CONTINUOUS
 62
7
100
AcDbCircle
 10
123.8909103641129
 20
83.60757056746411
 30
0.000000000000000
 40
0.4952380952380951
100
AcDbArc
 50
190.5000000000051
 51
370.4999999999997
  0
LINE
  5
8D
100
AcDbEntity
  8
A1
  6
CONTINUOUS
 62
7
100
AcDbLine
 10
123.4039650765573
 20
83.51732059293475
 30
0.000000000000000
 11
123.2534701185217
 21
84.32931872366353
 31
0.000000000000000
  0
LINE
  5
8E
100
AcDbEntity
  8
A1
  6
CONTINUOUS
 62
7
100
AcDbLine
 10
125.3851999149479
 20
83.69782054199331
 30
0.000000000000000
 11
124.7054422788685
 21
87.36546454183384
 31
0.000000000000000
  0
LINE
  5
8F
100
AcDbEntity
  8
A5
  6
PHANTOM
 62
6
100
AcDbLine
 10
124.4031287443065
 20
104.2382718264335
 30
0.000000000000000
 11
109.2632368701536
 21
99.02385100576771
 31
0.000000000000000
  0
LINE
  5
90
100
AcDbEntity
  8
A5
  6
PHANTOM
 62
6
100
AcDbLine
 10
109.2632368701536
 20
99.02385100576765
 30
0.000000000000000
 11
114.2067668533042
 21
89.42574319980636
 31
0.000000000000000
  0
ARC
  5
91
100
AcDbEntity
  8
A5
  6
PHANTOM
 62
6
100
AcDbCircle
 10
120.0166298865283
 20
84.36788630269558
 30
0.000000000000000
 40
7.045439689035121
100
AcDbArc
 50
146.4806412032776
 51
248.2908130852966
  0
ARC
  5
92
100
AcDbEntity
  8
A5
  6
PHANTOM
 62
6
100
AcDbCircle
 10
115.2733764825988
 20
72.45417767157301
 30
0.000000000000000
 40
5.777777777777775
100
AcDbArc
 50
25.34471842597543
 51
68.29081308529663
  0
ARC
  5
93
100
AcDbEntity
  8
A5
  6
PHANTOM
 62
6
100
AcDbCircle
 10
126.7542029717069
 20
61.97404920024466
 30
0.000000000000000
 40
4.568988467205240
100
AcDbArc
 50
197.0351421360980
 51
293.9420181030832
  0
SPLINE
  5
94
100
AcDbEntity
  8
A5
  6
PHANTOM
 62
6
100
AcDbSpline
210
0.000000000000000
220
0.000000000000000
230
1.000000000000000
 70
     8
 71
     3
 72
     8
 73
     4
 74
     0
 42
1.000000000000000e-07
 43
1.000000000000000e-07
 12
-1.052850398801425
 22
-0.5251039927518022
 32
0.000000000000000
 13
-0.2197976299918025
 23
-0.8450643071379318
 33
0.000000000000000
 40
0.000000000000000
 40
0.000000000000000
 40
0.000000000000000
 40
0.000000000000000
 40
3.859642092454088
 40
3.859642092454088
 40
3.859642092454088
 40
3.859642092454088
 10
125.2179594631773
 20
65.02224212800274
 30
0.000000000000000
 10
123.8634175577536
 20
64.34667097022256
 30
0.000000000000000
 10
122.5088756523299
 20
63.67109981244226
 30
0.000000000000000
 10
122.2260955908172
 20
62.58388455555556
 30
0.000000000000000
  0
LINE
  5
95
100
AcDbEntity
  8
A5
  6
PHANTOM
 62
6
100
AcDbLine
 10
128.6083530901693
 20
57.79819204851400
 30
0.000000000000000
 11
125.1926408173964
 21
65.00961434825416
 31
0.000000000000000
  0
LINE
  5
96
100
AcDbEntity
  8
A5
  6
PHANTOM
 62
6
100
AcDbLine
 10
125.7443891267436
 20
63.84473576829075
 30
0.000000000000000
 11
120.4950358025629
 21
74.92743261104356
 31
0.000000000000000
  0
ARC
  5
97
100
AcDbEntity
  8
A5
  6
PHANTOM
 62
6
100
AcDbCircle
 10
121.6594194752955
 20
72.46912766248840
 30
0.000000000000000
 40
8.253968253968250
100
AcDbArc
 50
295.3447184259757
 51
372.6844146498399
  0
ARC
  5
98
100
AcDbEntity
  8
A5
  6
PHANTOM
 62
6
100
AcDbCircle
 10
113.1794659827895
 20
88.89662925799894
 30
0.000000000000000
 40
1.155555555555555
100
AcDbArc
 50
326.4806412032777
 51
387.2508474945085
  0
ARC
  5
99
100
AcDbEntity
  8
A5
  6
PHANTOM
 62
6
100
AcDbCircle
 10
142.4295258385281
 20
84.02221596034695
 30
0.000000000000000
 40
14.54606610249233
100
AcDbArc
 50
140.3532766452744
 51
196.2790766727205
  0
LINE
  5
9A
100
AcDbEntity
  8
A4
  6
CENTER
 62
1
100
AcDbLine
 10
44.33894030592776
 20
37.57596982629353
 30
0.000000000000000
 11
44.33894030592884
 21
146.5283507786745
 31
0.000000000000000
  0
ARC
  5
9B
100
AcDbEntity
  8
A1
  6
CONTINUOUS
 62
7
100
AcDbCircle
 10
126.5534053713855
 20
112.5769944020326
 30
0.000000000000000
 40
7.978835978835803
100
AcDbArc
 50
22.29097037475698
 51
157.7090296252410
  0
LINE
  5
9C
100
AcDbEntity
  8
A1
  6
CONTINUOUS
 62
7
100
AcDbLine
 10
48.31741473197152
 20
111.4309661665454
 30
0.000000000000000
 11
46.93894030592882
 21
143.2624741018648
 31
0.000000000000000
  0
LINE
  5
9D
100
AcDbEntity
  8
A1
  6
CONTINUOUS
 62
7
100
AcDbLine
 10
41.73894030592881
 20
143.2624741018649
 30
0.000000000000000
 11
40.36046587988642
 21
111.4309661665455
 31
0.000000000000000
  0
ARC
  5
9E
100
AcDbEntity
  8
A1
  6
CONTINUOUS
 62
7
100
AcDbCircle
 10
44.33894030592842
 20
112.5769944020334
 30
0.000000000000000
 40
7.978835978835803
100
AcDbArc
 50
22.29097037475779
 51
63.01101457036311
  0
ARC
  5
9F
100
AcDbEntity
  8
A1
  6
CONTINUOUS
 62
7
100
AcDbCircle
 10
44.33894030592842
 20
112.5769944020334
 30
0.000000000000000
 40
7.978835978835803
100
AcDbArc
 50
116.9889854296285
 51
157.7090296252419
  0
LINE
  5
A0
100
AcDbEntity
  8
A5
  6
PHANTOM
 62
6
100
AcDbLine
 10
129.7119439343942
 20
74.28154090817243
 30
0.000000000000000
 11
128.2384665237949
 21
80.82817861181732
 31
0.000000000000000
  0
LINE
  5
A1
100
AcDbEntity
  8
A1
  6
CONTINUOUS
 62
7
100
AcDbLine
 10
115.8679366044775
 20
55.16741095064761
 30
0.000000000000000
 11
114.9867532128370
 21
63.09806147540654
 31
0.000000000000000
  0
SPLINE
  5
A2
100
AcDbEntity
  8
A1
  6
CONTINUOUS
 62
7
100
AcDbSpline
210
0.000000000000000
220
0.000000000000000
230
1.000000000000000
 70
     8
 71
     3
 72
     8
 73
     4
 74
     0
 42
1.000000000000000e-07
 43
1.000000000000000e-07
 12
-0.9558563162248106
 22
-0.1413035997822547
 32
0.000000000000000
 13
-0.4023708196040872
 23
-0.6059865608277732
 33
0.000000000000000
 40
0.000000000000000
 40
0.000000000000000
 40
0.000000000000000
 40
0.000000000000000
 40
3.859642092454088
 40
3.859642092454088
 40
3.859642092454088
 40
3.859642092454088
 10
114.2672903086749
 20
62.99933092011426
 30
0.000000000000000
 10
113.0375358845285
 20
62.81753714626930
 30
0.000000000000000
 10
111.9096534522238
 20
62.55021596636652
 30
0.000000000000000
 10
111.3919843348507
 20
61.77058555382240
 30
0.000000000000000
  0
ARC
  5
A3
100
AcDbEntity
  8
A1
  6
CONTINUOUS
 62
7
100
AcDbCircle
 10
115.4746889660369
 20
59.71944477173412
 30
0.000000000000000
 40
4.568988467205240
100
AcDbArc
 50
153.3251588979066
 51
274.9374914230219
  0
ARC
  5
A4
100
AcDbEntity
  8
A1
  6
CONTINUOUS
 62
7
100
AcDbCircle
 10
114.0752549023772
 20
71.30154626953788
 30
0.000000000000000
 40
8.253968253968250
100
AcDbArc
 50
281.6345274694771
 51
359.0647650767999
  0
SPLINE
  5
A5
100
AcDbEntity
  8
A1
  6
CONTINUOUS
 62
7
100
AcDbSpline
210
0.000000000000000
220
0.000000000000000
230
1.000000000000000
 70
     8
 71
     3
 72
     8
 73
     4
 74
     0
 42
1.000000000000000e-07
 43
1.000000000000000e-07
 12
-1.166458888373214
 22
-0.1536288618562764
 32
0.000000000000000
 13
-0.4830062411017337
 23
-0.7274267333589819
 33
0.000000000000000
 40
0.000000000000000
 40
0.000000000000000
 40
0.000000000000000
 40
0.000000000000000
 40
3.859642092454088
 40
3.859642092454088
 40
3.859642092454088
 40
3.859642092454088
 10
114.8689642279903
 20
64.41431368185741
 30
0.000000000000000
 10
113.3682596197628
 20
64.21666287457865
 30
0.000000000000000
 10
111.8675550115352
 20
64.01901206729968
 30
0.000000000000000
 10
111.2461446051771
 20
63.08314312088345
 30
0.000000000000000
  0
ARC
  5
A6
100
AcDbEntity
  8
A1
  6
CONTINUOUS
 62
7
100
AcDbCircle
 10
115.3288492363634
 20
61.03200233879522
 30
0.000000000000000
 40
4.568988467205240
100
AcDbArc
 50
153.3251588979066
 51
194.6497680357936
  0
SPLINE
  5
A7
100
AcDbEntity
  8
A5
  6
PHANTOM
 62
6
100
AcDbSpline
210
0.000000000000000
220
0.000000000000000
230
1.000000000000000
 70
     8
 71
     3
 72
     8
 73
     4
 74
     0
 42
1.000000000000000e-07
 43
1.000000000000000e-07
 12
-1.052850398801425
 22
-0.5251039927517525
 32
0.000000000000000
 13
-0.2197976299918167
 23
-0.8450643071379318
 33
0.000000000000000
 40
0.000000000000000
 40
0.000000000000000
 40
0.000000000000000
 40
0.000000000000000
 40
3.859642092454088
 40
3.859642092454088
 40
3.859642092454088
 40
3.859642092454088
 10
125.2179594631773
 20
65.02224212800269
 30
0.000000000000000
 10
123.8634175577536
 20
64.34667097022256
 30
0.000000000000000
 10
122.5088756523299
 20
63.67109981244226
 30
0.000000000000000
 10
122.2260955908172
 20
62.58388455555556
 30
0.000000000000000
  0
ARC
  5
A8
100
AcDbEntity
  8
A5
  6
PHANTOM
 62
6
100
AcDbCircle
 10
126.7542029717069
 20
61.97404920024461
 30
0.000000000000000
 40
4.568988467205240
100
AcDbArc
 50
172.3296855779678
 51
293.9420181030831
  0
ARC
  5
A9
100
AcDbEntity
  8
A5
  6
PHANTOM
 62
6
100
AcDbCircle
 10
126.1888875569708
 20
63.16757133052218
 30
0.000000000000000
 40
4.568988467205240
100
AcDbArc
 50
172.3296855779678
 51
213.6542947158548
  0
SPLINE
  5
AA
100
AcDbEntity
  8
A5
  6
PHANTOM
 62
6
100
AcDbSpline
210
0.000000000000000
220
0.000000000000000
230
1.000000000000000
 70
     8
 71
     3
 72
     8
 73
     4
 74
     0
 42
1.000000000000000e-07
 43
1.000000000000000e-07
 12
-1.052850398801453
 22
-0.5251039927517525
 32
0.000000000000000
 13
-0.2197976299918167
 23
-0.8450643071378892
 33
0.000000000000000
 40
0.000000000000000
 40
0.000000000000000
 40
0.000000000000000
 40
0.000000000000000
 40
3.859642092454088
 40
3.859642092454088
 40
3.859642092454088
 40
3.859642092454088
 10
124.6526440484411
 20
66.21576425828022
 30
0.000000000000000
 10
123.2981021430174
 20
65.54019310050009
 30
0.000000000000000
 10
121.9435602375937
 20
64.86462194271974
 30
0.000000000000000
 10
121.6607801760810
 20
63.77740668583309
 30
0.000000000000000
  0
CIRCLE
  5
AB
100
AcDbEntity
  8
A1
  6
CONTINUOUS
 62
7
100
AcDbCircle
 10
126.5534053713852
 20
97.99501744533953
 30
0.000000000000000
 40
1.650793650793650
  0
ARC
  5
AC
100
AcDbEntity
  8
A1
  6
CONTINUOUS
 62
7
100
AcDbCircle
 10
49.99290855989803
 20
97.99501744533981
 30
0.000000000000000
 40
1.692063492063032
100
AcDbArc
 50
282.6803834918207
 51
437.3196165082064
  0
LINE
  5
AD
100
AcDbEntity
  8
A1
  6
CONTINUOUS
 62
7
100
AcDbLine
 10
40.83894030592780
 20
41.99236643790629
 30
0.000000000000000
 11
40.83894030592800
 21
62.62955288278554
 31
0.000000000000000
  0
LINE
  5
AE
100
AcDbEntity
  8
A1
  6
CONTINUOUS
 62
7
100
AcDbLine
 10
47.83894030592780
 20
41.99236643790635
 30
0.000000000000000
 11
47.83894030592800
 21
62.62955288278543
 31
0.000000000000000
  0
ARC
  5
AF
100
AcDbEntity
  8
A1
  6
CONTINUOUS
 62
7
100
AcDbCircle
 10
116.0056511328367
 20
115.9049795166277
 30
0.000000000000000
 40
1.952323738933635
100
AcDbArc
 50
179.4879082690288
 51
269.9999999999989
  0
LINE
  5
B0
100
AcDbEntity
  8
A1
  6
CONTINUOUS
 62
7
100
AcDbLine
 10
135.6327704507505
 20
113.9526557776936
 30
0.000000000000000
 11
116.0056511328367
 21
113.9526557776940
 31
0.000000000000000
  0
ARC
  5
B1
100
AcDbEntity
  8
A1
  6
CONTINUOUS
 62
7
100
AcDbCircle
 10
137.5534438899510
 20
112.4525985642463
 30
0.000000000000000
 40
1.500000000000000
100
AcDbArc
 50
270.0000000000000
 51
360.4106085450743
  0
ARC
  5
B2
100
AcDbEntity
  8
A1
  6
CONTINUOUS
 62
7
100
AcDbCircle
 10
137.5534761541922
 20
112.4510112626590
 30
0.000000000000000
 40
4.500000000000000
100
AcDbArc
 50
270.0000000000000
 51
360.4106085450750
  0
ARC
  5
B3
100
AcDbEntity
  8
A1
  6
CONTINUOUS
 62
7
100
AcDbCircle
 10
126.5530888268568
 20
128.6740985140484
 30
0.000000000000000
 40
15.37806178843391
100
AcDbArc
 50
0.4106085450747969
 51
179.4879082690290
  0
ARC
  5
B4
100
AcDbEntity
  8
A1
  6
CONTINUOUS
 62
7
100
AcDbCircle
 10
126.5530888268568
 20
128.6740985140484
 30
0.000000000000000
 40
12.38173186682001
100
AcDbArc
 50
0.4106085450747969
 51
179.4879082690290
  0
LINE
  5
B5
100
AcDbEntity
  8
A1
  6
CONTINUOUS
 62
7
100
AcDbLine
 10
141.9307156716422
 20
128.7897574584808
 30
0.000000000000000
 11
142.0533488789578
 21
112.4848559211801
 31
0.000000000000000
  0
LINE
  5
B6
100
AcDbEntity
  8
A1
  6
CONTINUOUS
 62
7
100
AcDbLine
 10
138.9344912594855
 20
128.7644191823535
 30
0.000000000000000
 11
139.0534039802444
 21
112.4635405717065
 31
0.000000000000000
  0
LINE
  5
B7
100
AcDbEntity
  8
A1
  6
CONTINUOUS
 62
7
100
AcDbLine
 10
114.1718819164273
 20
128.7881137014469
 30
0.000000000000000
 11
114.0534101678506
 21
115.9229571759205
 31
0.000000000000000
  0
LINE
  5
B8
100
AcDbEntity
  8
A1
  6
CONTINUOUS
 62
7
100
AcDbLine
 10
111.1757206969787
 20
128.8201593476081
 30
0.000000000000000
 11
111.0534935676073
 21
115.9520172317807
 31
0.000000000000000
  0
LINE
  5
B9
100
AcDbEntity
  8
A1
  6
CONTINUOUS
 62
7
100
AcDbLine
 10
40.83894030592842
 20
104.7632714135951
 30
0.000000000000000
 11
40.83894030592845
 21
107.9510112626601
 31
0.000000000000000
  0
LINE
  5
BA
100
AcDbEntity
  8
A1
  6
CONTINUOUS
 62
7
100
AcDbLine
 10
47.83894030592842
 20
104.7632714135951
 30
0.000000000000000
 11
47.83894030592845
 21
107.9510112626601
 31
0.000000000000000
  0
ARC
  5
BB
100
AcDbEntity
  8
A1
  6
CONTINUOUS
 62
7
100
AcDbCircle
 10
48.81694655214885
 20
111.4525985642474
 30
0.000000000000000
 40
0.5000000000000000
100
AcDbArc
 50
182.4796641789516
 51
270.0000000000000
  0
ARC
  5
BC
100
AcDbEntity
  8
A1
  6
CONTINUOUS
 62
7
100
AcDbCircle
 10
39.86093405970908
 20
111.4525985642474
 30
0.000000000000000
 40
0.5000000000000000
100
AcDbArc
 50
270.0000000000000
 51
357.5203358210485
  0
ARC
  5
BD
100
AcDbEntity
  8
A1
  6
CONTINUOUS
 62
7
100
AcDbCircle
 10
141.8567967414431
 20
82.13680638877793
 30
0.000000000000000
 40
15.75396825396818
100
AcDbArc
 50
177.0109831964003
 51
191.6265250828662
  0
ARC
  5
BE
100
AcDbEntity
  8
A1
  6
CONTINUOUS
 62
7
100
AcDbCircle
 10
105.8959803421823
 20
84.01452061888332
 30
0.000000000000000
 40
20.25583772761522
100
AcDbArc
 50
357.0109831964004
 51
373.2270181750538
  0
LINE
  5
BF
100
AcDbEntity
  8
A1
  6
CONTINUOUS
 62
7
100
AcDbLine
 10
122.8034053713854
 20
107.9510112626593
 30
0.000000000000000
 11
122.8034053713853
 21
104.5981920485141
 31
0.000000000000000
  0
LINE
  5
C0
100
AcDbEntity
  8
A1
  6
CONTINUOUS
 62
7
100
AcDbLine
 10
130.3034053713854
 20
107.9510112626591
 30
0.000000000000000
 11
130.3034053713853
 21
103.4300349098936
 31
0.000000000000000
  0
CIRCLE
  5
C1
100
AcDbEntity
  8
A5
  6
PHANTOM
 62
6
100
AcDbCircle
 10
123.0751076183810
 20
52.05216030248236
 30
0.000000000000000
 40
4.500000000000000
  0
ARC
  5
C2
100
AcDbEntity
  8
A1
  6
CONTINUOUS
 62
7
100
AcDbCircle
 10
123.0751076183808
 20
55.55216030248239
 30
0.000000000000000
 40
15.49999999999973
100
AcDbArc
 50
180.0000000000000
 51
371.6265250828657
  0
LINE
  5
C3
100
AcDbEntity
  8
A1
  6
CONTINUOUS
 62
7
100
AcDbLine
 10
133.7721829491862
 20
80.47337266074238
 30
0.000000000000000
 11
138.2570794801858
 21
58.67589690907212
 31
0.000000000000000
  0
LINE
  5
C4
100
AcDbEntity
  8
A4
  6
CENTER
 62
1
100
AcDbLine
 10
140.0751076183805
 20
55.55216030248239
 30
0.000000000000000
 11
106.0751076183810
 21
55.55216030248239
 31
0.000000000000000
  0
LINE
  5
C5
100
AcDbEntity
  8
A3
  6
DASHED
 62
2
100
AcDbLine
 10
115.0751076183807
 20
55.55216030248239
 30
0.000000000000000
 11
115.0751076183807
 21
62.07646618945873
 31
0.000000000000000
  0
LINE
  5
C6
100
AcDbEntity
  8
A1
  6
CONTINUOUS
 62
7
100
AcDbLine
 10
107.5751076183810
 20
55.55216030248239
 30
0.000000000000000
 11
107.5751076183797
 21
60.81081692448157
 31
0.000000000000000
  0
LINE
  5
C7
100
AcDbEntity
  8
A1
  6
CONTINUOUS
 62
7
100
AcDbLine
 10
130.9109640631836
 20
57.16441145427076
 30
0.000000000000000
 11
126.4260675321837
 21
78.96188720594077
 31
0.000000000000000
  0
LINE
  5
C8
100
AcDbEntity
  8
A1
  6
CONTINUOUS
 62
7
100
AcDbLine
 10
122.4698924792076
 20
79.85131220072503
 30
0.000000000000000
 11
122.3281235953586
 21
71.16682331706147
 31
0.000000000000000
  0
LINE
  5
C9
100
AcDbEntity
  8
A1
  6
CONTINUOUS
 62
7
100
AcDbLine
 10
107.5751076183797
 20
60.81081692448160
 30
0.000000000000000
 11
110.7709491437676
 21
61.35012552149360
 31
0.000000000000000
  0
LINE
  5
CA
100
AcDbEntity
  8
A3
  6
DASHED
 62
2
100
AcDbLine
 10
110.7709491437676
 20
61.35012552149358
 30
0.000000000000000
 11
115.0751076183807
 21
62.07646618945872
 31
0.000000000000000
  0
ARC
  5
CB
100
AcDbEntity
  8
A3
  6
DASHED
 62
2
100
AcDbCircle
 10
123.0751076183808
 20
55.55216030248239
 30
0.000000000000000
 40
8.000000000000016
100
AcDbArc
 50
180.0000000000000
 51
182.7584393461407
  0
ARC
  5
CC
100
AcDbEntity
  8
A1
  6
CONTINUOUS
 62
7
100
AcDbCircle
 10
123.0751076183808
 20
55.55216030248239
 30
0.000000000000000
 40
8.000000000000016
100
AcDbArc
 50
182.7584393461407
 51
371.6265250828663
  0
LINE
  5
CD
100
AcDbEntity
  8
A4
  6
CENTER
 62
1
100
AcDbLine
 10
123.0751076183807
 20
37.57596982629183
 30
0.000000000000000
 11
123.0751076183815
 21
78.02041427073627
 31
0.000000000000000
  0
SPLINE
  5
CE
100
AcDbEntity
  8
A1
  6
CONTINUOUS
 62
7
100
AcDbSpline
210
0.000000000000000
220
0.000000000000000
230
1.000000000000000
 70
     8
 71
     3
 72
    25
 73
    21
 74
     0
 42
1.000000000000000e-07
 43
1.000000000000000e-07
 12
0.2738212678045784
 22
-0.01836151870247704
 32
0.000000000000000
 13
0.8660780862001047
 23
-0.1083208699910756
 33
0.000000000000000
 40
0.000000000000000
 40
0.000000000000000
 40
0.000000000000000
 40
0.000000000000000
 40
0.1252484083758429
 40
0.3368646716658762
 40
0.6304293566094737
 40
0.9108255235505376
 40
1.178210657828031
 40
1.432576926733956
 40
1.673667911505022
 40
1.901268189857809
 40
2.115485731656574
 40
2.313793025095987
 40
2.494628924041753
 40
2.656562057240042
 40
2.800588548502233
 40
2.926482319599099
 40
3.033246913325129
 40
3.117653433498662
 40
3.179540330796035
 40
3.226231690854086
 40
3.226231690854086
 40
3.226231690854086
 40
3.226231690854086
 10
114.0922954994635
 20
169.8696545333660
 30
0.000000000000000
 10
114.1037273921208
 20
169.8688879497017
 30
0.000000000000000
 10
114.2172621371693
 20
169.8612579130371
 30
0.000000000000000
 10
114.4283731986938
 20
169.8466441321836
 30
0.000000000000000
 10
114.7211671993738
 20
169.8253862533660
 30
0.000000000000000
 10
115.0007581037644
 20
169.8041509851238
 30
0.000000000000000
 10
115.2673086425247
 20
169.7830412641594
 30
0.000000000000000
 10
115.5208167013593
 20
169.7621639352356
 30
0.000000000000000
 10
115.7610328666805
 20
169.7416442652506
 30
0.000000000000000
 10
115.9877498398451
 20
169.7216117720125
 30
0.000000000000000
 10
116.2010805573853
 20
169.7021397364726
 30
0.000000000000000
 10
116.3985225992610
 20
169.6836350686498
 30
0.000000000000000
 10
116.5785368896756
 20
169.6664165439144
 30
0.000000000000000
 10
116.7396991868690
 20
169.6506351120801
 30
0.000000000000000
 10
116.8830050944923
 20
169.6362459833513
 30
0.000000000000000
 10
117.0082329728953
 20
169.6233146233424
 30
0.000000000000000
 10
117.1143960110463
 20
169.6119970350826
 30
0.000000000000000
 10
117.1982909033272
 20
169.6027176117714
 30
0.000000000000000
 10
117.2597698614258
 20
169.5956235460677
 30
0.000000000000000
 10
117.2926380390185
 20
169.5916550582427
 30
0.000000000000000
 10
117.3061174936055
 20
169.5899691753285
 30
0.000000000000000
  0
SPLINE
  5
CF
100
AcDbEntity
  8
A1
  6
CONTINUOUS
 62
7
100
AcDbSpline
210
0.000000000000000
220
0.000000000000000
230
1.000000000000000
 70
     8
 71
     3
 72
    25
 73
    21
 74
     0
 42
1.000000000000000e-07
 43
1.000000000000000e-07
 12
-0.9924382521039661
 22
-0.1227449215148226
 32
0.000000000000000
 13
-0.9977638869008842
 23
-0.06683730992199344
 33
0.000000000000000
 40
0.000000000000000
 40
0.000000000000000
 40
0.000000000000000
 40
0.000000000000000
 40
0.03056559139536890
 40
0.08719210075946519
 40
0.1667817156569540
 40
0.2660013891188574
 40
0.3843374362284512
 40
0.5211272895363906
 40
0.6758162464608217
 40
0.8479606210983932
 40
1.037206017133643
 40
1.242348405541118
 40
1.464562856667842
 40
1.699395569808370
 40
1.948798163098221
 40
2.212185029048372
 40
2.488920863755190
 40
2.778309259417182
 40
3.079553483756393
 40
3.232253803159582
 40
3.232253803159582
 40
3.232253803159582
 40
3.232253803159582
 10
117.3108758135657
 20
184.4581424113162
 30
0.000000000000000
 10
117.3007643261994
 20
184.4568918209439
 30
0.000000000000000
 10
117.2719155169989
 20
184.4533608797974
 30
0.000000000000000
 10
117.2167020765084
 20
184.4468659976023
 30
0.000000000000000
 10
117.1387251049479
 20
184.4380054379264
 30
0.000000000000000
 10
117.0402677470107
 20
184.4271985630082
 30
0.000000000000000
 10
116.9228146792518
 20
184.4147076701753
 30
0.000000000000000
 10
116.7869310843276
 20
184.4006855877533
 30
0.000000000000000
 10
116.6331606579009
 20
184.3852693974414
 30
0.000000000000000
 10
116.4619456101645
 20
184.3685808503206
 30
0.000000000000000
 10
116.2739445004158
 20
184.3507556865722
 30
0.000000000000000
 10
116.0692786382461
 20
184.3318811846581
 30
0.000000000000000
 10
115.8494232545856
 20
184.3122490795099
 30
0.000000000000000
 10
115.6148130157919
 20
184.2919869110128
 30
0.000000000000000
 10
115.3664665382994
 20
184.2712856603894
 30
0.000000000000000
 10
115.1041347263609
 20
184.2502291680101
 30
0.000000000000000
 10
114.8284484223939
 20
184.2289777617533
 30
0.000000000000000
 10
114.5401093799687
 20
184.2076963720395
 30
0.000000000000000
 10
114.2929435581810
 20
184.1902872233706
 30
0.000000000000000
 10
114.1419756672241
 20
184.1800451382700
 30
0.000000000000000
 10
114.0911893791512
 20
184.1766431120789
 30
0.000000000000000
  0
SPLINE
  5
D0
100
AcDbEntity
  8
A1
  6
CONTINUOUS
 62
7
100
AcDbSpline
210
0.000000000000000
220
0.000000000000000
230
1.000000000000000
 70
     8
 71
     3
 72
     9
 73
     5
 74
     0
 42
1.000000000000000e-07
 43
1.000000000000000e-07
 12
-0.6505620059265311
 22
0.7594531430204370
 32
0.000000000000000
 13
-0.5856280774155493
 23
0.8105798880683324
 33
0.000000000000000
 40
0.000000000000000
 40
0.000000000000000
 40
0.000000000000000
 40
0.000000000000000
 40
0.1462658457237458
 40
0.3721146894535143
 40
0.3721146894535143
 40
0.3721146894535143
 40
0.3721146894535143
 10
117.1043837596689
 20
172.3148414380966
 30
0.000000000000000
 10
117.0726654256714
 20
172.3518687901804
 30
0.000000000000000
 10
116.9934979791365
 20
172.4473831715805
 30
0.000000000000000
 10
116.9183218461658
 20
172.5461266178441
 30
0.000000000000000
 10
116.8742340381192
 20
172.6071494613344
 30
0.000000000000000
  0
SPLINE
  5
D1
100
AcDbEntity
  8
A1
  6
CONTINUOUS
 62
7
100
AcDbSpline
210
0.000000000000000
220
0.000000000000000
230
1.000000000000000
 70
     8
 71
     3
 72
    36
 73
    32
 74
     0
 42
1.000000000000000e-07
 43
1.000000000000000e-07
 12
-0.9977804663844836
 22
-0.06658934525512450
 32
0.000000000000000
 13
0.0001432318149454659
 23
-0.9999999897445377
 33
0.000000000000000
 40
0.000000000000000
 40
0.000000000000000
 40
0.000000000000000
 40
0.000000000000000
 40
0.1401430198830925
 40
0.3952636402078403
 40
0.6496523271706930
 40
0.9072976295831794
 40
1.178451130217786
 40
1.477698718702855
 40
1.756446891663686
 40
1.957876287954479
 40
2.143248067919544
 40
2.319621144817241
 40
2.493446564014393
 40
2.669349681241428
 40
2.850467347033493
 40
3.037731453277780
 40
3.232015588037494
 40
3.433158638887094
 40
3.640188043331987
 40
3.851810841952755
 40
4.066790516721660
 40
4.284128283922316
 40
4.503090451836392
 40
4.723165295495661
 40
4.943983855706814
 40
5.165448854890720
 40
5.407888270260229
 40
5.649922173859085
 40
5.889311856679964
 40
6.125913918129963
 40
6.211239777347105
 40
6.211239777347105
 40
6.211239777347105
 40
6.211239777347105
 10
114.0934241987617
 20
184.1764182074963
 30
0.000000000000000
 10
114.0468135428486
 20
184.1733075301843
 30
0.000000000000000
 10
113.9153802818299
 20
184.1641017227433
 30
0.000000000000000
 10
113.6994879663169
 20
184.1471571550252
 30
0.000000000000000
 10
113.4448394534973
 20
184.1236907004993
 30
0.000000000000000
 10
113.1852968822669
 20
184.0954208845065
 30
0.000000000000000
 10
112.9115992635189
 20
184.0595002337195
 30
0.000000000000000
 10
112.6321616233150
 20
184.0140349475742
 30
0.000000000000000
 10
112.3775221134435
 20
183.9620245221908
 30
0.000000000000000
 10
112.1621851471010
 20
183.9084404493482
 30
0.000000000000000
 10
111.9819095360483
 20
183.8558987448524
 30
0.000000000000000
 10
111.8126960385497
 20
183.7988320104382
 30
0.000000000000000
 10
111.6490951691157
 20
183.7355122657280
 30
0.000000000000000
 10
111.4871912902083
 20
183.6639405299759
 30
0.000000000000000
 10
111.3250853825974
 20
183.5822841088463
 30
0.000000000000000
 10
111.1622944515352
 20
183.4889431924920
 30
0.000000000000000
 10
110.9995358797152
 20
183.3827391223808
 30
0.000000000000000
 10
110.8382416693770
 20
183.2628852374235
 30
0.000000000000000
 10
110.6805055238541
 20
183.1292334498908
 30
0.000000000000000
 10
110.5286471624691
 20
182.9822079461682
 30
0.000000000000000
 10
110.3848476344150
 20
182.8226209513079
 30
0.000000000000000
 10
110.2509710146220
 20
182.6514958690563
 30
0.000000000000000
 10
110.1285333035124
 20
182.4699492689047
 30
0.000000000000000
 10
110.0187480505688
 20
182.2791390939674
 30
0.000000000000000
 10
109.9225591510908
 20
182.0801949143464
 30
0.000000000000000
 10
109.8382039095676
 20
181.8679037805446
 30
0.000000000000000
 10
109.7680400054405
 20
181.6430332778624
 30
0.000000000000000
 10
109.7145693241409
 20
181.4074849697114
 30
0.000000000000000
 10
109.6800833742084
 20
181.1703997721700
 30
0.000000000000000
 10
109.6676346351618
 20
180.9835002463138
 30
0.000000000000000
 10
109.6661529376455
 20
180.8761905692740
 30
0.000000000000000
 10
109.6661570114380
 20
180.8477486164933
 30
0.000000000000000
  0
SPLINE
  5
D2
100
AcDbEntity
  8
A1
  6
CONTINUOUS
 62
7
100
AcDbSpline
210
0.000000000000000
220
0.000000000000000
230
1.000000000000000
 70
     8
 71
     3
 72
    37
 73
    33
 74
     0
 42
1.000000000000000e-07
 43
1.000000000000000e-07
 12
-0.0001492094947934675
 22
-0.9999999888686943
 32
0.000000000000000
 13
0.9977626789077476
 23
-0.06685534068310517
 33
0.000000000000000
 40
0.000000000000000
 40
0.000000000000000
 40
0.000000000000000
 40
0.000000000000000
 40
0.1410525292912340
 40
0.3762726084600953
 40
0.6088735780522943
 40
0.8389265672974913
 40
1.066335434531530
 40
1.288492448210957
 40
1.509553309040785
 40
1.727906489518284
 40
1.943409736194205
 40
2.155769240728555
 40
2.364581839158958
 40
2.569289730447017
 40
2.769178733670629
 40
2.963441106888175
 40
3.151348660407083
 40
3.332540792022483
 40
3.507350018311526
 40
3.676995282206970
 40
3.842934617341948
 40
4.008459191210679
 40
4.178384018289554
 40
4.360037445211313
 40
4.565792031922215
 40
4.819575525242382
 40
5.106162323807935
 40
5.384904874233360
 40
5.636211088630859
 40
5.910771395659816
 40
6.180260221344635
 40
6.210682680661135
 40
6.210682680661135
 40
6.210682680661135
 40
6.210682680661135
 10
109.6661931263716
 20
173.1982797665253
 30
0.000000000000000
 10
109.6661861109127
 20
173.1512622572849
 30
0.000000000000000
 10
109.6690571207787
 20
173.0258257170211
 30
0.000000000000000
 10
109.6862085628731
 20
172.8233807085894
 30
0.000000000000000
 10
109.7235607562735
 20
172.5935500747815
 30
0.000000000000000
 10
109.7775783400551
 20
172.3697373685756
 30
0.000000000000000
 10
109.8471021408293
 20
172.1539101906346
 30
0.000000000000000
 10
109.9311397441994
 20
171.9465549767012
 30
0.000000000000000
 10
110.0285926678435
 20
171.7485199163926
 30
0.000000000000000
 10
110.1388163705468
 20
171.5598717942835
 30
0.000000000000000
 10
110.2603897509302
 20
171.3818416186172
 30
0.000000000000000
 10
110.3919930830340
 20
171.2151368277188
 30
0.000000000000000
 10
110.5321505516282
 20
171.0603917784728
 30
0.000000000000000
 10
110.6792188760447
 20
170.9181314842469
 30
0.000000000000000
 10
110.8313887829570
 20
170.7887286553812
 30
0.000000000000000
 10
110.9867563741113
 20
170.6723226186203
 30
0.000000000000000
 10
111.1435001304305
 20
170.5687162169560
 30
0.000000000000000
 10
111.3001661418263
 20
170.4772905732227
 30
0.000000000000000
 10
111.4559860043478
 20
170.3969977476659
 30
0.000000000000000
 10
111.6109152109535
 20
170.3265479839140
 30
0.000000000000000
 10
111.7660175927897
 20
170.2644001810391
 30
0.000000000000000
 10
111.9237052882604
 20
170.2088795139439
 30
0.000000000000000
 10
112.0884872428568
 20
170.1581617389635
 30
0.000000000000000
 10
112.2680335290720
 20
170.1102847000730
 30
0.000000000000000
 10
112.4764846370245
 20
170.0628620220696
 30
0.000000000000000
 10
112.7209309048201
 20
170.0167063962757
 30
0.000000000000000
 10
112.9908767989542
 20
169.9754081376623
 30
0.000000000000000
 10
113.2610461088338
 20
169.9419096980296
 30
0.000000000000000
 10
113.5278322542998
 20
169.9142595727253
 30
0.000000000000000
 10
113.7919539450105
 20
169.8911738428162
 30
0.000000000000000
 10
113.9829299412869
 20
169.8770766495280
 30
0.000000000000000
 10
114.0826717618586
 20
169.8703201821164
 30
0.000000000000000
 10
114.0927898933608
 20
169.8696422141557
 30
0.000000000000000
  0
ELLIPSE
  5
D3
100
AcDbEntity
  8
A1
  6
CONTINUOUS
 62
7
100
AcDbEllipse
 10
113.1430569772191
 20
173.9976618971733
 30
0.000000000000000
 11
-3.023958065828034
 21
0.000000000000000
 31
0.000000000000000
210
0.000000000000000
220
0.000000000000000
230
1.000000000000000
 40
0.9920772493181141
 41
0.000000000000000
 42
1.570796326794897
  0
ELLIPSE
  5
D4
100
AcDbEntity
  8
A1
  6
CONTINUOUS
 62
7
100
AcDbEllipse
 10
115.8646192364643
 20
176.6976618971732
 30
0.000000000000000
 11
-4.535937098742050
 21
0.000000000000000
 31
0.000000000000000
210
0.000000000000000
220
0.000000000000000
230
1.000000000000000
 40
0.9920772493181141
 41
0.9406796906367287
 42
1.570796326794897
  0
ELLIPSE
  5
D5
100
AcDbEntity
  8
A1
  6
CONTINUOUS
 62
7
100
AcDbEllipse
 10
115.8646192364643
 20
177.3484555479671
 30
0.000000000000000
 11
-4.535937098742050
 21
0.000000000000000
 31
0.000000000000000
210
0.000000000000000
220
0.000000000000000
230
1.000000000000000
 40
0.9920772493181141
 41
4.712388980384690
 42
5.342505616543013
  0
ELLIPSE
  5
D6
100
AcDbEntity
  8
A1
  6
CONTINUOUS
 62
7
100
AcDbEllipse
 10
113.1430569772191
 20
180.0484555479671
 30
0.000000000000000
 11
-3.023958065828034
 21
0.000000000000000
 31
0.000000000000000
210
0.000000000000000
220
0.000000000000000
230
1.000000000000000
 40
0.9920772493181141
 41
4.712388980384690
 42
0.000000000000000
  0
ARC
  5
D7
100
AcDbEntity
  8
A1
  6
CONTINUOUS
 62
7
100
AcDbCircle
 10
118.0685002201500
 20
175.6666313275178
 30
0.000000000000000
 40
6.125682650605071
100
AcDbArc
 50
263.5690166491934
 51
269.9999602089591
  0
ARC
  5
D8
100
AcDbEntity
  8
A1
  6
CONTINUOUS
 62
7
100
AcDbCircle
 10
118.0693728546332
 20
178.3668047715755
 30
0.000000000000000
 40
6.138385956385040
100
AcDbArc
 50
91.39778813275278
 51
97.10761448738906
  0
ARC
  5
D9
100
AcDbEntity
  8
A1
  6
CONTINUOUS
 62
7
100
AcDbCircle
 10
120.5215754263177
 20
178.8039799019051
 30
0.000000000000000
 40
4.499584579321356
100
AcDbArc
 50
139.5802199735853
 51
144.1017352708109
  0
ARC
  5
DA
100
AcDbEntity
  8
A1
  6
CONTINUOUS
 62
7
100
AcDbCircle
 10
118.1354667043589
 20
176.6976618971705
 30
0.000000000000000
 40
4.500000000000000
100
AcDbArc
 50
237.1404478222667
 51
266.8209507813451
  0
ARC
  5
DB
100
AcDbEntity
  8
A1
  6
CONTINUOUS
 62
7
100
AcDbCircle
 10
118.1354667043589
 20
177.3484555479698
 30
0.000000000000000
 40
4.500000000000000
100
AcDbArc
 50
93.17904921866490
 51
122.8595521777223
  0
LINE
  5
DC
100
AcDbEntity
  8
A1
  6
CONTINUOUS
 62
7
100
AcDbLine
 10
117.9381815247351
 20
184.5037868029231
 30
0.000000000000000
 11
117.9196356132499
 21
184.5033641421095
 31
0.000000000000000
  0
LINE
  5
DD
100
AcDbEntity
  8
A1
  6
CONTINUOUS
 62
7
100
AcDbLine
 10
118.0671408238135
 20
184.5051687001578
 30
0.000000000000000
 11
117.9381815247351
 21
184.5037868029230
 31
0.000000000000000
  0
LINE
  5
DE
100
AcDbEntity
  8
A1
  6
CONTINUOUS
 62
7
100
AcDbLine
 10
109.6660581134840
 20
180.8476759801335
 30
0.000000000000000
 11
109.6660581134840
 21
173.1984479037907
 31
0.000000000000000
  0
LINE
  5
DF
100
AcDbEntity
  8
A1
  6
CONTINUOUS
 62
7
100
AcDbLine
 10
121.4101671559406
 20
184.5051687794717
 30
0.000000000000000
 11
118.0681252703436
 21
184.5051687794717
 31
0.000000000000000
  0
LINE
  5
E0
100
AcDbEntity
  8
A1
  6
CONTINUOUS
 62
7
100
AcDbLine
 10
118.0681252703436
 20
169.5409486656681
 30
0.000000000000000
 11
121.4101671559412
 21
169.5409486656681
 31
0.000000000000000
  0
LINE
  5
E1
100
AcDbEntity
  8
A1
  6
CONTINUOUS
 62
7
100
AcDbLine
 10
119.7101679668933
 20
183.0484555479670
 30
0.000000000000000
 11
113.1430569772192
 21
183.0484555479670
 31
0.000000000000000
  0
LINE
  5
E2
100
AcDbEntity
  8
A1
  6
CONTINUOUS
 62
7
100
AcDbLine
 10
113.1430569772192
 20
170.9976618971733
 30
0.000000000000000
 11
119.7101679668937
 21
170.9976618971733
 31
0.000000000000000
  0
LINE
  5
E3
100
AcDbEntity
  8
A1
  6
CONTINUOUS
 62
7
100
AcDbLine
 10
117.9001036151186
 20
172.1976618971732
 30
0.000000000000000
 11
115.8646192364644
 21
172.1976618971732
 31
0.000000000000000
  0
LINE
  5
E4
100
AcDbEntity
  8
A1
  6
CONTINUOUS
 62
7
100
AcDbLine
 10
115.8646192364644
 20
181.8484555479671
 30
0.000000000000000
 11
117.9001036151178
 21
181.8484555479671
 31
0.000000000000000
  0
LINE
  5
E5
100
AcDbEntity
  8
A1
  6
CONTINUOUS
 62
7
100
AcDbLine
 10
110.1190989113911
 20
180.0484555479669
 30
0.000000000000000
 11
110.1190989113911
 21
173.9976618971734
 31
0.000000000000000
  0
ARC
  5
E6
100
AcDbEntity
  8
A1
  6
CONTINUOUS
 62
7
100
AcDbCircle
 10
111.0751076183799
 20
177.0230587225704
 30
0.000000000000000
 40
3.499999999999857
100
AcDbArc
 50
113.7399149429524
 51
246.2600850570475
  0
ARC
  5
E7
100
AcDbEntity
  8
A1
  6
CONTINUOUS
 62
7
100
AcDbCircle
 10
126.5534053713858
 20
177.0230587225702
 30
0.000000000000000
 40
7.428571428571425
100
AcDbArc
 50
202.0277649800714
 51
337.9720841347122
  0
ARC
  5
E8
100
AcDbEntity
  8
A1
  6
CONTINUOUS
 62
7
100
AcDbCircle
 10
126.5534053713858
 20
177.0230587225702
 30
0.000000000000000
 40
7.428571428571425
100
AcDbArc
 50
22.02791586528799
 51
157.9722350199285
  0
ARC
  5
E9
100
AcDbEntity
  8
A1
  6
CONTINUOUS
 62
7
100
AcDbCircle
 10
126.5534053713857
 20
177.0230587225702
 30
0.000000000000000
 40
7.382573639999271
100
AcDbArc
 50
202.1604168854259
 51
337.8394327004703
  0
ARC
  5
EA
100
AcDbEntity
  8
A1
  6
CONTINUOUS
 62
7
100
AcDbCircle
 10
126.5534053713857
 20
177.0230587225702
 30
0.000000000000000
 40
7.382573639999271
100
AcDbArc
 50
22.16056729952991
 51
157.8395831145737
  0
ELLIPSE
  5
EB
100
AcDbEntity
  8
A1
  6
CONTINUOUS
 62
7
100
AcDbEllipse
 10
137.5534438899506
 20
180.9572910052495
 30
0.000000000000000
 11
-1.500000000000000
 21
0.000000000000000
 31
0.000000000000000
210
0.000000000000000
220
0.000000000000000
230
1.000000000000000
 40
0.04330534478113190
 41
3.134297917253371
 42
3.141592653589793
  0
ELLIPSE
  5
EC
100
AcDbEntity
  8
A1
  6
CONTINUOUS
 62
7
100
AcDbEllipse
 10
137.5534438899506
 20
173.0888264398906
 30
0.000000000000000
 11
-1.500000000000000
 21
0.000000000000000
 31
0.000000000000000
210
0.000000000000000
220
0.000000000000000
230
1.000000000000000
 40
0.04330534478113910
 41
1.570796326794897
 42
3.141592653589793
  0
ELLIPSE
  5
ED
100
AcDbEntity
  8
A1
  6
CONTINUOUS
 62
7
100
AcDbEllipse
 10
137.5534761541918
 20
180.9573597438919
 30
0.000000000000000
 11
-4.500000000000000
 21
0.000000000000000
 31
0.000000000000000
210
0.000000000000000
220
0.000000000000000
230
1.000000000000000
 40
0.04330534478113240
 41
3.134071547451965
 42
3.141592653589793
  0
ELLIPSE
  5
EE
100
AcDbEntity
  8
A1
  6
CONTINUOUS
 62
7
100
AcDbEllipse
 10
137.5534761541918
 20
173.0887577012481
 30
0.000000000000000
 11
-4.500000000000000
 21
0.000000000000000
 31
0.000000000000000
210
0.000000000000000
220
0.000000000000000
230
1.000000000000000
 40
0.04330534478114360
 41
1.570796326794897
 42
3.141592653589793
  0
ELLIPSE
  5
EF
100
AcDbEntity
  8
A1
  6
CONTINUOUS
 62
7
100
AcDbEllipse
 10
116.0056511328363
 20
180.8077844577908
 30
0.000000000000000
 11
-1.952323738933635
 21
0.000000000000000
 31
0.000000000000000
210
0.000000000000000
220
0.000000000000000
230
1.000000000000000
 40
0.04330534478113210
 41
4.712388980384690
 42
0.000000000000000
  0
ELLIPSE
  5
F0
100
AcDbEntity
  8
A1
  6
CONTINUOUS
 62
7
100
AcDbEllipse
 10
116.0056511328363
 20
173.2383329873492
 30
0.000000000000000
 11
-1.952323738933635
 21
0.000000000000000
 31
0.000000000000000
210
0.000000000000000
220
0.000000000000000
230
1.000000000000000
 40
0.04330534478114340
 41
6.273976837802290
 42
0.000000000000000
  0
ELLIPSE
  5
F1
100
AcDbEntity
  8
A1
  6
CONTINUOUS
 62
7
100
AcDbEllipse
 10
116.0056511328363
 20
173.2383329873492
 30
0.000000000000000
 11
-4.952380952380949
 21
0.000000000000000
 31
0.000000000000000
210
0.000000000000000
220
0.000000000000000
230
1.000000000000000
 40
0.04330534478114340
 41
6.273687164195072
 42
0.000000000000000
  0
ELLIPSE
  5
F2
100
AcDbEntity
  8
A1
  6
CONTINUOUS
 62
7
100
AcDbEllipse
 10
116.0056511328363
 20
180.8077844577908
 30
0.000000000000000
 11
-4.952380952380950
 21
0.000000000000000
 31
0.000000000000000
210
0.000000000000000
220
0.000000000000000
230
1.000000000000000
 40
0.04330534478113190
 41
4.970469336833902
 42
0.000000000000000
  0
ELLIPSE
  5
F3
100
AcDbEntity
  8
A1
  6
CONTINUOUS
 62
7
100
AcDbEllipse
 10
116.0056511328363
 20
180.8077844577908
 30
0.000000000000000
 11
-4.952380952380950
 21
0.000000000000000
 31
0.000000000000000
210
0.000000000000000
220
0.000000000000000
230
1.000000000000000
 40
0.04330534478113190
 41
0.000000000000000
 42
0.009498142984560233
  0
ELLIPSE
  5
F4
100
AcDbEntity
  8
A1
  6
CONTINUOUS
 62
7
100
AcDbEllipse
 10
126.5530888268564
 20
180.2548133570562
 30
0.000000000000000
 11
-15.37806178843391
 21
0.000000000000000
 31
0.000000000000000
210
0.000000000000000
220
0.000000000000000
230
1.000000000000000
 40
0.04330534478113210
 41
0.009498142986640878
 42
3.134071547454725
  0
ELLIPSE
  5
F5
100
AcDbEntity
  8
A1
  6
CONTINUOUS
 62
7
100
AcDbEllipse
 10
137.5534761541918
 20
180.9573597438919
 30
0.000000000000000
 11
-4.500000000000000
 21
0.000000000000000
 31
0.000000000000000
210
0.000000000000000
220
0.000000000000000
230
1.000000000000000
 40
0.04330534478113240
 41
3.141592653589793
 42
4.712388980384690
  0
ELLIPSE
  5
F6
100
AcDbEntity
  8
A1
  6
CONTINUOUS
 62
7
100
AcDbEllipse
 10
137.5534438899506
 20
180.9572910052495
 30
0.000000000000000
 11
-1.500000000000000
 21
0.000000000000000
 31
0.000000000000000
210
0.000000000000000
220
0.000000000000000
230
1.000000000000000
 40
0.04330534478113190
 41
3.141592653589793
 42
4.712388980384690
  0
ELLIPSE
  5
F7
100
AcDbEntity
  8
A1
  6
CONTINUOUS
 62
7
100
AcDbEllipse
 10
126.5530888268564
 20
180.2548133570562
 30
0.000000000000000
 11
-12.38173186682001
 21
0.000000000000000
 31
0.000000000000000
210
0.000000000000000
220
0.000000000000000
230
1.000000000000000
 40
0.04330534478113210
 41
0.009208469378754977
 42
3.134297917254208
  0
ELLIPSE
  5
F8
100
AcDbEntity
  8
A1
  6
CONTINUOUS
 62
7
100
AcDbEllipse
 10
116.0056511328363
 20
180.8077844577908
 30
0.000000000000000
 11
-1.952323738933635
 21
0.000000000000000
 31
0.000000000000000
210
0.000000000000000
220
0.000000000000000
230
1.000000000000000
 40
0.04330534478113210
 41
0.000000000000000
 42
0.009208469377296115
  0
ELLIPSE
  5
F9
100
AcDbEntity
  8
A1
  6
CONTINUOUS
 62
7
100
AcDbEllipse
 10
116.0056511328363
 20
173.2383329873492
 30
0.000000000000000
 11
-4.952380952380949
 21
0.000000000000000
 31
0.000000000000000
210
0.000000000000000
220
0.000000000000000
230
1.000000000000000
 40
0.04330534478114340
 41
0.000000000000000
 42
1.312715970348691
  0
ELLIPSE
  5
FA
100
AcDbEntity
  8
A1
  6
CONTINUOUS
 62
7
100
AcDbEllipse
 10
116.0056511328363
 20
173.2383329873492
 30
0.000000000000000
 11
-1.952323738933635
 21
0.000000000000000
 31
0.000000000000000
210
0.000000000000000
220
0.000000000000000
230
1.000000000000000
 40
0.04330534478114340
 41
0.000000000000000
 42
1.570796326794897
  0
ELLIPSE
  5
FB
100
AcDbEntity
  8
A1
  6
CONTINUOUS
 62
7
100
AcDbEllipse
 10
126.5530888268564
 20
173.7913040880841
 30
0.000000000000000
 11
-12.38173186682001
 21
0.000000000000000
 31
0.000000000000000
210
0.000000000000000
220
0.000000000000000
230
1.000000000000000
 40
0.04330534478114340
 41
3.148887389925378
 42
6.273976837800832
  0
ELLIPSE
  5
FC
100
AcDbEntity
  8
A1
  6
CONTINUOUS
 62
7
100
AcDbEllipse
 10
137.5534438899506
 20
173.0888264398906
 30
0.000000000000000
 11
-1.500000000000000
 21
0.000000000000000
 31
0.000000000000000
210
0.000000000000000
220
0.000000000000000
230
1.000000000000000
 40
0.04330534478113910
 41
3.141592653589793
 42
3.148887389926215
  0
ELLIPSE
  5
FD
100
AcDbEntity
  8
A1
  6
CONTINUOUS
 62
7
100
AcDbEllipse
 10
137.5534761541918
 20
173.0887577012481
 30
0.000000000000000
 11
-4.500000000000000
 21
0.000000000000000
 31
0.000000000000000
210
0.000000000000000
220
0.000000000000000
230
1.000000000000000
 40
0.04330534478114360
 41
3.141592653589793
 42
3.149113759727621
  0
ELLIPSE
  5
FE
100
AcDbEntity
  8
A1
  6
CONTINUOUS
 62
7
100
AcDbEllipse
 10
126.5530888268564
 20
173.7913040880841
 30
0.000000000000000
 11
-15.37806178843391
 21
0.000000000000000
 31
0.000000000000000
210
0.000000000000000
220
0.000000000000000
230
1.000000000000000
 40
0.04330534478114340
 41
3.149113759724861
 42
6.273687164192945
  0
ARC
  5
FF
100
AcDbEntity
  8
A1
  6
CONTINUOUS
 62
7
100
AcDbCircle
 10
138.8736527590538
 20
164.7013501921063
 30
0.000000000000000
 40
8.345129084871864
100
AcDbArc
 50
94.21869078006218
 51
134.9966026513643
  0
ARC
  5
100
100
AcDbEntity
  8
A1
  6
CONTINUOUS
 62
7
100
AcDbCircle
 10
138.8736527590538
 20
189.3447672530344
 30
0.000000000000000
 40
8.345129084871864
100
AcDbArc
 50
225.0033973486365
 51
265.7813092200040
  0
ARC
  5
101
100
AcDbEntity
  8
A1
  6
CONTINUOUS
 62
7
100
AcDbCircle
 10
126.5534070740470
 20
118.4495366043861
 30
0.000000000000000
 40
56.00771975137931
100
AcDbArc
 50
102.3853990591724
 51
102.8960822736140
  0
ARC
  5
102
100
AcDbEntity
  8
A1
  6
CONTINUOUS
 62
7
100
AcDbCircle
 10
114.2331579837176
 20
164.7013501921063
 30
0.000000000000000
 40
8.345129084871864
100
AcDbArc
 50
45.00339734864031
 51
91.23420352435961
  0
ARC
  5
103
100
AcDbEntity
  8
A1
  6
CONTINUOUS
 62
7
100
AcDbCircle
 10
126.5534053713849
 20
177.0230587225702
 30
0.000000000000000
 40
9.079365079365118
100
AcDbArc
 50
18.27384489989155
 51
134.9966026513598
  0
ARC
  5
104
100
AcDbEntity
  8
A1
  6
CONTINUOUS
 62
7
100
AcDbCircle
 10
126.5534053713849
 20
177.0230587225702
 30
0.000000000000000
 40
9.079365079365118
100
AcDbArc
 50
225.0033973486386
 51
341.7261551001088
  0
ARC
  5
105
100
AcDbEntity
  8
A1
  6
CONTINUOUS
 62
7
100
AcDbCircle
 10
114.2331579837176
 20
189.3447672530344
 30
0.000000000000000
 40
8.345129084871864
100
AcDbArc
 50
268.7657964756366
 51
314.9966026513598
  0
ARC
  5
106
100
AcDbEntity
  8
A1
  6
CONTINUOUS
 62
7
100
AcDbCircle
 10
126.5534070740470
 20
235.5965808407545
 30
0.000000000000000
 40
56.00771975137931
100
AcDbArc
 50
257.1039177263855
 51
257.6146009408303
  0
LINE
  5
107
100
AcDbEntity
  8
A1
  6
CONTINUOUS
 62
7
100
AcDbLine
 10
142.0534761541918
 20
173.0887577012481
 30
0.000000000000000
 11
142.0534761541918
 21
180.9573597438919
 31
0.000000000000000
  0
LINE
  5
108
100
AcDbEntity
  8
A1
  6
CONTINUOUS
 62
7
100
AcDbLine
 10
111.0532701804554
 20
180.8077844577908
 30
0.000000000000000
 11
111.0532701804554
 21
173.2383329873492
 31
0.000000000000000
  0
LINE
  5
109
100
AcDbEntity
  8
A1
  6
CONTINUOUS
 62
7
100
AcDbLine
 10
111.0534935676068
 20
180.8057474733183
 30
0.000000000000000
 11
111.1757206969783
 21
180.2484881422997
 31
0.000000000000000
  0
LINE
  5
10A
100
AcDbEntity
  8
A1
  6
CONTINUOUS
 62
7
100
AcDbLine
 10
141.9307156716418
 20
180.2498047065905
 30
0.000000000000000
 11
142.0533488789574
 21
180.9558940892856
 31
0.000000000000000
  0
LINE
  5
10B
100
AcDbEntity
  8
A1
  6
CONTINUOUS
 62
7
100
AcDbLine
 10
137.5534761541918
 20
181.1522337954069
 30
0.000000000000000
 11
137.5534761541918
 21
181.1047239779570
 31
0.000000000000000
  0
LINE
  5
10C
100
AcDbEntity
  8
A1
  6
CONTINUOUS
 62
7
100
AcDbLine
 10
138.2597555817641
 20
181.0222490224211
 30
0.000000000000000
 11
137.5534761541918
 21
181.0222490224211
 31
0.000000000000000
  0
LINE
  5
10D
100
AcDbEntity
  8
A1
  6
CONTINUOUS
 62
7
100
AcDbLine
 10
139.0534039802440
 20
180.9568171578437
 30
0.000000000000000
 11
138.9344912594851
 21
180.2509019893743
 31
0.000000000000000
  0
LINE
  5
10E
100
AcDbEntity
  8
A1
  6
CONTINUOUS
 62
7
100
AcDbLine
 10
114.1718819164269
 20
180.2498758900556
 30
0.000000000000000
 11
114.0534101678501
 21
180.8070059290567
 31
0.000000000000000
  0
LINE
  5
10F
100
AcDbEntity
  8
A1
  6
CONTINUOUS
 62
7
100
AcDbLine
 10
116.0056511328363
 20
180.8923305104297
 30
0.000000000000000
 11
114.5405111889492
 21
180.8923305104297
 31
0.000000000000000
  0
LINE
  5
110
100
AcDbEntity
  8
A1
  6
CONTINUOUS
 62
7
100
AcDbLine
 10
114.5405111889466
 20
173.1537869347103
 30
0.000000000000000
 11
116.0056511328363
 21
173.1537869347103
 31
0.000000000000000
  0
LINE
  5
111
100
AcDbEntity
  8
A1
  6
CONTINUOUS
 62
7
100
AcDbLine
 10
114.0534101678501
 20
173.2391115160832
 30
0.000000000000000
 11
114.1718819164269
 21
173.7962415550845
 31
0.000000000000000
  0
LINE
  5
112
100
AcDbEntity
  8
A1
  6
CONTINUOUS
 62
7
100
AcDbLine
 10
138.9344912594851
 20
173.7952154557657
 30
0.000000000000000
 11
139.0534039802440
 21
173.0893002872962
 31
0.000000000000000
  0
LINE
  5
113
100
AcDbEntity
  8
A1
  6
CONTINUOUS
 62
7
100
AcDbLine
 10
137.5534438899506
 20
173.0238684227189
 30
0.000000000000000
 11
138.2597555817545
 21
173.0238684227189
 31
0.000000000000000
  0
LINE
  5
114
100
AcDbEntity
  8
A1
  6
CONTINUOUS
 62
7
100
AcDbLine
 10
137.5534761541918
 20
172.9413934671837
 30
0.000000000000000
 11
137.5534761541918
 21
172.8938836497328
 31
0.000000000000000
  0
LINE
  5
115
100
AcDbEntity
  8
A1
  6
CONTINUOUS
 62
7
100
AcDbLine
 10
142.0533488789574
 20
173.0902233558544
 30
0.000000000000000
 11
141.9307156716418
 21
173.7963127385497
 31
0.000000000000000
  0
LINE
  5
116
100
AcDbEntity
  8
A1
  6
CONTINUOUS
 62
7
100
AcDbLine
 10
111.1757206969783
 20
173.7976293028404
 30
0.000000000000000
 11
111.0534935676068
 21
173.2403699718215
 31
0.000000000000000
  0
LINE
  5
117
100
AcDbEntity
  8
A4
  6
CENTER
 62
1
100
AcDbLine
 10
143.7741968325788
 20
177.0230587225702
 30
0.000000000000000
 11
105.7806249901599
 21
177.0230587225702
 31
0.000000000000000
  0
LINE
  5
118
100
AcDbEntity
  8
A4
  6
CENTER
 62
1
100
AcDbLine
 10
126.5534053713849
 20
187.6024238019353
 30
0.000000000000000
 11
126.5534053713849
 21
166.5110454164811
 31
0.000000000000000
  0
ENDSEC
  0
SECTION
  2
OBJECTS
  0
DICTIONARY
  5
147
100
AcDbDictionary
  3
ACAD_GROUP
350
148
  3
ACAD_MLINESTYLE
350
149
  0
DICTIONARY
  5
148
102
{ACAD_REACTORS
330
147
102
}
100
AcDbDictionary
  0
DICTIONARY
  5
149
102
{ACAD_REACTORS
330
147
102
}
100
AcDbDictionary
  3
STANDARD
350
14A
  0
MLINESTYLE
  5
14A
102
{ACAD_REACTORS
330
149
102
}
100
AcDbMlineStyle
  2
STANDARD
 70
     0
  3

 62
   256
 51
90.00
 52
90.00
 71
     2
 49
0.50
 62
   256
  6
BYLAYER
 49
-0.50
 62
   256
  6
BYLAYER
  0
ENDSEC
  0
EOF
