  0
SECTION
  2
HEADER
  9
$ACADVER
  1
AC1014
  9
$DWGCODEPAGE
  3
ANSI_932
  9
$LTSCALE
 40
20.0
  9
$FILLMODE
 70
     1
  9
$CLAYER
  8
0
  9
$PDMODE
 70
     0
  9
$SPLFRAME
 70
     0
  9
$SPLINETYPE
 70
     6
  9
$SPLINESEGS
 70
     8
  9
$DIMASZ
 40
2.000000
  9
$DIMEXE
 40
1.500000
  9
$DIMEXO
 40
0.800000
  9
$DIMTAD
 70
     1
  9
$DIMTIH
 70
     0
  9
$DIMTOH
 70
     0
  9
$DIMTVP
 40
0.500000
  9
$DIMTXT
 40
3.100000
  9
$EXTMIN
 10
0.000000
 20
0.000000
 30
0.000000
  9
$EXTMAX
 10
297.000000
 20
420.000000
 30
0.000000
  9
$MEASUREMENT
 70
  1
  9
$LIMMIN
 10
0.000000
 20
0.000000
  9
$LIMMAX
 10
297.000000
 20
420.000000
  9
$HANDLING
 70
     1
  9
$HANDSEED
  5
150
  9
$DIMBLK
  1
_OPEN
  9
$DIMDEC
 70
     2
  9
$DIMAUNIT
 70
     0
  9
$DIMZIN
 70
     8
  9
$DIMTOFL
 70
     1
  0
ENDSEC
  0
SECTION
  2
CLASSES
  0
ENDSEC
  0
SECTION
  2
TABLES
  0
TABLE
  2
VPORT
  5
11E
100
AcDbSymbolTable
 70
     1
  0
VPORT
  5
11F
100
AcDbSymbolTableRecord
100
AcDbViewportTableRecord
  2
*ACTIVE
 70
     0
 12
63.045075
 22
82.514662
 40
129.029323
 41
0.822217
  0
ENDTAB
  0
TABLE
  2
LTYPE
  5
120
100
AcDbSymbolTable
 70
     4
  0
LTYPE
  5
121
100
AcDbSymbolTableRecord
100
AcDbLinetypeTableRecord
  2
BYBLOCK
 70
     0
  3

 72
    65
 73
     0
 40
0.0
  0
LTYPE
  5
122
100
AcDbSymbolTableRecord
100
AcDbLinetypeTableRecord
  2
BYLAYER
 70
     0
  3

 72
    65
 73
     0
 40
0.0
  0
LTYPE
  5
123
100
AcDbSymbolTableRecord
100
AcDbLinetypeTableRecord
  2
CONTINUOUS
 70
     0
  3
Solid line (NEC CAE2D for Win R18.0 : 2026.04.08)
 72
    65
 73
     0
 40
0.0
  0
LTYPE
  5
124
100
AcDbSymbolTableRecord
100
AcDbLinetypeTableRecord
  2
DASHED
 70
     0
  3
__ __ __ __ __ __ __ __ __ __ __ __ __ _
 72
    65
 73
     2
 40
0.75
 49
0.5
 74
     0
 49
-0.25
 74
     0
  0
LTYPE
  5
125
100
AcDbSymbolTableRecord
100
AcDbLinetypeTableRecord
  2
CENTER
 70
     0
  3
____ _ ____ _ ____ _ ____ _ ____ _ ____
 72
    65
 73
     4
 40
2.0
 49
1.25
 74
     0
 49
-0.25
 74
     0
 49
0.25
 74
     0
 49
-0.25
 74
     0
  0
LTYPE
  5
126
100
AcDbSymbolTableRecord
100
AcDbLinetypeTableRecord
  2
PHANTOM
 70
     0
  3
______  __  __  ______  __  __  ______ 
 72
    65
 73
     6
 40
2.5
 49
1.25
 74
     0
 49
-0.25
 74
     0
 49
0.25
 74
     0
 49
-0.25
 74
     0
 49
0.25
 74
     0
 49
-0.25
 74
     0
  0
ENDTAB
  0
TABLE
  2
LAYER
  5
127
100
AcDbSymbolTable
 70
    17
  0
LAYER
  5
128
100
AcDbSymbolTableRecord
100
AcDbLayerTableRecord
  2
0
 70
     0
 62
     7
  6
CONTINUOUS
  0
LAYER
  5
129
100
AcDbSymbolTableRecord
100
AcDbLayerTableRecord
  2
A0
 70
     0
 62
     9
  6
CONTINUOUS
  0
LAYER
  5
12A
100
AcDbSymbolTableRecord
100
AcDbLayerTableRecord
  2
A1
 70
     0
 62
    12
  6
CONTINUOUS
  0
LAYER
  5
12B
100
AcDbSymbolTableRecord
100
AcDbLayerTableRecord
  2
A2
 70
     0
 62
    13
  6
CONTINUOUS
  0
LAYER
  5
12C
100
AcDbSymbolTableRecord
100
AcDbLayerTableRecord
  2
A3
 70
     0
 62
    12
  6
CONTINUOUS
  0
LAYER
  5
12D
100
AcDbSymbolTableRecord
100
AcDbLayerTableRecord
  2
A4
 70
     0
 62
     9
  6
CONTINUOUS
  0
LAYER
  5
12E
100
AcDbSymbolTableRecord
100
AcDbLayerTableRecord
  2
A5
 70
     0
 62
     8
  6
CONTINUOUS
  0
LAYER
  5
12F
100
AcDbSymbolTableRecord
100
AcDbLayerTableRecord
  2
A6
 70
     0
 62
    12
  6
CONTINUOUS
  0
LAYER
  5
130
100
AcDbSymbolTableRecord
100
AcDbLayerTableRecord
  2
A7
 70
     0
 62
    10
  6
CONTINUOUS
  0
LAYER
  5
131
100
AcDbSymbolTableRecord
100
AcDbLayerTableRecord
  2
A8
 70
     0
 62
    10
  6
CONTINUOUS
  0
LAYER
  5
132
100
AcDbSymbolTableRecord
100
AcDbLayerTableRecord
  2
A9
 70
     0
 62
     9
  6
CONTINUOUS
  0
LAYER
  5
133
100
AcDbSymbolTableRecord
100
AcDbLayerTableRecord
  2
A10
 70
     0
 62
     6
  6
CONTINUOUS
  0
LAYER
  5
134
100
AcDbSymbolTableRecord
100
AcDbLayerTableRecord
  2
A20
 70
     0
 62
     1
  6
CONTINUOUS
  0
LAYER
  5
135
100
AcDbSymbolTableRecord
100
AcDbLayerTableRecord
  2
A30
 70
     0
 62
     1
  6
CONTINUOUS
  0
LAYER
  5
136
100
AcDbSymbolTableRecord
100
AcDbLayerTableRecord
  2
A40
 70
     0
 62
     9
  6
CONTINUOUS
  0
LAYER
  5
137
100
AcDbSymbolTableRecord
100
AcDbLayerTableRecord
  2
A50
 70
     0
 62
    12
  6
CONTINUOUS
  0
LAYER
  5
138
100
AcDbSymbolTableRecord
100
AcDbLayerTableRecord
  2
A1023
 70
     0
 62
    16
  6
CONTINUOUS
  0
ENDTAB
  0
TABLE
  2
STYLE
  5
139
100
AcDbSymbolTable
 70
     4
  0
STYLE
  5
13A
100
AcDbSymbolTableRecord
100
AcDbTextStyleTableRecord
  2
STANDARD
 70
    64
 40
0.0
 41
1.0
 50
0.0
 71
     0
 42
3.000000000000000
  3
TXT
  4

  0
STYLE
  5
13B
100
AcDbSymbolTableRecord
100
AcDbTextStyleTableRecord
  2
ANKTATE
 70
    68
 40
0.0
 41
1.0
 50
0.0
 71
     0
 42
3.000000000000000
  3
TXT
  4

  0
STYLE
  5
13C
100
AcDbSymbolTableRecord
100
AcDbTextStyleTableRecord
  2
KNJYOKO
 70
    64
 40
0.0
 41
1.0
 50
0.0
 71
     0
 42
3.000000000000000
  3
TXT
  4
BIGFONT
  0
STYLE
  5
13D
100
AcDbSymbolTableRecord
100
AcDbTextStyleTableRecord
  2
KNJTATE
 70
    68
 40
0.0
 41
1.0
 50
0.0
 71
     0
 42
3.000000000000000
  3
TXT
  4
BIGFONT
  0
ENDTAB
  0
TABLE
  2
VIEW
  5
13E
100
AcDbSymbolTable
 70
     0
  0
ENDTAB
  0
TABLE
  2
UCS
  5
13F
100
AcDbSymbolTable
 70
     0
  0
ENDTAB
  0
TABLE
  2
APPID
  5
140
100
AcDbSymbolTable
 70
     1
  0
APPID
  5
141
100
AcDbSymbolTableRecord
100
AcDbRegAppTableRecord
  2
ACAD
 70
     0
  0
ENDTAB
  0
TABLE
  2
DIMSTYLE
  5
142
100
AcDbSymbolTable
 70
     2
  0
DIMSTYLE
105
143
100
AcDbSymbolTableRecord
100
AcDbDimStyleTableRecord
  2
STANDARD
 70
     0
 41
2.000000
 44
1.500000
 42
0.800000
145
0.661290
140
3.100000
144
1.000000
146
0.645161
340
13A
  0
DIMSTYLE
105
144
100
AcDbSymbolTableRecord
100
AcDbDimStyleTableRecord
  2
A001
 70
     0
 41
2.000000
 44
1.500000
 42
0.800000
145
0.661290
140
3.100000
144
1.000000
146
0.645161
 77
     1
 73
     0
 74
     0
271
     2
275
     0
 78
     8
172
     1
340
13A
  0
ENDTAB
  0
TABLE
  2
BLOCK_RECORD
  5
145
100
AcDbSymbolTable
 70
    12
  0
BLOCK_RECORD
  5
146
100
AcDbSymbolTableRecord
100
AcDbBlockTableRecord
  2
*MODEL_SPACE
  0
BLOCK_RECORD
  5
147
100
AcDbSymbolTableRecord
100
AcDbBlockTableRecord
  2
*PAPER_SPACE
  0
BLOCK_RECORD
  5
1
100
AcDbSymbolTableRecord
100
AcDbBlockTableRecord
  2
_NONE
  0
BLOCK_RECORD
  5
4
100
AcDbSymbolTableRecord
100
AcDbBlockTableRecord
  2
_CLOSED
  0
BLOCK_RECORD
  5
B
100
AcDbSymbolTableRecord
100
AcDbBlockTableRecord
  2
_DOT
  0
BLOCK_RECORD
  5
13
100
AcDbSymbolTableRecord
100
AcDbBlockTableRecord
  2
_OPEN
  0
BLOCK_RECORD
  5
19
100
AcDbSymbolTableRecord
100
AcDbBlockTableRecord
  2
_ORIGIN
  0
BLOCK_RECORD
  5
1E
100
AcDbSymbolTableRecord
100
AcDbBlockTableRecord
  2
_OPEN30
  0
BLOCK_RECORD
  5
24
100
AcDbSymbolTableRecord
100
AcDbBlockTableRecord
  2
_BOXFILLED
  0
BLOCK_RECORD
  5
29
100
AcDbSymbolTableRecord
100
AcDbBlockTableRecord
  2
_BOXBLANK
  0
BLOCK_RECORD
  5
31
100
AcDbSymbolTableRecord
100
AcDbBlockTableRecord
  2
_OBLIQUE
  0
BLOCK_RECORD
  5
35
100
AcDbSymbolTableRecord
100
AcDbBlockTableRecord
  2
_OPEN90
  0
BLOCK_RECORD
  5
3B
100
AcDbSymbolTableRecord
100
AcDbBlockTableRecord
  2
_CLOSEDBLANK
  0
BLOCK_RECORD
  5
41
100
AcDbSymbolTableRecord
100
AcDbBlockTableRecord
  2
_DOTBLANK
  0
ENDTAB
  0
ENDSEC
  0
SECTION
  2
BLOCKS
  0
BLOCK
  5
148
100
AcDbEntity
  8
0
100
AcDbBlockBegin
  2
*MODEL_SPACE
 70
     0
 10
0.0
 20
0.0
 30
0.0
  3
*MODEL_SPACE
  1

  0
ENDBLK
  5
149
100
AcDbEntity
  8
0
100
AcDbBlockEnd
  0
BLOCK
  5
14A
100
AcDbEntity
  8
0
100
AcDbBlockBegin
  2
*PAPER_SPACE
 70
     0
 10
0.0
 20
0.0
 30
0.0
  3
*PAPER_SPACE
  1

  0
ENDBLK
  5
14B
100
AcDbEntity
  8
0
100
AcDbBlockEnd
  0
BLOCK
  5
2
100
AcDbEntity
  8
0
100
AcDbBlockBegin
  2
_NONE
 70
     0
 10
0.0
 20
0.0
 30
0.0
  3
_NONE
  1

  0
ENDBLK
  5
3
100
AcDbEntity
  8
0
100
AcDbBlockEnd
  0
BLOCK
  5
5
100
AcDbEntity
  8
0
100
AcDbBlockBegin
  2
_CLOSED
 70
     0
 10
0.0
 20
0.0
 30
0.0
  3
_CLOSED
  1

  0
LINE
  5
6
100
AcDbEntity
  8
0
  6
BYBLOCK
 62
     0
100
AcDbLine
 10
-1.0
 20
0.166667
 30
0.0
 11
0.0
 21
0.0
 31
0.0
  0
LINE
  5
7
100
AcDbEntity
  8
0
  6
BYBLOCK
 62
     0
100
AcDbLine
 10
0.0
 20
0.0
 30
0.0
 11
-1.0
 21
-0.166667
 31
0.0
  0
LINE
  5
8
100
AcDbEntity
  8
0
  6
BYBLOCK
 62
     0
100
AcDbLine
 10
-1.0
 20
0.166667
 30
0.0
 11
-1.0
 21
-0.166667
 31
0.0
  0
LINE
  5
9
100
AcDbEntity
  8
0
  6
BYBLOCK
 62
     0
100
AcDbLine
 10
0.0
 20
0.0
 30
0.0
 11
-1.0
 21
0.0
 31
0.0
  0
ENDBLK
  5
A
100
AcDbEntity
  8
0
100
AcDbBlockEnd
  0
BLOCK
  5
C
100
AcDbEntity
  8
0
100
AcDbBlockBegin
  2
_DOT
 70
     0
 10
0.0
 20
0.0
 30
0.0
  3
_DOT
  1

  0
POLYLINE
  5
D
100
AcDbEntity
  8
0
  6
BYBLOCK
 62
     0
100
AcDb2dPolyline
 66
     1
 10
0.0
 20
0.0
 30
0.0
 70
     1
 40
0.5
 41
0.5
  0
VERTEX
  5
E
100
AcDbEntity
  8
0
  6
BYBLOCK
 62
     0
100
AcDbVertex
100
AcDb2dVertex
 10
-0.25
 20
0.0
 30
0.0
 42
1.0
  0
VERTEX
  5
F
100
AcDbEntity
  8
0
  6
BYBLOCK
 62
     0
100
AcDbVertex
100
AcDb2dVertex
 10
0.25
 20
0.0
 30
0.0
 42
1.0
  0
SEQEND
  5
10
100
AcDbEntity
  8
0
  6
BYBLOCK
 62
     0
  0
LINE
  5
11
100
AcDbEntity
  8
0
  6
BYBLOCK
 62
     0
100
AcDbLine
 10
-0.5
 20
0.0
 30
0.0
 11
-1.0
 21
0.0
 31
0.0
  0
ENDBLK
  5
12
100
AcDbEntity
  8
0
100
AcDbBlockEnd
  0
BLOCK
  5
14
100
AcDbEntity
  8
0
100
AcDbBlockBegin
  2
_OPEN
 70
     0
 10
0.0
 20
0.0
 30
0.0
  3
_OPEN
  1

  0
LINE
  5
15
100
AcDbEntity
  8
0
  6
BYBLOCK
 62
     0
100
AcDbLine
 10
-1.0
 20
0.166667
 30
0.0
 11
0.0
 21
0.0
 31
0.0
  0
LINE
  5
16
100
AcDbEntity
  8
0
  6
BYBLOCK
 62
     0
100
AcDbLine
 10
0.0
 20
0.0
 30
0.0
 11
-1.0
 21
-0.166667
 31
0.0
  0
LINE
  5
17
100
AcDbEntity
  8
0
  6
BYBLOCK
 62
     0
100
AcDbLine
 10
0.0
 20
0.0
 30
0.0
 11
-1.0
 21
0.0
 31
0.0
  0
ENDBLK
  5
18
100
AcDbEntity
  8
0
100
AcDbBlockEnd
  0
BLOCK
  5
1A
100
AcDbEntity
  8
0
100
AcDbBlockBegin
  2
_ORIGIN
 70
     0
 10
0.0
 20
0.0
 30
0.0
  3
_ORIGIN
  1

  0
CIRCLE
  5
1B
100
AcDbEntity
  8
0
  6
BYBLOCK
 62
     0
100
AcDbCircle
 10
0.0
 20
0.0
 30
0.0
 40
0.5
  0
LINE
  5
1C
100
AcDbEntity
  8
0
  6
BYBLOCK
 62
     0
100
AcDbLine
 10
0.0
 20
0.0
 30
0.0
 11
-1.0
 21
0.0
 31
0.0
  0
ENDBLK
  5
1D
100
AcDbEntity
  8
0
100
AcDbBlockEnd
  0
BLOCK
  5
1F
100
AcDbEntity
  8
0
100
AcDbBlockBegin
  2
_OPEN30
 70
     0
 10
0.0
 20
0.0
 30
0.0
  3
_OPEN30
  1

  0
LINE
  5
20
100
AcDbEntity
  8
0
  6
BYBLOCK
 62
     0
100
AcDbLine
 10
-1.0
 20
0.267949
 30
0.0
 11
0.0
 21
0.0
 31
0.0
  0
LINE
  5
21
100
AcDbEntity
  8
0
  6
BYBLOCK
 62
     0
100
AcDbLine
 10
0.0
 20
0.0
 30
0.0
 11
-1.0
 21
-0.267949
 31
0.0
  0
LINE
  5
22
100
AcDbEntity
  8
0
  6
BYBLOCK
 62
     0
100
AcDbLine
 10
0.0
 20
0.0
 30
0.0
 11
-1.0
 21
0.0
 31
0.0
  0
ENDBLK
  5
23
100
AcDbEntity
  8
0
100
AcDbBlockEnd
  0
BLOCK
  5
25
100
AcDbEntity
  8
0
100
AcDbBlockBegin
  2
_BOXFILLED
 70
     0
 10
0.0
 20
0.0
 30
0.0
  3
_BOXFILLED
  1

  0
SOLID
  5
26
100
AcDbEntity
  8
0
  6
BYBLOCK
 62
     0
100
AcDbTrace
 10
-0.5
 20
0.5
 30
0.0
 11
0.5
 21
0.5
 31
0.0
 12
-0.5
 22
-0.5
 32
0.0
 13
0.5
 23
-0.5
 33
0.0
  0
LINE
  5
27
100
AcDbEntity
  8
0
  6
BYBLOCK
 62
     0
100
AcDbLine
 10
-0.5
 20
0.0
 30
0.0
 11
-1.0
 21
0.0
 31
0.0
  0
ENDBLK
  5
28
100
AcDbEntity
  8
0
100
AcDbBlockEnd
  0
BLOCK
  5
2A
100
AcDbEntity
  8
0
100
AcDbBlockBegin
  2
_BOXBLANK
 70
     0
 10
0.0
 20
0.0
 30
0.0
  3
_BOXBLANK
  1

  0
LINE
  5
2B
100
AcDbEntity
  8
0
  6
BYBLOCK
 62
     0
100
AcDbLine
 10
-0.5
 20
-0.5
 30
0.0
 11
0.5
 21
-0.5
 31
0.0
  0
LINE
  5
2C
100
AcDbEntity
  8
0
  6
BYBLOCK
 62
     0
100
AcDbLine
 10
0.5
 20
-0.5
 30
0.0
 11
0.5
 21
0.5
 31
0.0
  0
LINE
  5
2D
100
AcDbEntity
  8
0
  6
BYBLOCK
 62
     0
100
AcDbLine
 10
0.5
 20
0.5
 30
0.0
 11
-0.5
 21
0.5
 31
0.0
  0
LINE
  5
2E
100
AcDbEntity
  8
0
  6
BYBLOCK
 62
     0
100
AcDbLine
 10
-0.5
 20
0.5
 30
0.0
 11
-0.5
 21
-0.5
 31
0.0
  0
LINE
  5
2F
100
AcDbEntity
  8
0
  6
BYBLOCK
 62
     0
100
AcDbLine
 10
-0.5
 20
0.0
 30
0.0
 11
-1.0
 21
0.0
 31
0.0
  0
ENDBLK
  5
30
100
AcDbEntity
  8
0
100
AcDbBlockEnd
  0
BLOCK
  5
32
100
AcDbEntity
  8
0
100
AcDbBlockBegin
  2
_OBLIQUE
 70
     0
 10
0.0
 20
0.0
 30
0.0
  3
_OBLIQUE
  1

  0
LINE
  5
33
100
AcDbEntity
  8
0
  6
BYBLOCK
 62
     0
100
AcDbLine
 10
-0.5
 20
-0.5
 30
0.0
 11
0.5
 21
0.5
 31
0.0
  0
ENDBLK
  5
34
100
AcDbEntity
  8
0
100
AcDbBlockEnd
  0
BLOCK
  5
36
100
AcDbEntity
  8
0
100
AcDbBlockBegin
  2
_OPEN90
 70
     0
 10
0.0
 20
0.0
 30
0.0
  3
_OPEN90
  1

  0
LINE
  5
37
100
AcDbEntity
  8
0
  6
BYBLOCK
 62
     0
100
AcDbLine
 10
-0.5
 20
0.5
 30
0.0
 11
0.0
 21
0.0
 31
0.0
  0
LINE
  5
38
100
AcDbEntity
  8
0
  6
BYBLOCK
 62
     0
100
AcDbLine
 10
0.0
 20
0.0
 30
0.0
 11
-0.5
 21
-0.5
 31
0.0
  0
LINE
  5
39
100
AcDbEntity
  8
0
  6
BYBLOCK
 62
     0
100
AcDbLine
 10
0.0
 20
0.0
 30
0.0
 11
-1.0
 21
0.0
 31
0.0
  0
ENDBLK
  5
3A
100
AcDbEntity
  8
0
100
AcDbBlockEnd
  0
BLOCK
  5
3C
100
AcDbEntity
  8
0
100
AcDbBlockBegin
  2
_CLOSEDBLANK
 70
     0
 10
0.0
 20
0.0
 30
0.0
  3
_CLOSEDBLANK
  1

  0
LINE
  5
3D
100
AcDbEntity
  8
0
  6
BYBLOCK
 62
     0
100
AcDbLine
 10
-1.0
 20
0.1666666666666666
 30
0.0
 11
0.0
 21
0.0
 31
0.0
  0
LINE
  5
3E
100
AcDbEntity
  8
0
  6
BYBLOCK
 62
     0
100
AcDbLine
 10
0.0
 20
0.0
 30
0.0
 11
-1.0
 21
-0.1666666666666666
 31
0.0
  0
LINE
  5
3F
100
AcDbEntity
  8
0
  6
BYBLOCK
 62
     0
100
AcDbLine
 10
-1.0
 20
0.1666666666666666
 30
0.0
 11
-1.0
 21
-0.1666666666666666
 31
0.0
  0
ENDBLK
  5
40
100
AcDbEntity
  8
0
100
AcDbBlockEnd
  0
BLOCK
  5
42
100
AcDbEntity
  8
0
100
AcDbBlockBegin
  2
_DOTBLANK
 70
     0
 10
0.0
 20
0.0
 30
0.0
  3
_DOTBLANK
  1

  0
CIRCLE
  5
43
100
AcDbEntity
  8
0
  6
BYBLOCK
 62
     0
100
AcDbCircle
 10
0.0
 20
0.0
 30
0.0
 40
0.5
  0
LINE
  5
44
100
AcDbEntity
  8
0
  6
BYBLOCK
 62
     0
100
AcDbLine
 10
-0.5
 20
0.0
 30
0.0
 11
-1.0
 21
0.0
 31
0.0
  0
ENDBLK
  5
45
100
AcDbEntity
  8
0
100
AcDbBlockEnd
  0
ENDSEC
  0
SECTION
  2
ENTITIES
  0
MTEXT
  5
46
100
AcDbEntity
  8
A7
  6
CONTINUOUS
 62
3
100
AcDbMText
 10
9.999997526638502
 20
18.00000076076889
 30
0.000000000000000
 40
3.000000000000000
 41
0.000000000000000
 71
     7
 72
     1
  1
{\H0.93x;{TYPE No.TM-179-2}}
 11
1.000000000000000
 21
0.000000000000000
 31
0.000000000000000
  7
STANDARD
  0
LINE
  5
47
100
AcDbEntity
  8
A1
  6
CONTINUOUS
 62
7
100
AcDbLine
 10
34.02301235306196
 20
88.57228301832527
 30
0.000000000000000
 11
34.02301235306196
 21
84.18339412943635
 31
0.000000000000000
  0
LINE
  5
48
100
AcDbEntity
  8
A1
  6
CONTINUOUS
 62
7
100
AcDbLine
 10
34.64999648004608
 20
83.55641000245222
 30
0.000000000000000
 11
47.18967901972862
 21
83.55641000245222
 31
0.000000000000000
  0
LINE
  5
49
100
AcDbEntity
  8
A1
  6
CONTINUOUS
 62
7
100
AcDbLine
 10
34.02301235306194
 20
86.06434651038876
 30
0.000000000000000
 11
47.81666314671273
 21
86.06434651038876
 31
0.000000000000000
  0
LINE
  5
4A
100
AcDbEntity
  8
A1
  6
CONTINUOUS
 62
7
100
AcDbLine
 10
47.81666314671274
 20
84.18339412943635
 30
0.000000000000000
 11
47.81666314671274
 21
88.57228301832527
 31
0.000000000000000
  0
LINE
  5
4B
100
AcDbEntity
  8
A1
  6
CONTINUOUS
 62
7
100
AcDbLine
 10
38.79623479423735
 20
109.2627592088021
 30
0.000000000000000
 11
43.04344070553873
 21
109.2627592088021
 31
0.000000000000000
  0
ARC
  5
4C
100
AcDbEntity
  8
A1
  6
CONTINUOUS
 62
7
100
AcDbCircle
 10
40.91983774988734
 20
89.19926714530931
 30
0.000000000000000
 40
5.642857142857141
100
AcDbArc
 50
173.6206297915572
 51
186.3793702084428
  0
ARC
  5
4D
100
AcDbEntity
  8
A1
  6
CONTINUOUS
 62
7
100
AcDbCircle
 10
40.91983774988734
 20
89.19926714530931
 30
0.000000000000000
 40
5.642857142857141
100
AcDbArc
 50
353.6206297915572
 51
366.3793702084428
  0
LINE
  5
4E
100
AcDbEntity
  8
A1
  6
CONTINUOUS
 62
7
100
AcDbLine
 10
44.48556537913390
 20
89.82625127229338
 30
0.000000000000000
 11
46.52775426488674
 21
89.82625127229338
 31
0.000000000000000
  0
LINE
  5
4F
100
AcDbEntity
  8
A1
  6
CONTINUOUS
 62
7
100
AcDbLine
 10
35.31192123488785
 20
89.82625127229352
 30
0.000000000000000
 11
37.35411012064233
 21
89.82625127229352
 31
0.000000000000000
  0
LINE
  5
50
100
AcDbEntity
  8
A1
  6
CONTINUOUS
 62
7
100
AcDbLine
 10
44.53986890671662
 20
88.57228301832527
 30
0.000000000000000
 11
47.81666314671274
 21
88.57228301832527
 31
0.000000000000000
  0
LINE
  5
51
100
AcDbEntity
  8
A1
  6
CONTINUOUS
 62
7
100
AcDbLine
 10
34.02301235306196
 20
88.57228301832527
 30
0.000000000000000
 11
37.29980659305964
 21
88.57228301832527
 31
0.000000000000000
  0
ARC
  5
52
100
AcDbEntity
  8
A1
  6
CONTINUOUS
 62
7
100
AcDbCircle
 10
38.79623479423735
 20
108.6357750818180
 30
0.000000000000000
 40
0.6269841269841268
100
AcDbArc
 50
90.00000000000000
 51
177.5889702533900
  0
ARC
  5
53
100
AcDbEntity
  8
A1
  6
CONTINUOUS
 62
7
100
AcDbCircle
 10
43.04344070553873
 20
108.6357750818181
 30
0.000000000000000
 40
0.6269841269841268
100
AcDbArc
 50
2.411029746609894
 51
90.00000000000000
  0
ARC
  5
54
100
AcDbEntity
  8
A1
  6
CONTINUOUS
 62
7
100
AcDbCircle
 10
34.64999648004606
 20
84.18339412943635
 30
0.000000000000000
 40
0.6269841269841268
100
AcDbArc
 50
180.0000000000000
 51
270.0000000000000
  0
ARC
  5
55
100
AcDbEntity
  8
A1
  6
CONTINUOUS
 62
7
100
AcDbCircle
 10
47.18967901972860
 20
84.18339412943629
 30
0.000000000000000
 40
0.6269841269841268
100
AcDbArc
 50
270.0000000000000
 51
360.0000000000000
  0
LINE
  5
56
100
AcDbEntity
  8
A1
  6
CONTINUOUS
 62
7
100
AcDbLine
 10
43.92936155941103
 20
79.41831476435769
 30
0.000000000000000
 11
43.92936155941103
 21
83.55641000245296
 31
0.000000000000000
  0
LINE
  5
57
100
AcDbEntity
  8
A1
  6
CONTINUOUS
 62
7
100
AcDbLine
 10
37.91031394036348
 20
79.41831476435769
 30
0.000000000000000
 11
37.91031394036348
 21
83.55641000245296
 31
0.000000000000000
  0
LINE
  5
58
100
AcDbEntity
  8
A1
  6
CONTINUOUS
 62
7
100
AcDbLine
 10
36.34285362290318
 20
79.41831476435769
 30
0.000000000000000
 11
45.49682187687145
 21
79.41831476435769
 31
0.000000000000000
  0
LINE
  5
59
100
AcDbEntity
  8
A1
  6
CONTINUOUS
 62
7
100
AcDbLine
 10
36.34285362290303
 20
79.41831476435766
 30
0.000000000000000
 11
36.34285362290097
 21
70.71613829724924
 31
0.000000000000000
  0
LINE
  5
5A
100
AcDbEntity
  8
A1
  6
CONTINUOUS
 62
7
100
AcDbLine
 10
45.49682187687137
 20
79.41831476435762
 30
0.000000000000000
 11
45.49682187687338
 21
70.71613829724943
 31
0.000000000000000
  0
LINE
  5
5B
100
AcDbEntity
  8
A1
  6
CONTINUOUS
 62
7
100
AcDbLine
 10
34.21110759115618
 20
75.59371158975461
 30
0.000000000000000
 11
34.21110759115555
 21
72.96037825642122
 31
0.000000000000000
  0
LINE
  5
5C
100
AcDbEntity
  8
A1
  6
CONTINUOUS
 62
7
100
AcDbLine
 10
35.71586949591843
 20
76.89165142705149
 30
0.000000000000000
 11
35.71586949591718
 21
71.66243841912312
 31
0.000000000000000
  0
ARC
  5
5D
100
AcDbEntity
  8
A1
  6
CONTINUOUS
 62
7
100
AcDbCircle
 10
36.02936155941011
 20
74.27704492308723
 30
0.000000000000000
 40
2.633333333333332
100
AcDbArc
 50
83.16285883185685
 51
96.83714116812830
  0
ARC
  5
5E
100
AcDbEntity
  8
A1
  6
CONTINUOUS
 62
7
100
AcDbCircle
 10
36.02936155941011
 20
74.27704492308723
 30
0.000000000000000
 40
2.633333333333332
100
AcDbArc
 50
263.1628588318443
 51
276.8371411681159
  0
ARC
  5
5F
100
AcDbEntity
  8
A1
  6
CONTINUOUS
 62
7
100
AcDbCircle
 10
36.65895812025656
 20
74.27704492308709
 30
0.000000000000000
 40
2.779493357417669
100
AcDbArc
 50
109.8343750916045
 51
151.7247754854991
  0
ARC
  5
60
100
AcDbEntity
  8
A1
  6
CONTINUOUS
 62
7
100
AcDbCircle
 10
36.65895812025656
 20
74.27704492308709
 30
0.000000000000000
 40
2.779493357417669
100
AcDbArc
 50
208.2752245144736
 51
250.1656249083682
  0
ARC
  5
61
100
AcDbEntity
  8
A1
  6
CONTINUOUS
 62
7
100
AcDbCircle
 10
109.9357970321582
 20
57.83070606870527
 30
0.000000000000000
 40
74.69948519087902
100
AcDbArc
 50
170.1834864688138
 51
186.0558584368291
  0
ARC
  5
62
100
AcDbEntity
  8
A1
  6
CONTINUOUS
 62
7
100
AcDbCircle
 10
35.46507584512327
 20
70.71613829724950
 30
0.000000000000000
 40
0.8777777777777775
100
AcDbArc
 50
350.1834864688138
 51
360.0000000000000
  0
ARC
  5
63
100
AcDbEntity
  8
A1
  6
CONTINUOUS
 62
7
100
AcDbCircle
 10
-28.09612153238356
 20
57.83070606870527
 30
0.000000000000000
 40
74.69948519087902
100
AcDbArc
 50
353.9441415631709
 51
369.8165135311862
  0
ARC
  5
64
100
AcDbEntity
  8
A1
  6
CONTINUOUS
 62
7
100
AcDbCircle
 10
46.37459965465140
 20
70.71613829724950
 30
0.000000000000000
 40
0.8777777777777775
100
AcDbArc
 50
180.0000000000000
 51
189.8165135311862
  0
LINE
  5
65
100
AcDbEntity
  8
A1
  6
CONTINUOUS
 62
7
100
AcDbLine
 10
35.90396473401428
 20
48.06910841515134
 30
0.000000000000000
 11
35.90396473401424
 21
43.05323539927728
 31
0.000000000000000
  0
LINE
  5
66
100
AcDbEntity
  8
A1
  6
CONTINUOUS
 62
7
100
AcDbLine
 10
45.93571076576035
 20
48.06910841515142
 30
0.000000000000000
 11
45.93571076576028
 21
43.05323539927727
 31
0.000000000000000
  0
LINE
  5
67
100
AcDbEntity
  8
A1
  6
CONTINUOUS
 62
7
100
AcDbLine
 10
36.78174251179213
 20
48.06910841515133
 30
0.000000000000000
 11
36.78174251179209
 21
43.05323539927733
 31
0.000000000000000
  0
LINE
  5
68
100
AcDbEntity
  8
A1
  6
CONTINUOUS
 62
7
100
AcDbLine
 10
45.05793298798259
 20
48.06910841515138
 30
0.000000000000000
 11
45.05793298798252
 21
43.05323539927728
 31
0.000000000000000
  0
LINE
  5
69
100
AcDbEntity
  8
A1
  6
CONTINUOUS
 62
7
100
AcDbLine
 10
43.92936155941105
 20
43.05323539927832
 30
0.000000000000000
 11
45.93571076576029
 21
43.05323539927832
 31
0.000000000000000
  0
LINE
  5
6A
100
AcDbEntity
  8
A1
  6
CONTINUOUS
 62
7
100
AcDbLine
 10
35.90396473401427
 20
43.05323539927832
 30
0.000000000000000
 11
37.91031394036349
 21
43.05323539927832
 31
0.000000000000000
  0
ARC
  5
6B
100
AcDbEntity
  8
A1
  6
CONTINUOUS
 62
7
100
AcDbCircle
 10
40.91983774988734
 20
63.96224752453151
 30
0.000000000000000
 40
6.678289462048421
100
AcDbArc
 50
54.31459240566181
 51
125.6854075943382
  0
ARC
  5
6C
100
AcDbEntity
  8
A1
  6
CONTINUOUS
 62
7
100
AcDbCircle
 10
40.91983774988726
 20
70.51623789605819
 30
0.000000000000000
 40
9.280462814240177
100
AcDbArc
 50
239.8691025806063
 51
300.1308974193937
  0
ARC
  5
6D
100
AcDbEntity
  8
A1
  6
CONTINUOUS
 62
7
100
AcDbCircle
 10
40.91983774988726
 20
33.39767984372273
 30
0.000000000000000
 40
3.134920634920634
100
AcDbArc
 50
193.3664551688380
 51
346.6335448311642
  0
ELLIPSE
  5
6E
100
AcDbEntity
  8
A1
  6
CONTINUOUS
 62
7
100
AcDbEllipse
 10
40.91983774988726
 20
47.09728301832598
 30
0.000000000000000
 11
-3.134920634920634
 21
0.000000000000000
 31
0.000000000000000
210
0.000000000000000
220
0.000000000000000
230
1.000000000000000
 40
0.1900000000000000
 41
3.374881305605643
 42
6.049896655163168
  0
ELLIPSE
  5
6F
100
AcDbEntity
  8
A1
  6
CONTINUOUS
 62
7
100
AcDbEllipse
 10
40.91983774988726
 20
47.09728301832598
 30
0.000000000000000
 11
-3.134920634920634
 21
0.000000000000000
 31
0.000000000000000
210
0.000000000000000
220
0.000000000000000
230
1.000000000000000
 40
0.1900000000000000
 41
0.2332886520162913
 42
2.908304001573992
  0
ARC
  5
70
100
AcDbEntity
  8
A1
  6
CONTINUOUS
 62
7
100
AcDbCircle
 10
28.72499648004590
 20
48.06910841515133
 30
0.000000000000000
 40
7.178968253968387
100
AcDbArc
 50
0.000000000000000
 51
15.18928673718275
  0
ARC
  5
71
100
AcDbEntity
  8
A1
  6
CONTINUOUS
 62
7
100
AcDbCircle
 10
34.64999648004606
 20
48.06910841515133
 30
0.000000000000000
 40
2.131746031745981
100
AcDbArc
 50
0.000000000000000
 51
61.92751306414806
  0
ARC
  5
72
100
AcDbEntity
  8
A1
  6
CONTINUOUS
 62
7
100
AcDbCircle
 10
47.18967901972846
 20
48.06910841515133
 30
0.000000000000000
 40
2.131746031745981
100
AcDbArc
 50
118.0724869358520
 51
180.0000000000000
  0
ARC
  5
73
100
AcDbEntity
  8
A1
  6
CONTINUOUS
 62
7
100
AcDbCircle
 10
53.11467901972870
 20
48.06910841515133
 30
0.000000000000000
 40
7.178968253968387
100
AcDbArc
 50
164.8107132628172
 51
180.0000000000000
  0
LINE
  5
74
100
AcDbEntity
  8
A4
  6
CENTER
 62
1
100
AcDbLine
 10
49.25872663877738
 20
74.27704492308719
 30
0.000000000000000
 11
31.99851238188648
 21
74.27704492308705
 31
0.000000000000000
  0
LINE
  5
75
100
AcDbEntity
  8
A4
  6
CENTER
 62
1
100
AcDbLine
 10
34.02301235306189
 20
43.74291793896080
 30
0.000000000000000
 11
47.81666314671267
 21
43.74291793896080
 31
0.000000000000000
  0
LINE
  5
76
100
AcDbEntity
  8
A1
  6
CONTINUOUS
 62
7
100
AcDbLine
 10
111.1439754979824
 20
86.06434651038796
 30
0.000000000000000
 11
95.65020560053379
 21
86.06434651038828
 31
0.000000000000000
  0
LINE
  5
77
100
AcDbEntity
  8
A1
  6
CONTINUOUS
 62
7
100
AcDbLine
 10
111.1439754979824
 20
83.55641000245149
 30
0.000000000000000
 11
97.10136898169171
 21
83.55641000245174
 31
0.000000000000000
  0
LINE
  5
78
100
AcDbEntity
  8
A1
  6
CONTINUOUS
 62
7
100
AcDbLine
 10
110.2680356483584
 20
88.57228301832448
 30
0.000000000000000
 11
95.65020560053384
 21
88.57228301832477
 31
0.000000000000000
  0
LINE
  5
79
100
AcDbEntity
  8
A1
  6
CONTINUOUS
 62
7
100
AcDbLine
 10
96.47438485470758
 20
84.18339412943588
 30
0.000000000000000
 11
96.47438485470764
 21
86.06434651038826
 31
0.000000000000000
  0
LINE
  5
7A
100
AcDbEntity
  8
A1
  6
CONTINUOUS
 62
7
100
AcDbLine
 10
110.2680356483584
 20
86.69133063737210
 30
0.000000000000000
 11
110.2680356483584
 21
88.57228301832448
 31
0.000000000000000
  0
ARC
  5
7B
100
AcDbEntity
  8
A1
  6
CONTINUOUS
 62
7
100
AcDbCircle
 10
111.1439754979824
 20
87.31831476435622
 30
0.000000000000000
 40
1.253968253968254
100
AcDbArc
 50
269.9999999999989
 51
366.1180565509077
  0
ARC
  5
7C
100
AcDbEntity
  8
A1
  6
CONTINUOUS
 62
7
100
AcDbCircle
 10
95.65020560053389
 20
89.82625127229304
 30
0.000000000000000
 40
1.253968253968254
100
AcDbArc
 50
172.9493568920225
 51
269.9999999999989
  0
ARC
  5
7D
100
AcDbEntity
  8
A1
  6
CONTINUOUS
 62
7
100
AcDbCircle
 10
111.1439754979824
 20
87.31831476435622
 30
0.000000000000000
 40
3.761904761904761
100
AcDbArc
 50
269.9999999999989
 51
366.1180565509077
  0
ARC
  5
7E
100
AcDbEntity
  8
A1
  6
CONTINUOUS
 62
7
100
AcDbCircle
 10
95.65020560053389
 20
89.82625127229304
 30
0.000000000000000
 40
3.761904761904761
100
AcDbArc
 50
172.9493568920225
 51
269.9999999999989
  0
LINE
  5
7F
100
AcDbEntity
  8
A1
  6
CONTINUOUS
 62
7
100
AcDbLine
 10
108.9791267665325
 20
89.82625127229278
 30
0.000000000000000
 11
97.76329373653370
 21
89.82625127229298
 31
0.000000000000000
  0
ARC
  5
80
100
AcDbEntity
  8
A1
  6
CONTINUOUS
 62
7
100
AcDbCircle
 10
103.3712102515331
 20
89.19926714530877
 30
0.000000000000000
 40
5.642857142857141
100
AcDbArc
 50
353.6206297915560
 51
366.3793702084416
  0
ARC
  5
81
100
AcDbEntity
  8
A1
  6
CONTINUOUS
 62
7
100
AcDbCircle
 10
103.3712102515331
 20
89.19926714530877
 30
0.000000000000000
 40
5.642857142857141
100
AcDbArc
 50
173.6206297915561
 51
186.3793702084417
  0
ARC
  5
82
100
AcDbEntity
  8
A1
  6
CONTINUOUS
 62
7
100
AcDbCircle
 10
97.10136898169171
 20
84.18339412943584
 30
0.000000000000000
 40
0.6269841269841268
100
AcDbArc
 50
179.9999999999989
 51
269.9999999999989
  0
ARC
  5
83
100
AcDbEntity
  8
A1
  6
CONTINUOUS
 62
7
100
AcDbCircle
 10
109.6410515213743
 20
86.69133063737212
 30
0.000000000000000
 40
0.6269841269841268
100
AcDbArc
 50
269.9999999999989
 51
359.9999999999989
  0
LINE
  5
84
100
AcDbEntity
  8
A1
  6
CONTINUOUS
 62
7
100
AcDbLine
 10
100.2362896166122
 20
79.29291793895953
 30
0.000000000000000
 11
100.2362896166123
 21
83.55641000245168
 31
0.000000000000000
  0
LINE
  5
85
100
AcDbEntity
  8
A1
  6
CONTINUOUS
 62
7
100
AcDbLine
 10
106.5061308864535
 20
78.19255954112985
 30
0.000000000000000
 11
106.5061308864536
 21
83.55641000245153
 31
0.000000000000000
  0
LINE
  5
86
100
AcDbEntity
  8
A4
  6
CENTER
 62
1
100
AcDbLine
 10
103.3712102515336
 20
111.1437115897532
 30
0.000000000000000
 11
103.3712102515327
 21
69.76275920880082
 31
0.000000000000000
  0
LINE
  5
87
100
AcDbEntity
  8
A4
  6
CENTER
 62
1
100
AcDbLine
 10
107.8854959658185
 20
74.27704492308645
 30
0.000000000000000
 11
98.85692453724704
 21
74.27704492308662
 31
0.000000000000000
  0
ARC
  5
88
100
AcDbEntity
  8
A1
  6
CONTINUOUS
 62
7
100
AcDbCircle
 10
103.3712102515328
 20
74.27704492308658
 30
0.000000000000000
 40
5.015873015873014
100
AcDbArc
 50
295.8981932192953
 51
449.9999999999989
  0
LINE
  5
89
100
AcDbEntity
  8
A1
  6
CONTINUOUS
 62
7
100
AcDbLine
 10
103.3712102515329
 20
79.29291793895955
 30
0.000000000000000
 11
91.20771818804074
 21
79.29291793895980
 31
0.000000000000000
  0
LINE
  5
8A
100
AcDbEntity
  8
A1
  6
CONTINUOUS
 62
7
100
AcDbLine
 10
91.20771818804079
 20
79.29291793895970
 30
0.000000000000000
 11
92.38399554977821
 21
71.17660414295059
 31
0.000000000000000
  0
ARC
  5
8B
100
AcDbEntity
  8
A1
  6
CONTINUOUS
 62
7
100
AcDbCircle
 10
95.30557431323959
 20
66.10684908804609
 30
0.000000000000000
 40
5.351824379170910
100
AcDbArc
 50
127.4761145232165
 51
229.2862864052355
  0
ARC
  5
8C
100
AcDbEntity
  8
A1
  6
CONTINUOUS
 62
7
100
AcDbCircle
 10
88.95190339576273
 20
58.72360042347006
 30
0.000000000000000
 40
4.388888888888888
100
AcDbArc
 50
6.340191745914350
 51
49.28628640523555
  0
LINE
  5
8D
100
AcDbEntity
  8
A1
  6
CONTINUOUS
 62
7
100
AcDbLine
 10
94.34263882295775
 20
49.95006079610263
 30
0.000000000000000
 11
93.31394867571917
 21
59.20827212124331
 31
0.000000000000000
  0
ARC
  5
8E
100
AcDbEntity
  8
A1
  6
CONTINUOUS
 62
7
100
AcDbCircle
 10
91.51529346843343
 20
71.05070529058224
 30
0.000000000000000
 40
0.8777777777777775
100
AcDbArc
 50
307.4761145232167
 51
368.2463208144474
  0
ARC
  5
8F
100
AcDbEntity
  8
A1
  6
CONTINUOUS
 62
7
100
AcDbCircle
 10
100.7290417660778
 20
43.74291793895961
 30
0.000000000000000
 40
13.48015873015873
100
AcDbArc
 50
168.1909207825552
 51
380.0930942098104
  0
ARC
  5
90
100
AcDbEntity
  8
A1
  6
CONTINUOUS
 62
7
100
AcDbCircle
 10
87.67951239281143
 20
63.65724444914392
 30
0.000000000000000
 40
21.08376135078468
100
AcDbArc
 50
357.0109831964004
 51
381.0517272287697
  0
LINE
  5
91
100
AcDbEntity
  8
A1
  6
CONTINUOUS
 62
7
100
AcDbLine
 10
109.1076702153754
 20
60.07692178184735
 30
0.000000000000000
 11
113.3887396150121
 21
48.37397934688394
 31
0.000000000000000
  0
LINE
  5
92
100
AcDbEntity
  8
A1
  6
CONTINUOUS
 62
7
100
AcDbLine
 10
103.2194386577314
 20
57.92293973164995
 30
0.000000000000000
 11
107.5005080573681
 21
46.21999729668653
 31
0.000000000000000
  0
ARC
  5
93
100
AcDbEntity
  8
A1
  6
CONTINUOUS
 62
7
100
AcDbCircle
 10
114.9959017730191
 20
62.23090383204462
 30
0.000000000000000
 40
6.269841269841268
100
AcDbArc
 50
177.0109831964003
 51
200.0930942098105
  0
ARC
  5
94
100
AcDbEntity
  8
A1
  6
CONTINUOUS
 62
7
100
AcDbCircle
 10
114.9959017730191
 20
62.23090383204462
 30
0.000000000000000
 40
12.53968253968254
100
AcDbArc
 50
177.0109831964003
 51
200.0930942098105
  0
ARC
  5
95
100
AcDbEntity
  8
A1
  6
CONTINUOUS
 62
7
100
AcDbCircle
 10
111.3172546730256
 20
60.31445647146623
 30
0.000000000000000
 40
11.04941559708552
100
AcDbArc
 50
121.3487499652133
 51
177.2745499926594
  0
ARC
  5
96
100
AcDbEntity
  8
A1
  6
CONTINUOUS
 62
7
100
AcDbCircle
 10
87.67951239281143
 20
63.65724444914392
 30
0.000000000000000
 40
14.81392008094333
100
AcDbArc
 50
357.0109831964004
 51
371.3178037552324
  0
ARC
  5
97
100
AcDbEntity
  8
A1
  6
CONTINUOUS
 62
7
100
AcDbCircle
 10
102.1139322825384
 20
63.34811892931586
 30
0.000000000000000
 40
0.3761904761904761
100
AcDbArc
 50
190.4999999999943
 51
370.5000000000050
  0
ARC
  5
98
100
AcDbEntity
  8
A1
  6
CONTINUOUS
 62
7
100
AcDbCircle
 10
87.67951239281143
 20
63.65724444914392
 30
0.000000000000000
 40
14.81391522486799
100
AcDbArc
 50
357.0109831964004
 51
371.3177854682148
  0
LINE
  5
99
100
AcDbEntity
  8
A1
  6
CONTINUOUS
 62
7
100
AcDbLine
 10
101.7440411506453
 20
63.27956366020204
 30
0.000000000000000
 11
101.3931748836893
 21
65.17266862945237
 31
0.000000000000000
  0
ARC
  5
9A
100
AcDbEntity
  8
A1
  6
CONTINUOUS
 62
7
100
AcDbCircle
 10
101.3487380825471
 20
63.34811892931586
 30
0.000000000000000
 40
0.3761904761904761
100
AcDbArc
 50
190.5000000000051
 51
370.4999999999997
  0
LINE
  5
9B
100
AcDbEntity
  8
A1
  6
CONTINUOUS
 62
7
100
AcDbLine
 10
100.9788469506538
 20
63.27956366020217
 30
0.000000000000000
 11
100.8645286652230
 21
63.89636993258266
 31
0.000000000000000
  0
LINE
  5
9C
100
AcDbEntity
  8
A1
  6
CONTINUOUS
 62
7
100
AcDbLine
 10
102.4838234144313
 20
63.41667419842939
 30
0.000000000000000
 11
101.9674690562556
 21
66.20267300600057
 31
0.000000000000000
  0
LINE
  5
9D
100
AcDbEntity
  8
A4
  6
CENTER
 62
1
100
AcDbLine
 10
100.7290417660781
 20
59.10402905007063
 30
0.000000000000000
 11
100.7290417660774
 21
28.38180682784843
 31
0.000000000000000
  0
LINE
  5
9E
100
AcDbEntity
  8
A4
  6
CENTER
 62
1
100
AcDbLine
 10
116.0901528771889
 20
43.74291793895923
 30
0.000000000000000
 11
85.36793065496667
 21
43.74291793895986
 31
0.000000000000000
  0
LINE
  5
9F
100
AcDbEntity
  8
A3
  6
DASHED
 62
2
100
AcDbLine
 10
93.51872430576117
 20
45.06047641957999
 30
0.000000000000000
 11
93.51872430576270
 21
47.51155745857448
 31
0.000000000000000
  0
LINE
  5
A0
100
AcDbEntity
  8
A5
  6
PHANTOM
 62
6
100
AcDbLine
 10
101.7378270444250
 20
79.01951700103297
 30
0.000000000000000
 11
90.23733225540494
 21
75.05856272379646
 31
0.000000000000000
  0
LINE
  5
A1
100
AcDbEntity
  8
A5
  6
PHANTOM
 62
6
100
AcDbLine
 10
90.23733225540498
 20
75.05856272379644
 30
0.000000000000000
 11
93.99251368491360
 21
67.76769237119126
 31
0.000000000000000
  0
ARC
  5
A2
100
AcDbEntity
  8
A5
  6
PHANTOM
 62
6
100
AcDbCircle
 10
98.40577502745884
 20
63.92566645896284
 30
0.000000000000000
 40
5.351824379170910
100
AcDbArc
 50
146.4806412032776
 51
248.2908130852966
  0
ARC
  5
A3
100
AcDbEntity
  8
A5
  6
PHANTOM
 62
6
100
AcDbCircle
 10
94.80272676870467
 20
54.87583009493702
 30
0.000000000000000
 40
4.388888888888888
100
AcDbArc
 50
25.34471842597543
 51
68.29081308529663
  0
ARC
  5
A4
100
AcDbEntity
  8
A5
  6
PHANTOM
 62
6
100
AcDbCircle
 10
103.5237391979311
 20
46.91496327537033
 30
0.000000000000000
 40
3.470673931819366
100
AcDbArc
 50
197.0351421360980
 51
293.9420181030832
  0
SPLINE
  5
A5
100
AcDbEntity
  8
A5
  6
PHANTOM
 62
6
100
AcDbSpline
210
0.000000000000000
220
0.000000000000000
230
1.000000000000000
 70
     8
 71
     3
 72
     8
 73
     4
 74
     0
 42
1.000000000000000e-07
 43
1.000000000000000e-07
 12
-1.052850398801425
 22
-0.5251039927517951
 32
0.000000000000000
 13
-0.2197976299917883
 23
-0.8450643071379389
 33
0.000000000000000
 40
0.000000000000000
 40
0.000000000000000
 40
0.000000000000000
 40
0.000000000000000
 40
2.931843512537240
 40
2.931843512537240
 40
2.931843512537240
 40
2.931843512537240
 10
102.3567849943364
 20
49.23041751857116
 30
0.000000000000000
 10
101.3278541238704
 20
48.71724327371891
 30
0.000000000000000
 10
100.2989232534043
 20
48.20406902886657
 30
0.000000000000000
 10
100.0841191682168
 20
47.37820359334685
 30
0.000000000000000
  0
LINE
  5
A6
100
AcDbEntity
  8
A5
  6
PHANTOM
 62
6
100
AcDbLine
 10
104.9321801533015
 20
43.74291793895947
 30
0.000000000000000
 11
102.3375525614836
 21
49.22082526280056
 31
0.000000000000000
  0
LINE
  5
A7
100
AcDbEntity
  8
A5
  6
PHANTOM
 62
6
100
AcDbLine
 10
102.7566690656993
 20
48.33596557225145
 30
0.000000000000000
 11
98.76917952136967
 21
56.75455259703487
 31
0.000000000000000
  0
ARC
  5
A8
100
AcDbEntity
  8
A5
  6
PHANTOM
 62
6
100
AcDbCircle
 10
99.65366327277235
 20
54.88718633803623
 30
0.000000000000000
 40
6.269841269841268
100
AcDbArc
 50
295.3447184259757
 51
372.6844146498399
  0
ARC
  5
A9
100
AcDbEntity
  8
A5
  6
PHANTOM
 62
6
100
AcDbCircle
 10
93.21216013904186
 20
67.36576928077980
 30
0.000000000000000
 40
0.8777777777777775
100
AcDbArc
 50
326.4806412032777
 51
387.2508474945085
  0
ARC
  5
AA
100
AcDbEntity
  8
A5
  6
PHANTOM
 62
6
100
AcDbCircle
 10
115.4309556063818
 20
63.66308994890957
 30
0.000000000000000
 40
11.04941559708552
100
AcDbArc
 50
140.3532766452744
 51
196.2790766727205
  0
LINE
  5
AB
100
AcDbEntity
  8
A3
  6
DASHED
 62
2
100
AcDbLine
 10
93.51872430576270
 20
47.51155745857631
 30
0.000000000000000
 11
91.35250880000696
 21
47.14600158355749
 31
0.000000000000000
  0
LINE
  5
AC
100
AcDbEntity
  8
A1
  6
CONTINUOUS
 62
7
100
AcDbLine
 10
91.35250880000699
 20
47.14600158355748
 30
0.000000000000000
 11
87.53419097868398
 21
46.50164809769004
 31
0.000000000000000
  0
ARC
  5
AD
100
AcDbEntity
  8
A1
  6
CONTINUOUS
 62
7
100
AcDbCircle
 10
100.7290417660778
 20
43.74291793895961
 30
0.000000000000000
 40
7.210317460317458
100
AcDbArc
 50
180.0000000000000
 51
380.0930942098104
  0
LINE
  5
AE
100
AcDbEntity
  8
A4
  6
CENTER
 62
1
100
AcDbLine
 10
40.91983774988723
 20
28.38180682784976
 30
0.000000000000000
 11
40.91983774988805
 21
111.1437115897545
 31
0.000000000000000
  0
LINE
  5
AF
100
AcDbEntity
  8
A1
  6
CONTINUOUS
 62
7
100
AcDbLine
 10
95.74310515437580
 20
100.0557223187957
 30
0.000000000000000
 11
94.40714098189629
 21
89.99125653236524
 31
0.000000000000000
  0
LINE
  5
B0
100
AcDbEntity
  8
A1
  6
CONTINUOUS
 62
7
100
AcDbLine
 10
93.25697506313257
 20
100.3857264055857
 30
0.000000000000000
 11
91.92101174462096
 21
90.32126705250940
 31
0.000000000000000
  0
LINE
  5
B1
100
AcDbEntity
  8
A1
  6
CONTINUOUS
 62
7
100
AcDbLine
 10
111.0605096804813
 20
99.86279730501579
 30
0.000000000000000
 11
112.3908016579263
 21
87.45195947558665
 31
0.000000000000000
  0
LINE
  5
B2
100
AcDbEntity
  8
A1
  6
CONTINUOUS
 62
7
100
AcDbLine
 10
113.5541626920336
 20
100.1300802746549
 30
0.000000000000000
 11
114.8844539778139
 21
87.71924889804751
 31
0.000000000000000
  0
ARC
  5
B3
100
AcDbEntity
  8
A1
  6
CONTINUOUS
 62
7
100
AcDbCircle
 10
103.3712102515331
 20
87.52730947335121
 30
0.000000000000000
 40
6.060846560846429
100
AcDbArc
 50
22.29097037475698
 51
157.7090296252410
  0
LINE
  5
B4
100
AcDbEntity
  8
A1
  6
CONTINUOUS
 62
7
100
AcDbLine
 10
44.62776008793236
 20
86.54271411268685
 30
0.000000000000000
 11
43.66983774988803
 21
108.6629014217935
 31
0.000000000000000
  0
LINE
  5
B5
100
AcDbEntity
  8
A1
  6
CONTINUOUS
 62
7
100
AcDbLine
 10
38.16983774988803
 20
108.6629014217934
 30
0.000000000000000
 11
37.21191541184392
 21
86.54271411268682
 31
0.000000000000000
  0
ARC
  5
B6
100
AcDbEntity
  8
A1
  6
CONTINUOUS
 62
7
100
AcDbCircle
 10
40.91983774988779
 20
87.52730947335169
 30
0.000000000000000
 40
6.060846560846429
100
AcDbArc
 50
22.29097037475779
 51
55.30968959206848
  0
ARC
  5
B7
100
AcDbEntity
  8
A1
  6
CONTINUOUS
 62
7
100
AcDbCircle
 10
40.91983774988779
 20
87.52730947335169
 30
0.000000000000000
 40
6.060846560846429
100
AcDbArc
 50
124.6903104079239
 51
157.7090296252419
  0
CIRCLE
  5
B8
100
AcDbEntity
  8
A5
  6
PHANTOM
 62
6
100
AcDbCircle
 10
100.7290417660777
 20
39.66752111356277
 30
0.000000000000000
 40
3.134920634920634
  0
LINE
  5
B9
100
AcDbEntity
  8
A5
  6
PHANTOM
 62
6
100
AcDbLine
 10
105.7704847368955
 20
56.26392332273856
 30
0.000000000000000
 11
104.6512086269210
 21
61.23685003993033
 31
0.000000000000000
  0
LINE
  5
BA
100
AcDbEntity
  8
A1
  6
CONTINUOUS
 62
7
100
AcDbLine
 10
94.90387586098508
 20
44.89892745386007
 30
0.000000000000000
 11
94.23451540002742
 21
50.92317160247498
 31
0.000000000000000
  0
SPLINE
  5
BB
100
AcDbEntity
  8
A1
  6
CONTINUOUS
 62
7
100
AcDbSpline
210
0.000000000000000
220
0.000000000000000
230
1.000000000000000
 70
     8
 71
     3
 72
     8
 73
     4
 74
     0
 42
1.000000000000000e-07
 43
1.000000000000000e-07
 12
-0.9558563162247964
 22
-0.1413035997822405
 32
0.000000000000000
 13
-0.4023708196040587
 23
-0.6059865608278017
 33
0.000000000000000
 40
0.000000000000000
 40
0.000000000000000
 40
0.000000000000000
 40
0.000000000000000
 40
2.931843512537240
 40
2.931843512537240
 40
2.931843512537240
 40
2.931843512537240
 10
93.68800030936580
 20
50.84817435374333
 30
0.000000000000000
 10
92.75385992948533
 20
50.71008100630343
 30
0.000000000000000
 10
91.89710308186920
 20
50.50701972541574
 30
0.000000000000000
 10
91.50387365617237
 20
49.91480046973317
 30
0.000000000000000
  0
ARC
  5
BC
100
AcDbEntity
  8
A1
  6
CONTINUOUS
 62
7
100
AcDbCircle
 10
94.60515890486190
 20
48.35672237564688
 30
0.000000000000000
 40
3.470673931819366
100
AcDbArc
 50
153.3251588979066
 51
274.9374914230219
  0
ARC
  5
BD
100
AcDbEntity
  8
A1
  6
CONTINUOUS
 62
7
100
AcDbCircle
 10
93.54212726035119
 20
57.15466485955551
 30
0.000000000000000
 40
6.269841269841268
100
AcDbArc
 50
281.6345274694771
 51
353.6798879697786
  0
LINE
  5
BE
100
AcDbEntity
  8
A1
  6
CONTINUOUS
 62
7
100
AcDbLine
 10
100.3349932786801
 20
61.53081156081616
 30
0.000000000000000
 11
99.77386278712542
 21
56.46446063373202
 31
0.000000000000000
  0
SPLINE
  5
BF
100
AcDbEntity
  8
A1
  6
CONTINUOUS
 62
7
100
AcDbSpline
210
0.000000000000000
220
0.000000000000000
230
1.000000000000000
 70
     8
 71
     3
 72
     8
 73
     4
 74
     0
 42
1.000000000000000e-07
 43
1.000000000000000e-07
 12
-1.166458888373228
 22
-0.1536288618562978
 32
0.000000000000000
 13
-0.4830062411017195
 23
-0.7274267333589748
 33
0.000000000000000
 40
0.000000000000000
 40
0.000000000000000
 40
0.000000000000000
 40
0.000000000000000
 40
2.931843512537240
 40
2.931843512537240
 40
2.931843512537240
 40
2.931843512537240
 10
94.14504107499957
 20
51.92301702852902
 30
0.000000000000000
 10
93.00508276682675
 20
51.77287843453840
 30
0.000000000000000
 10
91.86512445865390
 20
51.62273984054764
 30
0.000000000000000
 10
91.39309155382421
 20
50.91183939086608
 30
0.000000000000000
  0
ARC
  5
C0
100
AcDbEntity
  8
A1
  6
CONTINUOUS
 62
7
100
AcDbCircle
 10
94.49437680251374
 20
49.35376129677982
 30
0.000000000000000
 40
3.470673931819366
100
AcDbArc
 50
153.3251588979066
 51
194.6497680357936
  0
SPLINE
  5
C1
100
AcDbEntity
  8
A5
  6
PHANTOM
 62
6
100
AcDbSpline
210
0.000000000000000
220
0.000000000000000
230
1.000000000000000
 70
     8
 71
     3
 72
     8
 73
     4
 74
     0
 42
1.000000000000000e-07
 43
1.000000000000000e-07
 12
-1.052850398801468
 22
-0.5251039927517667
 32
0.000000000000000
 13
-0.2197976299918025
 23
-0.8450643071379389
 33
0.000000000000000
 40
0.000000000000000
 40
0.000000000000000
 40
0.000000000000000
 40
0.000000000000000
 40
2.931843512537240
 40
2.931843512537240
 40
2.931843512537240
 40
2.931843512537240
 10
102.3567849943364
 20
49.23041751857113
 30
0.000000000000000
 10
101.3278541238703
 20
48.71724327371891
 30
0.000000000000000
 10
100.2989232534042
 20
48.20406902886657
 30
0.000000000000000
 10
100.0841191682167
 20
47.37820359334685
 30
0.000000000000000
  0
ARC
  5
C2
100
AcDbEntity
  8
A5
  6
PHANTOM
 62
6
100
AcDbCircle
 10
103.5237391979310
 20
46.91496327537027
 30
0.000000000000000
 40
3.470673931819366
100
AcDbArc
 50
172.3296855779678
 51
293.9420181030831
  0
ARC
  5
C3
100
AcDbEntity
  8
A5
  6
PHANTOM
 62
6
100
AcDbCircle
 10
103.0943169117372
 20
47.82158104740805
 30
0.000000000000000
 40
3.470673931819366
100
AcDbArc
 50
172.3296855779678
 51
213.6542947158548
  0
SPLINE
  5
C4
100
AcDbEntity
  8
A5
  6
PHANTOM
 62
6
100
AcDbSpline
210
0.000000000000000
220
0.000000000000000
230
1.000000000000000
 70
     8
 71
     3
 72
     8
 73
     4
 74
     0
 42
1.000000000000000e-07
 43
1.000000000000000e-07
 12
-1.052850398801425
 22
-0.5251039927517382
 32
0.000000000000000
 13
-0.2197976299918025
 23
-0.8450643071378821
 33
0.000000000000000
 40
0.000000000000000
 40
0.000000000000000
 40
0.000000000000000
 40
0.000000000000000
 40
2.931843512537240
 40
2.931843512537240
 40
2.931843512537240
 40
2.931843512537240
 10
101.9273627081426
 20
50.13703529060885
 30
0.000000000000000
 10
100.8984318376765
 20
49.62386104575666
 30
0.000000000000000
 10
99.86950096721046
 20
49.11068680090426
 30
0.000000000000000
 10
99.65469688202293
 20
48.28482136538460
 30
0.000000000000000
  0
CIRCLE
  5
C5
100
AcDbEntity
  8
A1
  6
CONTINUOUS
 62
7
100
AcDbCircle
 10
103.3712102515328
 20
74.27704492308661
 30
0.000000000000000
 40
1.253968253968254
  0
ARC
  5
C6
100
AcDbEntity
  8
A1
  6
CONTINUOUS
 62
7
100
AcDbCircle
 10
45.21467901973006
 20
74.27704492308681
 30
0.000000000000000
 40
1.285317460317111
100
AcDbArc
 50
282.6803834918207
 51
437.3196165082064
  0
LINE
  5
C7
100
AcDbEntity
  8
A1
  6
CONTINUOUS
 62
7
100
AcDbLine
 10
93.51872430576117
 20
45.06047641957997
 30
0.000000000000000
 11
93.51872430576128
 21
43.74291793895986
 31
0.000000000000000
  0
ARC
  5
C8
100
AcDbEntity
  8
A1
  6
CONTINUOUS
 62
7
100
AcDbCircle
 10
103.3902372211924
 20
99.04063670170714
 30
0.000000000000000
 40
7.714209464045350
100
AcDbArc
 50
6.118056550907734
 51
172.4387218415958
  0
ARC
  5
C9
100
AcDbEntity
  8
A1
  6
CONTINUOUS
 62
7
100
AcDbCircle
 10
103.3902371388733
 20
99.04063016592369
 30
0.000000000000000
 40
10.22214675064264
100
AcDbArc
 50
6.118056550907699
 51
172.4387218415960
  0
LINE
  5
CA
100
AcDbEntity
  8
A1
  6
CONTINUOUS
 62
7
100
AcDbLine
 10
37.86983774988729
 20
32.67295411128924
 30
0.000000000000000
 11
37.86983774988743
 21
47.23498090748836
 31
0.000000000000000
  0
LINE
  5
CB
100
AcDbEntity
  8
A1
  6
CONTINUOUS
 62
7
100
AcDbLine
 10
43.96983774988728
 20
32.67295411128936
 30
0.000000000000000
 11
43.96983774988743
 21
47.23498090748802
 31
0.000000000000000
  0
ARC
  5
CC
100
AcDbEntity
  8
A1
  6
CONTINUOUS
 62
7
100
AcDbCircle
 10
45.12729190810967
 20
86.56434651038876
 30
0.000000000000000
 40
0.5000000000000000
100
AcDbArc
 50
182.4796641789516
 51
270.0000000000000
  0
ARC
  5
CD
100
AcDbEntity
  8
A1
  6
CONTINUOUS
 62
7
100
AcDbCircle
 10
36.71238359166661
 20
86.56434651038876
 30
0.000000000000000
 40
0.5000000000000000
100
AcDbArc
 50
270.0000000000000
 51
357.5203358210483
  0
ELLIPSE
  5
CE
100
AcDbEntity
  8
A1
  6
CONTINUOUS
 62
7
100
AcDbEllipse
 10
95.75473225153353
 20
138.5555146815665
 30
0.000000000000000
 11
-4.547013394839781
 21
0.000000000000000
 31
0.000000000000000
210
0.000000000000000
220
0.000000000000000
230
1.000000000000000
 40
0.9896610000000000
 41
0.9623205773758101
 42
1.570796326794897
  0
ELLIPSE
  5
CF
100
AcDbEntity
  8
A1
  6
CONTINUOUS
 62
7
100
AcDbEllipse
 10
95.75473225153353
 20
138.5555146815665
 30
0.000000000000000
 11
-4.547013394839781
 21
0.000000000000000
 31
0.000000000000000
210
0.000000000000000
220
0.000000000000000
230
1.000000000000000
 40
0.9896610000000000
 41
0.000000000000000
 42
0.6238822597061932
  0
ELLIPSE
  5
D0
100
AcDbEntity
  8
A1
  6
CONTINUOUS
 62
7
100
AcDbEllipse
 10
95.75473225153353
 20
138.7094836815665
 30
0.000000000000000
 11
-4.547013394839781
 21
0.000000000000000
 31
0.000000000000000
210
0.000000000000000
220
0.000000000000000
230
1.000000000000000
 40
0.9896610000000000
 41
5.659303047473399
 42
0.000000000000000
  0
ELLIPSE
  5
D1
100
AcDbEntity
  8
A1
  6
CONTINUOUS
 62
7
100
AcDbEllipse
 10
95.75473225153353
 20
138.7094836815665
 30
0.000000000000000
 11
-4.547013394839781
 21
0.000000000000000
 31
0.000000000000000
210
0.000000000000000
220
0.000000000000000
230
1.000000000000000
 40
0.9896610000000000
 41
4.712388980384690
 42
5.320864729803624
  0
LINE
  5
D2
100
AcDbEntity
  8
A1
  6
CONTINUOUS
 62
7
100
AcDbLine
 10
91.74628875922447
 20
142.7752856815665
 30
0.000000000000000
 11
91.13448525153353
 21
142.7752856815665
 31
0.000000000000000
  0
LINE
  5
D3
100
AcDbEntity
  8
A1
  6
CONTINUOUS
 62
7
100
AcDbLine
 10
91.13816025153352
 20
143.6483716815665
 30
0.000000000000000
 11
91.13448525153353
 21
143.6483716815665
 31
0.000000000000000
  0
LINE
  5
D4
100
AcDbEntity
  8
A1
  6
CONTINUOUS
 62
7
100
AcDbLine
 10
91.13448525153353
 20
143.7858866815665
 30
0.000000000000000
 11
91.13448525153353
 21
142.7752856815665
 31
0.000000000000000
  0
LINE
  5
D5
100
AcDbEntity
  8
A1
  6
CONTINUOUS
 62
7
100
AcDbLine
 10
91.13448525153353
 20
133.6166256815665
 30
0.000000000000000
 11
91.13816025153352
 21
133.6166256815665
 31
0.000000000000000
  0
LINE
  5
D6
100
AcDbEntity
  8
A1
  6
CONTINUOUS
 62
7
100
AcDbLine
 10
97.83141925153355
 20
132.9489836815665
 30
0.000000000000000
 11
97.82960525153358
 21
132.9489726815665
 31
0.000000000000000
  0
LINE
  5
D7
100
AcDbEntity
  8
A1
  6
CONTINUOUS
 62
7
100
AcDbLine
 10
99.43152725153352
 20
144.3160246815665
 30
0.000000000000000
 11
95.63727625153354
 21
144.3160246815665
 31
0.000000000000000
  0
LINE
  5
D8
100
AcDbEntity
  8
A1
  6
CONTINUOUS
 62
7
100
AcDbLine
 10
97.82960425153354
 20
144.3160246815665
 30
0.000000000000000
 11
97.83140925153354
 21
144.3160146815666
 31
0.000000000000000
  0
LINE
  5
D9
100
AcDbEntity
  8
A1
  6
CONTINUOUS
 62
7
100
AcDbLine
 10
95.63727625153354
 20
132.9489726815665
 30
0.000000000000000
 11
99.43152725153352
 21
132.9489726815665
 31
0.000000000000000
  0
LINE
  5
DA
100
AcDbEntity
  8
A1
  6
CONTINUOUS
 62
7
100
AcDbLine
 10
95.75473225153353
 20
143.2094836815665
 30
0.000000000000000
 11
97.00625625153353
 21
143.2094836815665
 31
0.000000000000000
  0
LINE
  5
DB
100
AcDbEntity
  8
A1
  6
CONTINUOUS
 62
7
100
AcDbLine
 10
91.20771825153352
 20
138.5555146815665
 30
0.000000000000000
 11
91.20771825153352
 21
138.7094836815665
 31
0.000000000000000
  0
LINE
  5
DC
100
AcDbEntity
  8
A1
  6
CONTINUOUS
 62
7
100
AcDbLine
 10
97.00625625153353
 20
134.0555146815665
 30
0.000000000000000
 11
95.75473225153353
 21
134.0555146815665
 31
0.000000000000000
  0
ARC
  5
DD
100
AcDbEntity
  8
A1
  6
CONTINUOUS
 62
7
100
AcDbCircle
 10
89.74888325153353
 20
138.0824986815665
 30
0.000000000000000
 40
2.500000000000000
100
AcDbArc
 50
180.0000000000000
 51
270.0000000000000
  0
ARC
  5
DE
100
AcDbEntity
  8
A1
  6
CONTINUOUS
 62
7
100
AcDbCircle
 10
89.74888325153353
 20
139.1824986815665
 30
0.000000000000000
 40
2.500000000000000
100
AcDbArc
 50
90.00000000000000
 51
180.0000000000000
  0
ARC
  5
DF
100
AcDbEntity
  8
A1
  6
CONTINUOUS
 62
7
100
AcDbCircle
 10
103.3712102515335
 20
138.6324986815665
 30
0.000000000000000
 40
5.642857000000000
100
AcDbArc
 50
211.0834190000000
 51
329.0744470000000
  0
ARC
  5
E0
100
AcDbEntity
  8
A1
  6
CONTINUOUS
 62
7
100
AcDbCircle
 10
103.3712102515335
 20
138.6324986815665
 30
0.000000000000000
 40
5.642857000000000
100
AcDbArc
 50
30.92555300000000
 51
148.9165810000000
  0
ARC
  5
E1
100
AcDbEntity
  8
A1
  6
CONTINUOUS
 62
7
100
AcDbCircle
 10
103.3712102515335
 20
138.6324986815665
 30
0.000000000000000
 40
5.607917000000000
100
AcDbArc
 50
211.2812200000000
 51
328.8758280000000
  0
ARC
  5
E2
100
AcDbEntity
  8
A1
  6
CONTINUOUS
 62
7
100
AcDbCircle
 10
103.3712102515335
 20
138.6324986815665
 30
0.000000000000000
 40
5.607917000000000
100
AcDbArc
 50
31.12417200000000
 51
148.7187800000000
  0
LINE
  5
E3
100
AcDbEntity
  8
A1
  6
CONTINUOUS
 62
7
100
AcDbLine
 10
87.24888325153353
 20
139.1824986815665
 30
0.000000000000000
 11
87.24888325153353
 21
138.0824986815665
 31
0.000000000000000
  0
ELLIPSE
  5
E4
100
AcDbEntity
  8
A1
  6
CONTINUOUS
 62
7
100
AcDbEllipse
 10
111.3199752515335
 20
142.3068336815665
 30
0.000000000000000
 11
-1.253968253968253
 21
0.000000000000000
 31
0.000000000000000
210
0.000000000000000
220
0.000000000000000
230
1.000000000000000
 40
0.04330500000000000
 41
3.034812422952943
 42
3.141592653589793
  0
ELLIPSE
  5
E5
100
AcDbEntity
  8
A1
  6
CONTINUOUS
 62
7
100
AcDbEllipse
 10
111.3199752515335
 20
134.9581646815665
 30
0.000000000000000
 11
-1.253968253968253
 21
0.000000000000000
 31
0.000000000000000
210
0.000000000000000
220
0.000000000000000
230
1.000000000000000
 40
0.04330500000000000
 41
1.570796326794897
 42
3.141592653589793
  0
ELLIPSE
  5
E6
100
AcDbEntity
  8
A1
  6
CONTINUOUS
 62
7
100
AcDbEllipse
 10
111.3199752515335
 20
134.9581646815665
 30
0.000000000000000
 11
-3.761904761904761
 21
0.000000000000000
 31
0.000000000000000
210
0.000000000000000
220
0.000000000000000
230
1.000000000000000
 40
0.04330500000000000
 41
2.801755744297103
 42
3.141592620269784
  0
ELLIPSE
  5
E7
100
AcDbEntity
  8
A1
  6
CONTINUOUS
 62
7
100
AcDbEllipse
 10
111.3199752515335
 20
142.3068336815665
 30
0.000000000000000
 11
-3.761904761904761
 21
0.000000000000000
 31
0.000000000000000
210
0.000000000000000
220
0.000000000000000
230
1.000000000000000
 40
0.04330500000000000
 41
3.034812422953080
 42
3.141592620269784
  0
ELLIPSE
  5
E8
100
AcDbEntity
  8
A1
  6
CONTINUOUS
 62
7
100
AcDbEllipse
 10
95.82620525153352
 20
142.1982266815665
 30
0.000000000000000
 11
-1.253968253968253
 21
0.000000000000000
 31
0.000000000000000
210
0.000000000000000
220
0.000000000000000
230
1.000000000000000
 40
0.04330500000000000
 41
4.712388980384690
 42
0.000000000000000
  0
ELLIPSE
  5
E9
100
AcDbEntity
  8
A1
  6
CONTINUOUS
 62
7
100
AcDbEllipse
 10
95.82620525153352
 20
135.0667716815665
 30
0.000000000000000
 11
-1.253968253968253
 21
0.000000000000000
 31
0.000000000000000
210
0.000000000000000
220
0.000000000000000
230
1.000000000000000
 40
0.04330500000000000
 41
6.151216107656035
 42
0.000000000000000
  0
ELLIPSE
  5
EA
100
AcDbEntity
  8
A1
  6
CONTINUOUS
 62
7
100
AcDbEllipse
 10
95.82620525153352
 20
142.1982266815665
 30
0.000000000000000
 11
-3.761904761904761
 21
0.000000000000000
 31
0.000000000000000
210
0.000000000000000
220
0.000000000000000
230
1.000000000000000
 40
0.04330500000000000
 41
5.943348397725370
 42
0.000000000000000
  0
ELLIPSE
  5
EB
100
AcDbEntity
  8
A1
  6
CONTINUOUS
 62
7
100
AcDbEllipse
 10
95.82620525153352
 20
135.0667716815665
 30
0.000000000000000
 11
-3.761904761904761
 21
0.000000000000000
 31
0.000000000000000
210
0.000000000000000
220
0.000000000000000
230
1.000000000000000
 40
0.04330500000000000
 41
6.151216107656347
 42
0.000000000000000
  0
ELLIPSE
  5
EC
100
AcDbEntity
  8
A1
  6
CONTINUOUS
 62
7
100
AcDbEllipse
 10
111.3199752515335
 20
134.9581646815665
 30
0.000000000000000
 11
-1.253968253968253
 21
0.000000000000000
 31
0.000000000000000
210
0.000000000000000
220
0.000000000000000
230
1.000000000000000
 40
0.04330500000000000
 41
3.141592653589793
 42
3.248372884226643
  0
ELLIPSE
  5
ED
100
AcDbEntity
  8
A1
  6
CONTINUOUS
 62
7
100
AcDbEllipse
 10
111.3199752515335
 20
134.9581646815665
 30
0.000000000000000
 11
-3.761904761904761
 21
0.000000000000000
 31
0.000000000000000
210
0.000000000000000
220
0.000000000000000
230
1.000000000000000
 40
0.04330500000000000
 41
3.141592620269784
 42
3.248372884226506
  0
ELLIPSE
  5
EE
100
AcDbEntity
  8
A1
  6
CONTINUOUS
 62
7
100
AcDbEllipse
 10
95.82620525153352
 20
135.0667716815665
 30
0.000000000000000
 11
-3.761904761904761
 21
0.000000000000000
 31
0.000000000000000
210
0.000000000000000
220
0.000000000000000
230
1.000000000000000
 40
0.04330500000000000
 41
0.000000000000000
 42
0.3398369094542159
  0
ELLIPSE
  5
EF
100
AcDbEntity
  8
A1
  6
CONTINUOUS
 62
7
100
AcDbEllipse
 10
95.82620525153352
 20
135.0667716815665
 30
0.000000000000000
 11
-1.253968253968253
 21
0.000000000000000
 31
0.000000000000000
210
0.000000000000000
220
0.000000000000000
230
1.000000000000000
 40
0.04330500000000000
 41
0.000000000000000
 42
1.570796326794897
  0
ELLIPSE
  5
F0
100
AcDbEntity
  8
A1
  6
CONTINUOUS
 62
7
100
AcDbEllipse
 10
103.5662362515335
 20
135.4658036815665
 30
0.000000000000000
 11
-7.714209464045350
 21
0.000000000000000
 31
0.000000000000000
210
0.000000000000000
220
0.000000000000000
230
1.000000000000000
 40
0.04330500000000000
 41
3.248372884054454
 42
6.151216107794769
  0
ELLIPSE
  5
F1
100
AcDbEntity
  8
A1
  6
CONTINUOUS
 62
7
100
AcDbEllipse
 10
103.5662362515335
 20
135.4658036815665
 30
0.000000000000000
 11
-10.22214675064264
 21
0.000000000000000
 31
0.000000000000000
210
0.000000000000000
220
0.000000000000000
230
1.000000000000000
 40
0.04330500000000000
 41
4.714250321109032
 42
6.151216107581437
  0
ELLIPSE
  5
F2
100
AcDbEntity
  8
A1
  6
CONTINUOUS
 62
7
100
AcDbEllipse
 10
103.5662362515335
 20
135.4658036815665
 30
0.000000000000000
 11
-10.22214675064264
 21
0.000000000000000
 31
0.000000000000000
210
0.000000000000000
220
0.000000000000000
230
1.000000000000000
 40
0.04330500000000000
 41
3.248372884320065
 42
4.710527639660346
  0
ELLIPSE
  5
F3
100
AcDbEntity
  8
A1
  6
CONTINUOUS
 62
7
100
AcDbEllipse
 10
111.3199752515335
 20
142.3068336815665
 30
0.000000000000000
 11
-3.761904761904761
 21
0.000000000000000
 31
0.000000000000000
210
0.000000000000000
220
0.000000000000000
230
1.000000000000000
 40
0.04330500000000000
 41
3.141592620269784
 42
3.481429562882473
  0
ELLIPSE
  5
F4
100
AcDbEntity
  8
A1
  6
CONTINUOUS
 62
7
100
AcDbEllipse
 10
111.3199752515335
 20
142.3068336815665
 30
0.000000000000000
 11
-1.253968253968253
 21
0.000000000000000
 31
0.000000000000000
210
0.000000000000000
220
0.000000000000000
230
1.000000000000000
 40
0.04330500000000000
 41
3.141592653589793
 42
4.712388980384690
  0
ELLIPSE
  5
F5
100
AcDbEntity
  8
A1
  6
CONTINUOUS
 62
7
100
AcDbEllipse
 10
103.5662362515335
 20
141.7991946815665
 30
0.000000000000000
 11
-7.714209464045350
 21
0.000000000000000
 31
0.000000000000000
210
0.000000000000000
220
0.000000000000000
230
1.000000000000000
 40
0.04330500000000000
 41
0.1319691993848169
 42
3.034812423125114
  0
ELLIPSE
  5
F6
100
AcDbEntity
  8
A1
  6
CONTINUOUS
 62
7
100
AcDbEllipse
 10
95.82620525153352
 20
142.1982266815665
 30
0.000000000000000
 11
-1.253968253968253
 21
0.000000000000000
 31
0.000000000000000
210
0.000000000000000
220
0.000000000000000
230
1.000000000000000
 40
0.04330500000000000
 41
0.000000000000000
 42
0.1319691995234656
  0
ELLIPSE
  5
F7
100
AcDbEntity
  8
A1
  6
CONTINUOUS
 62
7
100
AcDbEllipse
 10
95.82620525153352
 20
142.1982266815665
 30
0.000000000000000
 11
-3.761904761904761
 21
0.000000000000000
 31
0.000000000000000
210
0.000000000000000
220
0.000000000000000
230
1.000000000000000
 40
0.04330500000000000
 41
0.000000000000000
 42
0.1319691995232395
  0
ELLIPSE
  5
F8
100
AcDbEntity
  8
A1
  6
CONTINUOUS
 62
7
100
AcDbEllipse
 10
103.5662362515335
 20
141.7991946815665
 30
0.000000000000000
 11
-10.22214675064264
 21
0.000000000000000
 31
0.000000000000000
210
0.000000000000000
220
0.000000000000000
230
1.000000000000000
 40
0.04330500000000000
 41
0.1319691995981493
 42
1.568934986070550
  0
ELLIPSE
  5
F9
100
AcDbEntity
  8
A1
  6
CONTINUOUS
 62
7
100
AcDbEllipse
 10
103.5662362515335
 20
141.7991946815665
 30
0.000000000000000
 11
-10.22214675064264
 21
0.000000000000000
 31
0.000000000000000
210
0.000000000000000
220
0.000000000000000
230
1.000000000000000
 40
0.04330500000000000
 41
1.572657667519243
 42
3.034812422859507
  0
ARC
  5
FA
100
AcDbEntity
  8
A1
  6
CONTINUOUS
 62
7
100
AcDbCircle
 10
114.0030982515335
 20
121.8823526815665
 30
0.000000000000000
 40
12.94264100000000
100
AcDbArc
 50
86.17393500000000
 51
122.4046870000000
  0
ARC
  5
FB
100
AcDbEntity
  8
A1
  6
CONTINUOUS
 62
7
100
AcDbCircle
 10
114.0030982515335
 20
155.3826456815665
 30
0.000000000000000
 40
12.94264100000000
100
AcDbArc
 50
237.5953130000000
 51
273.8260650000001
  0
ARC
  5
FC
100
AcDbEntity
  8
A1
  6
CONTINUOUS
 62
7
100
AcDbCircle
 10
92.03940325153353
 20
119.9583086815665
 30
0.000000000000000
 40
14.94660000000000
100
AcDbArc
 50
58.74993300000000
 51
89.07978499999999
  0
ARC
  5
FD
100
AcDbEntity
  8
A1
  6
CONTINUOUS
 62
7
100
AcDbCircle
 10
103.3712102515335
 20
138.6324986815665
 30
0.000000000000000
 40
6.896825000000000
100
AcDbArc
 50
25.40295900000000
 51
121.2500670000000
  0
ARC
  5
FE
100
AcDbEntity
  8
A1
  6
CONTINUOUS
 62
7
100
AcDbCircle
 10
103.3712102515335
 20
138.6324986815665
 30
0.000000000000000
 40
6.896825000000000
100
AcDbArc
 50
238.7499330000000
 51
334.5970410000000
  0
ARC
  5
FF
100
AcDbEntity
  8
A1
  6
CONTINUOUS
 62
7
100
AcDbCircle
 10
92.03940325153353
 20
157.3066896815665
 30
0.000000000000000
 40
14.94660000000000
100
AcDbArc
 50
270.9202150000000
 51
301.2500669999999
  0
LINE
  5
100
100
AcDbEntity
  8
A1
  6
CONTINUOUS
 62
7
100
AcDbLine
 10
114.8667322515335
 20
134.7961476815665
 30
0.000000000000000
 11
114.8667322515335
 21
134.9038606815665
 31
0.000000000000000
  0
LINE
  5
101
100
AcDbEntity
  8
A1
  6
CONTINUOUS
 62
7
100
AcDbLine
 10
114.8667322515335
 20
142.3611376815665
 30
0.000000000000000
 11
114.8667322515335
 21
142.4688506815665
 31
0.000000000000000
  0
LINE
  5
102
100
AcDbEntity
  8
A1
  6
CONTINUOUS
 62
7
100
AcDbLine
 10
115.0818792515335
 20
134.9581646815665
 30
0.000000000000000
 11
115.0818792515335
 21
142.3068336815665
 31
0.000000000000000
  0
LINE
  5
103
100
AcDbEntity
  8
A1
  6
CONTINUOUS
 62
7
100
AcDbLine
 10
92.27944725153353
 20
142.3620166815665
 30
0.000000000000000
 11
92.27944725153353
 21
142.2525306815665
 31
0.000000000000000
  0
LINE
  5
104
100
AcDbEntity
  8
A1
  6
CONTINUOUS
 62
7
100
AcDbLine
 10
92.27944725153353
 20
135.0124676815665
 30
0.000000000000000
 11
92.27944725153353
 21
134.9029806815665
 31
0.000000000000000
  0
LINE
  5
105
100
AcDbEntity
  8
A1
  6
CONTINUOUS
 62
7
100
AcDbLine
 10
92.06430025153352
 20
142.1982266815665
 30
0.000000000000000
 11
92.06430025153352
 21
135.0667716815665
 31
0.000000000000000
  0
LINE
  5
106
100
AcDbEntity
  8
A1
  6
CONTINUOUS
 62
7
100
AcDbLine
 10
111.3199752515335
 20
134.9038606815665
 30
0.000000000000000
 11
114.8667322515335
 21
134.9038606815665
 31
0.000000000000000
  0
LINE
  5
107
100
AcDbEntity
  8
A1
  6
CONTINUOUS
 62
7
100
AcDbLine
 10
115.0604532515335
 20
134.9755266815665
 30
0.000000000000000
 11
113.7301622515335
 21
135.5129826815665
 31
0.000000000000000
  0
LINE
  5
108
100
AcDbEntity
  8
A1
  6
CONTINUOUS
 62
7
100
AcDbLine
 10
93.43297425153354
 20
135.5240526815666
 30
0.000000000000000
 11
92.09701125153354
 21
135.0882086815666
 31
0.000000000000000
  0
LINE
  5
109
100
AcDbEntity
  8
A1
  6
CONTINUOUS
 62
7
100
AcDbLine
 10
92.27944725153353
 20
135.0124676815665
 30
0.000000000000000
 11
95.82620525153352
 21
135.0124676815665
 31
0.000000000000000
  0
LINE
  5
10A
100
AcDbEntity
  8
A1
  6
CONTINUOUS
 62
7
100
AcDbLine
 10
94.58314025153354
 20
135.0739166815665
 30
0.000000000000000
 11
95.91910425153355
 21
135.5097626815665
 31
0.000000000000000
  0
LINE
  5
10B
100
AcDbEntity
  8
A1
  6
CONTINUOUS
 62
7
100
AcDbLine
 10
111.2365092515335
 20
135.5014076815665
 30
0.000000000000000
 11
112.5668012515335
 21
134.9639516815665
 31
0.000000000000000
  0
LINE
  5
10C
100
AcDbEntity
  8
A1
  6
CONTINUOUS
 62
7
100
AcDbLine
 10
103.5852632515335
 20
135.9084756815665
 30
0.000000000000000
 11
103.5472092515335
 21
135.9084756815665
 31
0.000000000000000
  0
LINE
  5
10D
100
AcDbEntity
  8
A1
  6
CONTINUOUS
 62
7
100
AcDbLine
 10
114.8667322515335
 20
142.3611376815665
 30
0.000000000000000
 11
111.3199752515335
 21
142.3611376815665
 31
0.000000000000000
  0
LINE
  5
10E
100
AcDbEntity
  8
A1
  6
CONTINUOUS
 62
7
100
AcDbLine
 10
112.5668012515335
 20
142.3010466815665
 30
0.000000000000000
 11
111.2365092515335
 21
141.7635906815665
 31
0.000000000000000
  0
LINE
  5
10F
100
AcDbEntity
  8
A1
  6
CONTINUOUS
 62
7
100
AcDbLine
 10
95.91910425153353
 20
141.7552356815665
 30
0.000000000000000
 11
94.58314025153351
 21
142.1910806815665
 31
0.000000000000000
  0
LINE
  5
110
100
AcDbEntity
  8
A1
  6
CONTINUOUS
 62
7
100
AcDbLine
 10
95.82620525153352
 20
142.2525306815665
 30
0.000000000000000
 11
92.27944725153353
 21
142.2525306815665
 31
0.000000000000000
  0
LINE
  5
111
100
AcDbEntity
  8
A1
  6
CONTINUOUS
 62
7
100
AcDbLine
 10
92.09701125153353
 20
142.1767896815665
 30
0.000000000000000
 11
93.43297425153354
 21
141.7409446815665
 31
0.000000000000000
  0
LINE
  5
112
100
AcDbEntity
  8
A1
  6
CONTINUOUS
 62
7
100
AcDbLine
 10
103.5852632515335
 20
141.3565216815665
 30
0.000000000000000
 11
103.5472092515335
 21
141.3565216815665
 31
0.000000000000000
  0
LINE
  5
113
100
AcDbEntity
  8
A1
  6
CONTINUOUS
 62
7
100
AcDbLine
 10
113.7301622515336
 20
141.7520156815665
 30
0.000000000000000
 11
115.0604532515335
 21
142.2894706815665
 31
0.000000000000000
  0
LINE
  5
114
100
AcDbEntity
  8
A4
  6
CENTER
 62
1
100
AcDbLine
 10
115.6951111077364
 20
138.6324986815665
 30
0.000000000000000
 11
86.40870021596299
 21
138.6324986815665
 31
0.000000000000000
  0
LINE
  5
115
100
AcDbEntity
  8
A4
  6
CENTER
 62
1
100
AcDbLine
 10
103.3712102515335
 20
147.0293236815665
 30
0.000000000000000
 11
103.3712102515335
 21
130.5961010412451
 31
0.000000000000000
  0
ARC
  5
116
100
AcDbEntity
  8
A1
  6
CONTINUOUS
 62
7
100
AcDbCircle
 10
95.63727625153354
 20
138.6324986815665
 30
0.000000000000000
 40
5.683525999999915
100
AcDbArc
 50
90.00000000000000
 51
270.0000000000000
  0
LINE
  5
117
100
AcDbEntity
  8
A1
  6
CONTINUOUS
 62
7
100
AcDbLine
 10
91.13448525153353
 20
143.7858866815665
 30
0.000000000000000
 11
93.24039079032968
 21
143.7858866815665
 31
0.000000000000000
  0
LINE
  5
118
100
AcDbEntity
  8
A1
  6
CONTINUOUS
 62
7
100
AcDbLine
 10
91.74628875922447
 20
134.4897116815665
 30
0.000000000000000
 11
91.13448525153353
 21
134.4897116815665
 31
0.000000000000000
  0
LINE
  5
119
100
AcDbEntity
  8
A1
  6
CONTINUOUS
 62
7
100
AcDbLine
 10
91.13816025153352
 20
133.6166256815665
 30
0.000000000000000
 11
91.13448525153353
 21
133.6166256815665
 31
0.000000000000000
  0
LINE
  5
11A
100
AcDbEntity
  8
A1
  6
CONTINUOUS
 62
7
100
AcDbLine
 10
91.13448525153353
 20
133.4791106815665
 30
0.000000000000000
 11
91.13448525153353
 21
134.4897116815665
 31
0.000000000000000
  0
LINE
  5
11B
100
AcDbEntity
  8
A1
  6
CONTINUOUS
 62
7
100
AcDbLine
 10
91.13448525153353
 20
133.4791106815665
 30
0.000000000000000
 11
93.24039079032968
 21
133.4791106815665
 31
0.000000000000000
  0
LINE
  5
11C
100
AcDbEntity
  8
A1
  6
CONTINUOUS
 62
7
100
AcDbLine
 10
89.74888325153353
 20
135.5824986815665
 30
0.000000000000000
 11
90.84144808606771
 21
135.5824986815665
 31
0.000000000000000
  0
LINE
  5
11D
100
AcDbEntity
  8
A1
  6
CONTINUOUS
 62
7
100
AcDbLine
 10
89.74888325153353
 20
141.6824986815665
 30
0.000000000000000
 11
90.84144808606779
 21
141.6824986815665
 31
0.000000000000000
  0
ENDSEC
  0
SECTION
  2
OBJECTS
  0
DICTIONARY
  5
14C
100
AcDbDictionary
  3
ACAD_GROUP
350
14D
  3
ACAD_MLINESTYLE
350
14E
  0
DICTIONARY
  5
14D
102
{ACAD_REACTORS
330
14C
102
}
100
AcDbDictionary
  0
DICTIONARY
  5
14E
102
{ACAD_REACTORS
330
14C
102
}
100
AcDbDictionary
  3
STANDARD
350
14F
  0
MLINESTYLE
  5
14F
102
{ACAD_REACTORS
330
14E
102
}
100
AcDbMlineStyle
  2
STANDARD
 70
     0
  3

 62
   256
 51
90.00
 52
90.00
 71
     2
 49
0.50
 62
   256
  6
BYLAYER
 49
-0.50
 62
   256
  6
BYLAYER
  0
ENDSEC
  0
EOF
