  0
SECTION
  2
HEADER
  9
$ACADVER
  1
AC1014
  9
$DWGCODEPAGE
  3
ANSI_932
  9
$LTSCALE
 40
20.0
  9
$FILLMODE
 70
     1
  9
$CLAYER
  8
0
  9
$PDMODE
 70
     0
  9
$SPLFRAME
 70
     0
  9
$SPLINETYPE
 70
     6
  9
$SPLINESEGS
 70
     8
  9
$DIMASZ
 40
2.000000
  9
$DIMEXE
 40
1.500000
  9
$DIMEXO
 40
0.800000
  9
$DIMTAD
 70
     1
  9
$DIMTIH
 70
     0
  9
$DIMTOH
 70
     0
  9
$DIMTVP
 40
0.500000
  9
$DIMTXT
 40
3.100000
  9
$EXTMIN
 10
0.000000
 20
0.000000
 30
0.000000
  9
$EXTMAX
 10
297.000000
 20
420.000000
 30
0.000000
  9
$MEASUREMENT
 70
  1
  9
$LIMMIN
 10
0.000000
 20
0.000000
  9
$LIMMAX
 10
297.000000
 20
420.000000
  9
$HANDLING
 70
     1
  9
$HANDSEED
  5
152
  9
$DIMBLK
  1
_OPEN
  9
$DIMDEC
 70
     2
  9
$DIMAUNIT
 70
     0
  9
$DIMZIN
 70
     8
  9
$DIMTOFL
 70
     1
  0
ENDSEC
  0
SECTION
  2
CLASSES
  0
ENDSEC
  0
SECTION
  2
TABLES
  0
TABLE
  2
VPORT
  5
121
100
AcDbSymbolTable
 70
     1
  0
VPORT
  5
122
100
AcDbSymbolTableRecord
100
AcDbViewportTableRecord
  2
*ACTIVE
 70
     0
 12
60.379031
 22
69.474363
 40
102.948725
 41
0.978721
  0
ENDTAB
  0
TABLE
  2
LTYPE
  5
123
100
AcDbSymbolTable
 70
     4
  0
LTYPE
  5
124
100
AcDbSymbolTableRecord
100
AcDbLinetypeTableRecord
  2
BYBLOCK
 70
     0
  3

 72
    65
 73
     0
 40
0.0
  0
LTYPE
  5
125
100
AcDbSymbolTableRecord
100
AcDbLinetypeTableRecord
  2
BYLAYER
 70
     0
  3

 72
    65
 73
     0
 40
0.0
  0
LTYPE
  5
126
100
AcDbSymbolTableRecord
100
AcDbLinetypeTableRecord
  2
CONTINUOUS
 70
     0
  3
Solid line (NEC CAE2D for Win R18.0 : 2026.04.06)
 72
    65
 73
     0
 40
0.0
  0
LTYPE
  5
127
100
AcDbSymbolTableRecord
100
AcDbLinetypeTableRecord
  2
DASHED
 70
     0
  3
__ __ __ __ __ __ __ __ __ __ __ __ __ _
 72
    65
 73
     2
 40
0.75
 49
0.5
 74
     0
 49
-0.25
 74
     0
  0
LTYPE
  5
128
100
AcDbSymbolTableRecord
100
AcDbLinetypeTableRecord
  2
CENTER
 70
     0
  3
____ _ ____ _ ____ _ ____ _ ____ _ ____
 72
    65
 73
     4
 40
2.0
 49
1.25
 74
     0
 49
-0.25
 74
     0
 49
0.25
 74
     0
 49
-0.25
 74
     0
  0
LTYPE
  5
129
100
AcDbSymbolTableRecord
100
AcDbLinetypeTableRecord
  2
PHANTOM
 70
     0
  3
______  __  __  ______  __  __  ______ 
 72
    65
 73
     6
 40
2.5
 49
1.25
 74
     0
 49
-0.25
 74
     0
 49
0.25
 74
     0
 49
-0.25
 74
     0
 49
0.25
 74
     0
 49
-0.25
 74
     0
  0
ENDTAB
  0
TABLE
  2
LAYER
  5
12A
100
AcDbSymbolTable
 70
    16
  0
LAYER
  5
12B
100
AcDbSymbolTableRecord
100
AcDbLayerTableRecord
  2
0
 70
     0
 62
     7
  6
CONTINUOUS
  0
LAYER
  5
12C
100
AcDbSymbolTableRecord
100
AcDbLayerTableRecord
  2
A0
 70
     0
 62
     9
  6
CONTINUOUS
  0
LAYER
  5
12D
100
AcDbSymbolTableRecord
100
AcDbLayerTableRecord
  2
A1
 70
     0
 62
    12
  6
CONTINUOUS
  0
LAYER
  5
12E
100
AcDbSymbolTableRecord
100
AcDbLayerTableRecord
  2
A3
 70
     0
 62
    12
  6
CONTINUOUS
  0
LAYER
  5
12F
100
AcDbSymbolTableRecord
100
AcDbLayerTableRecord
  2
A4
 70
     0
 62
     9
  6
CONTINUOUS
  0
LAYER
  5
130
100
AcDbSymbolTableRecord
100
AcDbLayerTableRecord
  2
A5
 70
     0
 62
     8
  6
CONTINUOUS
  0
LAYER
  5
131
100
AcDbSymbolTableRecord
100
AcDbLayerTableRecord
  2
A6
 70
     0
 62
    12
  6
CONTINUOUS
  0
LAYER
  5
132
100
AcDbSymbolTableRecord
100
AcDbLayerTableRecord
  2
A7
 70
     0
 62
    10
  6
CONTINUOUS
  0
LAYER
  5
133
100
AcDbSymbolTableRecord
100
AcDbLayerTableRecord
  2
A8
 70
     0
 62
    10
  6
CONTINUOUS
  0
LAYER
  5
134
100
AcDbSymbolTableRecord
100
AcDbLayerTableRecord
  2
A9
 70
     0
 62
     9
  6
CONTINUOUS
  0
LAYER
  5
135
100
AcDbSymbolTableRecord
100
AcDbLayerTableRecord
  2
A10
 70
     0
 62
     6
  6
CONTINUOUS
  0
LAYER
  5
136
100
AcDbSymbolTableRecord
100
AcDbLayerTableRecord
  2
A20
 70
     0
 62
     1
  6
CONTINUOUS
  0
LAYER
  5
137
100
AcDbSymbolTableRecord
100
AcDbLayerTableRecord
  2
A30
 70
     0
 62
     1
  6
CONTINUOUS
  0
LAYER
  5
138
100
AcDbSymbolTableRecord
100
AcDbLayerTableRecord
  2
A40
 70
     0
 62
     9
  6
CONTINUOUS
  0
LAYER
  5
139
100
AcDbSymbolTableRecord
100
AcDbLayerTableRecord
  2
A50
 70
     0
 62
    12
  6
CONTINUOUS
  0
LAYER
  5
13A
100
AcDbSymbolTableRecord
100
AcDbLayerTableRecord
  2
A1023
 70
     0
 62
    16
  6
CONTINUOUS
  0
ENDTAB
  0
TABLE
  2
STYLE
  5
13B
100
AcDbSymbolTable
 70
     4
  0
STYLE
  5
13C
100
AcDbSymbolTableRecord
100
AcDbTextStyleTableRecord
  2
STANDARD
 70
    64
 40
0.0
 41
1.0
 50
0.0
 71
     0
 42
3.000000000000000
  3
TXT
  4

  0
STYLE
  5
13D
100
AcDbSymbolTableRecord
100
AcDbTextStyleTableRecord
  2
ANKTATE
 70
    68
 40
0.0
 41
1.0
 50
0.0
 71
     0
 42
3.000000000000000
  3
TXT
  4

  0
STYLE
  5
13E
100
AcDbSymbolTableRecord
100
AcDbTextStyleTableRecord
  2
KNJYOKO
 70
    64
 40
0.0
 41
1.0
 50
0.0
 71
     0
 42
3.000000000000000
  3
TXT
  4
BIGFONT
  0
STYLE
  5
13F
100
AcDbSymbolTableRecord
100
AcDbTextStyleTableRecord
  2
KNJTATE
 70
    68
 40
0.0
 41
1.0
 50
0.0
 71
     0
 42
3.000000000000000
  3
TXT
  4
BIGFONT
  0
ENDTAB
  0
TABLE
  2
VIEW
  5
140
100
AcDbSymbolTable
 70
     0
  0
ENDTAB
  0
TABLE
  2
UCS
  5
141
100
AcDbSymbolTable
 70
     0
  0
ENDTAB
  0
TABLE
  2
APPID
  5
142
100
AcDbSymbolTable
 70
     1
  0
APPID
  5
143
100
AcDbSymbolTableRecord
100
AcDbRegAppTableRecord
  2
ACAD
 70
     0
  0
ENDTAB
  0
TABLE
  2
DIMSTYLE
  5
144
100
AcDbSymbolTable
 70
     2
  0
DIMSTYLE
105
145
100
AcDbSymbolTableRecord
100
AcDbDimStyleTableRecord
  2
STANDARD
 70
     0
 41
2.000000
 44
1.500000
 42
0.800000
145
0.661290
140
3.100000
144
1.000000
146
0.645161
340
13C
  0
DIMSTYLE
105
146
100
AcDbSymbolTableRecord
100
AcDbDimStyleTableRecord
  2
A001
 70
     0
 41
2.000000
 44
1.500000
 42
0.800000
145
0.661290
140
3.100000
144
1.000000
146
0.645161
 77
     1
 73
     0
 74
     0
271
     2
275
     0
 78
     8
172
     1
340
13C
  0
ENDTAB
  0
TABLE
  2
BLOCK_RECORD
  5
147
100
AcDbSymbolTable
 70
    12
  0
BLOCK_RECORD
  5
148
100
AcDbSymbolTableRecord
100
AcDbBlockTableRecord
  2
*MODEL_SPACE
  0
BLOCK_RECORD
  5
149
100
AcDbSymbolTableRecord
100
AcDbBlockTableRecord
  2
*PAPER_SPACE
  0
BLOCK_RECORD
  5
1
100
AcDbSymbolTableRecord
100
AcDbBlockTableRecord
  2
_NONE
  0
BLOCK_RECORD
  5
4
100
AcDbSymbolTableRecord
100
AcDbBlockTableRecord
  2
_CLOSED
  0
BLOCK_RECORD
  5
B
100
AcDbSymbolTableRecord
100
AcDbBlockTableRecord
  2
_DOT
  0
BLOCK_RECORD
  5
13
100
AcDbSymbolTableRecord
100
AcDbBlockTableRecord
  2
_OPEN
  0
BLOCK_RECORD
  5
19
100
AcDbSymbolTableRecord
100
AcDbBlockTableRecord
  2
_ORIGIN
  0
BLOCK_RECORD
  5
1E
100
AcDbSymbolTableRecord
100
AcDbBlockTableRecord
  2
_OPEN30
  0
BLOCK_RECORD
  5
24
100
AcDbSymbolTableRecord
100
AcDbBlockTableRecord
  2
_BOXFILLED
  0
BLOCK_RECORD
  5
29
100
AcDbSymbolTableRecord
100
AcDbBlockTableRecord
  2
_BOXBLANK
  0
BLOCK_RECORD
  5
31
100
AcDbSymbolTableRecord
100
AcDbBlockTableRecord
  2
_OBLIQUE
  0
BLOCK_RECORD
  5
35
100
AcDbSymbolTableRecord
100
AcDbBlockTableRecord
  2
_OPEN90
  0
BLOCK_RECORD
  5
3B
100
AcDbSymbolTableRecord
100
AcDbBlockTableRecord
  2
_CLOSEDBLANK
  0
BLOCK_RECORD
  5
41
100
AcDbSymbolTableRecord
100
AcDbBlockTableRecord
  2
_DOTBLANK
  0
ENDTAB
  0
ENDSEC
  0
SECTION
  2
BLOCKS
  0
BLOCK
  5
14A
100
AcDbEntity
  8
0
100
AcDbBlockBegin
  2
*MODEL_SPACE
 70
     0
 10
0.0
 20
0.0
 30
0.0
  3
*MODEL_SPACE
  1

  0
ENDBLK
  5
14B
100
AcDbEntity
  8
0
100
AcDbBlockEnd
  0
BLOCK
  5
14C
100
AcDbEntity
  8
0
100
AcDbBlockBegin
  2
*PAPER_SPACE
 70
     0
 10
0.0
 20
0.0
 30
0.0
  3
*PAPER_SPACE
  1

  0
ENDBLK
  5
14D
100
AcDbEntity
  8
0
100
AcDbBlockEnd
  0
BLOCK
  5
2
100
AcDbEntity
  8
0
100
AcDbBlockBegin
  2
_NONE
 70
     0
 10
0.0
 20
0.0
 30
0.0
  3
_NONE
  1

  0
ENDBLK
  5
3
100
AcDbEntity
  8
0
100
AcDbBlockEnd
  0
BLOCK
  5
5
100
AcDbEntity
  8
0
100
AcDbBlockBegin
  2
_CLOSED
 70
     0
 10
0.0
 20
0.0
 30
0.0
  3
_CLOSED
  1

  0
LINE
  5
6
100
AcDbEntity
  8
0
  6
BYBLOCK
 62
     0
100
AcDbLine
 10
-1.0
 20
0.166667
 30
0.0
 11
0.0
 21
0.0
 31
0.0
  0
LINE
  5
7
100
AcDbEntity
  8
0
  6
BYBLOCK
 62
     0
100
AcDbLine
 10
0.0
 20
0.0
 30
0.0
 11
-1.0
 21
-0.166667
 31
0.0
  0
LINE
  5
8
100
AcDbEntity
  8
0
  6
BYBLOCK
 62
     0
100
AcDbLine
 10
-1.0
 20
0.166667
 30
0.0
 11
-1.0
 21
-0.166667
 31
0.0
  0
LINE
  5
9
100
AcDbEntity
  8
0
  6
BYBLOCK
 62
     0
100
AcDbLine
 10
0.0
 20
0.0
 30
0.0
 11
-1.0
 21
0.0
 31
0.0
  0
ENDBLK
  5
A
100
AcDbEntity
  8
0
100
AcDbBlockEnd
  0
BLOCK
  5
C
100
AcDbEntity
  8
0
100
AcDbBlockBegin
  2
_DOT
 70
     0
 10
0.0
 20
0.0
 30
0.0
  3
_DOT
  1

  0
POLYLINE
  5
D
100
AcDbEntity
  8
0
  6
BYBLOCK
 62
     0
100
AcDb2dPolyline
 66
     1
 10
0.0
 20
0.0
 30
0.0
 70
     1
 40
0.5
 41
0.5
  0
VERTEX
  5
E
100
AcDbEntity
  8
0
  6
BYBLOCK
 62
     0
100
AcDbVertex
100
AcDb2dVertex
 10
-0.25
 20
0.0
 30
0.0
 42
1.0
  0
VERTEX
  5
F
100
AcDbEntity
  8
0
  6
BYBLOCK
 62
     0
100
AcDbVertex
100
AcDb2dVertex
 10
0.25
 20
0.0
 30
0.0
 42
1.0
  0
SEQEND
  5
10
100
AcDbEntity
  8
0
  6
BYBLOCK
 62
     0
  0
LINE
  5
11
100
AcDbEntity
  8
0
  6
BYBLOCK
 62
     0
100
AcDbLine
 10
-0.5
 20
0.0
 30
0.0
 11
-1.0
 21
0.0
 31
0.0
  0
ENDBLK
  5
12
100
AcDbEntity
  8
0
100
AcDbBlockEnd
  0
BLOCK
  5
14
100
AcDbEntity
  8
0
100
AcDbBlockBegin
  2
_OPEN
 70
     0
 10
0.0
 20
0.0
 30
0.0
  3
_OPEN
  1

  0
LINE
  5
15
100
AcDbEntity
  8
0
  6
BYBLOCK
 62
     0
100
AcDbLine
 10
-1.0
 20
0.166667
 30
0.0
 11
0.0
 21
0.0
 31
0.0
  0
LINE
  5
16
100
AcDbEntity
  8
0
  6
BYBLOCK
 62
     0
100
AcDbLine
 10
0.0
 20
0.0
 30
0.0
 11
-1.0
 21
-0.166667
 31
0.0
  0
LINE
  5
17
100
AcDbEntity
  8
0
  6
BYBLOCK
 62
     0
100
AcDbLine
 10
0.0
 20
0.0
 30
0.0
 11
-1.0
 21
0.0
 31
0.0
  0
ENDBLK
  5
18
100
AcDbEntity
  8
0
100
AcDbBlockEnd
  0
BLOCK
  5
1A
100
AcDbEntity
  8
0
100
AcDbBlockBegin
  2
_ORIGIN
 70
     0
 10
0.0
 20
0.0
 30
0.0
  3
_ORIGIN
  1

  0
CIRCLE
  5
1B
100
AcDbEntity
  8
0
  6
BYBLOCK
 62
     0
100
AcDbCircle
 10
0.0
 20
0.0
 30
0.0
 40
0.5
  0
LINE
  5
1C
100
AcDbEntity
  8
0
  6
BYBLOCK
 62
     0
100
AcDbLine
 10
0.0
 20
0.0
 30
0.0
 11
-1.0
 21
0.0
 31
0.0
  0
ENDBLK
  5
1D
100
AcDbEntity
  8
0
100
AcDbBlockEnd
  0
BLOCK
  5
1F
100
AcDbEntity
  8
0
100
AcDbBlockBegin
  2
_OPEN30
 70
     0
 10
0.0
 20
0.0
 30
0.0
  3
_OPEN30
  1

  0
LINE
  5
20
100
AcDbEntity
  8
0
  6
BYBLOCK
 62
     0
100
AcDbLine
 10
-1.0
 20
0.267949
 30
0.0
 11
0.0
 21
0.0
 31
0.0
  0
LINE
  5
21
100
AcDbEntity
  8
0
  6
BYBLOCK
 62
     0
100
AcDbLine
 10
0.0
 20
0.0
 30
0.0
 11
-1.0
 21
-0.267949
 31
0.0
  0
LINE
  5
22
100
AcDbEntity
  8
0
  6
BYBLOCK
 62
     0
100
AcDbLine
 10
0.0
 20
0.0
 30
0.0
 11
-1.0
 21
0.0
 31
0.0
  0
ENDBLK
  5
23
100
AcDbEntity
  8
0
100
AcDbBlockEnd
  0
BLOCK
  5
25
100
AcDbEntity
  8
0
100
AcDbBlockBegin
  2
_BOXFILLED
 70
     0
 10
0.0
 20
0.0
 30
0.0
  3
_BOXFILLED
  1

  0
SOLID
  5
26
100
AcDbEntity
  8
0
  6
BYBLOCK
 62
     0
100
AcDbTrace
 10
-0.5
 20
0.5
 30
0.0
 11
0.5
 21
0.5
 31
0.0
 12
-0.5
 22
-0.5
 32
0.0
 13
0.5
 23
-0.5
 33
0.0
  0
LINE
  5
27
100
AcDbEntity
  8
0
  6
BYBLOCK
 62
     0
100
AcDbLine
 10
-0.5
 20
0.0
 30
0.0
 11
-1.0
 21
0.0
 31
0.0
  0
ENDBLK
  5
28
100
AcDbEntity
  8
0
100
AcDbBlockEnd
  0
BLOCK
  5
2A
100
AcDbEntity
  8
0
100
AcDbBlockBegin
  2
_BOXBLANK
 70
     0
 10
0.0
 20
0.0
 30
0.0
  3
_BOXBLANK
  1

  0
LINE
  5
2B
100
AcDbEntity
  8
0
  6
BYBLOCK
 62
     0
100
AcDbLine
 10
-0.5
 20
-0.5
 30
0.0
 11
0.5
 21
-0.5
 31
0.0
  0
LINE
  5
2C
100
AcDbEntity
  8
0
  6
BYBLOCK
 62
     0
100
AcDbLine
 10
0.5
 20
-0.5
 30
0.0
 11
0.5
 21
0.5
 31
0.0
  0
LINE
  5
2D
100
AcDbEntity
  8
0
  6
BYBLOCK
 62
     0
100
AcDbLine
 10
0.5
 20
0.5
 30
0.0
 11
-0.5
 21
0.5
 31
0.0
  0
LINE
  5
2E
100
AcDbEntity
  8
0
  6
BYBLOCK
 62
     0
100
AcDbLine
 10
-0.5
 20
0.5
 30
0.0
 11
-0.5
 21
-0.5
 31
0.0
  0
LINE
  5
2F
100
AcDbEntity
  8
0
  6
BYBLOCK
 62
     0
100
AcDbLine
 10
-0.5
 20
0.0
 30
0.0
 11
-1.0
 21
0.0
 31
0.0
  0
ENDBLK
  5
30
100
AcDbEntity
  8
0
100
AcDbBlockEnd
  0
BLOCK
  5
32
100
AcDbEntity
  8
0
100
AcDbBlockBegin
  2
_OBLIQUE
 70
     0
 10
0.0
 20
0.0
 30
0.0
  3
_OBLIQUE
  1

  0
LINE
  5
33
100
AcDbEntity
  8
0
  6
BYBLOCK
 62
     0
100
AcDbLine
 10
-0.5
 20
-0.5
 30
0.0
 11
0.5
 21
0.5
 31
0.0
  0
ENDBLK
  5
34
100
AcDbEntity
  8
0
100
AcDbBlockEnd
  0
BLOCK
  5
36
100
AcDbEntity
  8
0
100
AcDbBlockBegin
  2
_OPEN90
 70
     0
 10
0.0
 20
0.0
 30
0.0
  3
_OPEN90
  1

  0
LINE
  5
37
100
AcDbEntity
  8
0
  6
BYBLOCK
 62
     0
100
AcDbLine
 10
-0.5
 20
0.5
 30
0.0
 11
0.0
 21
0.0
 31
0.0
  0
LINE
  5
38
100
AcDbEntity
  8
0
  6
BYBLOCK
 62
     0
100
AcDbLine
 10
0.0
 20
0.0
 30
0.0
 11
-0.5
 21
-0.5
 31
0.0
  0
LINE
  5
39
100
AcDbEntity
  8
0
  6
BYBLOCK
 62
     0
100
AcDbLine
 10
0.0
 20
0.0
 30
0.0
 11
-1.0
 21
0.0
 31
0.0
  0
ENDBLK
  5
3A
100
AcDbEntity
  8
0
100
AcDbBlockEnd
  0
BLOCK
  5
3C
100
AcDbEntity
  8
0
100
AcDbBlockBegin
  2
_CLOSEDBLANK
 70
     0
 10
0.0
 20
0.0
 30
0.0
  3
_CLOSEDBLANK
  1

  0
LINE
  5
3D
100
AcDbEntity
  8
0
  6
BYBLOCK
 62
     0
100
AcDbLine
 10
-1.0
 20
0.1666666666666666
 30
0.0
 11
0.0
 21
0.0
 31
0.0
  0
LINE
  5
3E
100
AcDbEntity
  8
0
  6
BYBLOCK
 62
     0
100
AcDbLine
 10
0.0
 20
0.0
 30
0.0
 11
-1.0
 21
-0.1666666666666666
 31
0.0
  0
LINE
  5
3F
100
AcDbEntity
  8
0
  6
BYBLOCK
 62
     0
100
AcDbLine
 10
-1.0
 20
0.1666666666666666
 30
0.0
 11
-1.0
 21
-0.1666666666666666
 31
0.0
  0
ENDBLK
  5
40
100
AcDbEntity
  8
0
100
AcDbBlockEnd
  0
BLOCK
  5
42
100
AcDbEntity
  8
0
100
AcDbBlockBegin
  2
_DOTBLANK
 70
     0
 10
0.0
 20
0.0
 30
0.0
  3
_DOTBLANK
  1

  0
CIRCLE
  5
43
100
AcDbEntity
  8
0
  6
BYBLOCK
 62
     0
100
AcDbCircle
 10
0.0
 20
0.0
 30
0.0
 40
0.5
  0
LINE
  5
44
100
AcDbEntity
  8
0
  6
BYBLOCK
 62
     0
100
AcDbLine
 10
-0.5
 20
0.0
 30
0.0
 11
-1.0
 21
0.0
 31
0.0
  0
ENDBLK
  5
45
100
AcDbEntity
  8
0
100
AcDbBlockEnd
  0
ENDSEC
  0
SECTION
  2
ENTITIES
  0
MTEXT
  5
46
100
AcDbEntity
  8
A7
  6
CONTINUOUS
 62
3
100
AcDbMText
 10
9.999997526638502
 20
18.00000076076889
 30
0.000000000000000
 40
3.000000000000000
 41
0.000000000000000
 71
     7
 72
     1
  1
{\H0.93x;{TYPE No.TM-179-4}}
 11
1.000000000000000
 21
0.000000000000000
 31
0.000000000000000
  7
STANDARD
  0
POINT
  5
47
100
AcDbEntity
  8
A7
  6
CONTINUOUS
 62
3
100
AcDbPoint
 10
9.999997526638502
 20
18.00000076076889
 30
0.000000000000000
  0
LINE
  5
48
100
AcDbEntity
  8
A1
  6
CONTINUOUS
 62
7
100
AcDbLine
 10
52.11677149870856
 20
87.23183276446537
 30
0.000000000000000
 11
52.11677149870856
 21
84.50961054224314
 31
0.000000000000000
  0
LINE
  5
49
100
AcDbEntity
  8
A1
  6
CONTINUOUS
 62
7
100
AcDbLine
 10
52.50566038759744
 20
84.12072165335425
 30
0.000000000000000
 11
60.28343816537523
 21
84.12072165335425
 31
0.000000000000000
  0
LINE
  5
4A
100
AcDbEntity
  8
A1
  6
CONTINUOUS
 62
7
100
AcDbLine
 10
52.11677149870853
 20
85.67627720890982
 30
0.000000000000000
 11
60.67232705426413
 21
85.67627720890982
 31
0.000000000000000
  0
LINE
  5
4B
100
AcDbEntity
  8
A1
  6
CONTINUOUS
 62
7
100
AcDbLine
 10
60.67232705426412
 20
84.50961054224314
 30
0.000000000000000
 11
60.67232705426412
 21
87.23183276446537
 31
0.000000000000000
  0
LINE
  5
4C
100
AcDbEntity
  8
A1
  6
CONTINUOUS
 62
7
100
AcDbLine
 10
55.18307402551358
 20
99.29849943113243
 30
0.000000000000000
 11
57.60602452745999
 21
99.29849943113243
 31
0.000000000000000
  0
ARC
  5
4D
100
AcDbEntity
  8
A1
  6
CONTINUOUS
 62
7
100
AcDbCircle
 10
56.39454927648634
 20
87.62072165335422
 30
0.000000000000000
 40
3.500000000000000
100
AcDbArc
 50
173.6206297915572
 51
186.3793702084428
  0
ARC
  5
4E
100
AcDbEntity
  8
A1
  6
CONTINUOUS
 62
7
100
AcDbCircle
 10
56.39454927648634
 20
87.62072165335422
 30
0.000000000000000
 40
3.500000000000000
100
AcDbArc
 50
353.6206297915572
 51
366.3793702084428
  0
LINE
  5
4F
100
AcDbEntity
  8
A1
  6
CONTINUOUS
 62
7
100
AcDbLine
 10
58.46730615561081
 20
88.00961054224305
 30
0.000000000000000
 11
59.87287724148597
 21
88.00961054224305
 31
0.000000000000000
  0
LINE
  5
50
100
AcDbEntity
  8
A1
  6
CONTINUOUS
 62
7
100
AcDbLine
 10
52.91622131148665
 20
88.00961054224314
 30
0.000000000000000
 11
54.32179239736281
 21
88.00961054224314
 31
0.000000000000000
  0
LINE
  5
51
100
AcDbEntity
  8
A1
  6
CONTINUOUS
 62
7
100
AcDbLine
 10
58.50098809044060
 20
87.23183276446537
 30
0.000000000000000
 11
60.67232705426412
 21
87.23183276446537
 31
0.000000000000000
  0
LINE
  5
52
100
AcDbEntity
  8
A1
  6
CONTINUOUS
 62
7
100
AcDbLine
 10
52.11677149870856
 20
87.23183276446537
 30
0.000000000000000
 11
54.28811046253303
 21
87.23183276446537
 31
0.000000000000000
  0
ARC
  5
53
100
AcDbEntity
  8
A1
  6
CONTINUOUS
 62
7
100
AcDbCircle
 10
55.18307402551358
 20
98.90961054224357
 30
0.000000000000000
 40
0.3888888888888890
100
AcDbArc
 50
90.00000000000000
 51
177.5889702533900
  0
ARC
  5
54
100
AcDbEntity
  8
A1
  6
CONTINUOUS
 62
7
100
AcDbCircle
 10
57.60602452745999
 20
98.90961054224354
 30
0.000000000000000
 40
0.3888888888888890
100
AcDbArc
 50
2.411029746609894
 51
90.00000000000000
  0
ARC
  5
55
100
AcDbEntity
  8
A1
  6
CONTINUOUS
 62
7
100
AcDbCircle
 10
52.50566038759744
 20
84.50961054224314
 30
0.000000000000000
 40
0.3888888888888890
100
AcDbArc
 50
180.0000000000000
 51
270.0000000000000
  0
ARC
  5
56
100
AcDbEntity
  8
A1
  6
CONTINUOUS
 62
7
100
AcDbCircle
 10
60.28343816537523
 20
84.50961054224311
 30
0.000000000000000
 40
0.3888888888888890
100
AcDbArc
 50
270.0000000000000
 51
360.0000000000000
  0
LINE
  5
57
100
AcDbEntity
  8
A1
  6
CONTINUOUS
 62
7
100
AcDbLine
 10
58.26121594315293
 20
80.78738832002134
 30
0.000000000000000
 11
58.26121594315293
 21
84.12072165335425
 31
0.000000000000000
  0
LINE
  5
58
100
AcDbEntity
  8
A1
  6
CONTINUOUS
 62
7
100
AcDbLine
 10
54.52788260981963
 20
80.78738832002134
 30
0.000000000000000
 11
54.52788260981963
 21
84.12072165335425
 31
0.000000000000000
  0
LINE
  5
59
100
AcDbEntity
  8
A1
  6
CONTINUOUS
 62
7
100
AcDbLine
 10
53.55566038759731
 20
80.70961054224287
 30
0.000000000000000
 11
53.55566038759604
 21
75.38983582776419
 31
0.000000000000000
  0
LINE
  5
5A
100
AcDbEntity
  8
A1
  6
CONTINUOUS
 62
7
100
AcDbLine
 10
59.23343816537517
 20
80.70961054224287
 30
0.000000000000000
 11
59.23343816537642
 21
75.38983582776436
 31
0.000000000000000
  0
LINE
  5
5B
100
AcDbEntity
  8
A1
  6
CONTINUOUS
 62
7
100
AcDbLine
 10
52.23343816537459
 20
78.41516609779914
 30
0.000000000000000
 11
52.23343816537422
 21
76.78183276446579
 31
0.000000000000000
  0
LINE
  5
5C
100
AcDbEntity
  8
A1
  6
CONTINUOUS
 62
7
100
AcDbLine
 10
53.16677149870814
 20
79.22021738928710
 30
0.000000000000000
 11
53.16677149870738
 21
75.97678147297712
 31
0.000000000000000
  0
ARC
  5
5D
100
AcDbEntity
  8
A1
  6
CONTINUOUS
 62
7
100
AcDbCircle
 10
53.36121594315235
 20
77.59849943113207
 30
0.000000000000000
 40
1.633333333333334
100
AcDbArc
 50
83.16285883185685
 51
96.83714116812830
  0
ARC
  5
5E
100
AcDbEntity
  8
A1
  6
CONTINUOUS
 62
7
100
AcDbCircle
 10
53.36121594315235
 20
77.59849943113207
 30
0.000000000000000
 40
1.633333333333334
100
AcDbArc
 50
263.1628588318443
 51
276.8371411681159
  0
ARC
  5
5F
100
AcDbEntity
  8
A1
  6
CONTINUOUS
 62
7
100
AcDbCircle
 10
53.75172520241154
 20
77.59849943113198
 30
0.000000000000000
 40
1.723989550803365
100
AcDbArc
 50
109.8343750916045
 51
151.7247754854991
  0
ARC
  5
60
100
AcDbEntity
  8
A1
  6
CONTINUOUS
 62
7
100
AcDbCircle
 10
53.75172520241154
 20
77.59849943113198
 30
0.000000000000000
 40
1.723989550803365
100
AcDbArc
 50
208.2752245144736
 51
250.1656249083682
  0
ARC
  5
61
100
AcDbEntity
  8
A1
  6
CONTINUOUS
 62
7
100
AcDbCircle
 10
99.20191642624930
 20
67.39760571132553
 30
0.000000000000000
 40
46.33259208041865
100
AcDbArc
 50
170.1834864688138
 51
186.0558584368291
  0
ARC
  5
62
100
AcDbEntity
  8
A1
  6
CONTINUOUS
 62
7
100
AcDbCircle
 10
53.01121594315164
 20
75.38983582776436
 30
0.000000000000000
 40
0.5444444444444445
100
AcDbArc
 50
350.1834864688138
 51
360.0000000000000
  0
ARC
  5
63
100
AcDbEntity
  8
A1
  6
CONTINUOUS
 62
7
100
AcDbCircle
 10
13.58718212672335
 20
67.39760571132553
 30
0.000000000000000
 40
46.33259208041865
100
AcDbArc
 50
353.9441415631709
 51
369.8165135311862
  0
ARC
  5
64
100
AcDbEntity
  8
A1
  6
CONTINUOUS
 62
7
100
AcDbCircle
 10
59.77788260982101
 20
75.38983582776436
 30
0.000000000000000
 40
0.5444444444444445
100
AcDbArc
 50
180.0000000000000
 51
189.8165135311862
  0
LINE
  5
65
100
AcDbEntity
  8
A1
  6
CONTINUOUS
 62
7
100
AcDbLine
 10
53.28343816537518
 20
61.34294387557689
 30
0.000000000000000
 11
53.28343816537517
 21
59.37662910211775
 31
0.000000000000000
  0
LINE
  5
66
100
AcDbEntity
  8
A1
  6
CONTINUOUS
 62
7
100
AcDbLine
 10
59.50566038759744
 20
61.34294387557699
 30
0.000000000000000
 11
59.50566038759741
 21
59.37662910211775
 31
0.000000000000000
  0
LINE
  5
67
100
AcDbEntity
  8
A1
  6
CONTINUOUS
 62
7
100
AcDbLine
 10
53.82788260981968
 20
62.00263496201855
 30
0.000000000000000
 11
53.82788260981967
 21
59.37662910211775
 31
0.000000000000000
  0
LINE
  5
68
100
AcDbEntity
  8
A1
  6
CONTINUOUS
 62
7
100
AcDbLine
 10
58.96121594315299
 20
62.00263496201860
 30
0.000000000000000
 11
58.96121594315295
 21
59.37662910211777
 31
0.000000000000000
  0
ARC
  5
69
100
AcDbEntity
  8
A1
  6
CONTINUOUS
 62
7
100
AcDbCircle
 10
56.39454927648633
 20
71.20071370291396
 30
0.000000000000000
 40
4.142230172662947
100
AcDbArc
 50
54.31459240566181
 51
125.6854075943382
  0
ARC
  5
6A
100
AcDbEntity
  8
A1
  6
CONTINUOUS
 62
7
100
AcDbCircle
 10
56.39454927648627
 20
75.26584697132924
 30
0.000000000000000
 40
5.756236429085682
100
AcDbArc
 50
239.8691025806063
 51
300.1308974193937
  0
ELLIPSE
  5
6B
100
AcDbEntity
  8
A1
  6
CONTINUOUS
 62
7
100
AcDbEllipse
 10
56.39454927648627
 20
60.74016609779915
 30
0.000000000000000
 11
-1.944444444444445
 21
0.000000000000000
 31
0.000000000000000
210
0.000000000000000
220
0.000000000000000
230
1.000000000000000
 40
0.1900000000000000
 41
3.529469202006943
 42
5.895308758762600
  0
ELLIPSE
  5
6C
100
AcDbEntity
  8
A1
  6
CONTINUOUS
 62
7
100
AcDbEllipse
 10
56.39454927648627
 20
60.74016609779915
 30
0.000000000000000
 11
-1.944444444444445
 21
0.000000000000000
 31
0.000000000000000
210
0.000000000000000
220
0.000000000000000
230
1.000000000000000
 40
0.1900000000000000
 41
0.3878765484169859
 42
2.753716105172634
  0
ARC
  5
6D
100
AcDbEntity
  8
A1
  6
CONTINUOUS
 62
7
100
AcDbCircle
 10
48.83066038759733
 20
61.34294387557691
 30
0.000000000000000
 40
4.452777777777862
100
AcDbArc
 50
0.000000000000000
 51
15.18928673718275
  0
ARC
  5
6E
100
AcDbEntity
  8
A1
  6
CONTINUOUS
 62
7
100
AcDbCircle
 10
52.50566038759744
 20
62.00263496201856
 30
0.000000000000000
 40
1.322222222222191
100
AcDbArc
 50
0.000000000000000
 51
65.23351637867665
  0
ARC
  5
6F
100
AcDbEntity
  8
A1
  6
CONTINUOUS
 62
7
100
AcDbCircle
 10
60.28343816537514
 20
62.00263496201856
 30
0.000000000000000
 40
1.322222222222191
100
AcDbArc
 50
114.7664836213206
 51
180.0000000000000
  0
ARC
  5
70
100
AcDbEntity
  8
A1
  6
CONTINUOUS
 62
7
100
AcDbCircle
 10
63.95843816537527
 20
61.34294387557691
 30
0.000000000000000
 40
4.452777777777862
100
AcDbArc
 50
164.8107132628172
 51
180.0000000000000
  0
LINE
  5
71
100
AcDbEntity
  8
A4
  6
CENTER
 62
1
100
AcDbLine
 10
61.56677149870926
 20
77.59849943113203
 30
0.000000000000000
 11
50.86106898494148
 21
77.59849943113194
 31
0.000000000000000
  0
LINE
  5
72
100
AcDbEntity
  8
A4
  6
CENTER
 62
1
100
AcDbLine
 10
52.11677149870850
 20
58.65961054224354
 30
0.000000000000000
 11
60.67232705426406
 21
58.65961054224354
 31
0.000000000000000
  0
LINE
  5
73
100
AcDbEntity
  8
A1
  6
CONTINUOUS
 62
7
100
AcDbLine
 10
107.0913218126697
 20
85.67627720890941
 30
0.000000000000000
 11
98.59132181266966
 21
85.67627720890958
 31
0.000000000000000
  0
LINE
  5
74
100
AcDbEntity
  8
A1
  6
CONTINUOUS
 62
7
100
AcDbLine
 10
107.0913218126696
 20
84.12072165335384
 30
0.000000000000000
 11
98.98021070155851
 21
84.12072165335404
 31
0.000000000000000
  0
LINE
  5
75
100
AcDbEntity
  8
A1
  6
CONTINUOUS
 62
7
100
AcDbLine
 10
107.1468773682252
 20
87.23183276446501
 30
0.000000000000000
 11
98.64687736822519
 21
87.23183276446518
 31
0.000000000000000
  0
LINE
  5
76
100
AcDbEntity
  8
A1
  6
CONTINUOUS
 62
7
100
AcDbLine
 10
98.59132181266963
 20
84.50961054224295
 30
0.000000000000000
 11
98.59132181266965
 21
85.67627720890961
 31
0.000000000000000
  0
LINE
  5
77
100
AcDbEntity
  8
A1
  6
CONTINUOUS
 62
7
100
AcDbLine
 10
107.1468773682252
 20
86.06516609779831
 30
0.000000000000000
 11
107.1468773682252
 21
87.23183276446497
 31
0.000000000000000
  0
ARC
  5
78
100
AcDbEntity
  8
A1
  6
CONTINUOUS
 62
7
100
AcDbCircle
 10
107.0913218126697
 20
86.45405498668717
 30
0.000000000000000
 40
0.7777777777777779
100
AcDbArc
 50
269.9999999999989
 51
366.1180565509077
  0
ARC
  5
79
100
AcDbEntity
  8
A1
  6
CONTINUOUS
 62
7
100
AcDbCircle
 10
98.64687736822525
 20
88.00961054224294
 30
0.000000000000000
 40
0.7777777777777779
100
AcDbArc
 50
171.4974406372199
 51
269.9999999999989
  0
ARC
  5
7A
100
AcDbEntity
  8
A1
  6
CONTINUOUS
 62
7
100
AcDbCircle
 10
107.0913218126697
 20
86.45405498668717
 30
0.000000000000000
 40
2.333333333333333
100
AcDbArc
 50
269.9999999999989
 51
366.7350193861674
  0
ARC
  5
7B
100
AcDbEntity
  8
A1
  6
CONTINUOUS
 62
7
100
AcDbCircle
 10
98.64687736822525
 20
88.00961054224294
 30
0.000000000000000
 40
2.333333333333333
100
AcDbArc
 50
171.4974375980928
 51
269.9999999999989
  0
LINE
  5
7C
100
AcDbEntity
  8
A1
  6
CONTINUOUS
 62
7
100
AcDbLine
 10
106.3474275554471
 20
88.00961054224277
 30
0.000000000000000
 11
99.39077162544784
 21
88.00961054224288
 31
0.000000000000000
  0
ARC
  5
7D
100
AcDbEntity
  8
A1
  6
CONTINUOUS
 62
7
100
AcDbCircle
 10
102.8690995904475
 20
87.62072165335397
 30
0.000000000000000
 40
3.500000000000000
100
AcDbArc
 50
353.6206297915560
 51
366.3793702084416
  0
ARC
  5
7E
100
AcDbEntity
  8
A1
  6
CONTINUOUS
 62
7
100
AcDbCircle
 10
102.8690995904475
 20
87.62072165335397
 30
0.000000000000000
 40
3.500000000000000
100
AcDbArc
 50
173.6206297915561
 51
186.3793702084417
  0
ARC
  5
7F
100
AcDbEntity
  8
A1
  6
CONTINUOUS
 62
7
100
AcDbCircle
 10
98.98021070155853
 20
84.50961054224288
 30
0.000000000000000
 40
0.3888888888888890
100
AcDbArc
 50
179.9999999999989
 51
269.9999999999989
  0
ARC
  5
80
100
AcDbEntity
  8
A1
  6
CONTINUOUS
 62
7
100
AcDbCircle
 10
106.7579884793364
 20
86.06516609779831
 30
0.000000000000000
 40
0.3888888888888890
100
AcDbArc
 50
269.9999999999989
 51
359.9999999999989
  0
LINE
  5
81
100
AcDbEntity
  8
A1
  6
CONTINUOUS
 62
7
100
AcDbLine
 10
100.9246551460028
 20
80.70961054224287
 30
0.000000000000000
 11
100.9246551460029
 21
84.12072165335400
 31
0.000000000000000
  0
LINE
  5
82
100
AcDbEntity
  8
A1
  6
CONTINUOUS
 62
7
100
AcDbLine
 10
104.8135440348918
 20
80.02710976384218
 30
0.000000000000000
 11
104.8135440348919
 21
84.12072165335393
 31
0.000000000000000
  0
LINE
  5
83
100
AcDbEntity
  8
A4
  6
CENTER
 62
1
100
AcDbLine
 10
102.8690995904477
 20
101.2318327644651
 30
0.000000000000000
 11
102.8690995904472
 21
75.56516609779842
 31
0.000000000000000
  0
LINE
  5
84
100
AcDbEntity
  8
A4
  6
CENTER
 62
1
100
AcDbLine
 10
105.6690995904473
 20
77.59849943113169
 30
0.000000000000000
 11
100.0690995904472
 21
77.59849943113177
 31
0.000000000000000
  0
ARC
  5
85
100
AcDbEntity
  8
A1
  6
CONTINUOUS
 62
7
100
AcDbCircle
 10
102.8690995904472
 20
77.59849943113173
 30
0.000000000000000
 40
3.111111111111112
100
AcDbArc
 50
295.8981932192953
 51
449.9999999999989
  0
LINE
  5
86
100
AcDbEntity
  8
A1
  6
CONTINUOUS
 62
7
100
AcDbLine
 10
102.8690995904473
 20
80.70961054224284
 30
0.000000000000000
 11
95.32465514600283
 21
80.70961054224298
 31
0.000000000000000
  0
LINE
  5
87
100
AcDbEntity
  8
A1
  6
CONTINUOUS
 62
7
100
AcDbLine
 10
95.32465514600290
 20
80.70961054224293
 30
0.000000000000000
 11
96.05424490201725
 21
75.67544122573096
 31
0.000000000000000
  0
ARC
  5
88
100
AcDbEntity
  8
A1
  6
CONTINUOUS
 62
7
100
AcDbCircle
 10
97.86636337555655
 20
72.53090960939778
 30
0.000000000000000
 40
3.319486007333857
100
AcDbArc
 50
127.4761145232165
 51
229.2862864052355
  0
ARC
  5
89
100
AcDbEntity
  8
A1
  6
CONTINUOUS
 62
7
100
AcDbCircle
 10
93.92547888243800
 20
67.95142626048354
 30
0.000000000000000
 40
2.722222222222222
100
AcDbArc
 50
6.340191745914350
 51
49.28628640523555
  0
LINE
  5
8A
100
AcDbEntity
  8
A1
  6
CONTINUOUS
 62
7
100
AcDbLine
 10
97.26909959044505
 20
62.50961054224295
 30
0.000000000000000
 11
96.63105127127176
 21
68.25204541479859
 31
0.000000000000000
  0
ARC
  5
8B
100
AcDbEntity
  8
A1
  6
CONTINUOUS
 62
7
100
AcDbCircle
 10
95.51542968700589
 20
75.59735206413538
 30
0.000000000000000
 40
0.5444444444444445
100
AcDbArc
 50
307.4761145232167
 51
368.2463208144474
  0
ARC
  5
8C
100
AcDbEntity
  8
A1
  6
CONTINUOUS
 62
7
100
AcDbCircle
 10
101.2302862260511
 20
58.65961054224283
 30
0.000000000000000
 40
8.361111111111112
100
AcDbArc
 50
168.1909207825552
 51
380.0930942098104
  0
ARC
  5
8D
100
AcDbEntity
  8
A1
  6
CONTINUOUS
 62
7
100
AcDbCircle
 10
93.13627433630364
 20
71.01153458020525
 30
0.000000000000000
 40
13.07726969858797
100
AcDbArc
 50
357.0109831964004
 51
381.0517272287697
  0
LINE
  5
8E
100
AcDbEntity
  8
A1
  6
CONTINUOUS
 62
7
100
AcDbLine
 10
106.4271570363750
 20
68.79082811567955
 30
0.000000000000000
 11
109.0825038791876
 21
61.53204103576554
 31
0.000000000000000
  0
LINE
  5
8F
100
AcDbEntity
  8
A1
  6
CONTINUOUS
 62
7
100
AcDbLine
 10
102.7749627791022
 20
67.45481393264572
 30
0.000000000000000
 11
105.4303096219148
 21
60.19602685273171
 31
0.000000000000000
  0
ARC
  5
90
100
AcDbEntity
  8
A1
  6
CONTINUOUS
 62
7
100
AcDbCircle
 10
110.0793512936476
 20
70.12684229871329
 30
0.000000000000000
 40
3.888888888888889
100
AcDbArc
 50
177.0109831964003
 51
200.0930942098105
  0
ARC
  5
91
100
AcDbEntity
  8
A1
  6
CONTINUOUS
 62
7
100
AcDbCircle
 10
110.0793512936476
 20
70.12684229871329
 30
0.000000000000000
 40
7.777777777777779
100
AcDbArc
 50
177.0109831964003
 51
200.0930942098105
  0
ARC
  5
92
100
AcDbEntity
  8
A1
  6
CONTINUOUS
 62
7
100
AcDbCircle
 10
107.7976587885884
 20
68.93815975860772
 30
0.000000000000000
 40
6.853434990597351
100
AcDbArc
 50
121.3487499652133
 51
177.2745499926594
  0
ARC
  5
93
100
AcDbEntity
  8
A1
  6
CONTINUOUS
 62
7
100
AcDbCircle
 10
93.13627433630364
 20
71.01153458020525
 30
0.000000000000000
 40
9.188380809699030
100
AcDbArc
 50
357.0109831964004
 51
371.3178037552324
  0
ARC
  5
94
100
AcDbEntity
  8
A1
  6
CONTINUOUS
 62
7
100
AcDbCircle
 10
102.0892689514508
 20
70.81979849828659
 30
0.000000000000000
 40
0.2333333333333334
100
AcDbArc
 50
190.4999999999943
 51
370.5000000000050
  0
ARC
  5
95
100
AcDbEntity
  8
A1
  6
CONTINUOUS
 62
7
100
AcDbCircle
 10
93.13627433630364
 20
71.01153458020525
 30
0.000000000000000
 40
9.188377797702932
100
AcDbArc
 50
357.0109831964004
 51
371.3177854682148
  0
LINE
  5
96
100
AcDbEntity
  8
A1
  6
CONTINUOUS
 62
7
100
AcDbLine
 10
101.8598428063525
 20
70.77727687567170
 30
0.000000000000000
 11
101.6422168939367
 21
71.95148122368771
 31
0.000000000000000
  0
ARC
  5
97
100
AcDbEntity
  8
A1
  6
CONTINUOUS
 62
7
100
AcDbCircle
 10
101.6146548274055
 20
70.81979849828659
 30
0.000000000000000
 40
0.2333333333333334
100
AcDbArc
 50
190.5000000000051
 51
370.4999999999997
  0
LINE
  5
98
100
AcDbEntity
  8
A1
  6
CONTINUOUS
 62
7
100
AcDbLine
 10
101.3852286823072
 20
70.77727687567176
 30
0.000000000000000
 11
101.3143224040019
 21
71.15985291803439
 31
0.000000000000000
  0
LINE
  5
99
100
AcDbEntity
  8
A1
  6
CONTINUOUS
 62
7
100
AcDbLine
 10
102.3186950965489
 20
70.86232012090134
 30
0.000000000000000
 11
101.9984246718577
 21
72.59034469774933
 31
0.000000000000000
  0
LINE
  5
9A
100
AcDbEntity
  8
A4
  6
CENTER
 62
1
100
AcDbLine
 10
101.2302862260513
 20
68.18738832002060
 30
0.000000000000000
 11
101.2302862260509
 21
49.13183276446506
 31
0.000000000000000
  0
LINE
  5
9B
100
AcDbEntity
  8
A4
  6
CENTER
 62
1
100
AcDbLine
 10
110.7580640038289
 20
58.65961054224260
 30
0.000000000000000
 11
91.70250844827335
 21
58.65961054224299
 31
0.000000000000000
  0
LINE
  5
9C
100
AcDbEntity
  8
A3
  6
DASHED
 62
2
100
AcDbLine
 10
96.75806400382943
 20
59.47683035933650
 30
0.000000000000000
 11
96.75806400383038
 21
60.99712113035841
 31
0.000000000000000
  0
LINE
  5
9D
100
AcDbEntity
  8
A5
  6
PHANTOM
 62
6
100
AcDbLine
 10
101.8559884873044
 20
80.54003274530098
 30
0.000000000000000
 11
94.72277020044390
 21
78.08323832017962
 31
0.000000000000000
  0
LINE
  5
9E
100
AcDbEntity
  8
A5
  6
PHANTOM
 62
6
100
AcDbLine
 10
94.72277020044393
 20
78.08323832017962
 30
0.000000000000000
 11
97.05193336558222
 21
73.56105291160175
 31
0.000000000000000
  0
ARC
  5
9F
100
AcDbEntity
  8
A5
  6
PHANTOM
 62
6
100
AcDbCircle
 10
99.78927267931279
 20
71.17802418123219
 30
0.000000000000000
 40
3.319486007333857
100
AcDbArc
 50
146.4806412032776
 51
248.2908130852966
  0
ARC
  5
A0
100
AcDbEntity
  8
A5
  6
PHANTOM
 62
6
100
AcDbCircle
 10
97.55447059476907
 20
65.56483453772250
 30
0.000000000000000
 40
2.722222222222222
100
AcDbArc
 50
25.34471842597543
 51
68.29081308529663
  0
ARC
  5
A1
100
AcDbEntity
  8
A5
  6
PHANTOM
 62
6
100
AcDbCircle
 10
102.9637061521373
 20
60.62708170026974
 30
0.000000000000000
 40
2.152696489356316
100
AcDbArc
 50
197.0351421360980
 51
293.9420181030832
  0
SPLINE
  5
A2
100
AcDbEntity
  8
A5
  6
PHANTOM
 62
6
100
AcDbSpline
210
0.000000000000000
220
0.000000000000000
230
1.000000000000000
 70
     8
 71
     3
 72
     8
 73
     4
 74
     0
 42
1.000000000000000e-07
 43
1.000000000000000e-07
 12
-1.052850398801439
 22
-0.5251039927517667
 32
0.000000000000000
 13
-0.2197976299917741
 23
-0.8450643071379176
 33
0.000000000000000
 40
0.000000000000000
 40
0.000000000000000
 40
0.000000000000000
 40
0.000000000000000
 40
1.818485216637023
 40
1.818485216637023
 40
1.818485216637023
 40
1.818485216637023
 10
102.2398991144647
 20
62.06324952200191
 30
0.000000000000000
 10
101.6017014859478
 20
61.74495157266318
 30
0.000000000000000
 10
100.9635038574308
 20
61.42665362332440
 30
0.000000000000000
 10
100.8302709438335
 20
60.91440797344509
 30
0.000000000000000
  0
LINE
  5
A3
100
AcDbEntity
  8
A5
  6
PHANTOM
 62
6
100
AcDbLine
 10
103.8372961117975
 20
58.65961054224282
 30
0.000000000000000
 11
102.2279701371256
 21
62.05729989500499
 31
0.000000000000000
  0
LINE
  5
A4
100
AcDbEntity
  8
A5
  6
PHANTOM
 62
6
100
AcDbLine
 10
102.4879284751835
 20
61.50846287175305
 30
0.000000000000000
 11
100.0146754666752
 21
66.73011811497307
 31
0.000000000000000
  0
ARC
  5
A5
100
AcDbEntity
  8
A5
  6
PHANTOM
 62
6
100
AcDbCircle
 10
100.5632793124819
 20
65.57187828344226
 30
0.000000000000000
 40
3.888888888888889
100
AcDbArc
 50
295.3447184259757
 51
372.6844146498399
  0
ARC
  5
A6
100
AcDbEntity
  8
A5
  6
PHANTOM
 62
6
100
AcDbCircle
 10
96.56791660928201
 20
73.31175884286549
 30
0.000000000000000
 40
0.5444444444444445
100
AcDbArc
 50
326.4806412032777
 51
387.2508474945085
  0
ARC
  5
A7
100
AcDbEntity
  8
A5
  6
PHANTOM
 62
6
100
AcDbCircle
 10
110.3491948105435
 20
71.01516026993335
 30
0.000000000000000
 40
6.853434990597351
100
AcDbArc
 50
140.3532766452744
 51
196.2790766727205
  0
LINE
  5
A8
100
AcDbEntity
  8
A3
  6
DASHED
 62
2
100
AcDbLine
 10
96.75806400383033
 20
60.99712113035956
 30
0.000000000000000
 11
95.41446198127298
 21
60.77038394205674
 31
0.000000000000000
  0
LINE
  5
A9
100
AcDbEntity
  8
A1
  6
CONTINUOUS
 62
7
100
AcDbLine
 10
95.41446198127301
 20
60.77038394205670
 30
0.000000000000000
 11
93.04613826931320
 21
60.37072165335411
 31
0.000000000000000
  0
ARC
  5
AA
100
AcDbEntity
  8
A1
  6
CONTINUOUS
 62
7
100
AcDbCircle
 10
101.2302862260511
 20
58.65961054224283
 30
0.000000000000000
 40
4.472222222222222
100
AcDbArc
 50
180.0000000000000
 51
380.0930942098104
  0
LINE
  5
AB
100
AcDbEntity
  8
A4
  6
CENTER
 62
1
100
AcDbLine
 10
56.39454927648626
 20
49.13183276446572
 30
0.000000000000000
 11
56.39454927648677
 21
100.4651660977991
 31
0.000000000000000
  0
ARC
  5
AC
100
AcDbEntity
  8
A1
  6
CONTINUOUS
 62
7
100
AcDbCircle
 10
102.8690995904475
 20
86.58368461631699
 30
0.000000000000000
 40
3.759259259259179
100
AcDbArc
 50
22.29097037475698
 51
157.7090296252410
  0
LINE
  5
AD
100
AcDbEntity
  8
A1
  6
CONTINUOUS
 62
7
100
AcDbLine
 10
58.54763608615051
 20
86.15464481120790
 30
0.000000000000000
 11
57.99454927648674
 21
98.92643574045610
 31
0.000000000000000
  0
LINE
  5
AE
100
AcDbEntity
  8
A1
  6
CONTINUOUS
 62
7
100
AcDbLine
 10
54.79454927648678
 20
98.92643574045617
 30
0.000000000000000
 11
54.24146246682314
 21
86.15464481120792
 31
0.000000000000000
  0
ARC
  5
AF
100
AcDbEntity
  8
A1
  6
CONTINUOUS
 62
7
100
AcDbCircle
 10
56.39454927648663
 20
86.58368461631724
 30
0.000000000000000
 40
3.759259259259179
100
AcDbArc
 50
22.29097037475779
 51
57.91971271987829
  0
ARC
  5
B0
100
AcDbEntity
  8
A1
  6
CONTINUOUS
 62
7
100
AcDbCircle
 10
56.39454927648663
 20
86.58368461631724
 30
0.000000000000000
 40
3.759259259259179
100
AcDbArc
 50
122.0802872801156
 51
157.7090296252433
  0
LINE
  5
B1
100
AcDbEntity
  8
A5
  6
PHANTOM
 62
6
100
AcDbLine
 10
104.3572571826343
 20
66.42580375496652
 30
0.000000000000000
 11
103.6630226334096
 21
69.51027728841456
 31
0.000000000000000
  0
LINE
  5
B2
100
AcDbEntity
  8
A1
  6
CONTINUOUS
 62
7
100
AcDbLine
 10
97.61720863934806
 20
59.37662910211781
 30
0.000000000000000
 11
97.20203569520976
 21
63.11318559936002
 31
0.000000000000000
  0
SPLINE
  5
B3
100
AcDbEntity
  8
A1
  6
CONTINUOUS
 62
7
100
AcDbSpline
210
0.000000000000000
220
0.000000000000000
230
1.000000000000000
 70
     8
 71
     3
 72
     8
 73
     4
 74
     0
 42
1.000000000000000e-07
 43
1.000000000000000e-07
 12
-0.9558563162248106
 22
-0.1413035997822050
 32
0.000000000000000
 13
-0.4023708196040729
 23
-0.6059865608278159
 33
0.000000000000000
 40
0.000000000000000
 40
0.000000000000000
 40
0.000000000000000
 40
0.000000000000000
 40
1.818485216637023
 40
1.818485216637023
 40
1.818485216637023
 40
1.818485216637023
 10
96.86305798074876
 20
63.06666831850109
 30
0.000000000000000
 10
96.28365445398745
 20
62.98101548274724
 30
0.000000000000000
 10
95.75224830799772
 20
62.85506608067769
 30
0.000000000000000
 10
95.50834651231233
 20
62.48774021322899
 30
0.000000000000000
  0
ARC
  5
B4
100
AcDbEntity
  8
A1
  6
CONTINUOUS
 62
7
100
AcDbCircle
 10
97.43192850200583
 20
61.52133734474509
 30
0.000000000000000
 40
2.152696489356316
100
AcDbArc
 50
153.3251588979066
 51
274.9374914230219
  0
ARC
  5
B5
100
AcDbEntity
  8
A1
  6
CONTINUOUS
 62
7
100
AcDbCircle
 10
96.77257976047387
 20
66.97828901197957
 30
0.000000000000000
 40
3.888888888888889
100
AcDbArc
 50
281.6345274694771
 51
353.6798879697786
  0
LINE
  5
B6
100
AcDbEntity
  8
A1
  6
CONTINUOUS
 62
7
100
AcDbLine
 10
100.9858764047539
 20
69.69260785200194
 30
0.000000000000000
 11
100.6378334416377
 21
66.55018765672196
 31
0.000000000000000
  0
SPLINE
  5
B7
100
AcDbEntity
  8
A1
  6
CONTINUOUS
 62
7
100
AcDbSpline
210
0.000000000000000
220
0.000000000000000
230
1.000000000000000
 70
     8
 71
     3
 72
     8
 73
     4
 74
     0
 42
1.000000000000000e-07
 43
1.000000000000000e-07
 12
-1.166458888373228
 22
-0.1536288618563333
 32
0.000000000000000
 13
-0.4830062411016911
 23
-0.7274267333589961
 33
0.000000000000000
 40
0.000000000000000
 40
0.000000000000000
 40
0.000000000000000
 40
0.000000000000000
 40
1.818485216637023
 40
1.818485216637023
 40
1.818485216637023
 40
1.818485216637023
 10
97.14653896196464
 20
63.73334288893781
 30
0.000000000000000
 10
96.43947621385745
 20
63.64021895089297
 30
0.000000000000000
 10
95.73241346575023
 20
63.54709501284810
 30
0.000000000000000
 10
95.43963356275459
 20
63.10615675924814
 30
0.000000000000000
  0
ARC
  5
B8
100
AcDbEntity
  8
A1
  6
CONTINUOUS
 62
7
100
AcDbCircle
 10
97.36321555244811
 20
62.13975389076424
 30
0.000000000000000
 40
2.152696489356316
100
AcDbArc
 50
153.3251588979066
 51
194.6497680357936
  0
SPLINE
  5
B9
100
AcDbEntity
  8
A5
  6
PHANTOM
 62
6
100
AcDbSpline
210
0.000000000000000
220
0.000000000000000
230
1.000000000000000
 70
     8
 71
     3
 72
     8
 73
     4
 74
     0
 42
1.000000000000000e-07
 43
1.000000000000000e-07
 12
-1.052850398801439
 22
-0.5251039927517667
 32
0.000000000000000
 13
-0.2197976299918309
 23
-0.8450643071379176
 33
0.000000000000000
 40
0.000000000000000
 40
0.000000000000000
 40
0.000000000000000
 40
0.000000000000000
 40
1.818485216637023
 40
1.818485216637023
 40
1.818485216637023
 40
1.818485216637023
 10
102.2398991144647
 20
62.06324952200191
 30
0.000000000000000
 10
101.6017014859478
 20
61.74495157266318
 30
0.000000000000000
 10
100.9635038574308
 20
61.42665362332440
 30
0.000000000000000
 10
100.8302709438335
 20
60.91440797344509
 30
0.000000000000000
  0
ARC
  5
BA
100
AcDbEntity
  8
A5
  6
PHANTOM
 62
6
100
AcDbCircle
 10
102.9637061521373
 20
60.62708170026974
 30
0.000000000000000
 40
2.152696489356316
100
AcDbArc
 50
172.3296855779678
 51
293.9420181030831
  0
ARC
  5
BB
100
AcDbEntity
  8
A5
  6
PHANTOM
 62
6
100
AcDbCircle
 10
102.6973556201943
 20
61.18941424241973
 30
0.000000000000000
 40
2.152696489356316
100
AcDbArc
 50
172.3296855779678
 51
213.6542947158548
  0
SPLINE
  5
BC
100
AcDbEntity
  8
A5
  6
PHANTOM
 62
6
100
AcDbSpline
210
0.000000000000000
220
0.000000000000000
230
1.000000000000000
 70
     8
 71
     3
 72
     8
 73
     4
 74
     0
 42
1.000000000000000e-07
 43
1.000000000000000e-07
 12
-1.052850398801439
 22
-0.5251039927517667
 32
0.000000000000000
 13
-0.2197976299918025
 23
-0.8450643071379176
 33
0.000000000000000
 40
0.000000000000000
 40
0.000000000000000
 40
0.000000000000000
 40
0.000000000000000
 40
1.818485216637023
 40
1.818485216637023
 40
1.818485216637023
 40
1.818485216637023
 10
101.9735485825217
 20
62.62558206415187
 30
0.000000000000000
 10
101.3353509540048
 20
62.30728411481314
 30
0.000000000000000
 10
100.6971533254878
 20
61.98898616547436
 30
0.000000000000000
 10
100.5639204118905
 20
61.47674051559505
 30
0.000000000000000
  0
CIRCLE
  5
BD
100
AcDbEntity
  8
A1
  6
CONTINUOUS
 62
7
100
AcDbCircle
 10
102.8690995904473
 20
77.59849943113173
 30
0.000000000000000
 40
0.7777777777777779
  0
ARC
  5
BE
100
AcDbEntity
  8
A1
  6
CONTINUOUS
 62
7
100
AcDbCircle
 10
59.05843816537610
 20
77.59849943113181
 30
0.000000000000000
 40
0.7972222222220057
100
AcDbArc
 50
282.6803834918207
 51
437.3196165082064
  0
LINE
  5
BF
100
AcDbEntity
  8
A1
  6
CONTINUOUS
 62
7
100
AcDbLine
 10
96.75806400382945
 20
59.47683035933650
 30
0.000000000000000
 11
96.75806400382952
 21
58.65961054224300
 31
0.000000000000000
  0
ARC
  5
C0
100
AcDbEntity
  8
A1
  6
CONTINUOUS
 62
7
100
AcDbCircle
 10
102.8722411800650
 20
93.61502383373880
 30
0.000000000000000
 40
4.127921237304312
100
AcDbArc
 50
6.735016921519352
 51
171.4974406372223
  0
ARC
  5
C1
100
AcDbEntity
  8
A1
  6
CONTINUOUS
 62
7
100
AcDbCircle
 10
102.8722411800650
 20
93.61502383373880
 30
0.000000000000000
 40
5.683476465663117
100
AcDbArc
 50
6.735019386167746
 51
171.4974375980933
  0
LINE
  5
C2
100
AcDbEntity
  8
A1
  6
CONTINUOUS
 62
7
100
AcDbLine
 10
108.5164968525094
 20
94.28156913589383
 30
0.000000000000000
 11
109.4085531730769
 21
86.72770305773864
 31
0.000000000000000
  0
LINE
  5
C3
100
AcDbEntity
  8
A1
  6
CONTINUOUS
 62
7
100
AcDbLine
 10
107.8637322700626
 20
86.54527097714484
 30
0.000000000000000
 11
106.9716762913349
 21
94.09913695055687
 31
0.000000000000000
  0
LINE
  5
C4
100
AcDbEntity
  8
A1
  6
CONTINUOUS
 62
7
100
AcDbLine
 10
97.87764794391208
 20
88.12460777862617
 30
0.000000000000000
 11
98.78968885251710
 21
94.22535180640720
 31
0.000000000000000
  0
LINE
  5
C5
100
AcDbEntity
  8
A1
  6
CONTINUOUS
 62
7
100
AcDbLine
 10
97.25123037206444
 20
94.45534652895063
 30
0.000000000000000
 11
96.33918911358508
 21
88.35460237379890
 31
0.000000000000000
  0
ARC
  5
C6
100
AcDbEntity
  8
A1
  6
CONTINUOUS
 62
7
100
AcDbCircle
 10
53.74193064664580
 20
86.17627720890985
 30
0.000000000000000
 40
0.5000000000000000
100
AcDbArc
 50
270.0000000000000
 51
357.5203358210485
  0
ARC
  5
C7
100
AcDbEntity
  8
A1
  6
CONTINUOUS
 62
7
100
AcDbCircle
 10
59.04716790632783
 20
86.17627720890982
 30
0.000000000000000
 40
0.5000000000000000
100
AcDbArc
 50
182.4796641789516
 51
270.0000000000000
  0
LINE
  5
C8
100
AcDbEntity
  8
A1
  6
CONTINUOUS
 62
7
100
AcDbLine
 10
54.59454927648629
 20
52.09849943113245
 30
0.000000000000000
 11
54.59454927648638
 21
60.87989869074315
 31
0.000000000000000
  0
LINE
  5
C9
100
AcDbEntity
  8
A1
  6
CONTINUOUS
 62
7
100
AcDbLine
 10
58.19454927648628
 20
52.09849943113238
 30
0.000000000000000
 11
58.19454927648637
 21
60.87989869074320
 31
0.000000000000000
  0
ARC
  5
CA
100
AcDbEntity
  8
A1
  6
CONTINUOUS
 62
7
100
AcDbCircle
 10
56.39454927648625
 20
52.09849943113244
 30
0.000000000000000
 40
1.799999999999953
100
AcDbArc
 50
180.0000000000000
 51
360.0000000000000
  0
LINE
  5
CB
100
AcDbEntity
  8
A1
  6
CONTINUOUS
 62
7
100
AcDbLine
 10
59.23343816537518
 20
80.70961054224287
 30
0.000000000000000
 11
53.55566038759730
 21
80.70961054224287
 31
0.000000000000000
  0
LINE
  5
CC
100
AcDbEntity
  8
A1
  6
CONTINUOUS
 62
7
100
AcDbLine
 10
54.59454927648636
 20
59.37662910211776
 30
0.000000000000000
 11
53.28343816537519
 21
59.37662910211776
 31
0.000000000000000
  0
LINE
  5
CD
100
AcDbEntity
  8
A1
  6
CONTINUOUS
 62
7
100
AcDbLine
 10
59.50566038759740
 20
59.37662910211776
 30
0.000000000000000
 11
58.19454927648636
 21
59.37662910211776
 31
0.000000000000000
  0
CIRCLE
  5
CE
100
AcDbEntity
  8
A5
  6
PHANTOM
 62
6
100
AcDbCircle
 10
101.2302862260511
 20
56.43738832002060
 30
0.000000000000000
 40
2.250000000000000
  0
ELLIPSE
  5
CF
100
AcDbEntity
  8
A1
  6
CONTINUOUS
 62
7
100
AcDbEllipse
 10
98.10338559044806
 20
115.8598375702783
 30
0.000000000000000
 11
-2.778730407957641
 21
0.000000000000000
 31
0.000000000000000
210
0.000000000000000
220
0.000000000000000
230
1.000000000000000
 40
0.9896610000000001
 41
0.000000000000000
 42
1.570796326794897
  0
ELLIPSE
  5
D0
100
AcDbEntity
  8
A1
  6
CONTINUOUS
 62
7
100
AcDbEllipse
 10
98.10338559044806
 20
115.8598375702783
 30
0.000000000000000
 11
-2.273506697419888
 21
0.000000000000000
 31
0.000000000000000
210
0.000000000000000
220
0.000000000000000
230
1.000000000000000
 40
0.9896610000000000
 41
0.000000000000000
 42
0.6644431378999921
  0
ELLIPSE
  5
D1
100
AcDbEntity
  8
A1
  6
CONTINUOUS
 62
7
100
AcDbEllipse
 10
98.10338559044806
 20
115.8598375702783
 30
0.000000000000000
 11
-2.273506697419888
 21
0.000000000000000
 31
0.000000000000000
210
0.000000000000000
220
0.000000000000000
230
1.000000000000000
 40
0.9896610000000000
 41
1.185343709576418
 42
1.570796326794897
  0
ELLIPSE
  5
D2
100
AcDbEntity
  8
A1
  6
CONTINUOUS
 62
7
100
AcDbEllipse
 10
98.10338559044806
 20
116.0376145702783
 30
0.000000000000000
 11
-2.273506697419888
 21
0.000000000000000
 31
0.000000000000000
210
0.000000000000000
220
0.000000000000000
230
1.000000000000000
 40
0.9896610000000000
 41
4.712388980384690
 42
5.097841597611897
  0
ELLIPSE
  5
D3
100
AcDbEntity
  8
A1
  6
CONTINUOUS
 62
7
100
AcDbEllipse
 10
98.10338559044806
 20
116.0376145702783
 30
0.000000000000000
 11
-2.273506697419888
 21
0.000000000000000
 31
0.000000000000000
210
0.000000000000000
220
0.000000000000000
230
1.000000000000000
 40
0.9896610000000000
 41
5.618742169279595
 42
0.000000000000000
  0
ELLIPSE
  5
D4
100
AcDbEntity
  8
A1
  6
CONTINUOUS
 62
7
100
AcDbEllipse
 10
98.10338559044806
 20
116.0376145702783
 30
0.000000000000000
 11
-2.778730407957641
 21
0.000000000000000
 31
0.000000000000000
210
0.000000000000000
220
0.000000000000000
230
1.000000000000000
 40
0.9896610000000001
 41
4.712388980384690
 42
0.000000000000000
  0
ARC
  5
D5
100
AcDbEntity
  8
A1
  6
CONTINUOUS
 62
7
100
AcDbCircle
 10
98.80987359044805
 20
116.0376145702783
 30
0.000000000000000
 40
2.250000000000000
100
AcDbArc
 50
100.3936780000000
 51
109.1791260000000
  0
ARC
  5
D6
100
AcDbEntity
  8
A1
  6
CONTINUOUS
 62
7
100
AcDbCircle
 10
98.80987359044805
 20
115.8598375702783
 30
0.000000000000000
 40
2.250000000000000
100
AcDbArc
 50
250.8208740000000
 51
259.6063220000000
  0
LINE
  5
D7
100
AcDbEntity
  8
A1
  6
CONTINUOUS
 62
7
100
AcDbLine
 10
95.51175659044806
 20
118.5153925702783
 30
0.000000000000000
 11
95.27923159044805
 21
118.5153925702783
 31
0.000000000000000
  0
LINE
  5
D8
100
AcDbEntity
  8
A1
  6
CONTINUOUS
 62
7
100
AcDbLine
 10
95.51141959044806
 20
113.3820595702783
 30
0.000000000000000
 11
95.27923159044805
 21
113.3820595702783
 31
0.000000000000000
  0
LINE
  5
D9
100
AcDbEntity
  8
A1
  6
CONTINUOUS
 62
7
100
AcDbLine
 10
95.27923159044805
 20
119.0598366813893
 30
0.000000000000000
 11
95.27923159044805
 21
118.5153925702783
 31
0.000000000000000
  0
LINE
  5
DA
100
AcDbEntity
  8
A1
  6
CONTINUOUS
 62
7
100
AcDbLine
 10
95.27923159044805
 20
113.3820595702783
 30
0.000000000000000
 11
95.27923159044805
 21
112.8376144591671
 31
0.000000000000000
  0
LINE
  5
DB
100
AcDbEntity
  8
A1
  6
CONTINUOUS
 62
7
100
AcDbLine
 10
97.11654859044809
 20
112.5916105702783
 30
0.000000000000000
 11
97.14189959044809
 21
112.5898995702783
 31
0.000000000000000
  0
LINE
  5
DC
100
AcDbEntity
  8
A1
  6
CONTINUOUS
 62
7
100
AcDbLine
 10
95.32465459044805
 20
116.0376145702783
 30
0.000000000000000
 11
95.32465459044805
 21
115.8598375702783
 31
0.000000000000000
  0
LINE
  5
DD
100
AcDbEntity
  8
A1
  6
CONTINUOUS
 62
7
100
AcDbLine
 10
99.55093059044805
 20
113.1098375702783
 30
0.000000000000000
 11
98.10338559044806
 21
113.1098375702783
 31
0.000000000000000
  0
LINE
  5
DE
100
AcDbEntity
  8
A1
  6
CONTINUOUS
 62
7
100
AcDbLine
 10
98.51924359044806
 20
113.6098375702783
 30
0.000000000000000
 11
98.10338559044806
 21
113.6098375702783
 31
0.000000000000000
  0
LINE
  5
DF
100
AcDbEntity
  8
A1
  6
CONTINUOUS
 62
7
100
AcDbLine
 10
95.82987859044805
 20
116.0376145702783
 30
0.000000000000000
 11
95.82987859044805
 21
115.8598375702783
 31
0.000000000000000
  0
LINE
  5
E0
100
AcDbEntity
  8
A1
  6
CONTINUOUS
 62
7
100
AcDbLine
 10
98.51924359044806
 20
118.2876145702783
 30
0.000000000000000
 11
98.10338559044806
 21
118.2876145702783
 31
0.000000000000000
  0
LINE
  5
E1
100
AcDbEntity
  8
A1
  6
CONTINUOUS
 62
7
100
AcDbLine
 10
99.55093059044805
 20
118.7876145702783
 30
0.000000000000000
 11
98.10338559044806
 21
118.7876145702783
 31
0.000000000000000
  0
ARC
  5
E2
100
AcDbEntity
  8
A1
  6
CONTINUOUS
 62
7
100
AcDbCircle
 10
107.7913965904481
 20
115.9487255702783
 30
0.000000000000000
 40
1.800000000000000
100
AcDbArc
 50
335.1437780000000
 51
384.8562220000000
  0
ARC
  5
E3
100
AcDbEntity
  8
A1
  6
CONTINUOUS
 62
7
100
AcDbCircle
 10
94.66917459044805
 20
115.9487255702783
 30
0.000000000000000
 40
1.800000000000000
100
AcDbArc
 50
90.00000000000000
 51
270.0000000000000
  0
ARC
  5
E4
100
AcDbEntity
  8
A1
  6
CONTINUOUS
 62
7
100
AcDbCircle
 10
102.8690995904481
 20
115.9487255702783
 30
0.000000000000000
 40
3.500000000000000
100
AcDbArc
 50
209.2446630000000
 51
330.7608050000000
  0
ARC
  5
E5
100
AcDbEntity
  8
A1
  6
CONTINUOUS
 62
7
100
AcDbCircle
 10
102.8690995904481
 20
115.9487255702783
 30
0.000000000000000
 40
3.500000000000000
100
AcDbArc
 50
29.23919500000000
 51
150.7553370000000
  0
ARC
  5
E6
100
AcDbEntity
  8
A1
  6
CONTINUOUS
 62
7
100
AcDbCircle
 10
102.8690995904481
 20
115.9487255702783
 30
0.000000000000000
 40
3.478328000000000
100
AcDbArc
 50
209.4230680000000
 51
330.5823500000000
  0
ARC
  5
E7
100
AcDbEntity
  8
A1
  6
CONTINUOUS
 62
7
100
AcDbCircle
 10
102.8690995904481
 20
115.9487255702783
 30
0.000000000000000
 40
3.478328000000000
100
AcDbArc
 50
29.41765000000000
 51
150.5769320000000
  0
LINE
  5
E8
100
AcDbEntity
  8
A1
  6
CONTINUOUS
 62
7
100
AcDbLine
 10
94.88026159044806
 20
114.1487255702783
 30
0.000000000000000
 11
94.66917459044805
 21
114.1487255702783
 31
0.000000000000000
  0
LINE
  5
E9
100
AcDbEntity
  8
A1
  6
CONTINUOUS
 62
7
100
AcDbLine
 10
94.66917459044805
 20
117.7487255702783
 30
0.000000000000000
 11
94.88750359044805
 21
117.7487255702783
 31
0.000000000000000
  0
ELLIPSE
  5
EA
100
AcDbEntity
  8
A1
  6
CONTINUOUS
 62
7
100
AcDbEllipse
 10
107.0913215904481
 20
118.0888465702783
 30
0.000000000000000
 11
-0.7777777777777777
 21
0.000000000000000
 31
0.000000000000000
210
0.000000000000000
220
0.000000000000000
230
1.000000000000000
 40
0.04330500000000000
 41
3.024044433132193
 42
3.141592527149248
  0
ELLIPSE
  5
EB
100
AcDbEntity
  8
A1
  6
CONTINUOUS
 62
7
100
AcDbEllipse
 10
107.0913215904481
 20
113.8086055702783
 30
0.000000000000000
 11
-0.7777777777777777
 21
0.000000000000000
 31
0.000000000000000
210
0.000000000000000
220
0.000000000000000
230
1.000000000000000
 40
0.04330500000000000
 41
1.570796326794897
 42
3.141592527149248
  0
ELLIPSE
  5
EC
100
AcDbEntity
  8
A1
  6
CONTINUOUS
 62
7
100
AcDbEllipse
 10
107.0913215904481
 20
113.8086055702783
 30
0.000000000000000
 11
-2.333333333333333
 21
0.000000000000000
 31
0.000000000000000
210
0.000000000000000
220
0.000000000000000
230
1.000000000000000
 40
0.04330500000000000
 41
2.801755744135668
 42
3.141592592150732
  0
ELLIPSE
  5
ED
100
AcDbEntity
  8
A1
  6
CONTINUOUS
 62
7
100
AcDbEllipse
 10
107.0913215904481
 20
118.0888465702783
 30
0.000000000000000
 11
-2.333333333333333
 21
0.000000000000000
 31
0.000000000000000
210
0.000000000000000
220
0.000000000000000
230
1.000000000000000
 40
0.04330500000000000
 41
3.024044390115549
 42
3.141592592150732
  0
ELLIPSE
  5
EE
100
AcDbEntity
  8
A1
  6
CONTINUOUS
 62
7
100
AcDbEllipse
 10
98.64687659044806
 20
118.0214825702783
 30
0.000000000000000
 11
-0.7777777777777778
 21
0.000000000000000
 31
0.000000000000000
210
0.000000000000000
220
0.000000000000000
230
1.000000000000000
 40
0.04330500000000000
 41
4.712388980384690
 42
0.000000000000000
  0
ELLIPSE
  5
EF
100
AcDbEntity
  8
A1
  6
CONTINUOUS
 62
7
100
AcDbEllipse
 10
98.64687659044806
 20
113.8759695702783
 30
0.000000000000000
 11
-0.7777777777777777
 21
0.000000000000000
 31
0.000000000000000
210
0.000000000000000
220
0.000000000000000
230
1.000000000000000
 40
0.04330500000000000
 41
6.134787651452893
 42
0.000000000000000
  0
ELLIPSE
  5
F0
100
AcDbEntity
  8
A1
  6
CONTINUOUS
 62
7
100
AcDbEllipse
 10
98.64687659044806
 20
113.8759695702783
 30
0.000000000000000
 11
-2.333333333333333
 21
0.000000000000000
 31
0.000000000000000
210
0.000000000000000
220
0.000000000000000
230
1.000000000000000
 40
0.04330500000000000
 41
6.134787598410166
 42
0.000000000000000
  0
ELLIPSE
  5
F1
100
AcDbEntity
  8
A1
  6
CONTINUOUS
 62
7
100
AcDbEllipse
 10
98.64687659044806
 20
118.0214825702783
 30
0.000000000000000
 11
-2.333333333333333
 21
0.000000000000000
 31
0.000000000000000
210
0.000000000000000
220
0.000000000000000
230
1.000000000000000
 40
0.04330500000000000
 41
5.943348397725461
 42
0.000000000000000
  0
ELLIPSE
  5
F2
100
AcDbEntity
  8
A1
  6
CONTINUOUS
 62
7
100
AcDbEllipse
 10
107.0913215904481
 20
118.0888465702783
 30
0.000000000000000
 11
-2.333333333333333
 21
0.000000000000000
 31
0.000000000000000
210
0.000000000000000
220
0.000000000000000
230
1.000000000000000
 40
0.04330500000000000
 41
3.141592592150732
 42
3.481429563043918
  0
ELLIPSE
  5
F3
100
AcDbEntity
  8
A1
  6
CONTINUOUS
 62
7
100
AcDbEllipse
 10
107.0913215904481
 20
118.0888465702783
 30
0.000000000000000
 11
-0.7777777777777777
 21
0.000000000000000
 31
0.000000000000000
210
0.000000000000000
220
0.000000000000000
230
1.000000000000000
 40
0.04330500000000000
 41
3.141592527149248
 42
4.712388980384690
  0
ELLIPSE
  5
F4
100
AcDbEntity
  8
A1
  6
CONTINUOUS
 62
7
100
AcDbEllipse
 10
102.8722405904481
 20
117.7787385702783
 30
0.000000000000000
 11
-4.127921237304313
 21
0.000000000000000
 31
0.000000000000000
210
0.000000000000000
220
0.000000000000000
230
1.000000000000000
 40
0.04330500000000000
 41
0.1483976557267004
 42
3.024044433131772
  0
ELLIPSE
  5
F5
100
AcDbEntity
  8
A1
  6
CONTINUOUS
 62
7
100
AcDbEllipse
 10
98.64687659044806
 20
118.0214825702783
 30
0.000000000000000
 11
-0.7777777777777778
 21
0.000000000000000
 31
0.000000000000000
210
0.000000000000000
220
0.000000000000000
230
1.000000000000000
 40
0.04330500000000000
 41
0.000000000000000
 42
0.1483976557266952
  0
ELLIPSE
  5
F6
100
AcDbEntity
  8
A1
  6
CONTINUOUS
 62
7
100
AcDbEllipse
 10
98.64687659044806
 20
118.0214825702783
 30
0.000000000000000
 11
-2.333333333333333
 21
0.000000000000000
 31
0.000000000000000
210
0.000000000000000
220
0.000000000000000
230
1.000000000000000
 40
0.04330500000000000
 41
0.000000000000000
 42
0.1483977087695022
  0
ELLIPSE
  5
F7
100
AcDbEntity
  8
A1
  6
CONTINUOUS
 62
7
100
AcDbEllipse
 10
107.0913215904481
 20
113.8086055702783
 30
0.000000000000000
 11
-0.7777777777777777
 21
0.000000000000000
 31
0.000000000000000
210
0.000000000000000
220
0.000000000000000
230
1.000000000000000
 40
0.04330500000000000
 41
3.141592527149248
 42
3.259140874047550
  0
ELLIPSE
  5
F8
100
AcDbEntity
  8
A1
  6
CONTINUOUS
 62
7
100
AcDbEllipse
 10
107.0913215904481
 20
113.8086055702783
 30
0.000000000000000
 11
-2.333333333333333
 21
0.000000000000000
 31
0.000000000000000
210
0.000000000000000
220
0.000000000000000
230
1.000000000000000
 40
0.04330500000000000
 41
3.141592592150732
 42
3.259140917064089
  0
ELLIPSE
  5
F9
100
AcDbEntity
  8
A1
  6
CONTINUOUS
 62
7
100
AcDbEllipse
 10
98.64687659044806
 20
113.8759695702783
 30
0.000000000000000
 11
-2.333333333333333
 21
0.000000000000000
 31
0.000000000000000
210
0.000000000000000
220
0.000000000000000
230
1.000000000000000
 40
0.04330500000000000
 41
0.000000000000000
 42
0.3398369094541256
  0
ELLIPSE
  5
FA
100
AcDbEntity
  8
A1
  6
CONTINUOUS
 62
7
100
AcDbEllipse
 10
98.64687659044806
 20
113.8759695702783
 30
0.000000000000000
 11
-0.7777777777777777
 21
0.000000000000000
 31
0.000000000000000
210
0.000000000000000
220
0.000000000000000
230
1.000000000000000
 40
0.04330500000000000
 41
0.000000000000000
 42
1.570796326794897
  0
ELLIPSE
  5
FB
100
AcDbEntity
  8
A1
  6
CONTINUOUS
 62
7
100
AcDbEllipse
 10
102.8722405904481
 20
114.1187135702783
 30
0.000000000000000
 11
-4.127921237304312
 21
0.000000000000000
 31
0.000000000000000
210
0.000000000000000
220
0.000000000000000
230
1.000000000000000
 40
0.04330500000000000
 41
3.259140874047785
 42
6.134787651452887
  0
ELLIPSE
  5
FC
100
AcDbEntity
  8
A1
  6
CONTINUOUS
 62
7
100
AcDbEllipse
 10
102.8722405904481
 20
117.7787385702783
 30
0.000000000000000
 11
-5.683476465663118
 21
0.000000000000000
 31
0.000000000000000
210
0.000000000000000
220
0.000000000000000
230
1.000000000000000
 40
0.04330500000000000
 41
0.1483977087695105
 42
3.024044390115498
  0
ELLIPSE
  5
FD
100
AcDbEntity
  8
A1
  6
CONTINUOUS
 62
7
100
AcDbEllipse
 10
102.8722405904481
 20
114.1187135702783
 30
0.000000000000000
 11
-5.683476465663117
 21
0.000000000000000
 31
0.000000000000000
210
0.000000000000000
220
0.000000000000000
230
1.000000000000000
 40
0.04330500000000000
 41
3.259140917064067
 42
6.134787598410075
  0
ARC
  5
FE
100
AcDbEntity
  8
A1
  6
CONTINUOUS
 62
7
100
AcDbCircle
 10
108.6468765904481
 20
109.0555215702783
 30
0.000000000000000
 40
4.716609000000000
100
AcDbArc
 50
99.49153600000001
 51
129.9692190000000
  0
ARC
  5
FF
100
AcDbEntity
  8
A1
  6
CONTINUOUS
 62
7
100
AcDbCircle
 10
108.6468765904481
 20
122.8419305702783
 30
0.000000000000000
 40
4.716609000000000
100
AcDbArc
 50
230.0307810000000
 51
260.5084639999999
  0
ARC
  5
100
100
AcDbEntity
  8
A1
  6
CONTINUOUS
 62
7
100
AcDbCircle
 10
97.09132159044806
 20
109.3491215702783
 30
0.000000000000000
 40
4.493624000000000
100
AcDbArc
 50
48.79871800000000
 51
80.03277900000000
  0
ARC
  5
101
100
AcDbEntity
  8
A1
  6
CONTINUOUS
 62
7
100
AcDbCircle
 10
102.8690995904481
 20
115.9487255702783
 30
0.000000000000000
 40
4.277778000000000
100
AcDbArc
 50
24.44660900000000
 51
131.2012820000000
  0
ARC
  5
102
100
AcDbEntity
  8
A1
  6
CONTINUOUS
 62
7
100
AcDbCircle
 10
102.8690995904481
 20
115.9487255702783
 30
0.000000000000000
 40
4.277778000000000
100
AcDbArc
 50
228.7987180000000
 51
335.5533910000000
  0
ARC
  5
103
100
AcDbEntity
  8
A1
  6
CONTINUOUS
 62
7
100
AcDbCircle
 10
97.09132159044806
 20
122.5483305702783
 30
0.000000000000000
 40
4.493624000000000
100
AcDbArc
 50
279.9672209999999
 51
311.2012820000000
  0
LINE
  5
104
100
AcDbEntity
  8
A1
  6
CONTINUOUS
 62
7
100
AcDbLine
 10
109.2912095904480
 20
113.7075595702783
 30
0.000000000000000
 11
107.8690995904481
 21
113.7075595702783
 31
0.000000000000000
  0
LINE
  5
105
100
AcDbEntity
  8
A1
  6
CONTINUOUS
 62
7
100
AcDbLine
 10
107.8690995904481
 20
118.1898925702783
 30
0.000000000000000
 11
109.2912095904480
 21
118.1898925702783
 31
0.000000000000000
  0
LINE
  5
106
100
AcDbEntity
  8
A1
  6
CONTINUOUS
 62
7
100
AcDbLine
 10
109.2912095904480
 20
113.7075595702783
 30
0.000000000000000
 11
109.2912095904480
 21
113.7749235702783
 31
0.000000000000000
  0
LINE
  5
107
100
AcDbEntity
  8
A1
  6
CONTINUOUS
 62
7
100
AcDbLine
 10
109.2912095904480
 20
118.1225285702783
 30
0.000000000000000
 11
109.2912095904480
 21
118.1898925702783
 31
0.000000000000000
  0
LINE
  5
108
100
AcDbEntity
  8
A1
  6
CONTINUOUS
 62
7
100
AcDbLine
 10
109.4246545904481
 20
113.8086055702783
 30
0.000000000000000
 11
109.4246545904481
 21
118.0888465702783
 31
0.000000000000000
  0
LINE
  5
109
100
AcDbEntity
  8
A1
  6
CONTINUOUS
 62
7
100
AcDbLine
 10
96.44698959044806
 20
113.7749235702783
 30
0.000000000000000
 11
97.86909959044806
 21
113.7749235702783
 31
0.000000000000000
  0
LINE
  5
10A
100
AcDbEntity
  8
A1
  6
CONTINUOUS
 62
7
100
AcDbLine
 10
97.86909959044806
 20
118.1225285702783
 30
0.000000000000000
 11
96.44698959044806
 21
118.1225285702783
 31
0.000000000000000
  0
LINE
  5
10B
100
AcDbEntity
  8
A1
  6
CONTINUOUS
 62
7
100
AcDbLine
 10
96.44698959044806
 20
113.8422875702783
 30
0.000000000000000
 11
96.44698959044806
 21
113.7749235702783
 31
0.000000000000000
  0
LINE
  5
10C
100
AcDbEntity
  8
A1
  6
CONTINUOUS
 62
7
100
AcDbLine
 10
96.44698959044806
 20
118.1225285702783
 30
0.000000000000000
 11
96.44698959044806
 21
118.0551645702783
 31
0.000000000000000
  0
LINE
  5
10D
100
AcDbEntity
  8
A1
  6
CONTINUOUS
 62
7
100
AcDbLine
 10
96.31354359044805
 20
118.0214825702783
 30
0.000000000000000
 11
96.31354359044805
 21
113.8759695702783
 31
0.000000000000000
  0
LINE
  5
10E
100
AcDbEntity
  8
A1
  6
CONTINUOUS
 62
7
100
AcDbLine
 10
109.2912095904480
 20
118.1225285702783
 30
0.000000000000000
 11
107.0913215904481
 21
118.1225285702783
 31
0.000000000000000
  0
LINE
  5
10F
100
AcDbEntity
  8
A1
  6
CONTINUOUS
 62
7
100
AcDbLine
 10
107.8637315904481
 20
118.0848965702783
 30
0.000000000000000
 11
106.9716755904481
 21
117.7577735702783
 31
0.000000000000000
  0
LINE
  5
110
100
AcDbEntity
  8
A1
  6
CONTINUOUS
 62
7
100
AcDbLine
 10
98.78968859044804
 20
117.7523085702783
 30
0.000000000000000
 11
97.87764759044803
 21
118.0165025702783
 31
0.000000000000000
  0
LINE
  5
111
100
AcDbEntity
  8
A1
  6
CONTINUOUS
 62
7
100
AcDbLine
 10
98.64687659044806
 20
118.0551645702783
 30
0.000000000000000
 11
96.44698959044806
 21
118.0551645702783
 31
0.000000000000000
  0
LINE
  5
112
100
AcDbEntity
  8
A1
  6
CONTINUOUS
 62
7
100
AcDbLine
 10
96.33918859044806
 20
118.0065425702783
 30
0.000000000000000
 11
97.25122959044805
 21
117.7423485702783
 31
0.000000000000000
  0
LINE
  5
113
100
AcDbEntity
  8
A1
  6
CONTINUOUS
 62
7
100
AcDbLine
 10
108.5164965904481
 20
117.7498735702783
 30
0.000000000000000
 11
109.4085525904481
 21
118.0769965702783
 31
0.000000000000000
  0
LINE
  5
114
100
AcDbEntity
  8
A1
  6
CONTINUOUS
 62
7
100
AcDbLine
 10
107.0913215904481
 20
113.7749235702783
 30
0.000000000000000
 11
109.2912095904480
 21
113.7749235702783
 31
0.000000000000000
  0
LINE
  5
115
100
AcDbEntity
  8
A1
  6
CONTINUOUS
 62
7
100
AcDbLine
 10
109.4085525904481
 20
113.8204555702783
 30
0.000000000000000
 11
108.5164965904481
 21
114.1475785702783
 31
0.000000000000000
  0
LINE
  5
116
100
AcDbEntity
  8
A1
  6
CONTINUOUS
 62
7
100
AcDbLine
 10
97.25122959044803
 20
114.1551035702783
 30
0.000000000000000
 11
96.33918859044803
 21
113.8909095702783
 31
0.000000000000000
  0
LINE
  5
117
100
AcDbEntity
  8
A1
  6
CONTINUOUS
 62
7
100
AcDbLine
 10
96.44698959044806
 20
113.8422875702783
 30
0.000000000000000
 11
98.64687659044806
 21
113.8422875702783
 31
0.000000000000000
  0
LINE
  5
118
100
AcDbEntity
  8
A1
  6
CONTINUOUS
 62
7
100
AcDbLine
 10
97.87764759044803
 20
113.8809495702783
 30
0.000000000000000
 11
98.78968859044804
 21
114.1451435702783
 31
0.000000000000000
  0
LINE
  5
119
100
AcDbEntity
  8
A1
  6
CONTINUOUS
 62
7
100
AcDbLine
 10
106.9716755904481
 20
114.1396785702783
 30
0.000000000000000
 11
107.8637315904481
 21
113.8125555702783
 31
0.000000000000000
  0
LINE
  5
11A
100
AcDbEntity
  8
A4
  6
CENTER
 62
1
100
AcDbLine
 10
110.0632553250782
 20
115.9487255702783
 30
0.000000000000000
 11
91.58889992943718
 21
115.9487255702783
 31
0.000000000000000
  0
LINE
  5
11B
100
AcDbEntity
  8
A4
  6
CENTER
 62
1
100
AcDbLine
 10
102.8690995904481
 20
120.9487255702783
 30
0.000000000000000
 11
102.8690995904481
 21
111.1122725725821
 31
0.000000000000000
  0
LINE
  5
11C
100
AcDbEntity
  8
A1
  6
CONTINUOUS
 62
7
100
AcDbLine
 10
99.98163042650928
 20
119.1049743634799
 30
0.000000000000000
 11
97.70312616142451
 21
119.1049743634799
 31
0.000000000000000
  0
LINE
  5
11D
100
AcDbEntity
  8
A1
  6
CONTINUOUS
 62
7
100
AcDbLine
 10
99.97852812500582
 20
112.7924767770763
 30
0.000000000000000
 11
97.70312616142451
 21
112.7924767770763
 31
0.000000000000000
  0
ARC
  5
11E
100
AcDbEntity
  8
A1
  6
CONTINUOUS
 62
7
100
AcDbCircle
 10
97.70312616142451
 20
115.9487255702781
 30
0.000000000000000
 40
3.156248793201797
100
AcDbArc
 50
90.00000000000000
 51
270.0000000000000
  0
LINE
  5
11F
100
AcDbEntity
  8
A1
  6
CONTINUOUS
 62
7
100
AcDbLine
 10
97.17124826292743
 20
112.8376144591671
 30
0.000000000000000
 11
95.27923159044803
 21
112.8376144591671
 31
0.000000000000000
  0
LINE
  5
120
100
AcDbEntity
  8
A1
  6
CONTINUOUS
 62
7
100
AcDbLine
 10
97.17124826292917
 20
119.0598366813893
 30
0.000000000000000
 11
95.27923159044805
 21
119.0598366813893
 31
0.000000000000000
  0
ENDSEC
  0
SECTION
  2
OBJECTS
  0
DICTIONARY
  5
14E
100
AcDbDictionary
  3
ACAD_GROUP
350
14F
  3
ACAD_MLINESTYLE
350
150
  0
DICTIONARY
  5
14F
102
{ACAD_REACTORS
330
14E
102
}
100
AcDbDictionary
  0
DICTIONARY
  5
150
102
{ACAD_REACTORS
330
14E
102
}
100
AcDbDictionary
  3
STANDARD
350
151
  0
MLINESTYLE
  5
151
102
{ACAD_REACTORS
330
150
102
}
100
AcDbMlineStyle
  2
STANDARD
 70
     0
  3

 62
   256
 51
90.00
 52
90.00
 71
     2
 49
0.50
 62
   256
  6
BYLAYER
 49
-0.50
 62
   256
  6
BYLAYER
  0
ENDSEC
  0
EOF
