ISO-10303-21;
HEADER;
/****************************************************************
 * Generated by software with PDE/Lib inside                    *
 * PDElib Version 4.4.1-0003, patched  Thursday August 19 11:58 *
 * International Technegroup Inc. (www.iti-oh.com)              *
 ****************************************************************/
FILE_DESCRIPTION((''),'2;1');
FILE_NAME('','2005-12-14T16:07:13',(''),(''),'','CADfix','');
FILE_SCHEMA(('AUTOMOTIVE_DESIGN'));
ENDSEC;
DATA;
#5=APPLICATION_CONTEXT('automotive design');
#6=APPLICATION_PROTOCOL_DEFINITION('Draft International Standard','automotive_design',1998,#5);
#7=PRODUCT_CONTEXT('None',#5,'mechanical');
#8=PRODUCT('rubber foot','','None',(#7));
#9=PRODUCT_RELATED_PRODUCT_CATEGORY('part','description',(#8));
#10=PRODUCT_DEFINITION_FORMATION('None','None',#8);
#11=PRODUCT_DEFINITION_CONTEXT('part definition',#5,'design');
#12=PRODUCT_DEFINITION('None','None',#10,#11);
#18=(NAMED_UNIT(*)PLANE_ANGLE_UNIT()SI_UNIT($,.RADIAN.));
#19=DIMENSIONAL_EXPONENTS(0.0,0.0,0.0,0.0,0.0,0.0,0.0);
#20=PLANE_ANGLE_MEASURE_WITH_UNIT(PLANE_ANGLE_MEASURE(0.017453292500000),#18);
#24=(CONVERSION_BASED_UNIT('DEGREE',#20)NAMED_UNIT(#19)PLANE_ANGLE_UNIT());
#28=(NAMED_UNIT(*)SI_UNIT($,.STERADIAN.)SOLID_ANGLE_UNIT());
#32=(LENGTH_UNIT()NAMED_UNIT(*)SI_UNIT(.MILLI.,.METRE.));
#34=UNCERTAINTY_MEASURE_WITH_UNIT(LENGTH_MEASURE(0.001000000000000),#32,'DISTANCE_ACCURACY_VALUE','');
#36=(GEOMETRIC_REPRESENTATION_CONTEXT(3)GLOBAL_UNCERTAINTY_ASSIGNED_CONTEXT((#34))GLOBAL_UNIT_ASSIGNED_CONTEXT((#24,#28,#32))REPRESENTATION_CONTEXT('None','None'));
#37=AXIS2_PLACEMENT_3D('',#38,#39,#40);
#38=CARTESIAN_POINT('',(0.0,0.0,0.0));
#39=DIRECTION('',(0.0,0.0,1.0));
#40=DIRECTION('',(1.0,0.0,0.0));
#41=ADVANCED_BREP_SHAPE_REPRESENTATION('',(#37,#460),#36);
#42=PRODUCT_DEFINITION_SHAPE('','',#12);
#43=SHAPE_DEFINITION_REPRESENTATION(#42,#41);
#44=CARTESIAN_POINT('',(-3.697767309412629,-1.388891063917919,2.211499988339974));
#45=CARTESIAN_POINT('',(-3.906408059512246,-0.833408373322042,2.211499988339975));
#46=CARTESIAN_POINT('',(-3.942632638483440,-0.241141742460463,2.211499988339975));
#47=CARTESIAN_POINT('',(-4.183774380943902,3.701490896022977,2.211499988339975));
#48=CARTESIAN_POINT('',(-0.241141742460463,3.942632638483440,2.211499988339975));
#49=CARTESIAN_POINT('',(3.701490896022977,4.183774380943902,2.211499988339975));
#50=CARTESIAN_POINT('',(3.942632638483440,0.241141742460463,2.211499988339975));
#51=CARTESIAN_POINT('',(4.183774380943902,-3.701490896022977,2.211499988339975));
#52=CARTESIAN_POINT('',(0.241141742460463,-3.942632638483440,2.211499988339975));
#53=CARTESIAN_POINT('',(-3.697767309412629,-1.388891063917919,1.728212978352570));
#54=CARTESIAN_POINT('',(-3.906408059512246,-0.833408373322042,1.728212978352570));
#55=CARTESIAN_POINT('',(-3.942632638483440,-0.241141742460463,1.728212978352570));
#56=CARTESIAN_POINT('',(-4.183774380943902,3.701490896022977,1.728212978352570));
#57=CARTESIAN_POINT('',(-0.241141742460463,3.942632638483440,1.728212978352570));
#58=CARTESIAN_POINT('',(3.701490896022977,4.183774380943902,1.728212978352570));
#59=CARTESIAN_POINT('',(3.942632638483440,0.241141742460463,1.728212978352570));
#60=CARTESIAN_POINT('',(4.183774380943902,-3.701490896022977,1.728212978352570));
#61=CARTESIAN_POINT('',(0.241141742460463,-3.942632638483440,1.728212978352570));
#69=(BOUNDED_SURFACE()B_SPLINE_SURFACE(2,1,((#44,#53),(#45,#54),(#46,#55),(#47,#56),(#48,#57),(#49,#58),(#50,#59),(#51,#60),(#52,#61)),.UNSPECIFIED.,.F.,.F.,.U.)B_SPLINE_SURFACE_WITH_KNOTS((3,2,2,2,3),(2,2),(0.0,1.308914918423213,7.853489510539279,14.398064102655351,20.942638694771411),(0.0,0.483287009987405),.UNSPECIFIED.)GEOMETRIC_REPRESENTATION_ITEM()RATIONAL_B_SPLINE_SURFACE(((0.906274169979695,0.906274169979695),(0.941421356237309,0.941421356237309),(1.0,1.0),(0.707106781186548,0.707106781186548),(1.0,1.0),(0.707106781186548,0.707106781186548),(1.0,1.0),(0.707106781186548,0.707106781186548),(1.0,1.0)))REPRESENTATION_ITEM('')SURFACE());
#70=CARTESIAN_POINT('',(-3.697767222504156,-1.388891032143908,2.200000000000000));
#71=VERTEX_POINT('',#70);
#72=CARTESIAN_POINT('',(-3.950000000000000,0.0,2.200000000000000));
#73=VERTEX_POINT('',#72);
#74=CARTESIAN_POINT('',(-3.697767222504156,-1.388891032143908,2.200000000000001));
#75=CARTESIAN_POINT('',(-3.950000000000001,-0.717349175804079,2.200000000000000));
#76=CARTESIAN_POINT('',(-3.950000000000000,0.0,2.200000000000000));
#84=(BOUNDED_CURVE()B_SPLINE_CURVE(2,(#74,#75,#76),.UNSPECIFIED.,.F.,.U.)B_SPLINE_CURVE_WITH_KNOTS((3,3),(0.940284170833847,1.0),.UNSPECIFIED.)CURVE()GEOMETRIC_REPRESENTATION_ITEM()RATIONAL_B_SPLINE_CURVE((0.893499554556144,0.930038554325644,1.0))REPRESENTATION_ITEM(''));
#85=EDGE_CURVE('',#71,#73,#84,.T.);
#86=ORIENTED_EDGE('',*,*,#85,.T.);
#87=CARTESIAN_POINT('',(3.950000000000000,0.0,2.200000000000000));
#88=VERTEX_POINT('',#87);
#89=CARTESIAN_POINT('',(-3.950000000000000,0.0,2.200000000000000));
#90=CARTESIAN_POINT('',(-3.950000000000001,3.950000000000001,2.200000000000001));
#91=CARTESIAN_POINT('',(0.0,3.950000000000000,2.200000000000000));
#92=CARTESIAN_POINT('',(3.950000000000001,3.950000000000001,2.200000000000001));
#93=CARTESIAN_POINT('',(3.950000000000000,0.0,2.200000000000000));
#101=(BOUNDED_CURVE()B_SPLINE_CURVE(2,(#89,#90,#91,#92,#93),.UNSPECIFIED.,.F.,.U.)B_SPLINE_CURVE_WITH_KNOTS((3,2,3),(0.0,0.250000000000000,0.500000000000000),.UNSPECIFIED.)CURVE()GEOMETRIC_REPRESENTATION_ITEM()RATIONAL_B_SPLINE_CURVE((1.0,0.707106781186547,1.0,0.707106781186547,1.0))REPRESENTATION_ITEM(''));
#102=EDGE_CURVE('',#73,#88,#101,.T.);
#103=ORIENTED_EDGE('',*,*,#102,.T.);
#104=CARTESIAN_POINT('',(0.241138637053563,-3.942632735711783,2.200000000001563));
#105=VERTEX_POINT('',#104);
#106=CARTESIAN_POINT('',(3.950000000000000,0.0,2.200000000000000));
#107=CARTESIAN_POINT('',(3.950000000000001,-3.715791891147756,2.200000000000000));
#108=CARTESIAN_POINT('',(0.241138637053563,-3.942632735711783,2.200000000001563));
#116=(BOUNDED_CURVE()B_SPLINE_CURVE(2,(#106,#107,#108),.UNSPECIFIED.,.F.,.U.)B_SPLINE_CURVE_WITH_KNOTS((3,3),(0.500000000000000,0.739333097900907),.UNSPECIFIED.)CURVE()GEOMETRIC_REPRESENTATION_ITEM()RATIONAL_B_SPLINE_CURVE((1.0,0.719603834348832,0.976072332416304))REPRESENTATION_ITEM(''));
#117=EDGE_CURVE('',#88,#105,#116,.T.);
#118=ORIENTED_EDGE('',*,*,#117,.T.);
#119=CARTESIAN_POINT('',(0.241138685840029,-3.942632918136002,1.740000466404580));
#120=VERTEX_POINT('',#119);
#121=CARTESIAN_POINT('',(0.241138637053563,-3.942632735711783,2.200000000001563));
#122=CARTESIAN_POINT('',(0.241138685840029,-3.942632918136002,1.740000466404580));
#123=QUASI_UNIFORM_CURVE('',1,(#121,#122),.UNSPECIFIED.,.F.,.U.);
#124=EDGE_CURVE('',#105,#120,#123,.T.);
#125=ORIENTED_EDGE('',*,*,#124,.T.);
#126=CARTESIAN_POINT('',(3.950000370124490,0.0,1.740000466404580));
#127=VERTEX_POINT('',#126);
#128=CARTESIAN_POINT('',(3.950000370124490,0.0,1.740000466404580));
#129=CARTESIAN_POINT('',(3.950000370124489,-3.715792203928461,1.740000466404580));
#130=CARTESIAN_POINT('',(0.241138685840029,-3.942632918136002,1.740000466404581));
#138=(BOUNDED_CURVE()B_SPLINE_CURVE(2,(#128,#129,#130),.UNSPECIFIED.,.F.,.U.)B_SPLINE_CURVE_WITH_KNOTS((3,3),(0.500000000000000,0.739333096260232),.UNSPECIFIED.)CURVE()GEOMETRIC_REPRESENTATION_ITEM()RATIONAL_B_SPLINE_CURVE((1.0,0.719603836271003,0.976072328900021))REPRESENTATION_ITEM(''));
#139=EDGE_CURVE('',#127,#120,#138,.T.);
#140=ORIENTED_EDGE('',*,*,#139,.F.);
#141=CARTESIAN_POINT('',(2.409549327596761,3.129948076526080,1.740000466401043));
#142=VERTEX_POINT('',#141);
#143=CARTESIAN_POINT('',(2.409549327596762,3.129948076526080,1.740000466401043));
#144=CARTESIAN_POINT('',(3.950000370124489,1.944052118217530,1.740000466404581));
#145=CARTESIAN_POINT('',(3.950000370124490,0.0,1.740000466404580));
#153=(BOUNDED_CURVE()B_SPLINE_CURVE(2,(#143,#144,#145),.UNSPECIFIED.,.F.,.U.)B_SPLINE_CURVE_WITH_KNOTS((3,3),(0.355459593833959,0.500000000000000),.UNSPECIFIED.)CURVE()GEOMETRIC_REPRESENTATION_ITEM()RATIONAL_B_SPLINE_CURVE((0.857132100277676,0.830660380757698,1.0))REPRESENTATION_ITEM(''));
#154=EDGE_CURVE('',#142,#127,#153,.T.);
#155=ORIENTED_EDGE('',*,*,#154,.F.);
#156=CARTESIAN_POINT('',(-3.387230609344122,2.032036348841688,1.740000466401682));
#157=VERTEX_POINT('',#156);
#158=CARTESIAN_POINT('',(-3.387230609344122,2.032036348841688,1.740000466401682));
#159=CARTESIAN_POINT('',(-2.236623208646218,3.950000370124489,1.740000466404580));
#160=CARTESIAN_POINT('',(0.0,3.950000370124490,1.740000466404580));
#161=CARTESIAN_POINT('',(1.344320627133048,3.950000370124490,1.740000466404580));
#162=CARTESIAN_POINT('',(2.409549327596762,3.129948076526080,1.740000466401043));
#170=(BOUNDED_CURVE()B_SPLINE_CURVE(2,(#158,#159,#160,#161,#162),.UNSPECIFIED.,.F.,.U.)B_SPLINE_CURVE_WITH_KNOTS((3,2,3),(0.087839548341386,0.250000000000000,0.355459593833959),.UNSPECIFIED.)CURVE()GEOMETRIC_REPRESENTATION_ITEM()RATIONAL_B_SPLINE_CURVE((0.866495982657842,0.810017213397861,1.0,0.876446400428849,0.857132100277676))REPRESENTATION_ITEM(''));
#171=EDGE_CURVE('',#157,#142,#170,.T.);
#172=ORIENTED_EDGE('',*,*,#171,.F.);
#173=CARTESIAN_POINT('',(-3.950000370124490,0.0,1.740000466404580));
#174=VERTEX_POINT('',#173);
#175=CARTESIAN_POINT('',(-3.950000370124490,0.0,1.740000466404580));
#176=CARTESIAN_POINT('',(-3.950000370124490,1.093947342331566,1.740000466404580));
#177=CARTESIAN_POINT('',(-3.387230609344122,2.032036348841688,1.740000466401682));
#185=(BOUNDED_CURVE()B_SPLINE_CURVE(2,(#175,#176,#177),.UNSPECIFIED.,.F.,.U.)B_SPLINE_CURVE_WITH_KNOTS((3,3),(0.0,0.087839548341386),.UNSPECIFIED.)CURVE()GEOMETRIC_REPRESENTATION_ITEM()RATIONAL_B_SPLINE_CURVE((1.0,0.897089567788687,0.866495982657842))REPRESENTATION_ITEM(''));
#186=EDGE_CURVE('',#174,#157,#185,.T.);
#187=ORIENTED_EDGE('',*,*,#186,.F.);
#188=CARTESIAN_POINT('',(-3.697767395748988,-1.388891097215119,1.740000466404580));
#189=VERTEX_POINT('',#188);
#190=CARTESIAN_POINT('',(-3.697767395748988,-1.388891097215120,1.740000466404580));
#191=CARTESIAN_POINT('',(-3.950000370124489,-0.717349243021420,1.740000466404581));
#192=CARTESIAN_POINT('',(-3.950000370124490,0.0,1.740000466404580));
#200=(BOUNDED_CURVE()B_SPLINE_CURVE(2,(#190,#191,#192),.UNSPECIFIED.,.F.,.U.)B_SPLINE_CURVE_WITH_KNOTS((3,3),(0.940284170833847,1.0),.UNSPECIFIED.)CURVE()GEOMETRIC_REPRESENTATION_ITEM()RATIONAL_B_SPLINE_CURVE((0.893499554556144,0.930038554325644,1.0))REPRESENTATION_ITEM(''));
#201=EDGE_CURVE('',#189,#174,#200,.T.);
#202=ORIENTED_EDGE('',*,*,#201,.F.);
#203=CARTESIAN_POINT('',(-3.697767222504156,-1.388891032143908,2.200000000000000));
#204=CARTESIAN_POINT('',(-3.697767395748988,-1.388891097215119,1.740000466404580));
#205=QUASI_UNIFORM_CURVE('',1,(#203,#204),.UNSPECIFIED.,.F.,.U.);
#206=EDGE_CURVE('',#71,#189,#205,.T.);
#207=ORIENTED_EDGE('',*,*,#206,.F.);
#208=EDGE_LOOP('',(#86,#103,#118,#125,#140,#155,#172,#187,#202,#207));
#209=FACE_OUTER_BOUND('',#208,.T.);
#210=ADVANCED_FACE('',(#209),#69,.T.);
#211=CARTESIAN_POINT('',(0.241141742460463,-3.942632638483440,2.211499988339975));
#212=CARTESIAN_POINT('',(-2.671659973292582,-4.120787223397721,2.211499988339976));
#213=CARTESIAN_POINT('',(-3.697767309412629,-1.388891063917919,2.211499988339974));
#214=CARTESIAN_POINT('',(0.241141742460463,-3.942632638483440,1.728212978352570));
#215=CARTESIAN_POINT('',(-2.671659973292582,-4.120787223397721,1.728212978352569));
#216=CARTESIAN_POINT('',(-3.697767309412629,-1.388891063917919,1.728212978352570));
#224=(BOUNDED_SURFACE()B_SPLINE_SURFACE(2,1,((#211,#214),(#212,#215),(#213,#216)),.UNSPECIFIED.,.F.,.F.,.U.)B_SPLINE_SURFACE_WITH_KNOTS((3,3),(2,2),(0.0,5.199972702977207),(0.0,0.483287009987405),.UNSPECIFIED.)GEOMETRIC_REPRESENTATION_ITEM()RATIONAL_B_SPLINE_SURFACE(((1.0,1.0),(0.765685424949238,0.765685424949238),(0.906274169979695,0.906274169979695)))REPRESENTATION_ITEM('')SURFACE());
#225=CARTESIAN_POINT('',(0.241138637053563,-3.942632735711783,2.200000000001563));
#226=CARTESIAN_POINT('',(0.120681860804840,-3.950000000000000,2.200000000000001));
#227=CARTESIAN_POINT('',(0.0,-3.950000000000000,2.200000000000000));
#228=CARTESIAN_POINT('',(-2.735807901789157,-3.950000000000000,2.200000000000000));
#229=CARTESIAN_POINT('',(-3.697767222504157,-1.388891032143907,2.200000000000000));
#237=(BOUNDED_CURVE()B_SPLINE_CURVE(2,(#225,#226,#227,#228,#229),.UNSPECIFIED.,.F.,.U.)B_SPLINE_CURVE_WITH_KNOTS((3,2,3),(0.739333097900907,0.750000000000000,0.940284170833847),.UNSPECIFIED.)CURVE()GEOMETRIC_REPRESENTATION_ITEM()RATIONAL_B_SPLINE_CURVE((0.976072332416304,0.987502946837715,1.0,0.777068226860903,0.893499554556145))REPRESENTATION_ITEM(''));
#238=EDGE_CURVE('',#105,#71,#237,.T.);
#239=ORIENTED_EDGE('',*,*,#238,.T.);
#240=ORIENTED_EDGE('',*,*,#206,.T.);
#241=CARTESIAN_POINT('',(0.241138685840029,-3.942632918136002,1.740000466404581));
#242=CARTESIAN_POINT('',(0.120681890909992,-3.950000370124489,1.740000466404580));
#243=CARTESIAN_POINT('',(0.0,-3.950000370124490,1.740000466404580));
#244=CARTESIAN_POINT('',(-2.735808158140938,-3.950000370124490,1.740000466404580));
#245=CARTESIAN_POINT('',(-3.697767395748988,-1.388891097215119,1.740000466404580));
#253=(BOUNDED_CURVE()B_SPLINE_CURVE(2,(#241,#242,#243,#244,#245),.UNSPECIFIED.,.F.,.U.)B_SPLINE_CURVE_WITH_KNOTS((3,2,3),(0.739333096260232,0.750000000000000,0.940284170833847),.UNSPECIFIED.)CURVE()GEOMETRIC_REPRESENTATION_ITEM()RATIONAL_B_SPLINE_CURVE((0.976072328900021,0.987502944915545,1.0,0.777068226860902,0.893499554556145))REPRESENTATION_ITEM(''));
#254=EDGE_CURVE('',#120,#189,#253,.T.);
#255=ORIENTED_EDGE('',*,*,#254,.F.);
#256=ORIENTED_EDGE('',*,*,#124,.F.);
#257=EDGE_LOOP('',(#239,#240,#255,#256));
#258=FACE_OUTER_BOUND('',#257,.T.);
#259=ADVANCED_FACE('',(#258),#224,.T.);
#260=CARTESIAN_POINT('',(1.836637725935493,2.385749339819188,1.201345299141611));
#261=CARTESIAN_POINT('',(3.961127713297838,0.750238687447961,1.201345299141610));
#262=CARTESIAN_POINT('',(2.581858546044395,-1.548884920513691,1.201345299141611));
#263=CARTESIAN_POINT('',(1.032973625530704,-4.130743466558087,1.201345299141611));
#264=CARTESIAN_POINT('',(-1.548884920513691,-2.581858546044395,1.201345299141611));
#265=CARTESIAN_POINT('',(-4.130743466558087,-1.032973625530704,1.201345299141611));
#266=CARTESIAN_POINT('',(-2.581858546044396,1.548884920513691,1.201345299141611));
#267=CARTESIAN_POINT('',(2.088296488228194,2.712648171048256,1.624140809408260));
#268=CARTESIAN_POINT('',(4.503887171810050,0.853037479414998,1.624140809408260));
#269=CARTESIAN_POINT('',(2.935628544850999,-1.761115376485495,1.624140809408259));
#270=CARTESIAN_POINT('',(1.174513168365506,-4.696743921336492,1.624140809408259));
#271=CARTESIAN_POINT('',(-1.761115376485495,-2.935628544851000,1.624140809408259));
#272=CARTESIAN_POINT('',(-4.696743921336492,-1.174513168365506,1.624140809408259));
#273=CARTESIAN_POINT('',(-2.935628544851000,1.761115376485493,1.624140809408259));
#274=CARTESIAN_POINT('',(2.440130921400888,3.169672849793690,1.751780915373984));
#275=CARTESIAN_POINT('',(5.262698288478653,0.996756515354996,1.751780915373984));
#276=CARTESIAN_POINT('',(3.430220769137866,-2.057826611566489,1.751780915373984));
#277=CARTESIAN_POINT('',(1.372394157571378,-5.488047380704353,1.751780915373983));
#278=CARTESIAN_POINT('',(-2.057826611566489,-3.430220769137867,1.751780915373984));
#279=CARTESIAN_POINT('',(-5.488047380704353,-1.372394157571378,1.751780915373983));
#280=CARTESIAN_POINT('',(-3.430220769137867,2.057826611566488,1.751780915373984));
#288=(BOUNDED_SURFACE()B_SPLINE_SURFACE(2,2,((#260,#267,#274),(#261,#268,#275),(#262,#269,#276),(#263,#270,#277),(#264,#271,#278),(#265,#272,#279),(#266,#273,#280)),.UNSPECIFIED.,.F.,.F.,.U.)B_SPLINE_SURFACE_WITH_KNOTS((3,2,2,3),(3,3),(0.0,6.097426536696331,12.725064076583649,19.352701616470970),(0.0,1.156260503897615),.UNSPECIFIED.)GEOMETRIC_REPRESENTATION_ITEM()RATIONAL_B_SPLINE_SURFACE(((0.901711302713230,0.864228115613829,0.902029521795787),(0.688414822171346,0.659798144634084,0.688657767704435),(0.942339203768827,0.903167157705209,0.942671760670330),(0.666334441162869,0.638635621758334,0.666569594403052),(0.942339203768827,0.903167157705209,0.942671760670330),(0.666334441162869,0.638635621758334,0.666569594403052),(0.942339203768827,0.903167157705209,0.942671760670330)))REPRESENTATION_ITEM('')SURFACE());
#289=ORIENTED_EDGE('',*,*,#154,.T.);
#290=ORIENTED_EDGE('',*,*,#139,.T.);
#291=ORIENTED_EDGE('',*,*,#254,.T.);
#292=ORIENTED_EDGE('',*,*,#201,.T.);
#293=ORIENTED_EDGE('',*,*,#186,.T.);
#294=CARTESIAN_POINT('',(-2.613118974136721,1.567638390094684,1.237745415524946));
#295=VERTEX_POINT('',#294);
#296=CARTESIAN_POINT('',(-2.613118974136721,1.567638390094684,1.237745415524946));
#297=CARTESIAN_POINT('',(-2.941982047346061,1.764926911483074,1.610842895962601));
#298=CARTESIAN_POINT('',(-3.387230609344122,2.032036348841688,1.740000466401682));
#306=(BOUNDED_CURVE()B_SPLINE_CURVE(2,(#296,#297,#298),.UNSPECIFIED.,.F.,.U.)B_SPLINE_CURVE_WITH_KNOTS((3,3),(-1.456886544015801,-0.538845218475267),.UNSPECIFIED.)CURVE()GEOMETRIC_REPRESENTATION_ITEM()RATIONAL_B_SPLINE_CURVE((0.938943598526692,0.906577860959029,0.939245959488949))REPRESENTATION_ITEM(''));
#307=EDGE_CURVE('',#295,#157,#306,.T.);
#308=ORIENTED_EDGE('',*,*,#307,.F.);
#309=CARTESIAN_POINT('',(-3.047274364415090,0.0,1.237745389024284));
#310=VERTEX_POINT('',#309);
#311=CARTESIAN_POINT('',(-3.047274364415090,0.0,1.237745389024284));
#312=CARTESIAN_POINT('',(-3.047274364415090,0.843938577206068,1.237745389024284));
#313=CARTESIAN_POINT('',(-2.613118974136721,1.567638390094684,1.237745415524947));
#321=(BOUNDED_CURVE()B_SPLINE_CURVE(2,(#311,#312,#313),.UNSPECIFIED.,.F.,.U.)B_SPLINE_CURVE_WITH_KNOTS((3,3),(0.0,0.087839548341842),.UNSPECIFIED.)CURVE()GEOMETRIC_REPRESENTATION_ITEM()RATIONAL_B_SPLINE_CURVE((1.0,0.897089567788152,0.866495982657524))REPRESENTATION_ITEM(''));
#322=EDGE_CURVE('',#310,#295,#321,.T.);
#323=ORIENTED_EDGE('',*,*,#322,.F.);
#324=CARTESIAN_POINT('',(3.047274364415090,0.0,1.237745389024284));
#325=VERTEX_POINT('',#324);
#326=CARTESIAN_POINT('',(3.047274364415090,0.0,1.237745389024284));
#327=CARTESIAN_POINT('',(3.047274364415089,-3.047274364415089,1.237745389024284));
#328=CARTESIAN_POINT('',(0.0,-3.047274364415090,1.237745389024284));
#329=CARTESIAN_POINT('',(-3.047274364415089,-3.047274364415089,1.237745389024284));
#330=CARTESIAN_POINT('',(-3.047274364415090,0.0,1.237745389024284));
#338=(BOUNDED_CURVE()B_SPLINE_CURVE(2,(#326,#327,#328,#329,#330),.UNSPECIFIED.,.F.,.U.)B_SPLINE_CURVE_WITH_KNOTS((3,2,3),(0.500000000000000,0.750000000000000,1.0),.UNSPECIFIED.)CURVE()GEOMETRIC_REPRESENTATION_ITEM()RATIONAL_B_SPLINE_CURVE((1.0,0.707106781186548,1.0,0.707106781186548,1.0))REPRESENTATION_ITEM(''));
#339=EDGE_CURVE('',#325,#310,#338,.T.);
#340=ORIENTED_EDGE('',*,*,#339,.F.);
#341=CARTESIAN_POINT('',(1.858875226772334,2.414635331966282,1.237745415524278));
#342=VERTEX_POINT('',#341);
#343=CARTESIAN_POINT('',(1.858875226772333,2.414635331966282,1.237745415524278));
#344=CARTESIAN_POINT('',(3.047274364415090,1.499761931094541,1.237745389024284));
#345=CARTESIAN_POINT('',(3.047274364415090,0.0,1.237745389024284));
#353=(BOUNDED_CURVE()B_SPLINE_CURVE(2,(#343,#344,#345),.UNSPECIFIED.,.F.,.U.)B_SPLINE_CURVE_WITH_KNOTS((3,3),(0.355459593834144,0.500000000000000),.UNSPECIFIED.)CURVE()GEOMETRIC_REPRESENTATION_ITEM()RATIONAL_B_SPLINE_CURVE((0.857132100277609,0.830660380757914,1.0))REPRESENTATION_ITEM(''));
#354=EDGE_CURVE('',#342,#325,#353,.T.);
#355=ORIENTED_EDGE('',*,*,#354,.F.);
#356=CARTESIAN_POINT('',(1.858875226772333,2.414635331966283,1.237745415524278));
#357=CARTESIAN_POINT('',(2.092816132570193,2.718519083070196,1.610842895960372));
#358=CARTESIAN_POINT('',(2.409549327596761,3.129948076526080,1.740000466401043));
#366=(BOUNDED_CURVE()B_SPLINE_CURVE(2,(#356,#357,#358),.UNSPECIFIED.,.F.,.U.)B_SPLINE_CURVE_WITH_KNOTS((3,3),(-1.456886544017505,-0.538845218479973),.UNSPECIFIED.)CURVE()GEOMETRIC_REPRESENTATION_ITEM()RATIONAL_B_SPLINE_CURVE((0.898462095194291,0.867491770210777,0.898751420201321))REPRESENTATION_ITEM(''));
#367=EDGE_CURVE('',#342,#142,#366,.T.);
#368=ORIENTED_EDGE('',*,*,#367,.T.);
#369=EDGE_LOOP('',(#289,#290,#291,#292,#293,#308,#323,#340,#355,#368));
#370=FACE_OUTER_BOUND('',#369,.T.);
#371=ADVANCED_FACE('',(#370),#288,.F.);
#372=CARTESIAN_POINT('',(-2.581858546044395,1.548884920513692,1.201345299141611));
#373=CARTESIAN_POINT('',(-1.032973625530703,4.130743466558087,1.201345299141611));
#374=CARTESIAN_POINT('',(1.548884920513692,2.581858546044395,1.201345299141611));
#375=CARTESIAN_POINT('',(1.698441071356588,2.492138190463516,1.201345299141611));
#376=CARTESIAN_POINT('',(1.836637456924739,2.385749546913550,1.201345299141611));
#377=CARTESIAN_POINT('',(-2.935628544850999,1.761115376485495,1.624140809408259));
#378=CARTESIAN_POINT('',(-1.174513168365505,4.696743921336492,1.624140809408259));
#379=CARTESIAN_POINT('',(1.761115376485495,2.935628544850999,1.624140809408259));
#380=CARTESIAN_POINT('',(1.931163927807214,2.833614576153553,1.624140809408259));
#381=CARTESIAN_POINT('',(2.088296182357197,2.712648406518988,1.624140809408260));
#382=CARTESIAN_POINT('',(-3.430220769137866,2.057826611566489,1.751780915373984));
#383=CARTESIAN_POINT('',(-1.372394157571377,5.488047380704353,1.751780915373983));
#384=CARTESIAN_POINT('',(2.057826611566489,3.430220769137866,1.751780915373984));
#385=CARTESIAN_POINT('',(2.256524799567374,3.311019572930011,1.751780915373984));
#386=CARTESIAN_POINT('',(2.440130563997004,3.169673124936333,1.751780915373984));
#394=(BOUNDED_SURFACE()B_SPLINE_SURFACE(2,2,((#372,#377,#382),(#373,#378,#383),(#374,#379,#384),(#375,#380,#385),(#376,#381,#386)),.UNSPECIFIED.,.F.,.F.,.U.)B_SPLINE_SURFACE_WITH_KNOTS((3,2,3),(3,3),(0.0,6.627637539887318,7.157848037429687),(0.0,1.156260503897615),.UNSPECIFIED.)GEOMETRIC_REPRESENTATION_ITEM()RATIONAL_B_SPLINE_SURFACE(((0.942339203768827,0.903167157705209,0.942671760670330),(0.666334441162869,0.638635621758334,0.666569594403052),(0.942339203768827,0.903167157705209,0.942671760670330),(0.920258843817843,0.882004655011614,0.920583608433871),(0.901711338089820,0.864228149519852,0.902029557184861)))REPRESENTATION_ITEM('')SURFACE());
#395=ORIENTED_EDGE('',*,*,#171,.T.);
#396=ORIENTED_EDGE('',*,*,#367,.F.);
#397=CARTESIAN_POINT('',(-2.613118974136721,1.567638390094684,1.237745415524947));
#398=CARTESIAN_POINT('',(-1.725469348835772,3.047274364415089,1.237745389024283));
#399=CARTESIAN_POINT('',(0.0,3.047274364415090,1.237745389024284));
#400=CARTESIAN_POINT('',(1.037092000195436,3.047274364415090,1.237745389024284));
#401=CARTESIAN_POINT('',(1.858875226772334,2.414635331966283,1.237745415524278));
#409=(BOUNDED_CURVE()B_SPLINE_CURVE(2,(#397,#398,#399,#400,#401),.UNSPECIFIED.,.F.,.U.)B_SPLINE_CURVE_WITH_KNOTS((3,2,3),(0.087839548341842,0.250000000000000,0.355459593834144),.UNSPECIFIED.)CURVE()GEOMETRIC_REPRESENTATION_ITEM()RATIONAL_B_SPLINE_CURVE((0.866495982657524,0.810017213398396,1.0,0.876446400428633,0.857132100277609))REPRESENTATION_ITEM(''));
#410=EDGE_CURVE('',#295,#342,#409,.T.);
#411=ORIENTED_EDGE('',*,*,#410,.F.);
#412=ORIENTED_EDGE('',*,*,#307,.T.);
#413=EDGE_LOOP('',(#395,#396,#411,#412));
#414=FACE_OUTER_BOUND('',#413,.T.);
#415=ADVANCED_FACE('',(#414),#394,.F.);
#416=CARTESIAN_POINT('',(-4.344605058847815,-4.343882596534249,2.200000000000000));
#417=CARTESIAN_POINT('',(4.344605200110824,-4.343882596534249,2.200000000000000));
#418=CARTESIAN_POINT('',(-4.344605058847815,4.344570829909800,2.200000000000000));
#419=CARTESIAN_POINT('',(4.344605200110824,4.344570829909800,2.200000000000000));
#420=B_SPLINE_SURFACE_WITH_KNOTS('',1,1,((#416,#418),(#417,#419)),.UNSPECIFIED.,.F.,.F.,.U.,(2,2),(2,2),(0.0,8.689210258958639),(0.0,8.688453426444049),.UNSPECIFIED.);
#421=ORIENTED_EDGE('',*,*,#85,.F.);
#422=ORIENTED_EDGE('',*,*,#238,.F.);
#423=ORIENTED_EDGE('',*,*,#117,.F.);
#424=ORIENTED_EDGE('',*,*,#102,.F.);
#425=EDGE_LOOP('',(#421,#422,#423,#424));
#426=FACE_OUTER_BOUND('',#425,.T.);
#427=ADVANCED_FACE('',(#426),#420,.T.);
#428=CARTESIAN_POINT('',(-2.790802274678288,2.790344981812154,2.493221497851648));
#429=CARTESIAN_POINT('',(-1.627586399105726,3.254639414921576,1.453800027632034));
#430=CARTESIAN_POINT('',(1.627586344335845,3.254639414921576,1.453800027632034));
#431=CARTESIAN_POINT('',(2.790802207559657,2.790345008602371,2.493221437876071));
#432=CARTESIAN_POINT('',(-3.254995319725194,1.627230982758219,1.454197285726096));
#433=CARTESIAN_POINT('',(-1.952335261471143,1.952015357407902,1.776357E-015));
#434=CARTESIAN_POINT('',(1.952335195773144,1.952015357407902,1.776357E-015));
#435=CARTESIAN_POINT('',(3.254995246640771,1.627231000979917,1.454197204139834));
#436=CARTESIAN_POINT('',(-3.254995319725194,-1.627484918280746,1.454197285726096));
#437=CARTESIAN_POINT('',(-1.952335261471143,-1.952319976755133,1.776357E-015));
#438=CARTESIAN_POINT('',(1.952335195773144,-1.952319976755133,1.776357E-015));
#439=CARTESIAN_POINT('',(3.254995246640771,-1.627484936505287,1.454197204139834));
#440=CARTESIAN_POINT('',(-2.790678053360610,-2.790656205309019,2.493499548025184));
#441=CARTESIAN_POINT('',(-1.627501899851039,-3.254978316471985,1.454178304611684));
#442=CARTESIAN_POINT('',(1.627501845084002,-3.254978316471985,1.454178304611684));
#443=CARTESIAN_POINT('',(2.790677986243774,-2.790656232101031,2.493499488054945));
#451=(BOUNDED_SURFACE()B_SPLINE_SURFACE(2,2,((#428,#432,#436,#440),(#429,#433,#437,#441),(#430,#434,#438,#442),(#431,#435,#439,#443)),.UNSPECIFIED.,.F.,.F.,.U.)B_SPLINE_SURFACE_WITH_KNOTS((3,1,3),(3,1,3),(0.202190087446570,3.714796989652864,7.227403773656487),(0.202765653151274,3.714796989652865,7.227376391869783),.UNSPECIFIED.)GEOMETRIC_REPRESENTATION_ITEM()RATIONAL_B_SPLINE_SURFACE(((1.399121162531086,1.199593283369741,1.199593283369741,1.399183441543956),(1.199527879161346,1.0,1.0,1.199590158174215),(1.199527879161346,1.0,1.0,1.199590158174215),(1.399121149098066,1.199593269936721,1.199593269936721,1.399183428110936)))REPRESENTATION_ITEM('')SURFACE());
#452=ORIENTED_EDGE('',*,*,#322,.T.);
#453=ORIENTED_EDGE('',*,*,#410,.T.);
#454=ORIENTED_EDGE('',*,*,#354,.T.);
#455=ORIENTED_EDGE('',*,*,#339,.T.);
#456=EDGE_LOOP('',(#452,#453,#454,#455));
#457=FACE_OUTER_BOUND('',#456,.T.);
#458=ADVANCED_FACE('',(#457),#451,.T.);
#459=CLOSED_SHELL('',(#210,#259,#371,#415,#427,#458));
#460=MANIFOLD_SOLID_BREP('rubber foot',#459);
#466=(NAMED_UNIT(*)PLANE_ANGLE_UNIT()SI_UNIT($,.RADIAN.));
#467=DIMENSIONAL_EXPONENTS(0.0,0.0,0.0,0.0,0.0,0.0,0.0);
#468=PLANE_ANGLE_MEASURE_WITH_UNIT(PLANE_ANGLE_MEASURE(0.017453292500000),#466);
#472=(CONVERSION_BASED_UNIT('DEGREE',#468)NAMED_UNIT(#467)PLANE_ANGLE_UNIT());
#476=(NAMED_UNIT(*)SI_UNIT($,.STERADIAN.)SOLID_ANGLE_UNIT());
#480=(LENGTH_UNIT()NAMED_UNIT(*)SI_UNIT(.MILLI.,.METRE.));
#482=UNCERTAINTY_MEASURE_WITH_UNIT(LENGTH_MEASURE(0.001000000000000),#480,'DISTANCE_ACCURACY_VALUE','');
#484=(GEOMETRIC_REPRESENTATION_CONTEXT(3)GLOBAL_UNCERTAINTY_ASSIGNED_CONTEXT((#482))GLOBAL_UNIT_ASSIGNED_CONTEXT((#472,#476,#480))REPRESENTATION_CONTEXT('','3D'));
ENDSEC;
END-ISO-10303-21;
