  0
SECTION
  2
HEADER
  9
$ACADVER
  1
AC1015
  9
$ACADMAINTVER
 70
    20
  9
$DWGCODEPAGE
  3
ANSI_932
  9
$INSBASE
 10
0.0
 20
0.0
 30
0.0
  9
$EXTMIN
 10
10.0
 20
9.999999999999998
 30
0.0
  9
$EXTMAX
 10
370.090735
 20
226.470429
 30
0.0
  9
$LIMMIN
 10
0.0
 20
0.0
  9
$LIMMAX
 10
396.0
 20
273.0
  9
$ORTHOMODE
 70
     1
  9
$REGENMODE
 70
     1
  9
$FILLMODE
 70
     1
  9
$QTEXTMODE
 70
     0
  9
$MIRRTEXT
 70
     1
  9
$LTSCALE
 40
20.0
  9
$ATTMODE
 70
     1
  9
$TEXTSIZE
 40
5.0
  9
$TRACEWID
 40
1.0
  9
$TEXTSTYLE
  7
STANDARD
  9
$CLAYER
  8
0
  9
$CELTYPE
  6
BYLAYER
  9
$CECOLOR
 62
   256
  9
$CELTSCALE
 40
1.0
  9
$DISPSILH
 70
     0
  9
$DIMSCALE
 40
1.0
  9
$DIMASZ
 40
2.5
  9
$DIMEXO
 40
1.0
  9
$DIMDLI
 40
10.0
  9
$DIMRND
 40
0.0
  9
$DIMDLE
 40
0.0
  9
$DIMEXE
 40
1.0
  9
$DIMTP
 40
0.0
  9
$DIMTM
 40
0.0
  9
$DIMTXT
 40
3.2
  9
$DIMCEN
 40
0.0
  9
$DIMTSZ
 40
0.0
  9
$DIMTOL
 70
     0
  9
$DIMLIM
 70
     0
  9
$DIMTIH
 70
     0
  9
$DIMTOH
 70
     0
  9
$DIMSE1
 70
     0
  9
$DIMSE2
 70
     0
  9
$DIMTAD
 70
     3
  9
$DIMZIN
 70
     8
  9
$DIMBLK
  1

  9
$DIMASO
 70
     1
  9
$DIMSHO
 70
     1
  9
$DIMPOST
  1

  9
$DIMAPOST
  1

  9
$DIMALT
 70
     0
  9
$DIMALTD
 70
     2
  9
$DIMALTF
 40
25.4
  9
$DIMLFAC
 40
1.0
  9
$DIMTOFL
 70
     1
  9
$DIMTVP
 40
0.0
  9
$DIMTIX
 70
     0
  9
$DIMSOXD
 70
     0
  9
$DIMSAH
 70
     1
  9
$DIMBLK1
  1

  9
$DIMBLK2
  1

  9
$DIMSTYLE
  2
STANDARD
  9
$DIMCLRD
 70
     0
  9
$DIMCLRE
 70
     0
  9
$DIMCLRT
 70
     0
  9
$DIMTFAC
 40
1.0
  9
$DIMGAP
 40
1.0
  9
$DIMJUST
 70
     0
  9
$DIMSD1
 70
     0
  9
$DIMSD2
 70
     0
  9
$DIMTOLJ
 70
     1
  9
$DIMTZIN
 70
     0
  9
$DIMALTZ
 70
     0
  9
$DIMALTTZ
 70
     0
  9
$DIMUPT
 70
     0
  9
$DIMDEC
 70
     4
  9
$DIMTDEC
 70
     4
  9
$DIMALTU
 70
     2
  9
$DIMALTTD
 70
     2
  9
$DIMTXSTY
  7
STANDARD
  9
$DIMAUNIT
 70
     0
  9
$DIMADEC
 70
     0
  9
$DIMALTRND
 40
0.0
  9
$DIMAZIN
 70
     0
  9
$DIMDSEP
 70
    46
  9
$DIMATFIT
 70
     3
  9
$DIMFRAC
 70
     0
  9
$DIMLDRBLK
  1

  9
$DIMLUNIT
 70
     2
  9
$DIMLWD
 70
    -2
  9
$DIMLWE
 70
    -2
  9
$DIMTMOVE
 70
     0
  9
$LUNITS
 70
     2
  9
$LUPREC
 70
     4
  9
$SKETCHINC
 40
1.0
  9
$FILLETRAD
 40
1.0
  9
$AUNITS
 70
     0
  9
$AUPREC
 70
     2
  9
$MENU
  1
.
  9
$ELEVATION
 40
0.0
  9
$PELEVATION
 40
0.0
  9
$THICKNESS
 40
0.0
  9
$LIMCHECK
 70
     0
  9
$CHAMFERA
 40
10.0
  9
$CHAMFERB
 40
10.0
  9
$CHAMFERC
 40
0.0
  9
$CHAMFERD
 40
0.0
  9
$SKPOLY
 70
     0
  9
$TDCREATE
 40
2451301.771714699
  9
$TDUCREATE
 40
2451301.396714699
  9
$TDUPDATE
 40
2457192.660774236
  9
$TDUUPDATE
 40
2457192.285774236
  9
$TDINDWG
 40
0.0000116204
  9
$TDUSRTIMER
 40
0.0000111227
  9
$USRTIMER
 70
     1
  9
$ANGBASE
 50
0.0
  9
$ANGDIR
 70
     0
  9
$PDMODE
 70
     0
  9
$PDSIZE
 40
0.0
  9
$PLINEWID
 40
0.0
  9
$SPLFRAME
 70
     0
  9
$SPLINETYPE
 70
     6
  9
$SPLINESEGS
 70
     8
  9
$HANDSEED
  5
A713
  9
$SURFTAB1
 70
     6
  9
$SURFTAB2
 70
     6
  9
$SURFTYPE
 70
     6
  9
$SURFU
 70
     6
  9
$SURFV
 70
     6
  9
$UCSBASE
  2

  9
$UCSNAME
  2

  9
$UCSORG
 10
0.0
 20
0.0
 30
0.0
  9
$UCSXDIR
 10
1.0
 20
0.0
 30
0.0
  9
$UCSYDIR
 10
0.0
 20
1.0
 30
0.0
  9
$UCSORTHOREF
  2

  9
$UCSORTHOVIEW
 70
     0
  9
$UCSORGTOP
 10
0.0
 20
0.0
 30
0.0
  9
$UCSORGBOTTOM
 10
0.0
 20
0.0
 30
0.0
  9
$UCSORGLEFT
 10
0.0
 20
0.0
 30
0.0
  9
$UCSORGRIGHT
 10
0.0
 20
0.0
 30
0.0
  9
$UCSORGFRONT
 10
0.0
 20
0.0
 30
0.0
  9
$UCSORGBACK
 10
0.0
 20
0.0
 30
0.0
  9
$PUCSBASE
  2

  9
$PUCSNAME
  2

  9
$PUCSORG
 10
0.0
 20
0.0
 30
0.0
  9
$PUCSXDIR
 10
1.0
 20
0.0
 30
0.0
  9
$PUCSYDIR
 10
0.0
 20
1.0
 30
0.0
  9
$PUCSORTHOREF
  2

  9
$PUCSORTHOVIEW
 70
     0
  9
$PUCSORGTOP
 10
0.0
 20
0.0
 30
0.0
  9
$PUCSORGBOTTOM
 10
0.0
 20
0.0
 30
0.0
  9
$PUCSORGLEFT
 10
0.0
 20
0.0
 30
0.0
  9
$PUCSORGRIGHT
 10
0.0
 20
0.0
 30
0.0
  9
$PUCSORGFRONT
 10
0.0
 20
0.0
 30
0.0
  9
$PUCSORGBACK
 10
0.0
 20
0.0
 30
0.0
  9
$USERI1
 70
     0
  9
$USERI2
 70
     0
  9
$USERI3
 70
     0
  9
$USERI4
 70
     0
  9
$USERI5
 70
     0
  9
$USERR1
 40
0.0
  9
$USERR2
 40
0.0
  9
$USERR3
 40
0.0
  9
$USERR4
 40
0.0
  9
$USERR5
 40
0.0
  9
$WORLDVIEW
 70
     1
  9
$SHADEDGE
 70
     3
  9
$SHADEDIF
 70
    70
  9
$TILEMODE
 70
     1
  9
$MAXACTVP
 70
    16
  9
$PINSBASE
 10
0.0
 20
0.0
 30
0.0
  9
$PLIMCHECK
 70
     0
  9
$PEXTMIN
 10
1.000000000000000E+20
 20
1.000000000000000E+20
 30
1.000000000000000E+20
  9
$PEXTMAX
 10
-1.000000000000000E+20
 20
-1.000000000000000E+20
 30
-1.000000000000000E+20
  9
$PLIMMIN
 10
0.0
 20
0.0
  9
$PLIMMAX
 10
420.0
 20
297.0
  9
$UNITMODE
 70
     0
  9
$VISRETAIN
 70
     0
  9
$PLINEGEN
 70
     0
  9
$PSLTSCALE
 70
     0
  9
$TREEDEPTH
 70
  3020
  9
$CMLSTYLE
  2
STANDARD
  9
$CMLJUST
 70
     0
  9
$CMLSCALE
 40
1.0
  9
$PROXYGRAPHICS
 70
     1
  9
$MEASUREMENT
 70
     0
  9
$CELWEIGHT
370
    -1
  9
$ENDCAPS
280
     0
  9
$JOINSTYLE
280
     0
  9
$LWDISPLAY
290
     0
  9
$INSUNITS
 70
     0
  9
$HYPERLINKBASE
  1

  9
$STYLESHEET
  1

  9
$XEDIT
290
     1
  9
$CEPSNTYPE
380
     0
  9
$PSTYLEMODE
290
     1
  9
$FINGERPRINTGUID
  2
{D19C46F5-5E16-48D4-9D51-86C3011DD733}
  9
$VERSIONGUID
  2
{F85AD9A5-905D-4430-B1C5-83DB9FAFE59A}
  9
$EXTNAMES
290
     1
  9
$PSVPSCALE
 40
0.0
  9
$OLESTARTUP
290
     0
  0
ENDSEC
  0
SECTION
  2
CLASSES
  0
CLASS
  1
ACDBDICTIONARYWDFLT
  2
AcDbDictionaryWithDefault
  3
ObjectDBX Classes
 90
        0
280
     0
281
     0
  0
CLASS
  1
ACDBPLACEHOLDER
  2
AcDbPlaceHolder
  3
ObjectDBX Classes
 90
        0
280
     0
281
     0
  0
CLASS
  1
LAYOUT
  2
AcDbLayout
  3
ObjectDBX Classes
 90
        0
280
     0
281
     0
  0
CLASS
  1
DICTIONARYVAR
  2
AcDbDictionaryVar
  3
ObjectDBX Classes
 90
        0
280
     0
281
     0
  0
CLASS
  1
MATERIAL
  2
AcDbMaterial
  3
ObjectDBX Classes
 90
     1153
280
     0
281
     0
  0
CLASS
  1
VISUALSTYLE
  2
AcDbVisualStyle
  3
ObjectDBX Classes
 90
     4095
280
     0
281
     0
  0
CLASS
  1
TABLESTYLE
  2
AcDbTableStyle
  3
ObjectDBX Classes
 90
     4095
280
     0
281
     0
  0
CLASS
  1
SCALE
  2
AcDbScale
  3
ObjectDBX Classes
 90
     1153
280
     0
281
     0
  0
CLASS
  1
MLEADERSTYLE
  2
AcDbMLeaderStyle
  3
ACDB_MLEADERSTYLE_CLASS
 90
     4095
280
     0
281
     0
  0
CLASS
  1
ACDBSECTIONVIEWSTYLE
  2
AcDbSectionViewStyle
  3
ObjectDBX Classes
 90
     1025
280
     0
281
     0
  0
CLASS
  1
ACDBDETAILVIEWSTYLE
  2
AcDbDetailViewStyle
  3
ObjectDBX Classes
 90
     1025
280
     0
281
     0
  0
CLASS
  1
CELLSTYLEMAP
  2
AcDbCellStyleMap
  3
ObjectDBX Classes
 90
     1152
280
     0
281
     0
  0
ENDSEC
  0
SECTION
  2
TABLES
  0
TABLE
  2
VPORT
  5
A40A
330
0
100
AcDbSymbolTable
 70
     1
  0
VPORT
  5
A65C
330
A40A
100
AcDbSymbolTableRecord
100
AcDbViewportTableRecord
  2
*ACTIVE
 70
     0
 10
0.0
 20
0.0
 11
1.0
 21
1.0
 12
255.6246902430961
 22
118.2336279336986
 13
0.0
 23
0.0
 14
10.0
 24
10.0
 15
10.0
 25
10.0
 16
0.0
 26
0.0
 36
1.0
 17
0.0
 27
0.0
 37
0.0
 40
218.9101011453036
 41
1.899603698811096
 42
50.0
 43
0.0
 44
0.0
 50
0.0
 51
0.0
 71
     0
 72
   100
 73
     1
 74
     0
 75
     0
 76
     0
 77
     0
 78
     0
281
     0
 65
     1
110
0.0
120
0.0
130
0.0
111
1.0
121
0.0
131
0.0
112
0.0
122
1.0
132
0.0
 79
     0
146
0.0
1001
ACAD_NAV_VCDISPLAY
1070
     3
  0
ENDTAB
  0
TABLE
  2
LTYPE
  5
A407
330
0
100
AcDbSymbolTable
 70
     4
  0
LTYPE
  5
A415
330
A407
100
AcDbSymbolTableRecord
100
AcDbLinetypeTableRecord
  2
BYBLOCK
 70
     0
  3

 72
    65
 73
     0
 40
0.0
  0
LTYPE
  5
A416
330
A407
100
AcDbSymbolTableRecord
100
AcDbLinetypeTableRecord
  2
BYLAYER
 70
     0
  3

 72
    65
 73
     0
 40
0.0
  0
LTYPE
  5
A417
330
A407
100
AcDbSymbolTableRecord
100
AcDbLinetypeTableRecord
  2
CONTINUOUS
 70
     0
  3
Solid line
 72
    65
 73
     0
 40
0.0
  0
LTYPE
  5
A425
330
A407
100
AcDbSymbolTableRecord
100
AcDbLinetypeTableRecord
  2
DASHED
 70
     0
  3
__ __ __ __ __ __ __ __ __ __ __ __ __ __ __ __
 72
    65
 73
     2
 40
0.75
 49
0.5
 74
     0
 49
-0.25
 74
     0
  0
LTYPE
  5
A426
330
A407
100
AcDbSymbolTableRecord
100
AcDbLinetypeTableRecord
  2
CENTER
 70
     0
  3
____ _ ____ _ ____ _ ____ _ ____ _ ____ _ ____ 
 72
    65
 73
     4
 40
2.0
 49
1.25
 74
     0
 49
-0.25
 74
     0
 49
0.25
 74
     0
 49
-0.25
 74
     0
  0
LTYPE
  5
A427
330
A407
100
AcDbSymbolTableRecord
100
AcDbLinetypeTableRecord
  2
PHANTOM
 70
     0
  3
______  __  __  ______  __  __  ______  __  __ 
 72
    65
 73
     6
 40
2.5
 49
1.25
 74
     0
 49
-0.25
 74
     0
 49
0.25
 74
     0
 49
-0.25
 74
     0
 49
0.25
 74
     0
 49
-0.25
 74
     0
  0
ENDTAB
  0
TABLE
  2
LAYER
  5
A404
330
0
100
AcDbSymbolTable
 70
     8
  0
LAYER
  5
A412
102
{ACAD_XDICTIONARY
360
A6B7
102
}
330
A404
100
AcDbSymbolTableRecord
100
AcDbLayerTableRecord
  2
0
 70
     0
 62
     7
  6
CONTINUOUS
370
    -3
390
A665
  0
LAYER
  5
A428
102
{ACAD_XDICTIONARY
360
A6B9
102
}
330
A404
100
AcDbSymbolTableRecord
100
AcDbLayerTableRecord
  2
4
 70
     0
 62
     1
  6
CENTER
370
    -3
390
A665
  0
LAYER
  5
A429
102
{ACAD_XDICTIONARY
360
A6BB
102
}
330
A404
100
AcDbSymbolTableRecord
100
AcDbLayerTableRecord
  2
5
 70
     0
 62
     6
  6
PHANTOM
370
    -3
390
A665
  0
LAYER
  5
A42A
102
{ACAD_XDICTIONARY
360
A6BD
102
}
330
A404
100
AcDbSymbolTableRecord
100
AcDbLayerTableRecord
  2
1
 70
     0
 62
     7
  6
CONTINUOUS
370
    -3
390
A665
  0
LAYER
  5
A42B
102
{ACAD_XDICTIONARY
360
A6BF
102
}
330
A404
100
AcDbSymbolTableRecord
100
AcDbLayerTableRecord
  2
2
 70
     0
 62
     4
  6
CONTINUOUS
370
    -3
390
A665
  0
LAYER
  5
A42C
102
{ACAD_XDICTIONARY
360
A6C1
102
}
330
A404
100
AcDbSymbolTableRecord
100
AcDbLayerTableRecord
  2
3
 70
     0
 62
     2
  6
DASHED
370
    -3
390
A665
  0
LAYER
  5
A42D
102
{ACAD_XDICTIONARY
360
A6C3
102
}
330
A404
100
AcDbSymbolTableRecord
100
AcDbLayerTableRecord
  2
6
 70
     0
 62
     5
  6
CONTINUOUS
370
    -3
390
A665
  0
LAYER
  5
A42E
102
{ACAD_XDICTIONARY
360
A6C5
102
}
330
A404
100
AcDbSymbolTableRecord
100
AcDbLayerTableRecord
  2
7
 70
     0
 62
     3
  6
CONTINUOUS
370
    -3
390
A665
  0
ENDTAB
  0
TABLE
  2
STYLE
  5
A405
330
0
100
AcDbSymbolTable
 70
     1
  0
STYLE
  5
A413
330
A405
100
AcDbSymbolTableRecord
100
AcDbTextStyleTableRecord
  2
STANDARD
 70
     0
 40
0.0
 41
1.0
 50
0.0
 71
     0
 42
5.0
  3
txt
  4

  0
ENDTAB
  0
TABLE
  2
VIEW
  5
A408
330
0
100
AcDbSymbolTable
 70
     0
  0
ENDTAB
  0
TABLE
  2
UCS
  5
A409
330
0
100
AcDbSymbolTable
 70
     0
  0
ENDTAB
  0
TABLE
  2
APPID
  5
A40B
330
0
100
AcDbSymbolTable
 70
     3
  0
APPID
  5
A414
330
A40B
100
AcDbSymbolTableRecord
100
AcDbRegAppTableRecord
  2
ACAD
 70
     0
  0
APPID
  5
A6D1
330
A40B
100
AcDbSymbolTableRecord
100
AcDbRegAppTableRecord
  2
ACAD_NAV_VCDISPLAY
 70
     0
  0
APPID
  5
A70A
330
A40B
100
AcDbSymbolTableRecord
100
AcDbRegAppTableRecord
  2
ACAD_MLEADERVER
 70
     0
  0
ENDTAB
  0
TABLE
  2
DIMSTYLE
  5
A40C
330
0
100
AcDbSymbolTable
 70
     1
100
AcDbDimStyleTable
 71
     0
  0
DIMSTYLE
105
A430
330
A40C
100
AcDbSymbolTableRecord
100
AcDbDimStyleTableRecord
  2
STANDARD
 70
     0
 41
2.5
 42
1.0
 43
10.0
 44
1.0
 73
     0
 74
     0
 77
     3
 78
     8
140
3.2
141
0.0
147
1.0
172
     1
173
     1
284
     8
285
     8
286
     8
340
A413
  0
ENDTAB
  0
TABLE
  2
BLOCK_RECORD
  5
A403
330
0
100
AcDbSymbolTable
 70
     0
  0
BLOCK_RECORD
  5
A420
102
{ACAD_XDICTIONARY
360
A65F
102
}
330
A403
100
AcDbSymbolTableRecord
100
AcDbBlockTableRecord
  2
*MODEL_SPACE
340
A6B3
  0
BLOCK_RECORD
  5
A41C
102
{ACAD_XDICTIONARY
360
A65D
102
}
330
A403
100
AcDbSymbolTableRecord
100
AcDbBlockTableRecord
  2
*PAPER_SPACE
340
A6B4
  0
ENDTAB
  0
ENDSEC
  0
SECTION
  2
BLOCKS
  0
BLOCK
  5
A421
330
A420
100
AcDbEntity
  8
0
100
AcDbBlockBegin
  2
*MODEL_SPACE
 70
     0
 10
0.0
 20
0.0
 30
0.0
  3
*MODEL_SPACE
  1

  0
ENDBLK
  5
A422
330
A420
100
AcDbEntity
  8
0
100
AcDbBlockEnd
  0
BLOCK
  5
A41D
330
A41C
100
AcDbEntity
 67
     1
  8
0
100
AcDbBlockBegin
  2
*PAPER_SPACE
 70
     0
 10
0.0
 20
0.0
 30
0.0
  3
*PAPER_SPACE
  1

  0
ENDBLK
  5
A41E
330
A41C
100
AcDbEntity
 67
     1
  8
0
100
AcDbBlockEnd
  0
ENDSEC
  0
SECTION
  2
ENTITIES
  0
TEXT
  5
A438
330
A420
100
AcDbEntity
  8
7
  6
Continuous
100
AcDbText
 10
10.0
 20
18.0
 30
0.0
 40
3.0
  1
TYPE No.TM-193-1
100
AcDbText
  0
TEXT
  5
A439
330
A420
100
AcDbEntity
  8
7
  6
Continuous
100
AcDbText
 10
10.0
 20
26.0
 30
0.0
 40
3.0
  1
CODE No.5781
100
AcDbText
  0
TEXT
  5
A43A
330
A420
100
AcDbEntity
  8
1
  6
Continuous
100
AcDbText
 10
10.0
 20
10.0
 30
0.0
 40
1.399999999999999
  1
LAYER
100
AcDbText
  0
TEXT
  5
A43B
330
A420
100
AcDbEntity
  8
1
  6
Continuous
100
AcDbText
 10
17.97951099999998
 20
10.04873699999998
 30
0.0
 40
1.399999999999999
  1
1
100
AcDbText
  0
TEXT
  5
A43C
330
A420
100
AcDbEntity
  8
7
  6
Continuous
100
AcDbText
 10
29.97951099999999
 20
10.04873699999998
 30
0.0
 40
1.399999999999999
  1
7
100
AcDbText
  0
TEXT
  5
A43D
330
A420
100
AcDbEntity
  8
4
  6
CENTER
100
AcDbText
 10
23.97951099999999
 20
10.04873699999998
 30
0.0
 40
1.399999999999999
  1
4
100
AcDbText
  0
TEXT
  5
A43E
330
A420
100
AcDbEntity
  8
3
  6
DASHED
100
AcDbText
 10
21.979511
 20
10.04873699999998
 30
0.0
 40
1.399999999999999
  1
3
100
AcDbText
  0
TEXT
  5
A43F
330
A420
100
AcDbEntity
  8
2
  6
Continuous
100
AcDbText
 10
19.97951099999999
 20
10.04873699999998
 30
0.0
 40
1.399999999999999
  1
2
100
AcDbText
  0
TEXT
  5
A440
330
A420
100
AcDbEntity
  8
6
  6
Continuous
100
AcDbText
 10
27.979511
 20
10.04873699999998
 30
0.0
 40
1.399999999999999
  1
6
100
AcDbText
  0
TEXT
  5
A441
330
A420
100
AcDbEntity
  8
5
  6
PHANTOM
100
AcDbText
 10
25.97951099999999
 20
10.04873699999998
 30
0.0
 40
1.399999999999999
  1
5
100
AcDbText
  0
LINE
  5
A442
330
A420
100
AcDbEntity
  8
1
  6
Continuous
100
AcDbLine
 10
119.201656
 20
119.4263389999999
 30
0.0
 11
119.201656
 21
117.579297
 31
0.0
  0
LINE
  5
A443
330
A420
100
AcDbEntity
  8
1
  6
Continuous
100
AcDbLine
 10
115.201656
 20
119.4263389999999
 30
0.0
 11
115.201656
 21
117.579297
 31
0.0
  0
LINE
  5
A444
330
A420
100
AcDbEntity
  8
1
  6
Continuous
100
AcDbLine
 10
115.7016559999999
 20
127.879286
 30
0.0
 11
115.7016559999999
 21
118.0792969999999
 31
0.0
  0
LINE
  5
A445
330
A420
100
AcDbEntity
  8
1
  6
Continuous
100
AcDbLine
 10
118.7016559999999
 20
127.879286
 30
0.0
 11
118.7016559999999
 21
118.0792969999999
 31
0.0
  0
LINE
  5
A446
330
A420
100
AcDbEntity
  8
1
  6
Continuous
100
AcDbLine
 10
123.2016559999999
 20
131.7792969999999
 30
0.0
 11
113.201656
 21
131.7792969999999
 31
0.0
  0
LINE
  5
A447
330
A420
100
AcDbEntity
  8
1
  6
Continuous
100
AcDbLine
 10
123.2016559999999
 20
133.7792969999999
 30
0.0
 11
113.201656
 21
133.7792969999999
 31
0.0
  0
LINE
  5
A448
330
A420
100
AcDbEntity
  8
1
  6
Continuous
100
AcDbLine
 10
123.2016559999999
 20
138.7792969999999
 30
0.0
 11
113.201656
 21
138.7792969999999
 31
0.0
  0
LINE
  5
A449
330
A420
100
AcDbEntity
  8
1
  6
Continuous
100
AcDbLine
 10
113.201656
 20
138.7792969999999
 30
0.0
 11
113.201656
 21
128.379286
 31
0.0
  0
ARC
  5
A44A
330
A420
100
AcDbEntity
  8
1
  6
Continuous
100
AcDbCircle
 10
114.7016559999999
 20
119.4263389999999
 30
0.0
 40
0.5
100
AcDbArc
 50
0.0
 51
34.01935
  0
LINE
  5
A44B
330
A420
100
AcDbEntity
  8
1
  6
Continuous
100
AcDbLine
 10
115.11608
 20
119.706076
 30
0.0
 11
113.9372319999999
 21
121.452518
 31
0.0
  0
ARC
  5
A44C
330
A420
100
AcDbEntity
  8
1
  6
Continuous
100
AcDbCircle
 10
114.351656
 20
121.732255
 30
0.0
 40
0.5
100
AcDbArc
 50
180.0
 51
214.01935
  0
LINE
  5
A44D
330
A420
100
AcDbEntity
  8
1
  6
Continuous
100
AcDbLine
 10
113.851656
 20
128.379286
 30
0.0
 11
113.851656
 21
121.732255
 31
0.0
  0
LINE
  5
A44E
330
A420
100
AcDbEntity
  8
1
  6
Continuous
100
AcDbLine
 10
123.2016559999999
 20
140.2792969999999
 30
0.0
 11
123.2016559999999
 21
128.379286
 31
0.0
  0
LINE
  5
A44F
330
A420
100
AcDbEntity
  8
1
  6
Continuous
100
AcDbLine
 10
127.2016559999999
 20
135.7792969999999
 30
0.0
 11
127.2016559999999
 21
134.7792969999999
 31
0.0
  0
LINE
  5
A450
330
A420
100
AcDbEntity
  8
1
  6
Continuous
100
AcDbLine
 10
127.2016559999999
 20
135.7792969999999
 30
0.0
 11
123.2016559999999
 21
135.7792969999999
 31
0.0
  0
LINE
  5
A451
330
A420
100
AcDbEntity
  8
1
  6
Continuous
100
AcDbLine
 10
117.201656
 20
141.979297
 30
0.0
 11
118.9016559999999
 21
140.2792969999999
 31
0.0
  0
LINE
  5
A452
330
A420
100
AcDbEntity
  8
1
  6
Continuous
100
AcDbLine
 10
123.2016559999999
 20
140.2792969999999
 30
0.0
 11
118.9016559999999
 21
140.2792969999999
 31
0.0
  0
ARC
  5
A453
330
A420
100
AcDbEntity
  8
1
  6
Continuous
100
AcDbCircle
 10
119.7016559999999
 20
119.4263389999999
 30
0.0
 40
0.5
100
AcDbArc
 50
145.98065
 51
180.0
  0
LINE
  5
A454
330
A420
100
AcDbEntity
  8
1
  6
Continuous
100
AcDbLine
 10
119.2872319999999
 20
119.706076
 30
0.0
 11
120.46608
 21
121.452518
 31
0.0
  0
ARC
  5
A455
330
A420
100
AcDbEntity
  8
1
  6
Continuous
100
AcDbCircle
 10
119.7016559999999
 20
119.4263389999999
 30
0.0
 40
0.5
100
AcDbArc
 50
145.98065
 51
180.0
  0
ARC
  5
A456
330
A420
100
AcDbEntity
  8
1
  6
Continuous
100
AcDbCircle
 10
120.051656
 20
121.732255
 30
0.0
 40
0.5
100
AcDbArc
 50
325.98065
 51
0.0
  0
LINE
  5
A457
330
A420
100
AcDbEntity
  8
1
  6
Continuous
100
AcDbLine
 10
120.5516559999999
 20
128.379286
 30
0.0
 11
120.5516559999999
 21
121.732255
 31
0.0
  0
LINE
  5
A458
330
A420
100
AcDbEntity
  8
1
  6
Continuous
100
AcDbLine
 10
118.7016559999999
 20
125.779297
 30
0.0
 11
115.7016559999999
 21
125.779297
 31
0.0
  0
LINE
  5
A459
330
A420
100
AcDbEntity
  8
1
  6
Continuous
100
AcDbLine
 10
127.2016559999999
 20
134.7792969999999
 30
0.0
 11
123.2016559999999
 21
134.7792969999999
 31
0.0
  0
LINE
  5
A45A
330
A420
100
AcDbEntity
  8
1
  6
Continuous
100
AcDbLine
 10
118.201656
 20
116.579297
 30
0.0
 11
116.201656
 21
116.579297
 31
0.0
  0
ARC
  5
A45B
330
A420
100
AcDbEntity
  8
1
  6
Continuous
100
AcDbCircle
 10
117.201656
 20
118.0792969999999
 30
0.0
 40
1.5
100
AcDbArc
 50
180.0
 51
0.0
  0
LINE
  5
A45C
330
A420
100
AcDbEntity
  8
1
  6
Continuous
100
AcDbLine
 10
117.201656
 20
148.379297
 30
0.0
 11
117.201656
 21
138.7792969999999
 31
0.0
  0
LINE
  5
A45D
330
A420
100
AcDbEntity
  8
1
  6
Continuous
100
AcDbLine
 10
137.201656
 20
137.2792969999999
 30
0.0
 11
137.201656
 21
136.5792969999999
 31
0.0
  0
LINE
  5
A45E
330
A420
100
AcDbEntity
  8
1
  6
Continuous
100
AcDbLine
 10
137.201656
 20
136.5792969999999
 30
0.0
 11
123.2016559999999
 21
136.5792969999999
 31
0.0
  0
LINE
  5
A45F
330
A420
100
AcDbEntity
  8
1
  6
Continuous
100
AcDbLine
 10
136.701656
 20
137.7792969999999
 30
0.0
 11
123.2016559999999
 21
137.7792969999999
 31
0.0
  0
ARC
  5
A460
330
A420
100
AcDbEntity
  8
1
  6
Continuous
100
AcDbCircle
 10
136.701656
 20
137.2792969999999
 30
0.0
 40
0.5
100
AcDbArc
 50
0.0
 51
90.0
  0
LINE
  5
A461
330
A420
100
AcDbEntity
  8
1
  6
Continuous
100
AcDbLine
 10
113.201656
 20
136.5792969999999
 30
0.0
 11
105.4016559999999
 21
136.5792969999999
 31
0.0
  0
LINE
  5
A462
330
A420
100
AcDbEntity
  8
1
  6
Continuous
100
AcDbLine
 10
116.001656
 20
148.379297
 30
0.0
 11
116.001656
 21
138.7792969999999
 31
0.0
  0
LINE
  5
A463
330
A420
100
AcDbEntity
  8
1
  6
Continuous
100
AcDbLine
 10
113.201656
 20
137.7792969999999
 30
0.0
 11
105.4016559999999
 21
137.7792969999999
 31
0.0
  0
LINE
  5
A464
330
A420
100
AcDbEntity
  8
1
  6
Continuous
100
AcDbLine
 10
228.9961959999998
 20
129.1792859999999
 30
0.0
 11
228.9961959999998
 21
116.859592
 31
0.0
  0
LINE
  5
A465
330
A420
100
AcDbEntity
  8
1
  6
Continuous
100
AcDbLine
 10
230.8961959999999
 20
129.1792859999999
 30
0.0
 11
230.8961959999999
 21
116.859592
 31
0.0
  0
LINE
  5
A466
330
A420
100
AcDbEntity
  8
1
  6
Continuous
100
AcDbLine
 10
225.2346569999999
 20
125.086978
 30
0.0
 11
228.3308109999999
 21
117.656209
 31
0.0
  0
LINE
  5
A467
330
A420
100
AcDbEntity
  8
1
  6
Continuous
100
AcDbLine
 10
234.6577339999999
 20
125.086978
 30
0.0
 11
231.5615799999999
 21
117.656209
 31
0.0
  0
LINE
  5
A468
330
A420
100
AcDbEntity
  8
1
  6
Continuous
100
AcDbLine
 10
224.4461959999999
 20
138.279286
 30
0.0
 11
224.4461959999999
 21
133.779286
 31
0.0
  0
LINE
  5
A469
330
A420
100
AcDbEntity
  8
1
  6
Continuous
100
AcDbLine
 10
235.446196
 20
138.279286
 30
0.0
 11
235.446196
 21
133.779286
 31
0.0
  0
LINE
  5
A46A
330
A420
100
AcDbEntity
  8
1
  6
Continuous
100
AcDbLine
 10
227.346196
 20
136.279286
 30
0.0
 11
227.346196
 21
132.779286
 31
0.0
  0
LINE
  5
A46B
330
A420
100
AcDbEntity
  8
1
  6
Continuous
100
AcDbLine
 10
232.546196
 20
136.279286
 30
0.0
 11
232.546196
 21
132.779286
 31
0.0
  0
LINE
  5
A46C
330
A420
100
AcDbEntity
  8
1
  6
Continuous
100
AcDbLine
 10
228.1961959999999
 20
136.5792859999999
 30
0.0
 11
228.1961959999999
 21
132.779286
 31
0.0
  0
LINE
  5
A46D
330
A420
100
AcDbEntity
  8
1
  6
Continuous
100
AcDbLine
 10
231.6961959999999
 20
136.5792859999999
 30
0.0
 11
231.6961959999999
 21
132.779286
 31
0.0
  0
LINE
  5
A46E
330
A420
100
AcDbEntity
  8
1
  6
Continuous
100
AcDbLine
 10
231.6961959999999
 20
135.779286
 30
0.0
 11
228.1961959999999
 21
135.779286
 31
0.0
  0
ARC
  5
A46F
330
A420
100
AcDbEntity
  8
1
  6
Continuous
100
AcDbCircle
 10
224.946196
 20
138.279286
 30
0.0
 40
0.5
100
AcDbArc
 50
90.0
 51
180.0
  0
LINE
  5
A470
330
A420
100
AcDbEntity
  8
1
  6
Continuous
100
AcDbLine
 10
234.9461959999999
 20
138.779286
 30
0.0
 11
231.196196
 21
138.779286
 31
0.0
  0
ARC
  5
A471
330
A420
100
AcDbEntity
  8
1
  6
Continuous
100
AcDbCircle
 10
234.9461959999999
 20
138.279286
 30
0.0
 40
0.5
100
AcDbArc
 50
0.0
 51
90.0
  0
ARC
  5
A472
330
A420
100
AcDbEntity
  8
1
  6
Continuous
100
AcDbCircle
 10
226.1961959999999
 20
137.279286
 30
0.0
 40
0.5
100
AcDbArc
 50
90.0
 51
180.0
  0
LINE
  5
A473
330
A420
100
AcDbEntity
  8
1
  6
Continuous
100
AcDbLine
 10
233.696196
 20
137.779286
 30
0.0
 11
226.1961959999999
 21
137.779286
 31
0.0
  0
LINE
  5
A474
330
A420
100
AcDbEntity
  8
1
  6
Continuous
100
AcDbLine
 10
225.6961959999999
 20
137.279286
 30
0.0
 11
225.6961959999999
 21
136.279286
 31
0.0
  0
ARC
  5
A475
330
A420
100
AcDbEntity
  8
1
  6
Continuous
100
AcDbCircle
 10
233.696196
 20
137.279286
 30
0.0
 40
0.5
100
AcDbArc
 50
0.0
 51
90.0
  0
LINE
  5
A476
330
A420
100
AcDbEntity
  8
1
  6
Continuous
100
AcDbLine
 10
234.1961959999999
 20
137.279286
 30
0.0
 11
234.1961959999999
 21
136.279286
 31
0.0
  0
LINE
  5
A477
330
A420
100
AcDbEntity
  8
1
  6
Continuous
100
AcDbLine
 10
227.346196
 20
136.279286
 30
0.0
 11
225.6961959999999
 21
136.279286
 31
0.0
  0
LINE
  5
A478
330
A420
100
AcDbEntity
  8
1
  6
Continuous
100
AcDbLine
 10
234.1961959999999
 20
136.279286
 30
0.0
 11
232.546196
 21
136.279286
 31
0.0
  0
LINE
  5
A479
330
A420
100
AcDbEntity
  8
1
  6
Continuous
100
AcDbLine
 10
231.196196
 20
141.979286
 30
0.0
 11
228.6961959999999
 21
141.979286
 31
0.0
  0
LINE
  5
A47A
330
A420
100
AcDbEntity
  8
1
  6
Continuous
100
AcDbLine
 10
228.6961959999999
 20
141.979286
 30
0.0
 11
228.6961959999999
 21
138.779286
 31
0.0
  0
LINE
  5
A47B
330
A420
100
AcDbEntity
  8
1
  6
Continuous
100
AcDbLine
 10
231.196196
 20
141.979286
 30
0.0
 11
231.196196
 21
138.779286
 31
0.0
  0
LINE
  5
A47C
330
A420
100
AcDbEntity
  8
1
  6
Continuous
100
AcDbLine
 10
231.196196
 20
140.279286
 30
0.0
 11
228.6961959999999
 21
140.279286
 31
0.0
  0
ARC
  5
A47D
330
A420
100
AcDbEntity
  8
1
  6
Continuous
100
AcDbCircle
 10
226.946196
 20
127.3792859999999
 30
0.0
 40
0.5
100
AcDbArc
 50
90.0
 51
180.0
  0
LINE
  5
A47E
330
A420
100
AcDbEntity
  8
1
  6
Continuous
100
AcDbLine
 10
226.946196
 20
127.879286
 30
0.0
 11
226.946196
 21
127.879286
 31
0.0
  0
LINE
  5
A47F
330
A420
100
AcDbEntity
  8
1
  6
Continuous
100
AcDbLine
 10
226.4461959999999
 20
127.3792859999999
 30
0.0
 11
226.4461959999999
 21
125.779286
 31
0.0
  0
ARC
  5
A480
330
A420
100
AcDbEntity
  8
1
  6
Continuous
100
AcDbCircle
 10
226.946196
 20
127.3792859999999
 30
0.0
 40
0.5
100
AcDbArc
 50
0.0
 51
90.0
  0
LINE
  5
A481
330
A420
100
AcDbEntity
  8
1
  6
Continuous
100
AcDbLine
 10
227.446196
 20
127.3792859999999
 30
0.0
 11
227.446196
 21
124.099286
 31
0.0
  0
ARC
  5
A482
330
A420
100
AcDbEntity
  8
1
  6
Continuous
100
AcDbCircle
 10
232.9461959999999
 20
127.3792859999999
 30
0.0
 40
0.5
100
AcDbArc
 50
90.0
 51
180.0
  0
LINE
  5
A483
330
A420
100
AcDbEntity
  8
1
  6
Continuous
100
AcDbLine
 10
232.9461959999999
 20
127.879286
 30
0.0
 11
232.9461959999999
 21
127.879286
 31
0.0
  0
LINE
  5
A484
330
A420
100
AcDbEntity
  8
1
  6
Continuous
100
AcDbLine
 10
232.4461959999999
 20
127.3792859999999
 30
0.0
 11
232.4461959999999
 21
124.099286
 31
0.0
  0
ARC
  5
A485
330
A420
100
AcDbEntity
  8
1
  6
Continuous
100
AcDbCircle
 10
232.9461959999999
 20
127.3792859999999
 30
0.0
 40
0.5
100
AcDbArc
 50
0.0
 51
90.0
  0
LINE
  5
A486
330
A420
100
AcDbEntity
  8
1
  6
Continuous
100
AcDbLine
 10
233.446196
 20
127.3792859999999
 30
0.0
 11
233.446196
 21
125.779286
 31
0.0
  0
LINE
  5
A487
330
A420
100
AcDbEntity
  8
1
  6
Continuous
100
AcDbLine
 10
226.4461959999999
 20
125.779286
 30
0.0
 11
225.6961959999999
 21
125.779286
 31
0.0
  0
LINE
  5
A488
330
A420
100
AcDbEntity
  8
1
  6
Continuous
100
AcDbLine
 10
234.1961959999999
 20
125.779286
 30
0.0
 11
233.446196
 21
125.779286
 31
0.0
  0
LINE
  5
A489
330
A420
100
AcDbEntity
  8
1
  6
Continuous
100
AcDbLine
 10
227.446196
 20
124.099286
 30
0.0
 11
228.0346569999999
 21
121.4869779999999
 31
0.0
  0
LINE
  5
A48A
330
A420
100
AcDbEntity
  8
1
  6
Continuous
100
AcDbLine
 10
232.4461959999999
 20
124.099286
 30
0.0
 11
231.857734
 21
121.4869779999999
 31
0.0
  0
ARC
  5
A48B
330
A420
100
AcDbEntity
  8
1
  6
Continuous
100
AcDbCircle
 10
228.4961959999999
 20
121.6792859999999
 30
0.0
 40
0.5
100
AcDbArc
 50
202.6198649999999
 51
0.0
  0
ARC
  5
A48C
330
A420
100
AcDbEntity
  8
1
  6
Continuous
100
AcDbCircle
 10
231.3961959999998
 20
121.6792859999999
 30
0.0
 40
0.5
100
AcDbArc
 50
180.0
 51
337.3801349999999
  0
ARC
  5
A48D
330
A420
100
AcDbEntity
  8
1
  6
Continuous
100
AcDbCircle
 10
225.6961959999999
 20
125.279286
 30
0.0
 40
0.5
100
AcDbArc
 50
90.0
 51
202.6198649999999
  0
ARC
  5
A48E
330
A420
100
AcDbEntity
  8
1
  6
Continuous
100
AcDbCircle
 10
234.1961959999999
 20
125.279286
 30
0.0
 40
0.5
100
AcDbArc
 50
337.3801349999999
 51
90.0
  0
ARC
  5
A48F
330
A420
100
AcDbEntity
  8
1
  6
Continuous
100
AcDbCircle
 10
231.3961959999998
 20
131.279286
 30
0.0
 40
0.5
100
AcDbArc
 50
90.0
 51
180.0
  0
LINE
  5
A490
330
A420
100
AcDbEntity
  8
1
  6
Continuous
100
AcDbLine
 10
230.8961959999999
 20
131.279286
 30
0.0
 11
230.8961959999999
 21
131.1792859999999
 31
0.0
  0
LINE
  5
A491
330
A420
100
AcDbEntity
  8
1
  6
Continuous
100
AcDbLine
 10
232.546196
 20
131.779286
 30
0.0
 11
231.3961959999998
 21
131.779286
 31
0.0
  0
ARC
  5
A492
330
A420
100
AcDbEntity
  8
1
  6
Continuous
100
AcDbCircle
 10
228.4961959999999
 20
131.279286
 30
0.0
 40
0.5
100
AcDbArc
 50
0.0
 51
90.0
  0
LINE
  5
A493
330
A420
100
AcDbEntity
  8
1
  6
Continuous
100
AcDbLine
 10
228.9961959999998
 20
131.279286
 30
0.0
 11
228.9961959999998
 21
131.1792859999999
 31
0.0
  0
LINE
  5
A494
330
A420
100
AcDbEntity
  8
1
  6
Continuous
100
AcDbLine
 10
228.4961959999999
 20
131.779286
 30
0.0
 11
227.346196
 21
131.779286
 31
0.0
  0
LINE
  5
A495
330
A420
100
AcDbEntity
  8
1
  6
Continuous
100
AcDbLine
 10
227.346196
 20
131.779286
 30
0.0
 11
224.4461959999999
 21
133.779286
 31
0.0
  0
LINE
  5
A496
330
A420
100
AcDbEntity
  8
1
  6
Continuous
100
AcDbLine
 10
235.446196
 20
133.779286
 30
0.0
 11
232.546196
 21
131.779286
 31
0.0
  0
LINE
  5
A497
330
A420
100
AcDbEntity
  8
1
  6
Continuous
100
AcDbLine
 10
231.6961959999999
 20
134.779286
 30
0.0
 11
228.1961959999999
 21
134.779286
 31
0.0
  0
LINE
  5
A498
330
A420
100
AcDbEntity
  8
1
  6
Continuous
100
AcDbLine
 10
232.546196
 20
132.779286
 30
0.0
 11
227.346196
 21
132.779286
 31
0.0
  0
ARC
  5
A499
330
A420
100
AcDbEntity
  8
1
  6
Continuous
100
AcDbCircle
 10
229.9461959999999
 20
118.329286
 30
0.0
 40
1.75
100
AcDbArc
 50
202.6198649999999
 51
337.3801349999999
  0
LINE
  5
A49A
330
A420
100
AcDbEntity
  8
4
  6
CENTER
100
AcDbLine
 10
229.9461959999999
 20
165.1792969999999
 30
0.0
 11
229.9461959999999
 21
111.579286
 31
0.0
  0
LINE
  5
A49B
330
A420
100
AcDbEntity
  8
1
  6
Continuous
100
AcDbLine
 10
225.9461959999999
 20
158.9792969999998
 30
0.0
 11
225.9461959999999
 21
138.779286
 31
0.0
  0
LINE
  5
A49C
330
A420
100
AcDbEntity
  8
1
  6
Continuous
100
AcDbLine
 10
233.9461959999999
 20
158.9792969999998
 30
0.0
 11
233.9461959999999
 21
138.779286
 31
0.0
  0
LINE
  5
A49D
330
A420
100
AcDbEntity
  8
1
  6
Continuous
100
AcDbLine
 10
225.9461959999999
 20
158.9792969999998
 30
0.0
 11
233.9461959999999
 21
158.9792969999998
 31
0.0
  0
LINE
  5
A49E
330
A420
100
AcDbEntity
  8
1
  6
Continuous
100
AcDbLine
 10
123.237627
 20
207.470429
 30
0.0
 11
123.237627
 21
226.470429
 31
0.0
  0
LINE
  5
A49F
330
A420
100
AcDbEntity
  8
1
  6
Continuous
100
AcDbLine
 10
123.237627
 20
207.470429
 30
0.0
 11
113.2376269999999
 21
207.470429
 31
0.0
  0
LINE
  5
A4A0
330
A420
100
AcDbEntity
  8
1
  6
Continuous
100
AcDbLine
 10
113.2376269999999
 20
207.470429
 30
0.0
 11
113.2376269999999
 21
212.9704289999998
 31
0.0
  0
LINE
  5
A4A1
330
A420
100
AcDbEntity
  8
1
  6
Continuous
100
AcDbLine
 10
123.237627
 20
226.470429
 30
0.0
 11
113.2376269999999
 21
226.470429
 31
0.0
  0
LINE
  5
A4A2
330
A420
100
AcDbEntity
  8
4
  6
CENTER
100
AcDbLine
 10
175.7876559999999
 20
216.9704289999998
 30
0.0
 11
89.80165599999997
 21
216.9704289999998
 31
0.0
  0
LINE
  5
A4A3
330
A420
100
AcDbEntity
  8
1
  6
Continuous
100
AcDbLine
 10
123.237627
 20
221.720429
 30
0.0
 11
113.2376269999999
 21
221.720429
 31
0.0
  0
LINE
  5
A4A4
330
A420
100
AcDbEntity
  8
1
  6
Continuous
100
AcDbLine
 10
123.237627
 20
212.2204289999999
 30
0.0
 11
113.2376269999999
 21
212.2204289999999
 31
0.0
  0
LINE
  5
A4A5
330
A420
100
AcDbEntity
  8
1
  6
Continuous
100
AcDbLine
 10
123.237627
 20
224.470429
 30
0.0
 11
113.2376269999999
 21
224.470429
 31
0.0
  0
LINE
  5
A4A6
330
A420
100
AcDbEntity
  8
1
  6
Continuous
100
AcDbLine
 10
123.237627
 20
209.470429
 30
0.0
 11
113.2376269999999
 21
209.470429
 31
0.0
  0
LINE
  5
A4A7
330
A420
100
AcDbEntity
  8
1
  6
Continuous
100
AcDbLine
 10
117.201656
 20
212.9704289999998
 30
0.0
 11
117.201656
 21
220.9704289999999
 31
0.0
  0
LINE
  5
A4A8
330
A420
100
AcDbEntity
  8
1
  6
Continuous
100
AcDbLine
 10
118.9016559999999
 20
215.720429
 30
0.0
 11
118.9016559999999
 21
218.220429
 31
0.0
  0
LINE
  5
A4A9
330
A420
100
AcDbEntity
  8
1
  6
Continuous
100
AcDbLine
 10
123.237627
 20
215.720429
 30
0.0
 11
117.201656
 21
215.720429
 31
0.0
  0
LINE
  5
A4AA
330
A420
100
AcDbEntity
  8
1
  6
Continuous
100
AcDbLine
 10
123.237627
 20
218.220429
 30
0.0
 11
117.201656
 21
218.220429
 31
0.0
  0
LINE
  5
A4AB
330
A420
100
AcDbEntity
  8
1
  6
Continuous
100
AcDbLine
 10
94.80165599999999
 20
212.9704289999998
 30
0.0
 11
94.80165599999999
 21
220.9704289999999
 31
0.0
  0
LINE
  5
A4AC
330
A420
100
AcDbEntity
  8
1
  6
Continuous
100
AcDbLine
 10
128.937656
 20
220.9704289999999
 30
0.0
 11
123.237627
 21
220.9704289999999
 31
0.0
  0
LINE
  5
A4AD
330
A420
100
AcDbEntity
  8
1
  6
Continuous
100
AcDbLine
 10
128.937656
 20
212.9704289999998
 30
0.0
 11
123.237627
 21
212.9704289999998
 31
0.0
  0
LINE
  5
A4AE
330
A420
100
AcDbEntity
  8
1
  6
Continuous
100
AcDbLine
 10
113.2376269999999
 20
220.9704289999999
 30
0.0
 11
113.2376269999999
 21
226.470429
 31
0.0
  0
LINE
  5
A4AF
330
A420
100
AcDbEntity
  8
1
  6
Continuous
100
AcDbLine
 10
128.937656
 20
212.9704289999998
 30
0.0
 11
135.4876559999999
 21
214.7766879999998
 31
0.0
  0
LINE
  5
A4B0
330
A420
100
AcDbEntity
  8
1
  6
Continuous
100
AcDbLine
 10
128.937656
 20
220.9704289999999
 30
0.0
 11
135.4876559999999
 21
219.16417
 31
0.0
  0
ARC
  5
A4B1
330
A420
100
AcDbEntity
  8
1
  6
Continuous
100
AcDbCircle
 10
134.987656
 20
216.9704289999998
 30
0.0
 40
2.25
100
AcDbArc
 50
282.839588
 51
77.16041199999998
  0
CIRCLE
  5
A4B2
330
A420
100
AcDbEntity
  8
1
  6
Continuous
100
AcDbCircle
 10
130.437656
 20
216.9704289999998
 30
0.0
 40
1.6
  0
LINE
  5
A4B3
330
A420
100
AcDbEntity
  8
4
  6
CENTER
100
AcDbLine
 10
130.437656
 20
213.384076
 30
0.0
 11
130.437656
 21
220.5567819999999
 31
0.0
  0
LINE
  5
A4B4
330
A420
100
AcDbEntity
  8
1
  6
Continuous
100
AcDbLine
 10
117.201656
 20
220.9704289999999
 30
0.0
 11
94.80165599999999
 21
220.9704289999999
 31
0.0
  0
LINE
  5
A4B5
330
A420
100
AcDbEntity
  8
1
  6
Continuous
100
AcDbLine
 10
117.201656
 20
212.9704289999998
 30
0.0
 11
94.80165599999999
 21
212.9704289999998
 31
0.0
  0
LINE
  5
A4B6
330
A420
100
AcDbEntity
  8
4
  6
CENTER
100
AcDbLine
 10
130.437656
 20
142.7792969999998
 30
0.0
 11
130.437656
 21
131.5792969999999
 31
0.0
  0
LINE
  5
A4B7
330
A420
100
AcDbEntity
  8
1
  6
Continuous
100
AcDbLine
 10
106.951656
 20
214.9704289999998
 30
0.0
 11
106.951656
 21
218.9704289999998
 31
0.0
  0
LINE
  5
A4B8
330
A420
100
AcDbEntity
  8
1
  6
Continuous
100
AcDbLine
 10
105.4516559999999
 20
214.9704289999998
 30
0.0
 11
105.4516559999999
 21
218.9704289999998
 31
0.0
  0
LINE
  5
A4B9
330
A420
100
AcDbEntity
  8
1
  6
Continuous
100
AcDbLine
 10
105.4516559999999
 20
218.9704289999998
 30
0.0
 11
106.951656
 21
218.9704289999998
 31
0.0
  0
LINE
  5
A4BA
330
A420
100
AcDbEntity
  8
1
  6
Continuous
100
AcDbLine
 10
105.4516559999999
 20
214.9704289999998
 30
0.0
 11
106.951656
 21
214.9704289999998
 31
0.0
  0
LINE
  5
A4BB
330
A420
100
AcDbEntity
  8
1
  6
Continuous
100
AcDbLine
 10
109.0516559999999
 20
214.9704289999998
 30
0.0
 11
109.0516559999999
 21
218.9704289999998
 31
0.0
  0
LINE
  5
A4BC
330
A420
100
AcDbEntity
  8
1
  6
Continuous
100
AcDbLine
 10
107.551656
 20
218.9704289999998
 30
0.0
 11
109.0516559999999
 21
218.9704289999998
 31
0.0
  0
LINE
  5
A4BD
330
A420
100
AcDbEntity
  8
1
  6
Continuous
100
AcDbLine
 10
107.551656
 20
214.9704289999998
 30
0.0
 11
107.551656
 21
218.9704289999998
 31
0.0
  0
LINE
  5
A4BE
330
A420
100
AcDbEntity
  8
1
  6
Continuous
100
AcDbLine
 10
107.551656
 20
214.9704289999998
 30
0.0
 11
109.0516559999999
 21
214.9704289999998
 31
0.0
  0
LINE
  5
A4BF
330
A420
100
AcDbEntity
  8
1
  6
Continuous
100
AcDbLine
 10
110.0516559999999
 20
214.9704289999998
 30
0.0
 11
110.0516559999999
 21
218.9704289999998
 31
0.0
  0
LINE
  5
A4C0
330
A420
100
AcDbEntity
  8
1
  6
Continuous
100
AcDbLine
 10
111.5516559999999
 20
214.9704289999998
 30
0.0
 11
111.5516559999999
 21
218.9704289999998
 31
0.0
  0
LINE
  5
A4C1
330
A420
100
AcDbEntity
  8
1
  6
Continuous
100
AcDbLine
 10
110.0516559999999
 20
214.9704289999998
 30
0.0
 11
111.5516559999999
 21
214.9704289999998
 31
0.0
  0
LINE
  5
A4C2
330
A420
100
AcDbEntity
  8
1
  6
Continuous
100
AcDbLine
 10
110.0516559999999
 20
218.9704289999998
 30
0.0
 11
111.5516559999999
 21
218.9704289999998
 31
0.0
  0
LINE
  5
A4C3
330
A420
100
AcDbEntity
  8
1
  6
Continuous
100
AcDbLine
 10
114.151656
 20
214.9704289999998
 30
0.0
 11
114.151656
 21
218.9704289999998
 31
0.0
  0
LINE
  5
A4C4
330
A420
100
AcDbEntity
  8
1
  6
Continuous
100
AcDbLine
 10
112.651656
 20
214.9704289999998
 30
0.0
 11
112.651656
 21
218.9704289999998
 31
0.0
  0
LINE
  5
A4C5
330
A420
100
AcDbEntity
  8
1
  6
Continuous
100
AcDbLine
 10
112.651656
 20
218.9704289999998
 30
0.0
 11
114.151656
 21
218.9704289999998
 31
0.0
  0
LINE
  5
A4C6
330
A420
100
AcDbEntity
  8
1
  6
Continuous
100
AcDbLine
 10
112.651656
 20
214.9704289999998
 30
0.0
 11
114.151656
 21
214.9704289999998
 31
0.0
  0
LINE
  5
A4C7
330
A420
100
AcDbEntity
  8
1
  6
Continuous
100
AcDbLine
 10
115.251656
 20
214.9704289999998
 30
0.0
 11
115.251656
 21
218.9704289999998
 31
0.0
  0
LINE
  5
A4C8
330
A420
100
AcDbEntity
  8
1
  6
Continuous
100
AcDbLine
 10
116.751656
 20
214.9704289999998
 30
0.0
 11
116.751656
 21
218.9704289999998
 31
0.0
  0
LINE
  5
A4C9
330
A420
100
AcDbEntity
  8
1
  6
Continuous
100
AcDbLine
 10
115.251656
 20
218.9704289999998
 30
0.0
 11
116.751656
 21
218.9704289999998
 31
0.0
  0
LINE
  5
A4CA
330
A420
100
AcDbEntity
  8
1
  6
Continuous
100
AcDbLine
 10
115.251656
 20
214.9704289999998
 30
0.0
 11
116.751656
 21
214.9704289999998
 31
0.0
  0
LINE
  5
A4CB
330
A420
100
AcDbEntity
  8
1
  6
Continuous
100
AcDbLine
 10
117.151656
 20
214.9704289999998
 30
0.0
 11
117.151656
 21
218.9704289999998
 31
0.0
  0
LINE
  5
A4CC
330
A420
100
AcDbEntity
  8
1
  6
Continuous
100
AcDbLine
 10
117.151656
 20
214.9704289999998
 30
0.0
 11
117.201656
 21
214.9704289999998
 31
0.0
  0
LINE
  5
A4CD
330
A420
100
AcDbEntity
  8
1
  6
Continuous
100
AcDbLine
 10
117.151656
 20
218.9704289999998
 30
0.0
 11
117.201656
 21
218.9704289999998
 31
0.0
  0
LINE
  5
A4CE
330
A420
100
AcDbEntity
  8
1
  6
Continuous
100
AcDbLine
 10
94.851656
 20
214.9704289999998
 30
0.0
 11
94.851656
 21
218.9704289999998
 31
0.0
  0
LINE
  5
A4CF
330
A420
100
AcDbEntity
  8
1
  6
Continuous
100
AcDbLine
 10
94.851656
 20
218.9704289999998
 30
0.0
 11
94.80165599999999
 21
218.9704289999998
 31
0.0
  0
LINE
  5
A4D0
330
A420
100
AcDbEntity
  8
1
  6
Continuous
100
AcDbLine
 10
94.851656
 20
214.9704289999998
 30
0.0
 11
94.80165599999999
 21
214.9704289999998
 31
0.0
  0
LINE
  5
A4D1
330
A420
100
AcDbEntity
  8
1
  6
Continuous
100
AcDbLine
 10
104.4516559999999
 20
214.9704289999998
 30
0.0
 11
104.4516559999999
 21
218.9704289999998
 31
0.0
  0
LINE
  5
A4D2
330
A420
100
AcDbEntity
  8
1
  6
Continuous
100
AcDbLine
 10
102.951656
 20
214.9704289999998
 30
0.0
 11
102.951656
 21
218.9704289999998
 31
0.0
  0
LINE
  5
A4D3
330
A420
100
AcDbEntity
  8
1
  6
Continuous
100
AcDbLine
 10
101.951656
 20
214.9704289999998
 30
0.0
 11
101.951656
 21
218.9704289999998
 31
0.0
  0
LINE
  5
A4D4
330
A420
100
AcDbEntity
  8
1
  6
Continuous
100
AcDbLine
 10
100.451656
 20
214.9704289999998
 30
0.0
 11
100.451656
 21
218.9704289999998
 31
0.0
  0
LINE
  5
A4D5
330
A420
100
AcDbEntity
  8
1
  6
Continuous
100
AcDbLine
 10
97.851656
 20
214.9704289999998
 30
0.0
 11
97.851656
 21
218.9704289999998
 31
0.0
  0
LINE
  5
A4D6
330
A420
100
AcDbEntity
  8
1
  6
Continuous
100
AcDbLine
 10
99.35165600000001
 20
214.9704289999998
 30
0.0
 11
99.35165600000001
 21
218.9704289999998
 31
0.0
  0
LINE
  5
A4D7
330
A420
100
AcDbEntity
  8
1
  6
Continuous
100
AcDbLine
 10
96.75165599999999
 20
214.9704289999998
 30
0.0
 11
96.75165599999999
 21
218.9704289999998
 31
0.0
  0
LINE
  5
A4D8
330
A420
100
AcDbEntity
  8
1
  6
Continuous
100
AcDbLine
 10
95.25165599999999
 20
214.9704289999998
 30
0.0
 11
95.25165599999999
 21
218.9704289999998
 31
0.0
  0
LINE
  5
A4D9
330
A420
100
AcDbEntity
  8
1
  6
Continuous
100
AcDbLine
 10
104.4516559999999
 20
214.9704289999998
 30
0.0
 11
102.951656
 21
214.9704289999998
 31
0.0
  0
LINE
  5
A4DA
330
A420
100
AcDbEntity
  8
1
  6
Continuous
100
AcDbLine
 10
101.951656
 20
214.9704289999998
 30
0.0
 11
100.451656
 21
214.9704289999998
 31
0.0
  0
LINE
  5
A4DB
330
A420
100
AcDbEntity
  8
1
  6
Continuous
100
AcDbLine
 10
99.35165600000001
 20
214.9704289999998
 30
0.0
 11
97.851656
 21
214.9704289999998
 31
0.0
  0
LINE
  5
A4DC
330
A420
100
AcDbEntity
  8
1
  6
Continuous
100
AcDbLine
 10
96.75165599999999
 20
214.9704289999998
 30
0.0
 11
95.25165599999999
 21
214.9704289999998
 31
0.0
  0
LINE
  5
A4DD
330
A420
100
AcDbEntity
  8
1
  6
Continuous
100
AcDbLine
 10
104.4516559999999
 20
218.9704289999998
 30
0.0
 11
102.951656
 21
218.9704289999998
 31
0.0
  0
LINE
  5
A4DE
330
A420
100
AcDbEntity
  8
1
  6
Continuous
100
AcDbLine
 10
101.951656
 20
218.9704289999998
 30
0.0
 11
100.451656
 21
218.9704289999998
 31
0.0
  0
LINE
  5
A4DF
330
A420
100
AcDbEntity
  8
1
  6
Continuous
100
AcDbLine
 10
99.35165600000001
 20
218.9704289999998
 30
0.0
 11
97.851656
 21
218.9704289999998
 31
0.0
  0
LINE
  5
A4E0
330
A420
100
AcDbEntity
  8
1
  6
Continuous
100
AcDbLine
 10
96.75165599999999
 20
218.9704289999998
 30
0.0
 11
95.25165599999999
 21
218.9704289999998
 31
0.0
  0
LINE
  5
A4E1
330
A420
100
AcDbEntity
  8
1
  6
Continuous
100
AcDbLine
 10
231.9461959999999
 20
149.3292969999999
 30
0.0
 11
231.9461959999999
 21
150.829297
 31
0.0
  0
LINE
  5
A4E2
330
A420
100
AcDbEntity
  8
1
  6
Continuous
100
AcDbLine
 10
227.9461959999999
 20
149.3292969999999
 30
0.0
 11
227.9461959999999
 21
150.829297
 31
0.0
  0
LINE
  5
A4E3
330
A420
100
AcDbEntity
  8
1
  6
Continuous
100
AcDbLine
 10
227.9461959999999
 20
158.5292969999999
 30
0.0
 11
231.9461959999999
 21
158.5292969999999
 31
0.0
  0
LINE
  5
A4E4
330
A420
100
AcDbEntity
  8
1
  6
Continuous
100
AcDbLine
 10
227.9461959999999
 20
157.0292969999998
 30
0.0
 11
231.9461959999999
 21
157.0292969999998
 31
0.0
  0
LINE
  5
A4E5
330
A420
100
AcDbEntity
  8
1
  6
Continuous
100
AcDbLine
 10
227.9461959999999
 20
154.4292969999998
 30
0.0
 11
231.9461959999999
 21
154.4292969999998
 31
0.0
  0
LINE
  5
A4E6
330
A420
100
AcDbEntity
  8
1
  6
Continuous
100
AcDbLine
 10
227.9461959999999
 20
155.929297
 30
0.0
 11
231.9461959999999
 21
155.929297
 31
0.0
  0
LINE
  5
A4E7
330
A420
100
AcDbEntity
  8
1
  6
Continuous
100
AcDbLine
 10
227.9461959999999
 20
153.3292969999999
 30
0.0
 11
231.9461959999999
 21
153.3292969999999
 31
0.0
  0
LINE
  5
A4E8
330
A420
100
AcDbEntity
  8
1
  6
Continuous
100
AcDbLine
 10
227.9461959999999
 20
151.829297
 30
0.0
 11
231.9461959999999
 21
151.829297
 31
0.0
  0
LINE
  5
A4E9
330
A420
100
AcDbEntity
  8
1
  6
Continuous
100
AcDbLine
 10
227.9461959999999
 20
150.829297
 30
0.0
 11
231.9461959999999
 21
150.829297
 31
0.0
  0
LINE
  5
A4EA
330
A420
100
AcDbEntity
  8
1
  6
Continuous
100
AcDbLine
 10
227.9461959999999
 20
158.9292969999999
 30
0.0
 11
231.9461959999999
 21
158.9292969999999
 31
0.0
  0
LINE
  5
A4EB
330
A420
100
AcDbEntity
  8
1
  6
Continuous
100
AcDbLine
 10
227.9461959999999
 20
157.0292969999998
 30
0.0
 11
227.9461959999999
 21
158.5292969999999
 31
0.0
  0
LINE
  5
A4EC
330
A420
100
AcDbEntity
  8
1
  6
Continuous
100
AcDbLine
 10
227.9461959999999
 20
154.4292969999998
 30
0.0
 11
227.9461959999999
 21
155.929297
 31
0.0
  0
LINE
  5
A4ED
330
A420
100
AcDbEntity
  8
1
  6
Continuous
100
AcDbLine
 10
227.9461959999999
 20
151.829297
 30
0.0
 11
227.9461959999999
 21
153.3292969999999
 31
0.0
  0
LINE
  5
A4EE
330
A420
100
AcDbEntity
  8
1
  6
Continuous
100
AcDbLine
 10
227.9461959999999
 20
158.9292969999999
 30
0.0
 11
227.9461959999999
 21
158.9792969999998
 31
0.0
  0
LINE
  5
A4EF
330
A420
100
AcDbEntity
  8
1
  6
Continuous
100
AcDbLine
 10
231.9461959999999
 20
157.0292969999998
 30
0.0
 11
231.9461959999999
 21
158.5292969999999
 31
0.0
  0
LINE
  5
A4F0
330
A420
100
AcDbEntity
  8
1
  6
Continuous
100
AcDbLine
 10
231.9461959999999
 20
154.4292969999998
 30
0.0
 11
231.9461959999999
 21
155.929297
 31
0.0
  0
LINE
  5
A4F1
330
A420
100
AcDbEntity
  8
1
  6
Continuous
100
AcDbLine
 10
231.9461959999999
 20
151.829297
 30
0.0
 11
231.9461959999999
 21
153.3292969999999
 31
0.0
  0
LINE
  5
A4F2
330
A420
100
AcDbEntity
  8
1
  6
Continuous
100
AcDbLine
 10
231.9461959999999
 20
158.9292969999999
 30
0.0
 11
231.9461959999999
 21
158.9792969999998
 31
0.0
  0
LINE
  5
A4F3
330
A420
100
AcDbEntity
  8
1
  6
Continuous
100
AcDbLine
 10
227.9461959999999
 20
149.3292969999999
 30
0.0
 11
231.9461959999999
 21
149.3292969999999
 31
0.0
  0
LINE
  5
A4F4
330
A420
100
AcDbEntity
  8
1
  6
Continuous
100
AcDbLine
 10
227.9461959999999
 20
147.629297
 30
0.0
 11
231.9461959999999
 21
147.629297
 31
0.0
  0
LINE
  5
A4F5
330
A420
100
AcDbEntity
  8
1
  6
Continuous
100
AcDbLine
 10
227.9461959999999
 20
149.129297
 30
0.0
 11
231.9461959999999
 21
149.129297
 31
0.0
  0
LINE
  5
A4F6
330
A420
100
AcDbEntity
  8
1
  6
Continuous
100
AcDbLine
 10
227.9461959999999
 20
149.129297
 30
0.0
 11
227.9461959999999
 21
145.1792859999999
 31
0.0
  0
LINE
  5
A4F7
330
A420
100
AcDbEntity
  8
1
  6
Continuous
100
AcDbLine
 10
231.9461959999999
 20
149.129297
 30
0.0
 11
231.9461959999999
 21
145.1792859999999
 31
0.0
  0
LINE
  5
A4F8
330
A420
100
AcDbEntity
  8
1
  6
Continuous
100
AcDbLine
 10
231.9461959999999
 20
145.1792859999999
 30
0.0
 11
227.9461959999999
 21
145.1792859999999
 31
0.0
  0
ARC
  5
A4F9
330
A420
100
AcDbEntity
  8
5
  6
PHANTOM
100
AcDbCircle
 10
170.251656
 20
137.2792969999999
 30
0.0
 40
0.5
100
AcDbArc
 50
0.0
 51
90.0
  0
LINE
  5
A4FA
330
A420
100
AcDbEntity
  8
5
  6
PHANTOM
100
AcDbLine
 10
170.251656
 20
137.7792969999999
 30
0.0
 11
123.2016559999999
 21
137.7792969999999
 31
0.0
  0
LINE
  5
A4FB
330
A420
100
AcDbEntity
  8
5
  6
PHANTOM
100
AcDbLine
 10
170.751656
 20
136.5792969999999
 30
0.0
 11
123.2016559999999
 21
136.5792969999999
 31
0.0
  0
LINE
  5
A4FC
330
A420
100
AcDbEntity
  8
5
  6
PHANTOM
100
AcDbLine
 10
170.751656
 20
137.2792969999999
 30
0.0
 11
170.751656
 21
136.5792969999999
 31
0.0
  0
LINE
  5
A4FD
330
A420
100
AcDbEntity
  8
4
  6
CENTER
100
AcDbLine
 10
117.201656
 20
126.779297
 30
0.0
 11
117.201656
 21
113.907861
 31
0.0
  0
ARC
  5
A4FE
330
A420
100
AcDbEntity
  8
1
  6
Continuous
100
AcDbCircle
 10
134.987656
 20
59.236913
 30
0.0
 40
2.25
100
AcDbArc
 50
282.839588
 51
77.16041199999998
  0
LINE
  5
A4FF
330
A420
100
AcDbEntity
  8
1
  6
Continuous
100
AcDbLine
 10
107.551656
 20
57.236913
 30
0.0
 11
107.551656
 21
61.236913
 31
0.0
  0
LINE
  5
A500
330
A420
100
AcDbEntity
  8
1
  6
Continuous
100
AcDbLine
 10
109.0516559999999
 20
57.236913
 30
0.0
 11
109.0516559999999
 21
61.236913
 31
0.0
  0
LINE
  5
A501
330
A420
100
AcDbEntity
  8
1
  6
Continuous
100
AcDbLine
 10
110.0516559999999
 20
57.236913
 30
0.0
 11
110.0516559999999
 21
61.236913
 31
0.0
  0
LINE
  5
A502
330
A420
100
AcDbEntity
  8
1
  6
Continuous
100
AcDbLine
 10
111.5516559999999
 20
57.236913
 30
0.0
 11
111.5516559999999
 21
61.236913
 31
0.0
  0
LINE
  5
A503
330
A420
100
AcDbEntity
  8
1
  6
Continuous
100
AcDbLine
 10
112.651656
 20
57.236913
 30
0.0
 11
112.651656
 21
61.236913
 31
0.0
  0
LINE
  5
A504
330
A420
100
AcDbEntity
  8
1
  6
Continuous
100
AcDbLine
 10
106.951656
 20
57.236913
 30
0.0
 11
106.951656
 21
61.236913
 31
0.0
  0
LINE
  5
A505
330
A420
100
AcDbEntity
  8
4
  6
CENTER
100
AcDbLine
 10
130.437656
 20
55.65056
 30
0.0
 11
130.437656
 21
62.82326600000001
 31
0.0
  0
LINE
  5
A506
330
A420
100
AcDbEntity
  8
1
  6
Continuous
100
AcDbLine
 10
123.237627
 20
49.736913
 30
0.0
 11
123.237627
 21
68.736913
 31
0.0
  0
LINE
  5
A507
330
A420
100
AcDbEntity
  8
1
  6
Continuous
100
AcDbLine
 10
94.851656
 20
57.236913
 30
0.0
 11
94.851656
 21
61.236913
 31
0.0
  0
LINE
  5
A508
330
A420
100
AcDbEntity
  8
1
  6
Continuous
100
AcDbLine
 10
96.351656
 20
57.236913
 30
0.0
 11
96.351656
 21
61.236913
 31
0.0
  0
LINE
  5
A509
330
A420
100
AcDbEntity
  8
1
  6
Continuous
100
AcDbLine
 10
98.951656
 20
57.236913
 30
0.0
 11
98.951656
 21
61.236913
 31
0.0
  0
LINE
  5
A50A
330
A420
100
AcDbEntity
  8
1
  6
Continuous
100
AcDbLine
 10
97.45165599999999
 20
57.236913
 30
0.0
 11
97.45165599999999
 21
61.236913
 31
0.0
  0
LINE
  5
A50B
330
A420
100
AcDbEntity
  8
1
  6
Continuous
100
AcDbLine
 10
100.0516559999999
 20
57.236913
 30
0.0
 11
100.0516559999999
 21
61.236913
 31
0.0
  0
LINE
  5
A50C
330
A420
100
AcDbEntity
  8
1
  6
Continuous
100
AcDbLine
 10
101.551656
 20
57.236913
 30
0.0
 11
101.551656
 21
61.236913
 31
0.0
  0
LINE
  5
A50D
330
A420
100
AcDbEntity
  8
1
  6
Continuous
100
AcDbLine
 10
102.551656
 20
57.236913
 30
0.0
 11
102.551656
 21
61.236913
 31
0.0
  0
LINE
  5
A50E
330
A420
100
AcDbEntity
  8
1
  6
Continuous
100
AcDbLine
 10
94.45165600000001
 20
57.236913
 30
0.0
 11
94.45165600000001
 21
61.236913
 31
0.0
  0
LINE
  5
A50F
330
A420
100
AcDbEntity
  8
1
  6
Continuous
100
AcDbLine
 10
94.401656
 20
55.236913
 30
0.0
 11
94.401656
 21
63.236913
 31
0.0
  0
LINE
  5
A510
330
A420
100
AcDbEntity
  8
1
  6
Continuous
100
AcDbLine
 10
104.0516559999999
 20
57.236913
 30
0.0
 11
104.0516559999999
 21
61.236913
 31
0.0
  0
LINE
  5
A511
330
A420
100
AcDbEntity
  8
1
  6
Continuous
100
AcDbLine
 10
105.4516559999999
 20
57.236913
 30
0.0
 11
105.4516559999999
 21
61.236913
 31
0.0
  0
LINE
  5
A512
330
A420
100
AcDbEntity
  8
4
  6
CENTER
100
AcDbLine
 10
175.7876559999999
 20
59.236913
 30
0.0
 11
89.401656
 21
59.236913
 31
0.0
  0
LINE
  5
A513
330
A420
100
AcDbEntity
  8
1
  6
Continuous
100
AcDbLine
 10
113.2376269999999
 20
55.236913
 30
0.0
 11
94.401656
 21
55.236913
 31
0.0
  0
LINE
  5
A514
330
A420
100
AcDbEntity
  8
1
  6
Continuous
100
AcDbLine
 10
105.4516559999999
 20
57.236913
 30
0.0
 11
106.951656
 21
57.236913
 31
0.0
  0
LINE
  5
A515
330
A420
100
AcDbEntity
  8
1
  6
Continuous
100
AcDbLine
 10
104.0516559999999
 20
57.236913
 30
0.0
 11
102.551656
 21
57.236913
 31
0.0
  0
LINE
  5
A516
330
A420
100
AcDbEntity
  8
1
  6
Continuous
100
AcDbLine
 10
96.351656
 20
57.236913
 30
0.0
 11
94.851656
 21
57.236913
 31
0.0
  0
LINE
  5
A517
330
A420
100
AcDbEntity
  8
1
  6
Continuous
100
AcDbLine
 10
98.951656
 20
57.236913
 30
0.0
 11
97.45165599999999
 21
57.236913
 31
0.0
  0
LINE
  5
A518
330
A420
100
AcDbEntity
  8
1
  6
Continuous
100
AcDbLine
 10
101.551656
 20
57.236913
 30
0.0
 11
100.0516559999999
 21
57.236913
 31
0.0
  0
LINE
  5
A519
330
A420
100
AcDbEntity
  8
1
  6
Continuous
100
AcDbLine
 10
94.45165600000001
 20
57.236913
 30
0.0
 11
94.401656
 21
57.236913
 31
0.0
  0
LINE
  5
A51A
330
A420
100
AcDbEntity
  8
1
  6
Continuous
100
AcDbLine
 10
123.237627
 20
49.736913
 30
0.0
 11
113.2376269999999
 21
49.736913
 31
0.0
  0
LINE
  5
A51B
330
A420
100
AcDbEntity
  8
1
  6
Continuous
100
AcDbLine
 10
107.551656
 20
57.236913
 30
0.0
 11
109.0516559999999
 21
57.236913
 31
0.0
  0
LINE
  5
A51C
330
A420
100
AcDbEntity
  8
1
  6
Continuous
100
AcDbLine
 10
110.0516559999999
 20
57.236913
 30
0.0
 11
111.5516559999999
 21
57.236913
 31
0.0
  0
LINE
  5
A51D
330
A420
100
AcDbEntity
  8
1
  6
Continuous
100
AcDbLine
 10
112.651656
 20
57.236913
 30
0.0
 11
113.2376269999999
 21
57.236913
 31
0.0
  0
LINE
  5
A51E
330
A420
100
AcDbEntity
  8
1
  6
Continuous
100
AcDbLine
 10
128.937656
 20
55.236913
 30
0.0
 11
123.237627
 21
55.236913
 31
0.0
  0
LINE
  5
A51F
330
A420
100
AcDbEntity
  8
1
  6
Continuous
100
AcDbLine
 10
128.937656
 20
55.236913
 30
0.0
 11
135.4876559999999
 21
57.043172
 31
0.0
  0
CIRCLE
  5
A520
330
A420
100
AcDbEntity
  8
1
  6
Continuous
100
AcDbCircle
 10
130.437656
 20
59.236913
 30
0.0
 40
1.6
  0
LINE
  5
A521
330
A420
100
AcDbEntity
  8
1
  6
Continuous
100
AcDbLine
 10
113.2376269999999
 20
63.236913
 30
0.0
 11
94.401656
 21
63.236913
 31
0.0
  0
LINE
  5
A522
330
A420
100
AcDbEntity
  8
1
  6
Continuous
100
AcDbLine
 10
105.4516559999999
 20
61.236913
 30
0.0
 11
106.951656
 21
61.236913
 31
0.0
  0
LINE
  5
A523
330
A420
100
AcDbEntity
  8
1
  6
Continuous
100
AcDbLine
 10
104.0516559999999
 20
61.236913
 30
0.0
 11
102.551656
 21
61.236913
 31
0.0
  0
LINE
  5
A524
330
A420
100
AcDbEntity
  8
1
  6
Continuous
100
AcDbLine
 10
96.351656
 20
61.236913
 30
0.0
 11
94.851656
 21
61.236913
 31
0.0
  0
LINE
  5
A525
330
A420
100
AcDbEntity
  8
1
  6
Continuous
100
AcDbLine
 10
98.951656
 20
61.236913
 30
0.0
 11
97.45165599999999
 21
61.236913
 31
0.0
  0
LINE
  5
A526
330
A420
100
AcDbEntity
  8
1
  6
Continuous
100
AcDbLine
 10
101.551656
 20
61.236913
 30
0.0
 11
100.0516559999999
 21
61.236913
 31
0.0
  0
LINE
  5
A527
330
A420
100
AcDbEntity
  8
1
  6
Continuous
100
AcDbLine
 10
94.45165600000001
 20
61.236913
 30
0.0
 11
94.401656
 21
61.236913
 31
0.0
  0
LINE
  5
A528
330
A420
100
AcDbEntity
  8
1
  6
Continuous
100
AcDbLine
 10
123.237627
 20
68.736913
 30
0.0
 11
113.2376269999999
 21
68.736913
 31
0.0
  0
LINE
  5
A529
330
A420
100
AcDbEntity
  8
1
  6
Continuous
100
AcDbLine
 10
107.551656
 20
61.236913
 30
0.0
 11
109.0516559999999
 21
61.236913
 31
0.0
  0
LINE
  5
A52A
330
A420
100
AcDbEntity
  8
1
  6
Continuous
100
AcDbLine
 10
110.0516559999999
 20
61.236913
 30
0.0
 11
111.5516559999999
 21
61.236913
 31
0.0
  0
LINE
  5
A52B
330
A420
100
AcDbEntity
  8
1
  6
Continuous
100
AcDbLine
 10
112.651656
 20
61.236913
 30
0.0
 11
113.2376269999999
 21
61.236913
 31
0.0
  0
LINE
  5
A52C
330
A420
100
AcDbEntity
  8
1
  6
Continuous
100
AcDbLine
 10
113.2376269999999
 20
49.736913
 30
0.0
 11
113.2376269999999
 21
68.736913
 31
0.0
  0
LINE
  5
A52D
330
A420
100
AcDbEntity
  8
1
  6
Continuous
100
AcDbLine
 10
128.937656
 20
63.236913
 30
0.0
 11
123.237627
 21
63.236913
 31
0.0
  0
LINE
  5
A52E
330
A420
100
AcDbEntity
  8
1
  6
Continuous
100
AcDbLine
 10
128.937656
 20
63.236913
 30
0.0
 11
135.4876559999999
 21
61.43065400000001
 31
0.0
  0
LINE
  5
A52F
330
A420
100
AcDbEntity
  8
4
  6
CENTER
100
AcDbLine
 10
36.35711699999998
 20
165.1792969999999
 30
0.0
 11
36.35711699999998
 21
111.579286
 31
0.0
  0
LINE
  5
A530
330
A420
100
AcDbEntity
  8
1
  6
Continuous
100
AcDbLine
 10
40.35711699999999
 20
158.9792969999998
 30
0.0
 11
40.35711699999999
 21
136.5792859999999
 31
0.0
  0
LINE
  5
A531
330
A420
100
AcDbEntity
  8
1
  6
Continuous
100
AcDbLine
 10
32.35711699999999
 20
158.9792969999998
 30
0.0
 11
32.35711699999999
 21
136.5792859999999
 31
0.0
  0
LINE
  5
A532
330
A420
100
AcDbEntity
  8
1
  6
Continuous
100
AcDbLine
 10
41.068655
 20
125.086978
 30
0.0
 11
37.972501
 21
117.656209
 31
0.0
  0
LINE
  5
A533
330
A420
100
AcDbEntity
  8
1
  6
Continuous
100
AcDbLine
 10
31.64557800000001
 20
125.086978
 30
0.0
 11
34.741732
 21
117.656209
 31
0.0
  0
LINE
  5
A534
330
A420
100
AcDbEntity
  8
1
  6
Continuous
100
AcDbLine
 10
35.407117
 20
129.1792859999999
 30
0.0
 11
35.407117
 21
116.859592
 31
0.0
  0
LINE
  5
A535
330
A420
100
AcDbEntity
  8
1
  6
Continuous
100
AcDbLine
 10
37.307117
 20
129.1792859999999
 30
0.0
 11
37.307117
 21
116.859592
 31
0.0
  0
ARC
  5
A536
330
A420
100
AcDbEntity
  8
1
  6
Continuous
100
AcDbCircle
 10
36.35711699999998
 20
118.329286
 30
0.0
 40
1.75
100
AcDbArc
 50
202.6198649999999
 51
337.3801349999999
  0
ARC
  5
A537
330
A420
100
AcDbEntity
  8
1
  6
Continuous
100
AcDbCircle
 10
41.35711699999997
 20
138.279286
 30
0.0
 40
0.5
100
AcDbArc
 50
0.0
 51
90.0
  0
LINE
  5
A538
330
A420
100
AcDbEntity
  8
5
  6
PHANTOM
100
AcDbLine
 10
41.708575
 20
129.40968
 30
0.0
 11
43.553012
 21
128.084912
 31
0.0
  0
LINE
  5
A539
330
A420
100
AcDbEntity
  8
5
  6
PHANTOM
100
AcDbLine
 10
41.477737
 20
128.4366879999998
 30
0.0
 11
43.542467
 21
126.8327769999999
 31
0.0
  0
ARC
  5
A53A
330
A420
100
AcDbEntity
  8
5
  6
PHANTOM
100
AcDbCircle
 10
44.327463
 20
127.452278
 30
0.0
 40
1.0
100
AcDbArc
 50
218.27969
 51
140.755303
  0
LINE
  5
A53B
330
A420
100
AcDbEntity
  8
1
  6
Continuous
100
AcDbLine
 10
39.85711699999999
 20
125.779286
 30
0.0
 11
40.60711699999997
 21
125.779286
 31
0.0
  0
LINE
  5
A53C
330
A420
100
AcDbEntity
  8
1
  6
Continuous
100
AcDbLine
 10
32.10711699999999
 20
125.779286
 30
0.0
 11
32.85711699999998
 21
125.779286
 31
0.0
  0
LINE
  5
A53D
330
A420
100
AcDbEntity
  8
1
  6
Continuous
100
AcDbLine
 10
34.60711699999999
 20
136.5792859999999
 30
0.0
 11
34.60711699999999
 21
132.779286
 31
0.0
  0
LINE
  5
A53E
330
A420
100
AcDbEntity
  8
1
  6
Continuous
100
AcDbLine
 10
38.10711699999997
 20
136.5792859999999
 30
0.0
 11
38.10711699999997
 21
132.779286
 31
0.0
  0
LINE
  5
A53F
330
A420
100
AcDbEntity
  8
1
  6
Continuous
100
AcDbLine
 10
33.757117
 20
136.279286
 30
0.0
 11
33.757117
 21
132.779286
 31
0.0
  0
LINE
  5
A540
330
A420
100
AcDbEntity
  8
1
  6
Continuous
100
AcDbLine
 10
38.95711699999999
 20
136.279286
 30
0.0
 11
38.95711699999999
 21
132.779286
 31
0.0
  0
LINE
  5
A541
330
A420
100
AcDbEntity
  8
1
  6
Continuous
100
AcDbLine
 10
30.857117
 20
138.279286
 30
0.0
 11
30.857117
 21
133.779286
 31
0.0
  0
LINE
  5
A542
330
A420
100
AcDbEntity
  8
1
  6
Continuous
100
AcDbLine
 10
32.407117
 20
134.453686
 30
0.0
 11
33.757117
 21
134.453686
 31
0.0
  0
LINE
  5
A543
330
A420
100
AcDbEntity
  8
1
  6
Continuous
100
AcDbLine
 10
32.10711699999999
 20
137.279286
 30
0.0
 11
32.10711699999999
 21
134.7536859999999
 31
0.0
  0
ARC
  5
A544
330
A420
100
AcDbEntity
  8
1
  6
Continuous
100
AcDbCircle
 10
32.60711699999998
 20
137.279286
 30
0.0
 40
0.5
100
AcDbArc
 50
119.9999999999999
 51
180.0
  0
ARC
  5
A545
330
A420
100
AcDbEntity
  8
1
  6
Continuous
100
AcDbCircle
 10
31.35711699999999
 20
138.279286
 30
0.0
 40
0.5
100
AcDbArc
 50
90.0
 51
180.0
  0
LINE
  5
A546
330
A420
100
AcDbEntity
  8
1
  6
Continuous
100
AcDbLine
 10
33.757117
 20
132.779286
 30
0.0
 11
34.60711699999999
 21
132.779286
 31
0.0
  0
LINE
  5
A547
330
A420
100
AcDbEntity
  8
1
  6
Continuous
100
AcDbLine
 10
30.857117
 20
133.779286
 30
0.0
 11
33.757117
 21
131.779286
 31
0.0
  0
ARC
  5
A548
330
A420
100
AcDbEntity
  8
1
  6
Continuous
100
AcDbCircle
 10
34.907117
 20
131.1792859999999
 30
0.0
 40
0.5
100
AcDbArc
 50
270.0
 51
0.0
  0
ARC
  5
A549
330
A420
100
AcDbEntity
  8
1
  6
Continuous
100
AcDbCircle
 10
37.80711699999999
 20
131.1792859999999
 30
0.0
 40
0.5
100
AcDbArc
 50
180.0
 51
270.0
  0
LINE
  5
A54A
330
A420
100
AcDbEntity
  8
1
  6
Continuous
100
AcDbLine
 10
37.80711699999999
 20
131.779286
 30
0.0
 11
38.95711699999999
 21
131.779286
 31
0.0
  0
LINE
  5
A54B
330
A420
100
AcDbEntity
  8
1
  6
Continuous
100
AcDbLine
 10
37.307117
 20
131.279286
 30
0.0
 11
37.307117
 21
131.1792859999999
 31
0.0
  0
ARC
  5
A54C
330
A420
100
AcDbEntity
  8
1
  6
Continuous
100
AcDbCircle
 10
37.80711699999999
 20
131.279286
 30
0.0
 40
0.5
100
AcDbArc
 50
90.0
 51
180.0
  0
LINE
  5
A54D
330
A420
100
AcDbEntity
  8
1
  6
Continuous
100
AcDbLine
 10
33.757117
 20
131.779286
 30
0.0
 11
34.907117
 21
131.779286
 31
0.0
  0
LINE
  5
A54E
330
A420
100
AcDbEntity
  8
1
  6
Continuous
100
AcDbLine
 10
35.407117
 20
131.279286
 30
0.0
 11
35.407117
 21
131.1792859999999
 31
0.0
  0
ARC
  5
A54F
330
A420
100
AcDbEntity
  8
1
  6
Continuous
100
AcDbCircle
 10
34.907117
 20
131.279286
 30
0.0
 40
0.5
100
AcDbArc
 50
0.0
 51
90.0
  0
ARC
  5
A550
330
A420
100
AcDbEntity
  8
1
  6
Continuous
100
AcDbCircle
 10
34.907117
 20
129.1792859999999
 30
0.0
 40
0.5
100
AcDbArc
 50
0.0
 51
90.0
  0
ARC
  5
A551
330
A420
100
AcDbEntity
  8
1
  6
Continuous
100
AcDbCircle
 10
37.80711699999999
 20
129.1792859999999
 30
0.0
 40
0.5
100
AcDbArc
 50
90.0
 51
180.0
  0
ARC
  5
A552
330
A420
100
AcDbEntity
  8
1
  6
Continuous
100
AcDbCircle
 10
33.35711699999999
 20
127.3792859999999
 30
0.0
 40
0.5
100
AcDbArc
 50
90.0
 51
180.0
  0
LINE
  5
A553
330
A420
100
AcDbEntity
  8
1
  6
Continuous
100
AcDbLine
 10
33.35711699999999
 20
127.879286
 30
0.0
 11
33.35711699999999
 21
127.879286
 31
0.0
  0
ARC
  5
A554
330
A420
100
AcDbEntity
  8
1
  6
Continuous
100
AcDbCircle
 10
33.35711699999999
 20
127.3792859999999
 30
0.0
 40
0.5
100
AcDbArc
 50
0.0
 51
90.0
  0
ARC
  5
A555
330
A420
100
AcDbEntity
  8
1
  6
Continuous
100
AcDbCircle
 10
32.10711699999999
 20
125.279286
 30
0.0
 40
0.5
100
AcDbArc
 50
90.0
 51
202.6198649999999
  0
ARC
  5
A556
330
A420
100
AcDbEntity
  8
1
  6
Continuous
100
AcDbCircle
 10
34.907117
 20
121.6792859999999
 30
0.0
 40
0.5
100
AcDbArc
 50
202.6198649999999
 51
0.0
  0
ARC
  5
A557
330
A420
100
AcDbEntity
  8
1
  6
Continuous
100
AcDbCircle
 10
37.80711699999999
 20
121.6792859999999
 30
0.0
 40
0.5
100
AcDbArc
 50
180.0
 51
337.3801349999999
  0
LINE
  5
A558
330
A420
100
AcDbEntity
  8
1
  6
Continuous
100
AcDbLine
 10
33.85711699999998
 20
124.099286
 30
0.0
 11
34.44557800000001
 21
121.4869779999999
 31
0.0
  0
LINE
  5
A559
330
A420
100
AcDbEntity
  8
1
  6
Continuous
100
AcDbLine
 10
38.85711699999998
 20
124.099286
 30
0.0
 11
38.26865499999998
 21
121.4869779999999
 31
0.0
  0
LINE
  5
A55A
330
A420
100
AcDbEntity
  8
1
  6
Continuous
100
AcDbLine
 10
32.85711699999998
 20
127.3792859999999
 30
0.0
 11
32.85711699999998
 21
125.779286
 31
0.0
  0
LINE
  5
A55B
330
A420
100
AcDbEntity
  8
1
  6
Continuous
100
AcDbLine
 10
33.85711699999998
 20
127.3792859999999
 30
0.0
 11
33.85711699999998
 21
124.099286
 31
0.0
  0
LINE
  5
A55C
330
A420
100
AcDbEntity
  8
1
  6
Continuous
100
AcDbLine
 10
38.85711699999998
 20
127.3792859999999
 30
0.0
 11
38.85711699999998
 21
124.099286
 31
0.0
  0
LINE
  5
A55D
330
A420
100
AcDbEntity
  8
1
  6
Continuous
100
AcDbLine
 10
41.85711699999997
 20
138.279286
 30
0.0
 11
41.85711699999997
 21
133.779286
 31
0.0
  0
LINE
  5
A55E
330
A420
100
AcDbEntity
  8
1
  6
Continuous
100
AcDbLine
 10
40.60711699999997
 20
137.279286
 30
0.0
 11
40.60711699999997
 21
134.7536859999999
 31
0.0
  0
ARC
  5
A55F
330
A420
100
AcDbEntity
  8
1
  6
Continuous
100
AcDbCircle
 10
40.10711699999997
 20
137.279286
 30
0.0
 40
0.5
100
AcDbArc
 50
0.0
 51
60.0
  0
LINE
  5
A560
330
A420
100
AcDbEntity
  8
1
  6
Continuous
100
AcDbLine
 10
39.35711699999997
 20
127.879286
 30
0.0
 11
39.35711699999997
 21
127.879286
 31
0.0
  0
ARC
  5
A561
330
A420
100
AcDbEntity
  8
1
  6
Continuous
100
AcDbCircle
 10
39.35711699999997
 20
127.3792859999999
 30
0.0
 40
0.5
100
AcDbArc
 50
0.0
 51
90.0
  0
ARC
  5
A562
330
A420
100
AcDbEntity
  8
1
  6
Continuous
100
AcDbCircle
 10
40.60711699999997
 20
125.279286
 30
0.0
 40
0.5
100
AcDbArc
 50
337.3801349999999
 51
90.0
  0
LINE
  5
A563
330
A420
100
AcDbEntity
  8
1
  6
Continuous
100
AcDbLine
 10
39.85711699999999
 20
127.3792859999999
 30
0.0
 11
39.85711699999999
 21
125.779286
 31
0.0
  0
LINE
  5
A564
330
A420
100
AcDbEntity
  8
1
  6
Continuous
100
AcDbLine
 10
31.35711699999999
 20
138.779286
 30
0.0
 11
32.35711699999999
 21
138.779286
 31
0.0
  0
LINE
  5
A565
330
A420
100
AcDbEntity
  8
1
  6
Continuous
100
AcDbLine
 10
38.95711699999999
 20
131.779286
 30
0.0
 11
41.85711699999997
 21
133.779286
 31
0.0
  0
ARC
  5
A566
330
A420
100
AcDbEntity
  8
1
  6
Continuous
100
AcDbCircle
 10
39.35711699999997
 20
127.3792859999999
 30
0.0
 40
0.5
100
AcDbArc
 50
90.0
 51
180.0
  0
LINE
  5
A567
330
A420
100
AcDbEntity
  8
1
  6
Continuous
100
AcDbLine
 10
40.35711699999999
 20
158.9792969999998
 30
0.0
 11
32.35711699999999
 21
158.9792969999998
 31
0.0
  0
LINE
  5
A568
330
A420
100
AcDbEntity
  8
1
  6
Continuous
100
AcDbLine
 10
34.35711699999998
 20
154.4292969999998
 30
0.0
 11
34.35711699999998
 21
155.929297
 31
0.0
  0
LINE
  5
A569
330
A420
100
AcDbEntity
  8
1
  6
Continuous
100
AcDbLine
 10
38.35711699999999
 20
154.4292969999998
 30
0.0
 11
38.35711699999999
 21
155.929297
 31
0.0
  0
LINE
  5
A56A
330
A420
100
AcDbEntity
  8
1
  6
Continuous
100
AcDbLine
 10
38.35711699999999
 20
149.3292969999999
 30
0.0
 11
38.35711699999999
 21
150.829297
 31
0.0
  0
LINE
  5
A56B
330
A420
100
AcDbEntity
  8
1
  6
Continuous
100
AcDbLine
 10
34.35711699999998
 20
149.3292969999999
 30
0.0
 11
34.35711699999998
 21
150.829297
 31
0.0
  0
LINE
  5
A56C
330
A420
100
AcDbEntity
  8
1
  6
Continuous
100
AcDbLine
 10
34.35711699999998
 20
151.829297
 30
0.0
 11
34.35711699999998
 21
153.3292969999999
 31
0.0
  0
LINE
  5
A56D
330
A420
100
AcDbEntity
  8
1
  6
Continuous
100
AcDbLine
 10
38.35711699999999
 20
151.829297
 30
0.0
 11
38.35711699999999
 21
153.3292969999999
 31
0.0
  0
LINE
  5
A56E
330
A420
100
AcDbEntity
  8
1
  6
Continuous
100
AcDbLine
 10
38.35711699999999
 20
150.829297
 30
0.0
 11
34.35711699999998
 21
150.829297
 31
0.0
  0
LINE
  5
A56F
330
A420
100
AcDbEntity
  8
1
  6
Continuous
100
AcDbLine
 10
38.35711699999999
 20
151.829297
 30
0.0
 11
34.35711699999998
 21
151.829297
 31
0.0
  0
LINE
  5
A570
330
A420
100
AcDbEntity
  8
1
  6
Continuous
100
AcDbLine
 10
38.35711699999999
 20
153.3292969999999
 30
0.0
 11
34.35711699999998
 21
153.3292969999999
 31
0.0
  0
LINE
  5
A571
330
A420
100
AcDbEntity
  8
1
  6
Continuous
100
AcDbLine
 10
38.35711699999999
 20
154.4292969999998
 30
0.0
 11
34.35711699999998
 21
154.4292969999998
 31
0.0
  0
LINE
  5
A572
330
A420
100
AcDbEntity
  8
1
  6
Continuous
100
AcDbLine
 10
38.35711699999999
 20
148.3292969999999
 30
0.0
 11
34.35711699999998
 21
148.3292969999999
 31
0.0
  0
LINE
  5
A573
330
A420
100
AcDbEntity
  8
1
  6
Continuous
100
AcDbLine
 10
38.35711699999999
 20
146.829297
 30
0.0
 11
34.35711699999998
 21
146.829297
 31
0.0
  0
LINE
  5
A574
330
A420
100
AcDbEntity
  8
1
  6
Continuous
100
AcDbLine
 10
38.35711699999999
 20
149.3292969999999
 30
0.0
 11
34.35711699999998
 21
149.3292969999999
 31
0.0
  0
LINE
  5
A575
330
A420
100
AcDbEntity
  8
1
  6
Continuous
100
AcDbLine
 10
38.35711699999999
 20
155.929297
 30
0.0
 11
34.35711699999998
 21
155.929297
 31
0.0
  0
LINE
  5
A576
330
A420
100
AcDbEntity
  8
1
  6
Continuous
100
AcDbLine
 10
34.35711699999998
 20
158.9292969999999
 30
0.0
 11
34.35711699999998
 21
158.9792969999998
 31
0.0
  0
LINE
  5
A577
330
A420
100
AcDbEntity
  8
1
  6
Continuous
100
AcDbLine
 10
34.35711699999998
 20
157.0292969999998
 30
0.0
 11
34.35711699999998
 21
158.5292969999999
 31
0.0
  0
LINE
  5
A578
330
A420
100
AcDbEntity
  8
1
  6
Continuous
100
AcDbLine
 10
38.35711699999999
 20
158.9292969999999
 30
0.0
 11
38.35711699999999
 21
158.9792969999998
 31
0.0
  0
LINE
  5
A579
330
A420
100
AcDbEntity
  8
1
  6
Continuous
100
AcDbLine
 10
38.35711699999999
 20
157.0292969999998
 30
0.0
 11
38.35711699999999
 21
158.5292969999999
 31
0.0
  0
LINE
  5
A57A
330
A420
100
AcDbEntity
  8
1
  6
Continuous
100
AcDbLine
 10
38.35711699999999
 20
158.9292969999999
 30
0.0
 11
34.35711699999998
 21
158.9292969999999
 31
0.0
  0
LINE
  5
A57B
330
A420
100
AcDbEntity
  8
1
  6
Continuous
100
AcDbLine
 10
38.35711699999999
 20
157.0292969999998
 30
0.0
 11
34.35711699999998
 21
157.0292969999998
 31
0.0
  0
LINE
  5
A57C
330
A420
100
AcDbEntity
  8
1
  6
Continuous
100
AcDbLine
 10
38.35711699999999
 20
158.5292969999999
 30
0.0
 11
34.35711699999998
 21
158.5292969999999
 31
0.0
  0
LINE
  5
A57D
330
A420
100
AcDbEntity
  8
1
  6
Continuous
100
AcDbLine
 10
34.35711699999998
 20
148.3292969999999
 30
0.0
 11
34.35711699999998
 21
146.829297
 31
0.0
  0
LINE
  5
A57E
330
A420
100
AcDbEntity
  8
1
  6
Continuous
100
AcDbLine
 10
38.35711699999999
 20
148.3292969999999
 30
0.0
 11
38.35711699999999
 21
146.829297
 31
0.0
  0
LINE
  5
A57F
330
A420
100
AcDbEntity
  8
1
  6
Continuous
100
AcDbLine
 10
233.9461959999999
 20
136.5792859999999
 30
0.0
 11
225.9461959999999
 21
136.5792859999999
 31
0.0
  0
LINE
  5
A580
330
A420
100
AcDbEntity
  8
1
  6
Continuous
100
AcDbLine
 10
233.9461959999999
 20
137.7122979999997
 30
0.0
 11
233.9461959999999
 21
136.5792859999999
 31
0.0
  0
LINE
  5
A581
330
A420
100
AcDbEntity
  8
1
  6
Continuous
100
AcDbLine
 10
225.9461959999999
 20
137.7122979999997
 30
0.0
 11
225.9461959999999
 21
136.5792859999999
 31
0.0
  0
LINE
  5
A582
330
A420
100
AcDbEntity
  8
1
  6
Continuous
100
AcDbLine
 10
32.35711699999999
 20
136.5792859999999
 30
0.0
 11
40.35711699999999
 21
136.5792859999999
 31
0.0
  0
LINE
  5
A583
330
A420
100
AcDbEntity
  8
1
  6
Continuous
100
AcDbLine
 10
38.35711699999999
 20
139.2292969999998
 30
0.0
 11
34.35711699999998
 21
139.2292969999998
 31
0.0
  0
LINE
  5
A584
330
A420
100
AcDbEntity
  8
1
  6
Continuous
100
AcDbLine
 10
38.35711699999999
 20
140.729297
 30
0.0
 11
38.35711699999999
 21
139.2292969999998
 31
0.0
  0
LINE
  5
A585
330
A420
100
AcDbEntity
  8
1
  6
Continuous
100
AcDbLine
 10
38.35711699999999
 20
140.729297
 30
0.0
 11
34.35711699999998
 21
140.729297
 31
0.0
  0
LINE
  5
A586
330
A420
100
AcDbEntity
  8
1
  6
Continuous
100
AcDbLine
 10
38.35711699999999
 20
141.8292969999999
 30
0.0
 11
34.35711699999998
 21
141.8292969999999
 31
0.0
  0
LINE
  5
A587
330
A420
100
AcDbEntity
  8
1
  6
Continuous
100
AcDbLine
 10
38.35711699999999
 20
143.3292969999999
 30
0.0
 11
34.35711699999998
 21
143.3292969999999
 31
0.0
  0
LINE
  5
A588
330
A420
100
AcDbEntity
  8
1
  6
Continuous
100
AcDbLine
 10
38.35711699999999
 20
144.429297
 30
0.0
 11
34.35711699999998
 21
144.429297
 31
0.0
  0
LINE
  5
A589
330
A420
100
AcDbEntity
  8
1
  6
Continuous
100
AcDbLine
 10
38.35711699999999
 20
145.9292969999999
 30
0.0
 11
34.35711699999998
 21
145.9292969999999
 31
0.0
  0
LINE
  5
A58A
330
A420
100
AcDbEntity
  8
1
  6
Continuous
100
AcDbLine
 10
38.35711699999999
 20
145.9292969999999
 30
0.0
 11
38.35711699999999
 21
144.429297
 31
0.0
  0
LINE
  5
A58B
330
A420
100
AcDbEntity
  8
1
  6
Continuous
100
AcDbLine
 10
38.35711699999999
 20
143.3292969999999
 30
0.0
 11
38.35711699999999
 21
141.8292969999999
 31
0.0
  0
LINE
  5
A58C
330
A420
100
AcDbEntity
  8
1
  6
Continuous
100
AcDbLine
 10
34.35711699999998
 20
143.3292969999999
 30
0.0
 11
34.35711699999998
 21
141.8292969999999
 31
0.0
  0
LINE
  5
A58D
330
A420
100
AcDbEntity
  8
1
  6
Continuous
100
AcDbLine
 10
34.35711699999998
 20
140.729297
 30
0.0
 11
34.35711699999998
 21
139.2292969999998
 31
0.0
  0
LINE
  5
A58E
330
A420
100
AcDbEntity
  8
1
  6
Continuous
100
AcDbLine
 10
34.35711699999998
 20
145.9292969999999
 30
0.0
 11
34.35711699999998
 21
144.429297
 31
0.0
  0
LINE
  5
A58F
330
A420
100
AcDbEntity
  8
1
  6
Continuous
100
AcDbLine
 10
127.237627
 20
61.236913
 30
0.0
 11
123.237627
 21
61.236913
 31
0.0
  0
LINE
  5
A590
330
A420
100
AcDbEntity
  8
1
  6
Continuous
100
AcDbLine
 10
127.237627
 20
57.236913
 30
0.0
 11
123.237627
 21
57.236913
 31
0.0
  0
LINE
  5
A591
330
A420
100
AcDbEntity
  8
1
  6
Continuous
100
AcDbLine
 10
123.237627
 20
64.736913
 30
0.0
 11
113.2376269999999
 21
64.736913
 31
0.0
  0
LINE
  5
A592
330
A420
100
AcDbEntity
  8
1
  6
Continuous
100
AcDbLine
 10
123.237627
 20
53.736913
 30
0.0
 11
113.2376269999999
 21
53.736913
 31
0.0
  0
LINE
  5
A593
330
A420
100
AcDbEntity
  8
4
  6
CENTER
100
AcDbLine
 10
117.2376269999999
 20
49.736913
 30
0.0
 11
117.2376269999999
 21
68.736913
 31
0.0
  0
LINE
  5
A594
330
A420
100
AcDbEntity
  8
1
  6
Continuous
100
AcDbLine
 10
113.8876269999999
 20
58.286913
 30
0.0
 11
113.8876269999999
 21
60.186913
 31
0.0
  0
LINE
  5
A595
330
A420
100
AcDbEntity
  8
1
  6
Continuous
100
AcDbLine
 10
120.587627
 20
58.286913
 30
0.0
 11
120.587627
 21
60.186913
 31
0.0
  0
LINE
  5
A596
330
A420
100
AcDbEntity
  8
1
  6
Continuous
100
AcDbLine
 10
118.737627
 20
64.236913
 30
0.0
 11
115.737627
 21
64.236913
 31
0.0
  0
LINE
  5
A597
330
A420
100
AcDbEntity
  8
1
  6
Continuous
100
AcDbLine
 10
118.737627
 20
54.236913
 30
0.0
 11
115.737627
 21
54.236913
 31
0.0
  0
LINE
  5
A598
330
A420
100
AcDbEntity
  8
1
  6
Continuous
100
AcDbLine
 10
115.737627
 20
54.236913
 30
0.0
 11
115.737627
 21
58.286913
 31
0.0
  0
LINE
  5
A599
330
A420
100
AcDbEntity
  8
1
  6
Continuous
100
AcDbLine
 10
118.737627
 20
54.236913
 30
0.0
 11
118.737627
 21
58.286913
 31
0.0
  0
LINE
  5
A59A
330
A420
100
AcDbEntity
  8
1
  6
Continuous
100
AcDbLine
 10
115.2376269999999
 20
58.286913
 30
0.0
 11
115.2376269999999
 21
60.186913
 31
0.0
  0
LINE
  5
A59B
330
A420
100
AcDbEntity
  8
1
  6
Continuous
100
AcDbLine
 10
119.237627
 20
58.286913
 30
0.0
 11
119.237627
 21
60.186913
 31
0.0
  0
LINE
  5
A59C
330
A420
100
AcDbEntity
  8
1
  6
Continuous
100
AcDbLine
 10
118.737627
 20
60.186913
 30
0.0
 11
118.737627
 21
64.236913
 31
0.0
  0
LINE
  5
A59D
330
A420
100
AcDbEntity
  8
1
  6
Continuous
100
AcDbLine
 10
115.737627
 20
60.186913
 30
0.0
 11
115.737627
 21
64.236913
 31
0.0
  0
LINE
  5
A59E
330
A420
100
AcDbEntity
  8
1
  6
Continuous
100
AcDbLine
 10
127.237627
 20
57.236913
 30
0.0
 11
127.237627
 21
61.236913
 31
0.0
  0
LINE
  5
A59F
330
A420
100
AcDbEntity
  8
1
  6
Continuous
100
AcDbLine
 10
120.587627
 20
60.186913
 30
0.0
 11
118.737627
 21
60.186913
 31
0.0
  0
LINE
  5
A5A0
330
A420
100
AcDbEntity
  8
1
  6
Continuous
100
AcDbLine
 10
120.587627
 20
58.286913
 30
0.0
 11
118.737627
 21
58.286913
 31
0.0
  0
LINE
  5
A5A1
330
A420
100
AcDbEntity
  8
1
  6
Continuous
100
AcDbLine
 10
115.737627
 20
60.186913
 30
0.0
 11
113.8876269999999
 21
60.186913
 31
0.0
  0
LINE
  5
A5A2
330
A420
100
AcDbEntity
  8
1
  6
Continuous
100
AcDbLine
 10
115.737627
 20
58.286913
 30
0.0
 11
113.8876269999999
 21
58.286913
 31
0.0
  0
ARC
  5
A5A3
330
A420
100
AcDbEntity
  8
5
  6
PHANTOM
100
AcDbCircle
 10
111.001656
 20
142.7792969999998
 30
0.0
 40
5.0
100
AcDbArc
 50
0.0
 51
270.0
  0
LINE
  5
A5A4
330
A420
100
AcDbEntity
  8
5
  6
PHANTOM
100
AcDbLine
 10
116.001656
 20
142.7792969999998
 30
0.0
 11
116.001656
 21
138.7792969999999
 31
0.0
  0
LINE
  5
A5A5
330
A420
100
AcDbEntity
  8
5
  6
PHANTOM
100
AcDbLine
 10
111.001656
 20
137.7792969999999
 30
0.0
 11
113.201656
 21
137.7792969999999
 31
0.0
  0
ARC
  5
A5A6
330
A420
100
AcDbEntity
  8
5
  6
PHANTOM
100
AcDbCircle
 10
111.001656
 20
142.7792969999998
 30
0.0
 40
6.2
100
AcDbArc
 50
0.0
 51
270.0
  0
LINE
  5
A5A7
330
A420
100
AcDbEntity
  8
5
  6
PHANTOM
100
AcDbLine
 10
117.201656
 20
142.7792969999998
 30
0.0
 11
117.201656
 21
138.7792969999999
 31
0.0
  0
LINE
  5
A5A8
330
A420
100
AcDbEntity
  8
5
  6
PHANTOM
100
AcDbLine
 10
111.001656
 20
136.5792969999999
 30
0.0
 11
113.201656
 21
136.5792969999999
 31
0.0
  0
LINE
  5
A5A9
330
A420
100
AcDbEntity
  8
1
  6
Continuous
100
AcDbLine
 10
38.95711699999999
 20
134.453686
 30
0.0
 11
40.307117
 21
134.453686
 31
0.0
  0
LINE
  5
A5AA
330
A420
100
AcDbEntity
  8
1
  6
Continuous
100
AcDbLine
 10
34.60711699999999
 20
134.079286
 30
0.0
 11
38.10711699999997
 21
134.079286
 31
0.0
  0
LINE
  5
A5AB
330
A420
100
AcDbEntity
  8
1
  6
Continuous
100
AcDbLine
 10
33.757117
 20
136.279286
 30
0.0
 11
32.10711699999999
 21
136.279286
 31
0.0
  0
LINE
  5
A5AC
330
A420
100
AcDbEntity
  8
1
  6
Continuous
100
AcDbLine
 10
40.60711699999997
 20
136.279286
 30
0.0
 11
38.95711699999999
 21
136.279286
 31
0.0
  0
ARC
  5
A5AD
330
A420
100
AcDbEntity
  8
1
  6
Continuous
100
AcDbCircle
 10
40.307117
 20
134.7536859999999
 30
0.0
 40
0.3
100
AcDbArc
 50
270.0
 51
0.0
  0
ARC
  5
A5AE
330
A420
100
AcDbEntity
  8
1
  6
Continuous
100
AcDbCircle
 10
32.407117
 20
134.7536859999999
 30
0.0
 40
0.3
100
AcDbArc
 50
180.0
 51
270.0
  0
LINE
  5
A5AF
330
A420
100
AcDbEntity
  8
1
  6
Continuous
100
AcDbLine
 10
40.35711699999999
 20
138.779286
 30
0.0
 11
41.35711699999997
 21
138.779286
 31
0.0
  0
LINE
  5
A5B0
330
A420
100
AcDbEntity
  8
1
  6
Continuous
100
AcDbLine
 10
38.35711699999999
 20
138.2292969999998
 30
0.0
 11
34.35711699999998
 21
138.2292969999998
 31
0.0
  0
LINE
  5
A5B1
330
A420
100
AcDbEntity
  8
1
  6
Continuous
100
AcDbLine
 10
38.35711699999999
 20
138.2292969999998
 30
0.0
 11
38.35711699999999
 21
136.729297
 31
0.0
  0
LINE
  5
A5B2
330
A420
100
AcDbEntity
  8
1
  6
Continuous
100
AcDbLine
 10
38.35711699999999
 20
136.729297
 30
0.0
 11
34.35711699999998
 21
136.729297
 31
0.0
  0
LINE
  5
A5B3
330
A420
100
AcDbEntity
  8
1
  6
Continuous
100
AcDbLine
 10
34.35711699999998
 20
138.2292969999998
 30
0.0
 11
34.35711699999998
 21
136.729297
 31
0.0
  0
LINE
  5
A5B4
330
A420
100
AcDbEntity
  8
5
  6
PHANTOM
100
AcDbLine
 10
233.9462099999999
 20
148.9792559999998
 30
0.0
 11
225.9462099999999
 21
148.9792559999998
 31
0.0
  0
LINE
  5
A5B5
330
A420
100
AcDbEntity
  8
5
  6
PHANTOM
100
AcDbLine
 10
231.9462099999999
 20
148.929256
 30
0.0
 11
227.9462099999999
 21
148.929256
 31
0.0
  0
LINE
  5
A5B6
330
A420
100
AcDbEntity
  8
5
  6
PHANTOM
100
AcDbLine
 10
233.9462099999999
 20
148.9792559999998
 30
0.0
 11
233.9462099999999
 21
138.779286
 31
0.0
  0
LINE
  5
A5B7
330
A420
100
AcDbEntity
  8
5
  6
PHANTOM
100
AcDbLine
 10
225.9462099999999
 20
148.9792559999998
 30
0.0
 11
225.9462099999999
 21
138.779286
 31
0.0
  0
LINE
  5
A5B8
330
A420
100
AcDbEntity
  8
5
  6
PHANTOM
100
AcDbLine
 10
227.9462099999999
 20
148.929256
 30
0.0
 11
227.9462099999999
 21
148.9792559999998
 31
0.0
  0
LINE
  5
A5B9
330
A420
100
AcDbEntity
  8
5
  6
PHANTOM
100
AcDbLine
 10
117.201656
 20
220.9704289999999
 30
0.0
 11
104.8016559999999
 21
220.9704289999999
 31
0.0
  0
LINE
  5
A5BA
330
A420
100
AcDbEntity
  8
5
  6
PHANTOM
100
AcDbLine
 10
117.201656
 20
212.9704289999998
 30
0.0
 11
104.8016559999999
 21
212.9704289999998
 31
0.0
  0
LINE
  5
A5BB
330
A420
100
AcDbEntity
  8
5
  6
PHANTOM
100
AcDbLine
 10
104.8016559999999
 20
212.9704289999998
 30
0.0
 11
104.8016559999999
 21
220.9704289999999
 31
0.0
  0
LINE
  5
A5BC
330
A420
100
AcDbEntity
  8
5
  6
PHANTOM
100
AcDbLine
 10
104.851656
 20
214.9704289999998
 30
0.0
 11
104.851656
 21
218.9704289999998
 31
0.0
  0
LINE
  5
A5BD
330
A420
100
AcDbEntity
  8
5
  6
PHANTOM
100
AcDbLine
 10
104.851656
 20
218.9704289999998
 30
0.0
 11
104.8016559999999
 21
218.9704289999998
 31
0.0
  0
LINE
  5
A5BE
330
A420
100
AcDbEntity
  8
5
  6
PHANTOM
100
AcDbLine
 10
117.201656
 20
212.9704289999998
 30
0.0
 11
117.201656
 21
220.9704289999999
 31
0.0
  0
LINE
  5
A5BF
330
A420
100
AcDbEntity
  8
5
  6
PHANTOM
100
AcDbLine
 10
117.151656
 20
214.9704289999998
 30
0.0
 11
117.151656
 21
218.9704289999998
 31
0.0
  0
LINE
  5
A5C0
330
A420
100
AcDbEntity
  8
5
  6
PHANTOM
100
AcDbLine
 10
117.151656
 20
218.9704289999998
 30
0.0
 11
117.201656
 21
218.9704289999998
 31
0.0
  0
LINE
  5
A5C1
330
A420
100
AcDbEntity
  8
5
  6
PHANTOM
100
AcDbLine
 10
113.2376269999999
 20
55.236913
 30
0.0
 11
104.8376269999998
 21
55.236913
 31
0.0
  0
LINE
  5
A5C2
330
A420
100
AcDbEntity
  8
5
  6
PHANTOM
100
AcDbLine
 10
113.2376269999999
 20
63.236913
 30
0.0
 11
104.8376269999998
 21
63.236913
 31
0.0
  0
LINE
  5
A5C3
330
A420
100
AcDbEntity
  8
5
  6
PHANTOM
100
AcDbLine
 10
104.887627
 20
61.236913
 30
0.0
 11
104.8376269999998
 21
61.236913
 31
0.0
  0
LINE
  5
A5C4
330
A420
100
AcDbEntity
  8
5
  6
PHANTOM
100
AcDbLine
 10
104.887627
 20
57.236913
 30
0.0
 11
104.887627
 21
61.236913
 31
0.0
  0
LINE
  5
A5C5
330
A420
100
AcDbEntity
  8
5
  6
PHANTOM
100
AcDbLine
 10
104.8376269999998
 20
55.236913
 30
0.0
 11
104.8376269999998
 21
63.236913
 31
0.0
  0
LINE
  5
A5C6
330
A420
100
AcDbEntity
  8
5
  6
PHANTOM
100
AcDbLine
 10
117.151656
 20
214.9704289999998
 30
0.0
 11
117.201656
 21
214.9704289999998
 31
0.0
  0
LINE
  5
A5C7
330
A420
100
AcDbEntity
  8
5
  6
PHANTOM
100
AcDbLine
 10
40.35711699999999
 20
148.979286
 30
0.0
 11
40.35711699999999
 21
136.5792859999999
 31
0.0
  0
LINE
  5
A5C8
330
A420
100
AcDbEntity
  8
5
  6
PHANTOM
100
AcDbLine
 10
32.35711699999999
 20
148.979286
 30
0.0
 11
32.35711699999999
 21
136.5792859999999
 31
0.0
  0
LINE
  5
A5C9
330
A420
100
AcDbEntity
  8
5
  6
PHANTOM
100
AcDbLine
 10
34.35711699999998
 20
136.629286
 30
0.0
 11
34.35711699999998
 21
136.5792859999999
 31
0.0
  0
LINE
  5
A5CA
330
A420
100
AcDbEntity
  8
5
  6
PHANTOM
100
AcDbLine
 10
40.35711699999999
 20
136.5792859999999
 30
0.0
 11
32.35711699999999
 21
136.5792859999999
 31
0.0
  0
LINE
  5
A5CB
330
A420
100
AcDbEntity
  8
5
  6
PHANTOM
100
AcDbLine
 10
38.35711699999999
 20
136.629286
 30
0.0
 11
34.35711699999998
 21
136.629286
 31
0.0
  0
LINE
  5
A5CC
330
A420
100
AcDbEntity
  8
5
  6
PHANTOM
100
AcDbLine
 10
34.35711699999998
 20
148.9292859999999
 30
0.0
 11
34.35711699999998
 21
148.979286
 31
0.0
  0
LINE
  5
A5CD
330
A420
100
AcDbEntity
  8
5
  6
PHANTOM
100
AcDbLine
 10
40.35711699999999
 20
148.979286
 30
0.0
 11
32.35711699999999
 21
148.979286
 31
0.0
  0
LINE
  5
A5CE
330
A420
100
AcDbEntity
  8
5
  6
PHANTOM
100
AcDbLine
 10
38.35711699999999
 20
148.9292859999999
 30
0.0
 11
34.35711699999998
 21
148.9292859999999
 31
0.0
  0
LINE
  5
A5CF
330
A420
100
AcDbEntity
  8
5
  6
PHANTOM
100
AcDbLine
 10
38.35711699999999
 20
136.629286
 30
0.0
 11
38.35711699999999
 21
136.5792859999999
 31
0.0
  0
LINE
  5
A5D0
330
A420
100
AcDbEntity
  8
5
  6
PHANTOM
100
AcDbLine
 10
104.851656
 20
214.9704289999998
 30
0.0
 11
104.8016559999999
 21
214.9704289999998
 31
0.0
  0
LINE
  5
A5D1
330
A420
100
AcDbEntity
  8
5
  6
PHANTOM
100
AcDbLine
 10
38.35711699999999
 20
148.9292859999999
 30
0.0
 11
38.35711699999999
 21
148.979286
 31
0.0
  0
LINE
  5
A5D2
330
A420
100
AcDbEntity
  8
5
  6
PHANTOM
100
AcDbLine
 10
231.9462099999999
 20
148.929256
 30
0.0
 11
231.9462099999999
 21
148.9792559999998
 31
0.0
  0
LINE
  5
A5D3
330
A420
100
AcDbEntity
  8
5
  6
PHANTOM
100
AcDbLine
 10
104.887627
 20
57.236913
 30
0.0
 11
104.8376269999998
 21
57.236913
 31
0.0
  0
LINE
  5
A5D4
330
A420
100
AcDbEntity
  8
4
  6
CENTER
100
AcDbLine
 10
101.633507
 20
142.7792969999998
 30
0.0
 11
120.5321679999999
 21
142.7792969999998
 31
0.0
  0
LINE
  5
A5D5
330
A420
100
AcDbEntity
  8
4
  6
CENTER
100
AcDbLine
 10
111.001656
 20
133.411148
 30
0.0
 11
111.001656
 21
152.3098089999998
 31
0.0
  0
LINE
  5
A5D6
330
A420
100
AcDbEntity
  8
1
  6
Continuous
100
AcDbLine
 10
228.6961959999999
 20
138.779286
 30
0.0
 11
224.946196
 21
138.779286
 31
0.0
  0
LINE
  5
A5D7
330
A420
100
AcDbEntity
  8
1
  6
Continuous
100
AcDbLine
 10
38.10711699999997
 20
132.779286
 30
0.0
 11
38.95711699999999
 21
132.779286
 31
0.0
  0
LINE
  5
A5D8
330
A420
100
AcDbEntity
  8
1
  6
Continuous
100
AcDbLine
 10
30.857165
 20
130.6792859999999
 30
0.0
 11
34.90716499999999
 21
130.6792859999999
 31
0.0
  0
LINE
  5
A5D9
330
A420
100
AcDbEntity
  8
1
  6
Continuous
100
AcDbLine
 10
30.857165
 20
129.6792859999999
 30
0.0
 11
41.857165
 21
129.6792859999999
 31
0.0
  0
ARC
  5
A5DA
330
A420
100
AcDbEntity
  8
1
  6
Continuous
100
AcDbCircle
 10
27.85716499999999
 20
129.379286
 30
0.0
 40
1.0
100
AcDbArc
 50
25.898322
 51
308.3739339999999
  0
LINE
  5
A5DB
330
A420
100
AcDbEntity
  8
1
  6
Continuous
100
AcDbLine
 10
30.857165
 20
130.6792859999999
 30
0.0
 11
28.756736
 21
129.8160609999999
 31
0.0
  0
LINE
  5
A5DC
330
A420
100
AcDbEntity
  8
1
  6
Continuous
100
AcDbLine
 10
30.857165
 20
129.6792859999999
 30
0.0
 11
28.47795599999999
 21
128.59531
 31
0.0
  0
ARC
  5
A5DD
330
A420
100
AcDbEntity
  8
1
  6
Continuous
100
AcDbCircle
 10
44.857165
 20
129.379286
 30
0.0
 40
1.0
100
AcDbArc
 50
231.626066
 51
154.1016779999999
  0
LINE
  5
A5DE
330
A420
100
AcDbEntity
  8
1
  6
Continuous
100
AcDbLine
 10
41.857165
 20
129.6792859999999
 30
0.0
 11
44.23637399999999
 21
128.59531
 31
0.0
  0
LINE
  5
A5DF
330
A420
100
AcDbEntity
  8
1
  6
Continuous
100
AcDbLine
 10
41.857165
 20
130.6792859999999
 30
0.0
 11
43.957594
 21
129.8160609999999
 31
0.0
  0
LINE
  5
A5E0
330
A420
100
AcDbEntity
  8
1
  6
Continuous
100
AcDbLine
 10
37.807165
 20
130.6792859999999
 30
0.0
 11
41.857165
 21
130.6792859999999
 31
0.0
  0
LINE
  5
A5E1
330
A420
100
AcDbEntity
  8
5
  6
PHANTOM
100
AcDbLine
 10
31.236496
 20
128.4366879999998
 30
0.0
 11
29.17176599999999
 21
126.8327769999999
 31
0.0
  0
LINE
  5
A5E2
330
A420
100
AcDbEntity
  8
5
  6
PHANTOM
100
AcDbLine
 10
31.005659
 20
129.40968
 30
0.0
 11
29.161221
 21
128.084912
 31
0.0
  0
ARC
  5
A5E3
330
A420
100
AcDbEntity
  8
5
  6
PHANTOM
100
AcDbCircle
 10
28.38677
 20
127.452278
 30
0.0
 40
1.0
100
AcDbArc
 50
39.24469699999999
 51
321.7203099999999
  0
ARC
  5
A5E4
330
A420
100
AcDbEntity
  8
5
  6
PHANTOM
100
AcDbCircle
 10
36.35711699999998
 20
118.766136
 30
0.0
 40
11.913149
100
AcDbArc
 50
63.307248
 51
116.692752
  0
ARC
  5
A5E5
330
A420
100
AcDbEntity
  8
5
  6
PHANTOM
100
AcDbCircle
 10
36.35711699999998
 20
118.252258
 30
0.0
 40
11.399271
100
AcDbArc
 50
63.307248
 51
116.692752
  0
LINE
  5
A5E6
330
A420
100
AcDbEntity
  8
1
  6
Continuous
100
AcDbLine
 10
115.7016559999999
 20
127.879286
 30
0.0
 11
118.7016559999999
 21
127.879286
 31
0.0
  0
LINE
  5
A5E7
330
A420
100
AcDbEntity
  8
1
  6
Continuous
100
AcDbLine
 10
113.201656
 20
128.379286
 30
0.0
 11
123.2016559999999
 21
128.379286
 31
0.0
  0
LINE
  5
A5E8
330
A420
100
AcDbEntity
  8
1
  6
Continuous
100
AcDbLine
 10
113.201656
 20
130.379286
 30
0.0
 11
123.2016559999999
 21
130.379286
 31
0.0
  0
LINE
  5
A5E9
330
A420
100
AcDbEntity
  8
1
  6
Continuous
100
AcDbLine
 10
113.201656
 20
130.6792859999999
 30
0.0
 11
123.2016559999999
 21
130.6792859999999
 31
0.0
  0
LINE
  5
A5EA
330
A420
100
AcDbEntity
  8
4
  6
CENTER
100
AcDbLine
 10
45.35711699999999
 20
142.7792969999998
 30
0.0
 11
27.35711699999999
 21
142.7792969999998
 31
0.0
  0
LINE
  5
A5EB
330
A420
100
AcDbEntity
  8
4
  6
CENTER
100
AcDbLine
 10
220.946196
 20
142.7792969999998
 30
0.0
 11
238.9461959999999
 21
142.7792969999998
 31
0.0
  0
LINE
  5
A5EC
330
A420
100
AcDbEntity
  8
4
  6
CENTER
100
AcDbLine
 10
111.001656
 20
50.236913
 30
0.0
 11
111.001656
 21
68.236913
 31
0.0
  0
LINE
  5
A5ED
330
A420
100
AcDbEntity
  8
4
  6
CENTER
100
AcDbLine
 10
111.001656
 20
207.970429
 30
0.0
 11
111.001656
 21
225.970429
 31
0.0
  0
ARC
  5
A5EE
330
A420
100
AcDbEntity
  8
5
  6
PHANTOM
100
AcDbCircle
 10
229.9461959999999
 20
118.766136
 30
0.0
 40
11.913149
100
AcDbArc
 50
63.307248
 51
116.692752
  0
ARC
  5
A5EF
330
A420
100
AcDbEntity
  8
5
  6
PHANTOM
100
AcDbCircle
 10
229.9461959999999
 20
118.252258
 30
0.0
 40
11.399271
100
AcDbArc
 50
63.307248
 51
116.692752
  0
LINE
  5
A5F0
330
A420
100
AcDbEntity
  8
5
  6
PHANTOM
100
AcDbLine
 10
224.8255749999999
 20
128.4366879999998
 30
0.0
 11
222.7608449999999
 21
126.8327769999999
 31
0.0
  0
LINE
  5
A5F1
330
A420
100
AcDbEntity
  8
5
  6
PHANTOM
100
AcDbLine
 10
224.594738
 20
129.40968
 30
0.0
 11
222.7503
 21
128.084912
 31
0.0
  0
ARC
  5
A5F2
330
A420
100
AcDbEntity
  8
5
  6
PHANTOM
100
AcDbCircle
 10
221.975849
 20
127.452278
 30
0.0
 40
1.0
100
AcDbArc
 50
39.24469699999999
 51
321.7203099999999
  0
ARC
  5
A5F3
330
A420
100
AcDbEntity
  8
5
  6
PHANTOM
100
AcDbCircle
 10
237.916542
 20
127.452278
 30
0.0
 40
1.0
100
AcDbArc
 50
218.27969
 51
140.755303
  0
LINE
  5
A5F4
330
A420
100
AcDbEntity
  8
5
  6
PHANTOM
100
AcDbLine
 10
235.2976539999999
 20
129.40968
 30
0.0
 11
237.1420909999999
 21
128.084912
 31
0.0
  0
LINE
  5
A5F5
330
A420
100
AcDbEntity
  8
5
  6
PHANTOM
100
AcDbLine
 10
235.066816
 20
128.4366879999998
 30
0.0
 11
237.1315459999999
 21
126.8327769999999
 31
0.0
  0
LINE
  5
A5F6
330
A420
100
AcDbEntity
  8
1
  6
Continuous
100
AcDbLine
 10
224.4462439999999
 20
130.6792859999999
 30
0.0
 11
228.4961959999999
 21
130.6792859999999
 31
0.0
  0
LINE
  5
A5F7
330
A420
100
AcDbEntity
  8
1
  6
Continuous
100
AcDbLine
 10
224.4462439999999
 20
129.6792859999999
 30
0.0
 11
235.446244
 21
129.6792859999999
 31
0.0
  0
ARC
  5
A5F8
330
A420
100
AcDbEntity
  8
1
  6
Continuous
100
AcDbCircle
 10
221.446244
 20
129.379286
 30
0.0
 40
1.0
100
AcDbArc
 50
25.898322
 51
308.3739339999999
  0
LINE
  5
A5F9
330
A420
100
AcDbEntity
  8
1
  6
Continuous
100
AcDbLine
 10
224.4462439999999
 20
130.6792859999999
 30
0.0
 11
222.3458149999999
 21
129.8160609999999
 31
0.0
  0
LINE
  5
A5FA
330
A420
100
AcDbEntity
  8
1
  6
Continuous
100
AcDbLine
 10
224.4462439999999
 20
129.6792859999999
 30
0.0
 11
222.067035
 21
128.59531
 31
0.0
  0
ARC
  5
A5FB
330
A420
100
AcDbEntity
  8
1
  6
Continuous
100
AcDbCircle
 10
238.446244
 20
129.379286
 30
0.0
 40
1.0
100
AcDbArc
 50
231.626066
 51
154.1016779999999
  0
LINE
  5
A5FC
330
A420
100
AcDbEntity
  8
1
  6
Continuous
100
AcDbLine
 10
235.446244
 20
129.6792859999999
 30
0.0
 11
237.8254529999999
 21
128.59531
 31
0.0
  0
LINE
  5
A5FD
330
A420
100
AcDbEntity
  8
1
  6
Continuous
100
AcDbLine
 10
235.446244
 20
130.6792859999999
 30
0.0
 11
237.5466729999998
 21
129.8160609999999
 31
0.0
  0
LINE
  5
A5FE
330
A420
100
AcDbEntity
  8
1
  6
Continuous
100
AcDbLine
 10
231.3961959999998
 20
130.6792859999999
 30
0.0
 11
235.446244
 21
130.6792859999999
 31
0.0
  0
ARC
  5
A5FF
330
A420
100
AcDbEntity
  8
1
  6
Continuous
100
AcDbCircle
 10
228.4961959999999
 20
129.1792859999999
 30
0.0
 40
0.5
100
AcDbArc
 50
0.0
 51
90.0
  0
ARC
  5
A600
330
A420
100
AcDbEntity
  8
1
  6
Continuous
100
AcDbCircle
 10
231.3961959999998
 20
129.1792859999999
 30
0.0
 40
0.5
100
AcDbArc
 50
90.0
 51
180.0
  0
ARC
  5
A601
330
A420
100
AcDbEntity
  8
1
  6
Continuous
100
AcDbCircle
 10
231.3961959999998
 20
131.1792859999999
 30
0.0
 40
0.5
100
AcDbArc
 50
180.0
 51
270.0
  0
ARC
  5
A602
330
A420
100
AcDbEntity
  8
1
  6
Continuous
100
AcDbCircle
 10
228.4961959999999
 20
131.1792859999999
 30
0.0
 40
0.5
100
AcDbArc
 50
270.0
 51
0.0
  0
ARC
  5
A603
330
A420
100
AcDbEntity
  8
1
  6
Continuous
100
AcDbCircle
 10
118.201656
 20
117.579297
 30
0.0
 40
1.0
100
AcDbArc
 50
270.0
 51
0.0
  0
ARC
  5
A604
330
A420
100
AcDbEntity
  8
1
  6
Continuous
100
AcDbCircle
 10
116.201656
 20
117.579297
 30
0.0
 40
1.0
100
AcDbArc
 50
180.0
 51
270.0
  0
ARC
  5
A605
330
A420
100
AcDbEntity
  8
1
  6
Continuous
100
AcDbCircle
 10
106.001656
 20
147.7792969999998
 30
0.0
 40
10.0
100
AcDbArc
 50
3.336675
 51
270.0
  0
LINE
  5
A606
330
A420
100
AcDbEntity
  8
4
  6
CENTER
100
AcDbLine
 10
122.2016559999999
 20
147.7792969999998
 30
0.0
 11
89.80165599999997
 21
147.7792969999998
 31
0.0
  0
LINE
  5
A607
330
A420
100
AcDbEntity
  8
4
  6
CENTER
100
AcDbLine
 10
106.001656
 20
163.979297
 30
0.0
 11
106.001656
 21
131.5792969999999
 31
0.0
  0
ARC
  5
A608
330
A420
100
AcDbEntity
  8
1
  6
Continuous
100
AcDbCircle
 10
106.001656
 20
147.7792969999998
 30
0.0
 40
11.19999999999998
100
AcDbArc
 50
2.988666999999998
 51
270.0
  0
LINE
  5
A609
330
A420
100
AcDbEntity
  8
4
  6
CENTER
100
AcDbLine
 10
45.35711699999999
 20
147.7792969999998
 30
0.0
 11
27.35711699999999
 21
147.7792969999998
 31
0.0
  0
LINE
  5
A60A
330
A420
100
AcDbEntity
  8
4
  6
CENTER
100
AcDbLine
 10
220.946196
 20
147.7792969999998
 30
0.0
 11
238.9461959999999
 21
147.7792969999998
 31
0.0
  0
LINE
  5
A60B
330
A420
100
AcDbEntity
  8
4
  6
CENTER
100
AcDbLine
 10
106.001656
 20
50.236913
 30
0.0
 11
106.001656
 21
68.236913
 31
0.0
  0
LINE
  5
A60C
330
A420
100
AcDbEntity
  8
4
  6
CENTER
100
AcDbLine
 10
106.001656
 20
207.970429
 30
0.0
 11
106.001656
 21
225.970429
 31
0.0
  0
LINE
  5
A60D
330
A420
100
AcDbEntity
  8
5
  6
PHANTOM
100
AcDbLine
 10
162.4876559999999
 20
220.9704289999999
 30
0.0
 11
169.0376559999999
 21
219.16417
 31
0.0
  0
ARC
  5
A60E
330
A420
100
AcDbEntity
  8
5
  6
PHANTOM
100
AcDbCircle
 10
168.5376559999999
 20
216.9704289999998
 30
0.0
 40
2.25
100
AcDbArc
 50
282.839588
 51
77.16041199999998
  0
LINE
  5
A60F
330
A420
100
AcDbEntity
  8
5
  6
PHANTOM
100
AcDbLine
 10
162.4876559999999
 20
212.9704289999998
 30
0.0
 11
169.0376559999999
 21
214.7766879999998
 31
0.0
  0
LINE
  5
A610
330
A420
100
AcDbEntity
  8
5
  6
PHANTOM
100
AcDbLine
 10
123.237627
 20
220.9704289999999
 30
0.0
 11
162.4876559999999
 21
220.9704289999999
 31
0.0
  0
LINE
  5
A611
330
A420
100
AcDbEntity
  8
5
  6
PHANTOM
100
AcDbLine
 10
123.237627
 20
212.9704289999998
 30
0.0
 11
162.4876559999999
 21
212.9704289999998
 31
0.0
  0
LINE
  5
A612
330
A420
100
AcDbEntity
  8
5
  6
PHANTOM
100
AcDbLine
 10
123.237627
 20
63.236913
 30
0.0
 11
162.4876559999999
 21
63.236913
 31
0.0
  0
LINE
  5
A613
330
A420
100
AcDbEntity
  8
5
  6
PHANTOM
100
AcDbLine
 10
162.4876559999999
 20
63.236913
 30
0.0
 11
169.0376559999999
 21
61.43065400000001
 31
0.0
  0
ARC
  5
A614
330
A420
100
AcDbEntity
  8
5
  6
PHANTOM
100
AcDbCircle
 10
168.5376559999999
 20
59.236913
 30
0.0
 40
2.25
100
AcDbArc
 50
282.839588
 51
77.16041199999998
  0
LINE
  5
A615
330
A420
100
AcDbEntity
  8
5
  6
PHANTOM
100
AcDbLine
 10
162.4876559999999
 20
55.236913
 30
0.0
 11
169.0376559999999
 21
57.043172
 31
0.0
  0
LINE
  5
A616
330
A420
100
AcDbEntity
  8
5
  6
PHANTOM
100
AcDbLine
 10
123.237627
 20
55.236913
 30
0.0
 11
162.4876559999999
 21
55.236913
 31
0.0
  0
LINE
  5
A617
330
A420
100
AcDbEntity
  8
5
  6
PHANTOM
100
AcDbLine
 10
289.140735
 20
136.5792969999999
 30
0.0
 11
336.690735
 21
136.5792969999999
 31
0.0
  0
LINE
  5
A618
330
A420
100
AcDbEntity
  8
5
  6
PHANTOM
100
AcDbLine
 10
289.640735
 20
137.7792969999999
 30
0.0
 11
336.690735
 21
137.7792969999999
 31
0.0
  0
LINE
  5
A619
330
A420
100
AcDbEntity
  8
1
  6
Continuous
100
AcDbLine
 10
323.190735
 20
137.7792969999999
 30
0.0
 11
336.690735
 21
137.7792969999999
 31
0.0
  0
LINE
  5
A61A
330
A420
100
AcDbEntity
  8
1
  6
Continuous
100
AcDbLine
 10
322.690735
 20
136.5792969999999
 30
0.0
 11
336.690735
 21
136.5792969999999
 31
0.0
  0
LINE
  5
A61B
330
A420
100
AcDbEntity
  8
4
  6
CENTER
100
AcDbLine
 10
353.890735
 20
163.979297
 30
0.0
 11
353.890735
 21
131.5792969999999
 31
0.0
  0
LINE
  5
A61C
330
A420
100
AcDbEntity
  8
1
  6
Continuous
100
AcDbLine
 10
336.690735
 20
140.2792969999999
 30
0.0
 11
336.690735
 21
128.379286
 31
0.0
  0
LINE
  5
A61D
330
A420
100
AcDbEntity
  8
1
  6
Continuous
100
AcDbLine
 10
346.690735
 20
138.7792969999999
 30
0.0
 11
346.690735
 21
128.379286
 31
0.0
  0
ARC
  5
A61E
330
A420
100
AcDbEntity
  8
1
  6
Continuous
100
AcDbCircle
 10
343.690735
 20
117.579297
 30
0.0
 40
1.0
100
AcDbArc
 50
270.0
 51
0.0
  0
ARC
  5
A61F
330
A420
100
AcDbEntity
  8
1
  6
Continuous
100
AcDbCircle
 10
341.690735
 20
117.579297
 30
0.0
 40
1.0
100
AcDbArc
 50
180.0
 51
270.0
  0
LINE
  5
A620
330
A420
100
AcDbEntity
  8
1
  6
Continuous
100
AcDbLine
 10
346.690735
 20
130.6792859999999
 30
0.0
 11
336.690735
 21
130.6792859999999
 31
0.0
  0
LINE
  5
A621
330
A420
100
AcDbEntity
  8
1
  6
Continuous
100
AcDbLine
 10
346.690735
 20
130.379286
 30
0.0
 11
336.690735
 21
130.379286
 31
0.0
  0
LINE
  5
A622
330
A420
100
AcDbEntity
  8
1
  6
Continuous
100
AcDbLine
 10
346.690735
 20
128.379286
 30
0.0
 11
336.690735
 21
128.379286
 31
0.0
  0
LINE
  5
A623
330
A420
100
AcDbEntity
  8
1
  6
Continuous
100
AcDbLine
 10
344.190735
 20
127.879286
 30
0.0
 11
341.190735
 21
127.879286
 31
0.0
  0
LINE
  5
A624
330
A420
100
AcDbEntity
  8
4
  6
CENTER
100
AcDbLine
 10
342.690735
 20
126.779297
 30
0.0
 11
342.690735
 21
113.907861
 31
0.0
  0
ARC
  5
A625
330
A420
100
AcDbEntity
  8
1
  6
Continuous
100
AcDbCircle
 10
342.690735
 20
118.0792969999999
 30
0.0
 40
1.5
100
AcDbArc
 50
180.0
 51
0.0
  0
LINE
  5
A626
330
A420
100
AcDbEntity
  8
1
  6
Continuous
100
AcDbLine
 10
341.690735
 20
116.579297
 30
0.0
 11
343.690735
 21
116.579297
 31
0.0
  0
LINE
  5
A627
330
A420
100
AcDbEntity
  8
1
  6
Continuous
100
AcDbLine
 10
341.190735
 20
125.779297
 30
0.0
 11
344.190735
 21
125.779297
 31
0.0
  0
LINE
  5
A628
330
A420
100
AcDbEntity
  8
1
  6
Continuous
100
AcDbLine
 10
339.3407349999999
 20
128.379286
 30
0.0
 11
339.3407349999999
 21
121.732255
 31
0.0
  0
ARC
  5
A629
330
A420
100
AcDbEntity
  8
1
  6
Continuous
100
AcDbCircle
 10
339.8407349999998
 20
121.732255
 30
0.0
 40
0.5
100
AcDbArc
 50
180.0
 51
214.01935
  0
ARC
  5
A62A
330
A420
100
AcDbEntity
  8
1
  6
Continuous
100
AcDbCircle
 10
340.190735
 20
119.4263389999999
 30
0.0
 40
0.5
100
AcDbArc
 50
0.0
 51
34.01935
  0
LINE
  5
A62B
330
A420
100
AcDbEntity
  8
1
  6
Continuous
100
AcDbLine
 10
340.6051589999999
 20
119.706076
 30
0.0
 11
339.426311
 21
121.452518
 31
0.0
  0
ARC
  5
A62C
330
A420
100
AcDbEntity
  8
1
  6
Continuous
100
AcDbCircle
 10
340.190735
 20
119.4263389999999
 30
0.0
 40
0.5
100
AcDbArc
 50
0.0
 51
34.01935
  0
LINE
  5
A62D
330
A420
100
AcDbEntity
  8
1
  6
Continuous
100
AcDbLine
 10
346.040735
 20
128.379286
 30
0.0
 11
346.040735
 21
121.732255
 31
0.0
  0
ARC
  5
A62E
330
A420
100
AcDbEntity
  8
1
  6
Continuous
100
AcDbCircle
 10
345.5407349999999
 20
121.732255
 30
0.0
 40
0.5
100
AcDbArc
 50
325.98065
 51
0.0
  0
LINE
  5
A62F
330
A420
100
AcDbEntity
  8
1
  6
Continuous
100
AcDbLine
 10
344.7763109999999
 20
119.706076
 30
0.0
 11
345.9551589999999
 21
121.452518
 31
0.0
  0
ARC
  5
A630
330
A420
100
AcDbEntity
  8
1
  6
Continuous
100
AcDbCircle
 10
345.190735
 20
119.4263389999999
 30
0.0
 40
0.5
100
AcDbArc
 50
145.98065
 51
180.0
  0
LINE
  5
A631
330
A420
100
AcDbEntity
  8
1
  6
Continuous
100
AcDbLine
 10
336.690735
 20
131.7792969999999
 30
0.0
 11
346.690735
 21
131.7792969999999
 31
0.0
  0
LINE
  5
A632
330
A420
100
AcDbEntity
  8
1
  6
Continuous
100
AcDbLine
 10
341.190735
 20
127.879286
 30
0.0
 11
341.190735
 21
118.0792969999999
 31
0.0
  0
LINE
  5
A633
330
A420
100
AcDbEntity
  8
1
  6
Continuous
100
AcDbLine
 10
344.190735
 20
127.879286
 30
0.0
 11
344.190735
 21
118.0792969999999
 31
0.0
  0
LINE
  5
A634
330
A420
100
AcDbEntity
  8
1
  6
Continuous
100
AcDbLine
 10
344.690735
 20
119.4263389999999
 30
0.0
 11
344.690735
 21
117.579297
 31
0.0
  0
LINE
  5
A635
330
A420
100
AcDbEntity
  8
1
  6
Continuous
100
AcDbLine
 10
340.690735
 20
119.4263389999999
 30
0.0
 11
340.690735
 21
117.579297
 31
0.0
  0
ARC
  5
A636
330
A420
100
AcDbEntity
  8
1
  6
Continuous
100
AcDbCircle
 10
353.890735
 20
147.7792969999998
 30
0.0
 40
11.19999999999998
100
AcDbArc
 50
270.0
 51
177.011333
  0
LINE
  5
A637
330
A420
100
AcDbEntity
  8
4
  6
CENTER
100
AcDbLine
 10
337.690735
 20
147.7792969999998
 30
0.0
 11
370.090735
 21
147.7792969999998
 31
0.0
  0
ARC
  5
A638
330
A420
100
AcDbEntity
  8
1
  6
Continuous
100
AcDbCircle
 10
353.890735
 20
147.7792969999998
 30
0.0
 40
10.0
100
AcDbArc
 50
270.0
 51
176.6633249999999
  0
LINE
  5
A639
330
A420
100
AcDbEntity
  8
4
  6
CENTER
100
AcDbLine
 10
358.2588839999999
 20
142.7792969999998
 30
0.0
 11
339.360223
 21
142.7792969999998
 31
0.0
  0
LINE
  5
A63A
330
A420
100
AcDbEntity
  8
5
  6
PHANTOM
100
AcDbLine
 10
348.890735
 20
136.5792969999999
 30
0.0
 11
346.690735
 21
136.5792969999999
 31
0.0
  0
ARC
  5
A63B
330
A420
100
AcDbEntity
  8
5
  6
PHANTOM
100
AcDbCircle
 10
348.890735
 20
142.7792969999998
 30
0.0
 40
6.2
100
AcDbArc
 50
270.0
 51
180.0
  0
LINE
  5
A63C
330
A420
100
AcDbEntity
  8
5
  6
PHANTOM
100
AcDbLine
 10
348.890735
 20
137.7792969999999
 30
0.0
 11
346.690735
 21
137.7792969999999
 31
0.0
  0
ARC
  5
A63D
330
A420
100
AcDbEntity
  8
5
  6
PHANTOM
100
AcDbCircle
 10
348.890735
 20
142.7792969999998
 30
0.0
 40
5.0
100
AcDbArc
 50
270.0
 51
180.0
  0
LINE
  5
A63E
330
A420
100
AcDbEntity
  8
1
  6
Continuous
100
AcDbLine
 10
346.690735
 20
137.7792969999999
 30
0.0
 11
354.4907349999999
 21
137.7792969999999
 31
0.0
  0
LINE
  5
A63F
330
A420
100
AcDbEntity
  8
1
  6
Continuous
100
AcDbLine
 10
346.690735
 20
136.5792969999999
 30
0.0
 11
354.4907349999999
 21
136.5792969999999
 31
0.0
  0
LINE
  5
A640
330
A420
100
AcDbEntity
  8
4
  6
CENTER
100
AcDbLine
 10
348.890735
 20
133.411148
 30
0.0
 11
348.890735
 21
152.3098089999998
 31
0.0
  0
LINE
  5
A641
330
A420
100
AcDbEntity
  8
5
  6
PHANTOM
100
AcDbLine
 10
342.690735
 20
142.7792969999998
 30
0.0
 11
342.690735
 21
138.7792969999999
 31
0.0
  0
LINE
  5
A642
330
A420
100
AcDbEntity
  8
5
  6
PHANTOM
100
AcDbLine
 10
343.890735
 20
142.7792969999998
 30
0.0
 11
343.890735
 21
138.7792969999999
 31
0.0
  0
LINE
  5
A643
330
A420
100
AcDbEntity
  8
1
  6
Continuous
100
AcDbLine
 10
343.890735
 20
148.379297
 30
0.0
 11
343.890735
 21
138.7792969999999
 31
0.0
  0
LINE
  5
A644
330
A420
100
AcDbEntity
  8
1
  6
Continuous
100
AcDbLine
 10
342.690735
 20
148.379297
 30
0.0
 11
342.690735
 21
138.7792969999999
 31
0.0
  0
LINE
  5
A645
330
A420
100
AcDbEntity
  8
1
  6
Continuous
100
AcDbLine
 10
332.690735
 20
134.7792969999999
 30
0.0
 11
336.690735
 21
134.7792969999999
 31
0.0
  0
LINE
  5
A646
330
A420
100
AcDbEntity
  8
1
  6
Continuous
100
AcDbLine
 10
336.690735
 20
140.2792969999999
 30
0.0
 11
340.9907349999999
 21
140.2792969999999
 31
0.0
  0
LINE
  5
A647
330
A420
100
AcDbEntity
  8
1
  6
Continuous
100
AcDbLine
 10
342.690735
 20
141.979297
 30
0.0
 11
340.9907349999999
 21
140.2792969999999
 31
0.0
  0
LINE
  5
A648
330
A420
100
AcDbEntity
  8
1
  6
Continuous
100
AcDbLine
 10
332.690735
 20
135.7792969999999
 30
0.0
 11
336.690735
 21
135.7792969999999
 31
0.0
  0
LINE
  5
A649
330
A420
100
AcDbEntity
  8
1
  6
Continuous
100
AcDbLine
 10
332.690735
 20
135.7792969999999
 30
0.0
 11
332.690735
 21
134.7792969999999
 31
0.0
  0
LINE
  5
A64A
330
A420
100
AcDbEntity
  8
1
  6
Continuous
100
AcDbLine
 10
336.690735
 20
138.7792969999999
 30
0.0
 11
346.690735
 21
138.7792969999999
 31
0.0
  0
LINE
  5
A64B
330
A420
100
AcDbEntity
  8
1
  6
Continuous
100
AcDbLine
 10
336.690735
 20
133.7792969999999
 30
0.0
 11
346.690735
 21
133.7792969999999
 31
0.0
  0
LINE
  5
A64C
330
A420
100
AcDbEntity
  8
4
  6
CENTER
100
AcDbLine
 10
329.4547350000001
 20
142.7792969999998
 30
0.0
 11
329.4547350000001
 21
131.5792969999999
 31
0.0
  0
ARC
  5
A64D
330
A420
100
AcDbEntity
  8
1
  6
Continuous
100
AcDbCircle
 10
323.190735
 20
137.2792969999999
 30
0.0
 40
0.5
100
AcDbArc
 50
90.0
 51
180.0
  0
LINE
  5
A64E
330
A420
100
AcDbEntity
  8
1
  6
Continuous
100
AcDbLine
 10
322.690735
 20
137.2792969999999
 30
0.0
 11
322.690735
 21
136.5792969999999
 31
0.0
  0
ARC
  5
A64F
330
A420
100
AcDbEntity
  8
5
  6
PHANTOM
100
AcDbCircle
 10
289.640735
 20
137.2792969999999
 30
0.0
 40
0.5
100
AcDbArc
 50
90.0
 51
180.0
  0
LINE
  5
A650
330
A420
100
AcDbEntity
  8
5
  6
PHANTOM
100
AcDbLine
 10
289.140735
 20
137.2792969999999
 30
0.0
 11
289.140735
 21
136.5792969999999
 31
0.0
  0
LINE
  5
A651
330
A420
100
AcDbEntity
  8
4
  6
CENTER
100
AcDbLine
 10
163.9876559999999
 20
213.384076
 30
0.0
 11
163.9876559999999
 21
220.5567819999999
 31
0.0
  0
CIRCLE
  5
A652
330
A420
100
AcDbEntity
  8
5
  6
PHANTOM
100
AcDbCircle
 10
163.9876559999999
 20
216.9704289999998
 30
0.0
 40
1.6
  0
LINE
  5
A653
330
A420
100
AcDbEntity
  8
4
  6
CENTER
100
AcDbLine
 10
163.9876559999999
 20
142.7792969999998
 30
0.0
 11
163.9876559999999
 21
131.5792969999999
 31
0.0
  0
LINE
  5
A654
330
A420
100
AcDbEntity
  8
4
  6
CENTER
100
AcDbLine
 10
163.9876559999999
 20
55.65056
 30
0.0
 11
163.9876559999999
 21
62.82326600000001
 31
0.0
  0
CIRCLE
  5
A655
330
A420
100
AcDbEntity
  8
5
  6
PHANTOM
100
AcDbCircle
 10
163.9876559999999
 20
59.236913
 30
0.0
 40
1.6
  0
LINE
  5
A656
330
A420
100
AcDbEntity
  8
4
  6
CENTER
100
AcDbLine
 10
295.904735
 20
142.7792969999998
 30
0.0
 11
295.904735
 21
131.5792969999999
 31
0.0
  0
ENDSEC
  0
SECTION
  2
OBJECTS
  0
DICTIONARY
  5
A40E
330
0
100
AcDbDictionary
281
     1
  3
ACAD_CIP_PREVIOUS_PRODUCT_INFO
350
A6B6
  3
ACAD_COLOR
350
A698
  3
ACAD_DETAILVIEWSTYLE
350
A6B1
  3
ACAD_GROUP
350
A40F
  3
ACAD_LAYOUT
350
A41B
  3
ACAD_MATERIAL
350
A666
  3
ACAD_MLEADERSTYLE
350
A6AD
  3
ACAD_MLINESTYLE
350
A418
  3
ACAD_PLOTSETTINGS
350
A41A
  3
ACAD_PLOTSTYLENAME
350
A664
  3
ACAD_SCALELIST
350
A69B
  3
ACAD_SECTIONVIEWSTYLE
350
A6AF
  3
ACAD_TABLESTYLE
350
A699
  3
ACAD_VISUALSTYLE
350
A67F
  3
ACDB_RECOMPOSE_DATA
350
A6D4
  3
AcDbVariableDictionary
350
A6C7
  3
DWGPROPS
350
A6D5
  0
DICTIONARY
  5
A6B7
330
A412
100
AcDbDictionary
280
     1
281
     1
  3
ADSK_XREC_LAYER_RECONCILED
360
A6B8
  0
DICTIONARY
  5
A6B9
330
A428
100
AcDbDictionary
280
     1
281
     1
  3
ADSK_XREC_LAYER_RECONCILED
360
A6BA
  0
DICTIONARY
  5
A6BB
330
A429
100
AcDbDictionary
280
     1
281
     1
  3
ADSK_XREC_LAYER_RECONCILED
360
A6BC
  0
DICTIONARY
  5
A6BD
330
A42A
100
AcDbDictionary
280
     1
281
     1
  3
ADSK_XREC_LAYER_RECONCILED
360
A6BE
  0
DICTIONARY
  5
A6BF
330
A42B
100
AcDbDictionary
280
     1
281
     1
  3
ADSK_XREC_LAYER_RECONCILED
360
A6C0
  0
DICTIONARY
  5
A6C1
330
A42C
100
AcDbDictionary
280
     1
281
     1
  3
ADSK_XREC_LAYER_RECONCILED
360
A6C2
  0
DICTIONARY
  5
A6C3
330
A42D
100
AcDbDictionary
280
     1
281
     1
  3
ADSK_XREC_LAYER_RECONCILED
360
A6C4
  0
DICTIONARY
  5
A6C5
330
A42E
100
AcDbDictionary
280
     1
281
     1
  3
ADSK_XREC_LAYER_RECONCILED
360
A6C6
  0
DICTIONARY
  5
A65F
330
A420
100
AcDbDictionary
281
     1
  3
ACAD_LAYOUTSELFREF
350
A660
  0
DICTIONARY
  5
A65D
330
A41C
100
AcDbDictionary
281
     1
  3
ACAD_LAYOUTSELFREF
350
A65E
  0
XRECORD
  5
A6B6
102
{ACAD_REACTORS
330
A40E
102
}
330
A40E
100
AcDbXrecord
280
     1
300
ACDLT
300
2014
300
ACDLT_F_S
  0
DICTIONARY
  5
A698
102
{ACAD_REACTORS
330
A40E
102
}
330
A40E
100
AcDbDictionary
281
     1
  0
DICTIONARY
  5
A6B1
102
{ACAD_REACTORS
330
A40E
102
}
330
A40E
100
AcDbDictionary
281
     1
  3
Imperial24
350
A6B2
  0
DICTIONARY
  5
A40F
102
{ACAD_REACTORS
330
A40E
102
}
330
A40E
100
AcDbDictionary
281
     1
  0
DICTIONARY
  5
A41B
102
{ACAD_REACTORS
330
A40E
102
}
330
A40E
100
AcDbDictionary
281
     1
  3
Model
350
A6B3
  3
レイアウト1
350
A6B4
  0
DICTIONARY
  5
A666
102
{ACAD_REACTORS
330
A40E
102
}
330
A40E
100
AcDbDictionary
281
     1
  3
ByBlock
350
A66F
  3
ByLayer
350
A667
  3
Global
350
A677
  0
DICTIONARY
  5
A6AD
102
{ACAD_REACTORS
330
A40E
102
}
330
A40E
100
AcDbDictionary
281
     1
  3
Standard
350
A6AE
  0
DICTIONARY
  5
A418
102
{ACAD_REACTORS
330
A40E
102
}
330
A40E
100
AcDbDictionary
281
     1
  3
STANDARD
350
A419
  0
DICTIONARY
  5
A41A
102
{ACAD_REACTORS
330
A40E
102
}
330
A40E
100
AcDbDictionary
281
     1
  0
ACDBDICTIONARYWDFLT
  5
A664
102
{ACAD_REACTORS
330
A40E
102
}
330
A40E
100
AcDbDictionary
281
     1
  3
Normal
350
A665
100
AcDbDictionaryWithDefault
340
A665
  0
DICTIONARY
  5
A69B
102
{ACAD_REACTORS
330
A40E
102
}
330
A40E
100
AcDbDictionary
281
     1
  3
A0
350
A69C
  3
A1
350
A69D
  3
A2
350
A69E
  3
A3
350
A69F
  3
A4
350
A6A0
  3
A5
350
A6A1
  3
A6
350
A6A2
  3
A7
350
A6A3
  3
A8
350
A6A4
  3
A9
350
A6A5
  3
B0
350
A6A6
  3
B1
350
A6A7
  3
B2
350
A6A8
  3
B3
350
A6A9
  3
B4
350
A6AA
  3
B5
350
A6AB
  3
B6
350
A6AC
  0
DICTIONARY
  5
A6AF
102
{ACAD_REACTORS
330
A40E
102
}
330
A40E
100
AcDbDictionary
281
     1
  3
Imperial24
350
A6B0
  0
DICTIONARY
  5
A699
102
{ACAD_REACTORS
330
A40E
102
}
330
A40E
100
AcDbDictionary
281
     1
  3
Standard
350
A69A
  0
DICTIONARY
  5
A67F
102
{ACAD_REACTORS
330
A40E
102
}
330
A40E
100
AcDbDictionary
281
     1
  3
2dWireframe
350
A685
  3
Basic
350
A684
  3
Brighten
350
A68B
  3
ColorChange
350
A68F
  3
Conceptual
350
A688
  3
Dim
350
A68A
  3
EdgeColorOff
350
A697
  3
Facepattern
350
A68E
  3
Flat
350
A680
  3
FlatWithEdges
350
A681
  3
Gouraud
350
A682
  3
GouraudWithEdges
350
A683
  3
Hidden
350
A687
  3
JitterOff
350
A695
  3
Linepattern
350
A68D
  3
OverhangOff
350
A696
  3
Realistic
350
A689
  3
Shaded
350
A694
  3
Shaded with edges
350
A693
  3
Shades of Gray
350
A690
  3
Sketchy
350
A691
  3
Thicken
350
A68C
  3
Wireframe
350
A686
  3
X-Ray
350
A692
  0
XRECORD
  5
A6D4
102
{ACAD_REACTORS
330
A40E
102
}
330
A40E
100
AcDbXrecord
280
     1
 90
        1
330
A69A
  0
DICTIONARY
  5
A6C7
102
{ACAD_REACTORS
330
A40E
102
}
330
A40E
100
AcDbDictionary
281
     1
  3
CANNOSCALE
350
A6CC
  3
CMLEADERSTYLE
350
A6C9
  3
CTABLESTYLE
350
A6C8
  3
CVIEWDETAILSTYLE
350
A6CA
  3
CVIEWSECTIONSTYLE
350
A6CB
  3
DIMASSOC
350
A6CF
  3
INDEXCTL
350
A6CE
  3
SORTENTS
350
A6CD
  3
XCLIPFRAME
350
A6D0
  0
XRECORD
  5
A6D5
102
{ACAD_REACTORS
330
A40E
102
}
330
A40E
100
AcDbXrecord
280
     1
  1
DWGPROPS COOKIE
  2

  3

  4

  6

  7

  8
Yoshitsune
  9

300
=
301
=
302
=
303
=
304
=
305
=
306
=
307
=
308
=
309
=
 40
0.0000109490740741
 41
2451301.771714699
 42
2457192.660774236
  1

 90
        0
  0
XRECORD
  5
A6B8
102
{ACAD_REACTORS
330
A6B7
102
}
330
A6B7
100
AcDbXrecord
280
     1
290
     1
  0
XRECORD
  5
A6BA
102
{ACAD_REACTORS
330
A6B9
102
}
330
A6B9
100
AcDbXrecord
280
     1
290
     1
  0
XRECORD
  5
A6BC
102
{ACAD_REACTORS
330
A6BB
102
}
330
A6BB
100
AcDbXrecord
280
     1
290
     1
  0
XRECORD
  5
A6BE
102
{ACAD_REACTORS
330
A6BD
102
}
330
A6BD
100
AcDbXrecord
280
     1
290
     1
  0
XRECORD
  5
A6C0
102
{ACAD_REACTORS
330
A6BF
102
}
330
A6BF
100
AcDbXrecord
280
     1
290
     1
  0
XRECORD
  5
A6C2
102
{ACAD_REACTORS
330
A6C1
102
}
330
A6C1
100
AcDbXrecord
280
     1
290
     1
  0
XRECORD
  5
A6C4
102
{ACAD_REACTORS
330
A6C3
102
}
330
A6C3
100
AcDbXrecord
280
     1
290
     1
  0
XRECORD
  5
A6C6
102
{ACAD_REACTORS
330
A6C5
102
}
330
A6C5
100
AcDbXrecord
280
     1
290
     1
  0
XRECORD
  5
A660
102
{ACAD_REACTORS
330
A65F
102
}
330
A65F
100
AcDbXrecord
280
     1
340
A420
  0
XRECORD
  5
A65E
102
{ACAD_REACTORS
330
A65D
102
}
330
A65D
100
AcDbXrecord
280
     1
340
A41C
  0
ACDBDETAILVIEWSTYLE
  5
A6B2
102
{ACAD_XDICTIONARY
360
A70D
102
}
102
{ACAD_REACTORS
330
A6B1
102
}
330
A6B1
100
AcDbModelDocViewStyle
 70
     0
  3
Imperial24
290
     0
100
AcDbDetailViewStyle
 70
     0
 71
     0
 90
        3
 71
     1
340
A413
 40
0.24
340
0
 40
0.24
300

 40
0.36
280
     3
 71
     2
340
A417
 90
       25
 71
     3
340
A413
 40
0.24
 90
        1
 40
0.75
 90
        1
300
%<\AcVar ViewType \f "%tc1">% %<\AcVar ViewDetailId>%\PSCALE %<\AcVar ViewScale \f "%sn">%
 71
     4
340
A417
 90
       25
340
A417
 90
       25
280
     0
  0
LAYOUT
  5
A6B3
102
{ACAD_XDICTIONARY
360
A70F
102
}
102
{ACAD_REACTORS
330
A41B
102
}
330
A41B
100
AcDbPlotSettings
  1

  2
Canon LBP9100C
  4

  6

 40
0.0
 41
0.0
 42
0.0
 43
0.0
 44
0.0
 45
0.0
 46
0.0
 47
0.0
 48
0.0
 49
0.0
140
0.0
141
0.0
142
1.0
143
1.0
 70
  1712
 72
     0
 73
     0
 74
     0
  7

 75
     0
147
1.0
148
0.0
149
0.0
100
AcDbLayout
  1
Model
 70
     1
 71
     0
 10
0.0
 20
0.0
 11
12.0
 21
9.0
 12
0.0
 22
0.0
 32
0.0
 14
0.0
 24
0.0
 34
0.0
 15
0.0
 25
0.0
 35
0.0
146
0.0
 13
0.0
 23
0.0
 33
0.0
 16
1.0
 26
0.0
 36
0.0
 17
0.0
 27
1.0
 37
0.0
 76
     0
330
A420
331
A65C
  0
LAYOUT
  5
A6B4
102
{ACAD_XDICTIONARY
360
A711
102
}
102
{ACAD_REACTORS
330
A41B
102
}
330
A41B
100
AcDbPlotSettings
  1

  2
Canon LBP9100C
  4

  6

 40
0.0
 41
0.0
 42
0.0
 43
0.0
 44
0.0
 45
0.0
 46
0.0
 47
0.0
 48
0.0
 49
0.0
140
0.0
141
0.0
142
1.0
143
1.0
 70
   688
 72
     0
 73
     0
 74
     5
  7

 75
    16
147
1.0
148
0.0
149
0.0
100
AcDbLayout
  1
レイアウト1
 70
     0
 71
     1
 10
0.0
 20
0.0
 11
420.0
 21
297.0
 12
0.0
 22
0.0
 32
0.0
 14
1.000000000000000E+20
 24
1.000000000000000E+20
 34
1.000000000000000E+20
 15
-1.000000000000000E+20
 25
-1.000000000000000E+20
 35
-1.000000000000000E+20
146
0.0
 13
0.0
 23
0.0
 33
0.0
 16
1.0
 26
0.0
 36
0.0
 17
0.0
 27
1.0
 37
0.0
 76
     0
330
A41C
  0
MATERIAL
  5
A66F
102
{ACAD_XDICTIONARY
360
A670
102
}
102
{ACAD_REACTORS
330
A666
102
}
330
A666
100
AcDbMaterial
  1
ByBlock
 72
     0
 43
0.0208333333333333
 43
0.0
 43
0.0
 43
0.0
 43
0.0
 43
0.0208333333333333
 43
0.0
 43
0.0
 43
0.0
 43
0.0
 43
1.0
 43
0.0
 43
0.0
 43
0.0
 43
0.0
 43
1.0
 77
     0
 47
0.0208333333333333
 47
0.0
 47
0.0
 47
0.0
 47
0.0
 47
0.0208333333333333
 47
0.0
 47
0.0
 47
0.0
 47
0.0
 47
1.0
 47
0.0
 47
0.0
 47
0.0
 47
0.0
 47
1.0
171
     0
 49
0.0208333333333333
 49
0.0
 49
0.0
 49
0.0
 49
0.0
 49
0.0208333333333333
 49
0.0
 49
0.0
 49
0.0
 49
0.0
 49
1.0
 49
0.0
 49
0.0
 49
0.0
 49
0.0
 49
1.0
175
     0
142
0.0208333333333333
142
0.0
142
0.0
142
0.0
142
0.0
142
0.0208333333333333
142
0.0
142
0.0
142
0.0
142
0.0
142
1.0
142
0.0
142
0.0
142
0.0
142
0.0
142
1.0
179
     0
144
0.0208333333333333
144
0.0
144
0.0
144
0.0
144
0.0
144
0.0208333333333333
144
0.0
144
0.0
144
0.0
144
0.0
144
1.0
144
0.0
144
0.0
144
0.0
144
0.0
144
1.0
147
0.0208333333333333
147
0.0
147
0.0
147
0.0
147
0.0
147
0.0208333333333333
147
0.0
147
0.0
147
0.0
147
0.0
147
1.0
147
0.0
147
0.0
147
0.0
147
0.0
147
1.0
  0
MATERIAL
  5
A667
102
{ACAD_XDICTIONARY
360
A668
102
}
102
{ACAD_REACTORS
330
A666
102
}
330
A666
100
AcDbMaterial
  1
ByLayer
 72
     0
 43
0.0208333333333333
 43
0.0
 43
0.0
 43
0.0
 43
0.0
 43
0.0208333333333333
 43
0.0
 43
0.0
 43
0.0
 43
0.0
 43
1.0
 43
0.0
 43
0.0
 43
0.0
 43
0.0
 43
1.0
 77
     0
 47
0.0208333333333333
 47
0.0
 47
0.0
 47
0.0
 47
0.0
 47
0.0208333333333333
 47
0.0
 47
0.0
 47
0.0
 47
0.0
 47
1.0
 47
0.0
 47
0.0
 47
0.0
 47
0.0
 47
1.0
171
     0
 49
0.0208333333333333
 49
0.0
 49
0.0
 49
0.0
 49
0.0
 49
0.0208333333333333
 49
0.0
 49
0.0
 49
0.0
 49
0.0
 49
1.0
 49
0.0
 49
0.0
 49
0.0
 49
0.0
 49
1.0
175
     0
142
0.0208333333333333
142
0.0
142
0.0
142
0.0
142
0.0
142
0.0208333333333333
142
0.0
142
0.0
142
0.0
142
0.0
142
1.0
142
0.0
142
0.0
142
0.0
142
0.0
142
1.0
179
     0
144
0.0208333333333333
144
0.0
144
0.0
144
0.0
144
0.0
144
0.0208333333333333
144
0.0
144
0.0
144
0.0
144
0.0
144
1.0
144
0.0
144
0.0
144
0.0
144
0.0
144
1.0
147
0.0208333333333333
147
0.0
147
0.0
147
0.0
147
0.0
147
0.0208333333333333
147
0.0
147
0.0
147
0.0
147
0.0
147
1.0
147
0.0
147
0.0
147
0.0
147
0.0
147
1.0
  0
MATERIAL
  5
A677
102
{ACAD_XDICTIONARY
360
A678
102
}
102
{ACAD_REACTORS
330
A666
102
}
330
A666
100
AcDbMaterial
  1
Global
 72
     0
 43
0.0208333333333333
 43
0.0
 43
0.0
 43
0.0
 43
0.0
 43
0.0208333333333333
 43
0.0
 43
0.0
 43
0.0
 43
0.0
 43
1.0
 43
0.0
 43
0.0
 43
0.0
 43
0.0
 43
1.0
 77
     0
 47
0.0208333333333333
 47
0.0
 47
0.0
 47
0.0
 47
0.0
 47
0.0208333333333333
 47
0.0
 47
0.0
 47
0.0
 47
0.0
 47
1.0
 47
0.0
 47
0.0
 47
0.0
 47
0.0
 47
1.0
171
     0
 49
0.0208333333333333
 49
0.0
 49
0.0
 49
0.0
 49
0.0
 49
0.0208333333333333
 49
0.0
 49
0.0
 49
0.0
 49
0.0
 49
1.0
 49
0.0
 49
0.0
 49
0.0
 49
0.0
 49
1.0
175
     0
142
0.0208333333333333
142
0.0
142
0.0
142
0.0
142
0.0
142
0.0208333333333333
142
0.0
142
0.0
142
0.0
142
0.0
142
1.0
142
0.0
142
0.0
142
0.0
142
0.0
142
1.0
179
     0
144
0.0208333333333333
144
0.0
144
0.0
144
0.0
144
0.0
144
0.0208333333333333
144
0.0
144
0.0
144
0.0
144
0.0
144
1.0
144
0.0
144
0.0
144
0.0
144
0.0
144
1.0
147
0.0208333333333333
147
0.0
147
0.0
147
0.0
147
0.0
147
0.0208333333333333
147
0.0
147
0.0
147
0.0
147
0.0
147
1.0
147
0.0
147
0.0
147
0.0
147
0.0
147
1.0
  0
MLEADERSTYLE
  5
A6AE
102
{ACAD_REACTORS
330
A6AD
102
}
330
A6AD
100
AcDbMLeaderStyle
170
     2
171
     1
172
     0
 90
        2
 40
0.0
 41
0.0
173
     1
 91
-1056964608
340
A415
 92
       -2
290
     1
 42
0.09
291
     1
 43
0.36
  3
Standard
 44
0.18
300

342
A413
174
     1
178
     6
175
     1
176
     0
 93
-1056964608
 45
0.18
292
     0
297
     0
 46
0.18
 94
-1056964608
 47
1.0
 49
1.0
140
1.0
293
     1
141
0.0
294
     1
177
     0
142
1.0
295
     0
296
     0
143
0.125
1001
ACAD_MLEADERVER
1070
     2
  0
MLINESTYLE
  5
A419
102
{ACAD_REACTORS
330
A418
102
}
330
A418
100
AcDbMlineStyle
  2
STANDARD
 70
     0
  3

 62
   256
 51
90.0
 52
90.0
 71
     2
 49
0.5
 62
   256
  6
BYLAYER
 49
-0.5
 62
   256
  6
BYLAYER
  0
ACDBPLACEHOLDER
  5
A665
102
{ACAD_REACTORS
330
A664
102
}
330
A664
  0
SCALE
  5
A69C
102
{ACAD_REACTORS
330
A69B
102
}
330
A69B
100
AcDbScale
 70
     0
300
1:1
140
1.0
141
1.0
290
     1
  0
SCALE
  5
A69D
102
{ACAD_REACTORS
330
A69B
102
}
330
A69B
100
AcDbScale
 70
     0
300
1/128" = 1'-0"
140
0.0078125
141
12.0
290
     0
  0
SCALE
  5
A69E
102
{ACAD_REACTORS
330
A69B
102
}
330
A69B
100
AcDbScale
 70
     0
300
1/64" = 1'-0"
140
0.015625
141
12.0
290
     0
  0
SCALE
  5
A69F
102
{ACAD_REACTORS
330
A69B
102
}
330
A69B
100
AcDbScale
 70
     0
300
1/32" = 1'-0"
140
0.03125
141
12.0
290
     0
  0
SCALE
  5
A6A0
102
{ACAD_REACTORS
330
A69B
102
}
330
A69B
100
AcDbScale
 70
     0
300
1/16" = 1'-0"
140
0.0625
141
12.0
290
     0
  0
SCALE
  5
A6A1
102
{ACAD_REACTORS
330
A69B
102
}
330
A69B
100
AcDbScale
 70
     0
300
3/32" = 1'-0"
140
0.09375
141
12.0
290
     0
  0
SCALE
  5
A6A2
102
{ACAD_REACTORS
330
A69B
102
}
330
A69B
100
AcDbScale
 70
     0
300
1/8" = 1'-0"
140
0.125
141
12.0
290
     0
  0
SCALE
  5
A6A3
102
{ACAD_REACTORS
330
A69B
102
}
330
A69B
100
AcDbScale
 70
     0
300
3/16" = 1'-0"
140
0.1875
141
12.0
290
     0
  0
SCALE
  5
A6A4
102
{ACAD_REACTORS
330
A69B
102
}
330
A69B
100
AcDbScale
 70
     0
300
1/4" = 1'-0"
140
0.25
141
12.0
290
     0
  0
SCALE
  5
A6A5
102
{ACAD_REACTORS
330
A69B
102
}
330
A69B
100
AcDbScale
 70
     0
300
3/8" = 1'-0"
140
0.375
141
12.0
290
     0
  0
SCALE
  5
A6A6
102
{ACAD_REACTORS
330
A69B
102
}
330
A69B
100
AcDbScale
 70
     0
300
1/2" = 1'-0"
140
0.5
141
12.0
290
     0
  0
SCALE
  5
A6A7
102
{ACAD_REACTORS
330
A69B
102
}
330
A69B
100
AcDbScale
 70
     0
300
3/4" = 1'-0"
140
0.75
141
12.0
290
     0
  0
SCALE
  5
A6A8
102
{ACAD_REACTORS
330
A69B
102
}
330
A69B
100
AcDbScale
 70
     0
300
1" = 1'-0"
140
1.0
141
12.0
290
     0
  0
SCALE
  5
A6A9
102
{ACAD_REACTORS
330
A69B
102
}
330
A69B
100
AcDbScale
 70
     0
300
1-1/2" = 1'-0"
140
1.5
141
12.0
290
     0
  0
SCALE
  5
A6AA
102
{ACAD_REACTORS
330
A69B
102
}
330
A69B
100
AcDbScale
 70
     0
300
3" = 1'-0"
140
3.0
141
12.0
290
     0
  0
SCALE
  5
A6AB
102
{ACAD_REACTORS
330
A69B
102
}
330
A69B
100
AcDbScale
 70
     0
300
6" = 1'-0"
140
6.0
141
12.0
290
     0
  0
SCALE
  5
A6AC
102
{ACAD_REACTORS
330
A69B
102
}
330
A69B
100
AcDbScale
 70
     0
300
1'-0" = 1'-0"
140
12.0
141
12.0
290
     0
  0
ACDBSECTIONVIEWSTYLE
  5
A6B0
102
{ACAD_XDICTIONARY
360
A70B
102
}
102
{ACAD_REACTORS
330
A6AF
102
}
330
A6AF
100
AcDbModelDocViewStyle
 70
     0
  3
Imperial24
290
     0
100
AcDbSectionViewStyle
 70
     0
 71
     0
 90
       78
 71
     1
340
A413
 40
0.24
340
0
340
0
 40
0.24
300
I, O, Q, S, X, Z
 40
0.48
 90
        3
 40
0.18
 90
        1
 71
     2
340
A417
 90
       25
340
A417
 90
       50
 40
0.24
 40
0.0
 40
0.24
 71
     3
340
A413
 40
0.24
 90
        1
 40
0.75
 90
        1
300
%<\AcVar ViewType \f "%tc1">% %<\AcVar ViewSectionStartId>%-%<\AcVar ViewSectionEndId>%\PSCALE %<\AcVar ViewScale \f "%sn">%
 71
     4
300
ANSI31
 40
1.0
 90
        0
290
     0
290
     0
 90
        6
 40
0.0
 40
1.570796326794896
 40
0.2617993877991494
 40
1.308996938995747
 40
-0.2617993877991494
 40
1.832595714594046
  0
TABLESTYLE
  5
A69A
102
{ACAD_XDICTIONARY
360
A6D2
102
}
102
{ACAD_REACTORS
330
A699
102
}
330
A699
100
AcDbTableStyle
  3
Standard
 70
     0
 71
     0
 40
0.06
 41
0.06
280
     0
281
     0
  7
STANDARD
140
0.18
170
     2
 62
     0
 63
     7
283
     0
274
    -2
284
     1
 64
     0
275
    -2
285
     1
 65
     0
276
    -2
286
     1
 66
     0
277
    -2
287
     1
 67
     0
278
    -2
288
     1
 68
     0
279
    -2
289
     1
 69
     0
  7
STANDARD
140
0.25
170
     5
 62
     0
 63
     7
283
     0
274
    -2
284
     1
 64
     0
275
    -2
285
     1
 65
     0
276
    -2
286
     1
 66
     0
277
    -2
287
     1
 67
     0
278
    -2
288
     1
 68
     0
279
    -2
289
     1
 69
     0
  7
STANDARD
140
0.18
170
     5
 62
     0
 63
     7
283
     0
274
    -2
284
     1
 64
     0
275
    -2
285
     1
 65
     0
276
    -2
286
     1
 66
     0
277
    -2
287
     1
 67
     0
278
    -2
288
     1
 68
     0
279
    -2
289
     1
 69
     0
  0
VISUALSTYLE
  5
A685
102
{ACAD_XDICTIONARY
360
A6E3
102
}
102
{ACAD_REACTORS
330
A67F
102
}
330
A67F
100
AcDbVisualStyle
  2
2dWireframe
 70
     4
 71
     0
 72
     2
 73
     0
 90
        0
 40
-0.6
 41
-30.0
 62
     5
 63
     7
 74
     1
 91
        4
 64
     7
 65
   257
 75
     1
175
     1
 42
1.0
 92
        0
 66
   257
 43
1.0
 76
     1
 77
     6
 78
     2
 67
     7
 79
     5
170
     0
171
     0
290
     0
174
     0
 93
        1
 44
0.0
173
     0
291
     0
 45
0.0
1001
ACAD
1000
AcDbSavedByObjectVersion
1070
     0
  0
VISUALSTYLE
  5
A684
102
{ACAD_XDICTIONARY
360
A6E1
102
}
102
{ACAD_REACTORS
330
A67F
102
}
330
A67F
100
AcDbVisualStyle
  2
Basic
 70
     7
 71
     1
 72
     0
 73
     1
 90
        0
 40
-0.6
 41
-30.0
 62
     5
 63
     7
 74
     0
 91
        4
 64
     7
 65
   257
 75
     1
175
     1
 42
1.0
 92
        8
 66
     7
 43
1.0
 76
     1
 77
     6
 78
     2
 67
     7
 79
     5
170
     0
171
     0
290
     0
174
     0
 93
        1
 44
0.0
173
     0
291
     1
 45
0.0
1001
ACAD
1000
AcDbSavedByObjectVersion
1070
     0
  0
VISUALSTYLE
  5
A68B
102
{ACAD_XDICTIONARY
360
A6EF
102
}
102
{ACAD_REACTORS
330
A67F
102
}
330
A67F
100
AcDbVisualStyle
  2
Brighten
 70
    12
 71
     2
 72
     2
 73
     0
 90
        0
 40
-0.6
 41
-30.0
 62
     5
 63
     7
 74
     1
 91
        4
 64
     7
 65
   257
 75
     1
175
     1
 42
1.0
 92
        8
 66
     7
 43
1.0
 76
     1
 77
     6
 78
     2
 67
     7
 79
     5
170
     0
171
     0
290
     0
174
     0
 93
        1
 44
50.0
173
     0
291
     1
 45
0.0
1001
ACAD
1000
AcDbSavedByObjectVersion
1070
     0
  0
VISUALSTYLE
  5
A68F
102
{ACAD_XDICTIONARY
360
A6F7
102
}
102
{ACAD_REACTORS
330
A67F
102
}
330
A67F
100
AcDbVisualStyle
  2
ColorChange
 70
    16
 71
     2
 72
     2
 73
     3
 90
        0
 40
-0.6
 41
-30.0
 62
     5
 63
     8
 74
     1
 91
        4
 64
     7
 65
   257
 75
     1
175
     1
 42
1.0
 92
        8
 66
     8
 43
1.0
 76
     1
 77
     6
 78
     2
 67
     7
 79
     5
170
     0
171
     0
290
     0
174
     0
 93
        1
 44
0.0
173
     0
291
     1
 45
0.0
1001
ACAD
1000
AcDbSavedByObjectVersion
1070
     0
  0
VISUALSTYLE
  5
A688
102
{ACAD_XDICTIONARY
360
A6E9
102
}
102
{ACAD_REACTORS
330
A67F
102
}
330
A67F
100
AcDbVisualStyle
  2
Conceptual
 70
     9
 71
     3
 72
     2
 73
     0
 90
        0
 40
-0.6
 41
-30.0
 62
     5
 63
     7
 74
     2
 91
        2
 64
     7
 65
   257
 75
     1
175
     1
 42
179.0
 92
        8
 66
     7
 43
1.0
 76
     1
 77
     6
 78
     2
 67
     7
 79
     3
170
     0
171
     0
290
     0
174
     0
 93
        1
 44
0.0
173
     0
291
     0
 45
0.0
1001
ACAD
1000
AcDbSavedByObjectVersion
1070
     0
  0
VISUALSTYLE
  5
A68A
102
{ACAD_XDICTIONARY
360
A6ED
102
}
102
{ACAD_REACTORS
330
A67F
102
}
330
A67F
100
AcDbVisualStyle
  2
Dim
 70
    11
 71
     2
 72
     2
 73
     0
 90
        0
 40
-0.6
 41
-30.0
 62
     5
 63
     7
 74
     1
 91
        4
 64
     7
 65
   257
 75
     1
175
     1
 42
1.0
 92
        8
 66
     7
 43
1.0
 76
     1
 77
     6
 78
     2
 67
     7
 79
     5
170
     0
171
     0
290
     0
174
     0
 93
        1
 44
-50.0
173
     0
291
     1
 45
0.0
1001
ACAD
1000
AcDbSavedByObjectVersion
1070
     0
  0
VISUALSTYLE
  5
A697
102
{ACAD_XDICTIONARY
360
A707
102
}
102
{ACAD_REACTORS
330
A67F
102
}
330
A67F
100
AcDbVisualStyle
  2
EdgeColorOff
 70
    22
 71
     2
 72
     2
 73
     0
 90
        0
 40
-0.6
 41
-30.0
 62
     5
 63
     7
 74
     1
 91
        4
 64
     7
 65
   257
 75
     1
175
     1
 42
1.0
 92
        8
 66
     7
 43
1.0
 76
     1
 77
     6
 78
     2
 67
     7
 79
     5
170
     0
171
     0
290
     0
174
     0
 93
        1
 44
0.0
173
     0
291
     1
 45
0.0
1001
ACAD
1000
AcDbSavedByObjectVersion
1070
     0
  0
VISUALSTYLE
  5
A68E
102
{ACAD_XDICTIONARY
360
A6F5
102
}
102
{ACAD_REACTORS
330
A67F
102
}
330
A67F
100
AcDbVisualStyle
  2
Facepattern
 70
    15
 71
     2
 72
     2
 73
     0
 90
        0
 40
-0.6
 41
-30.0
 62
     5
 63
     7
 74
     1
 91
        4
 64
     7
 65
   257
 75
     1
175
     1
 42
1.0
 92
        8
 66
     7
 43
1.0
 76
     1
 77
     6
 78
     2
 67
     7
 79
     5
170
     0
171
     0
290
     0
174
     0
 93
        1
 44
0.0
173
     0
291
     1
 45
0.0
1001
ACAD
1000
AcDbSavedByObjectVersion
1070
     0
  0
VISUALSTYLE
  5
A680
102
{ACAD_XDICTIONARY
360
A6D9
102
}
102
{ACAD_REACTORS
330
A67F
102
}
330
A67F
100
AcDbVisualStyle
  2
Flat
 70
     0
 71
     2
 72
     1
 73
     1
 90
        2
 40
-0.6
 41
30.0
 62
     5
 63
     7
 74
     0
 91
        0
 64
     7
 65
   257
 75
     1
175
     1
 42
1.0
 92
        8
 66
     7
 43
1.0
 76
     1
 77
     6
 78
     2
 67
     7
 79
     5
170
     0
171
     0
290
     0
174
     0
 93
       13
 44
0.0
173
     0
291
     1
 45
0.0
1001
ACAD
1000
AcDbSavedByObjectVersion
1070
     0
  0
VISUALSTYLE
  5
A681
102
{ACAD_XDICTIONARY
360
A6DB
102
}
102
{ACAD_REACTORS
330
A67F
102
}
330
A67F
100
AcDbVisualStyle
  2
FlatWithEdges
 70
     1
 71
     2
 72
     1
 73
     1
 90
        2
 40
-0.6
 41
30.0
 62
     5
 63
     7
 74
     1
 91
        0
 64
     7
 65
   257
 75
     1
175
     1
 42
1.0
 92
        0
 66
   257
 43
1.0
 76
     1
 77
     6
 78
     2
 67
     7
 79
     5
170
     0
171
     0
290
     0
174
     0
 93
       13
 44
0.0
173
     0
291
     1
 45
0.0
1001
ACAD
1000
AcDbSavedByObjectVersion
1070
     0
  0
VISUALSTYLE
  5
A682
102
{ACAD_XDICTIONARY
360
A6DD
102
}
102
{ACAD_REACTORS
330
A67F
102
}
330
A67F
100
AcDbVisualStyle
  2
Gouraud
 70
     2
 71
     2
 72
     2
 73
     1
 90
        2
 40
-0.6
 41
30.0
 62
     5
 63
     7
 74
     0
 91
        0
 64
     7
 65
   257
 75
     1
175
     1
 42
1.0
 92
        0
 66
     7
 43
1.0
 76
     1
 77
     6
 78
     2
 67
     7
 79
     5
170
     0
171
     0
290
     0
174
     0
 93
       13
 44
0.0
173
     0
291
     1
 45
0.0
1001
ACAD
1000
AcDbSavedByObjectVersion
1070
     0
  0
VISUALSTYLE
  5
A683
102
{ACAD_XDICTIONARY
360
A6DF
102
}
102
{ACAD_REACTORS
330
A67F
102
}
330
A67F
100
AcDbVisualStyle
  2
GouraudWithEdges
 70
     3
 71
     2
 72
     2
 73
     1
 90
        2
 40
-0.6
 41
30.0
 62
     5
 63
     7
 74
     1
 91
        0
 64
     7
 65
   257
 75
     1
175
     1
 42
1.0
 92
        0
 66
   257
 43
1.0
 76
     1
 77
     6
 78
     2
 67
     7
 79
     5
170
     0
171
     0
290
     0
174
     0
 93
       13
 44
0.0
173
     0
291
     1
 45
0.0
1001
ACAD
1000
AcDbSavedByObjectVersion
1070
     0
  0
VISUALSTYLE
  5
A687
102
{ACAD_XDICTIONARY
360
A6E7
102
}
102
{ACAD_REACTORS
330
A67F
102
}
330
A67F
100
AcDbVisualStyle
  2
Hidden
 70
     6
 71
     1
 72
     2
 73
     2
 90
        0
 40
-0.6
 41
-30.0
 62
     5
 63
     7
 74
     2
 91
        2
 64
     7
 65
   257
 75
     2
175
     1
 42
40.0
 92
        0
 66
   257
 43
1.0
 76
     1
 77
     6
 78
     2
 67
     7
 79
     3
170
     0
171
     0
290
     0
174
     0
 93
        1
 44
0.0
173
     0
291
     0
 45
0.0
1001
ACAD
1000
AcDbSavedByObjectVersion
1070
     0
  0
VISUALSTYLE
  5
A695
102
{ACAD_XDICTIONARY
360
A703
102
}
102
{ACAD_REACTORS
330
A67F
102
}
330
A67F
100
AcDbVisualStyle
  2
JitterOff
 70
    20
 71
     2
 72
     2
 73
     0
 90
        0
 40
-0.6
 41
-30.0
 62
     5
 63
     7
 74
     1
 91
        4
 64
     7
 65
   257
 75
     1
175
     1
 42
1.0
 92
       10
 66
     7
 43
1.0
 76
     1
 77
     6
 78
     2
 67
     7
 79
     5
170
     0
171
     0
290
     0
174
     0
 93
        1
 44
0.0
173
     0
291
     1
 45
0.0
1001
ACAD
1000
AcDbSavedByObjectVersion
1070
     0
  0
VISUALSTYLE
  5
A68D
102
{ACAD_XDICTIONARY
360
A6F3
102
}
102
{ACAD_REACTORS
330
A67F
102
}
330
A67F
100
AcDbVisualStyle
  2
Linepattern
 70
    14
 71
     2
 72
     2
 73
     0
 90
        0
 40
-0.6
 41
-30.0
 62
     5
 63
     7
 74
     1
 91
        4
 64
     7
 65
   257
 75
     7
175
     7
 42
1.0
 92
        8
 66
     7
 43
1.0
 76
     1
 77
     6
 78
     2
 67
     7
 79
     5
170
     0
171
     0
290
     0
174
     0
 93
        1
 44
0.0
173
     0
291
     1
 45
0.0
1001
ACAD
1000
AcDbSavedByObjectVersion
1070
     0
  0
VISUALSTYLE
  5
A696
102
{ACAD_XDICTIONARY
360
A705
102
}
102
{ACAD_REACTORS
330
A67F
102
}
330
A67F
100
AcDbVisualStyle
  2
OverhangOff
 70
    21
 71
     2
 72
     2
 73
     0
 90
        0
 40
-0.6
 41
-30.0
 62
     5
 63
     7
 74
     1
 91
        4
 64
     7
 65
   257
 75
     1
175
     1
 42
1.0
 92
        9
 66
     7
 43
1.0
 76
     1
 77
     6
 78
     2
 67
     7
 79
     5
170
     0
171
     0
290
     0
174
     0
 93
        1
 44
0.0
173
     0
291
     1
 45
0.0
1001
ACAD
1000
AcDbSavedByObjectVersion
1070
     0
  0
VISUALSTYLE
  5
A689
102
{ACAD_XDICTIONARY
360
A6EB
102
}
102
{ACAD_REACTORS
330
A67F
102
}
330
A67F
100
AcDbVisualStyle
  2
Realistic
 70
     8
 71
     2
 72
     3
 73
     0
 90
        2
 40
-0.6
 41
30.0
 62
     5
 63
     7
 74
     0
 91
        0
 64
     7
 65
   257
 75
     1
175
     1
 42
1.0
 92
        8
 66
   257
 43
1.0
 76
     1
 77
     6
 78
     2
 67
     7
 79
     3
170
     0
171
     0
290
     0
174
     0
 93
       13
 44
0.0
173
     0
291
     0
 45
0.0
1001
ACAD
1000
AcDbSavedByObjectVersion
1070
     0
  0
VISUALSTYLE
  5
A694
102
{ACAD_XDICTIONARY
360
A701
102
}
102
{ACAD_REACTORS
330
A67F
102
}
330
A67F
100
AcDbVisualStyle
  2
Shaded
 70
    27
 71
     2
 72
     2
 73
     1
 90
        2
 40
-0.6
 41
30.0
 62
     5
 63
     7
 74
     0
 91
        4
 64
     7
 65
   257
 75
     1
175
     1
 42
1.0
 92
        8
 66
   257
 43
1.0
 76
     1
 77
     6
 78
     2
 67
     8
 79
     3
170
     0
171
     0
290
     0
174
     0
 93
        5
 44
0.0
173
     0
291
     0
 45
0.0
1001
ACAD
1000
AcDbSavedByObjectVersion
1070
     0
  0
VISUALSTYLE
  5
A693
102
{ACAD_XDICTIONARY
360
A6FF
102
}
102
{ACAD_REACTORS
330
A67F
102
}
330
A67F
100
AcDbVisualStyle
  2
Shaded with edges
 70
    26
 71
     2
 72
     2
 73
     1
 90
        2
 40
-0.6
 41
30.0
 62
     5
 63
     7
 74
     1
 91
       10
 64
     7
 65
   257
 75
     2
175
     1
 42
1.0
 92
        8
 66
   257
 43
1.0
 76
     1
 77
     6
 78
     2
 67
     7
 79
     3
170
     0
171
     0
290
     0
174
     0
 93
        5
 44
0.0
173
     0
291
     0
 45
0.0
1001
ACAD
1000
AcDbSavedByObjectVersion
1070
     0
  0
VISUALSTYLE
  5
A690
102
{ACAD_XDICTIONARY
360
A6F9
102
}
102
{ACAD_REACTORS
330
A67F
102
}
330
A67F
100
AcDbVisualStyle
  2
Shades of Gray
 70
    23
 71
     2
 72
     2
 73
     3
 90
        0
 40
-0.6
 41
-30.0
 62
     5
 63
     7
 74
     2
 91
        2
 64
     7
 65
     7
 75
     1
175
     1
 42
40.0
 92
        8
 66
     7
 43
1.0
 76
     1
 77
     6
 78
     2
 67
     7
 79
     3
170
     0
171
     0
290
     0
174
     0
 93
        1
 44
0.0
173
     0
291
     0
 45
0.0
1001
ACAD
1000
AcDbSavedByObjectVersion
1070
     0
  0
VISUALSTYLE
  5
A691
102
{ACAD_XDICTIONARY
360
A6FB
102
}
102
{ACAD_REACTORS
330
A67F
102
}
330
A67F
100
AcDbVisualStyle
  2
Sketchy
 70
    24
 71
     1
 72
     2
 73
     2
 90
        0
 40
-0.6
 41
-30.0
 62
     5
 63
     7
 74
     2
 91
        2
 64
     7
 65
     7
 75
     1
175
     1
 42
40.0
 92
       11
 66
     7
 43
1.0
 76
     1
 77
     6
 78
     2
 67
     7
 79
     6
170
     0
171
     0
290
     0
174
     0
 93
        1
 44
0.0
173
     0
291
     0
 45
0.0
1001
ACAD
1000
AcDbSavedByObjectVersion
1070
     0
  0
VISUALSTYLE
  5
A68C
102
{ACAD_XDICTIONARY
360
A6F1
102
}
102
{ACAD_REACTORS
330
A67F
102
}
330
A67F
100
AcDbVisualStyle
  2
Thicken
 70
    13
 71
     2
 72
     2
 73
     0
 90
        0
 40
-0.6
 41
-30.0
 62
     5
 63
     7
 74
     1
 91
        4
 64
     7
 65
   257
 75
     1
175
     1
 42
1.0
 92
       12
 66
     7
 43
1.0
 76
     1
 77
     6
 78
     2
 67
     7
 79
     5
170
     0
171
     0
290
     0
174
     0
 93
        1
 44
0.0
173
     0
291
     1
 45
0.0
1001
ACAD
1000
AcDbSavedByObjectVersion
1070
     0
  0
VISUALSTYLE
  5
A686
102
{ACAD_XDICTIONARY
360
A6E5
102
}
102
{ACAD_REACTORS
330
A67F
102
}
330
A67F
100
AcDbVisualStyle
  2
Wireframe
 70
     5
 71
     0
 72
     2
 73
     0
 90
        0
 40
-0.6
 41
-30.0
 62
     5
 63
     7
 74
     1
 91
        4
 64
     7
 65
   257
 75
     1
175
     1
 42
1.0
 92
        0
 66
   257
 43
1.0
 76
     1
 77
     6
 78
     2
 67
     7
 79
     3
170
     0
171
     0
290
     0
174
     0
 93
        1
 44
0.0
173
     0
291
     0
 45
0.0
1001
ACAD
1000
AcDbSavedByObjectVersion
1070
     0
  0
VISUALSTYLE
  5
A692
102
{ACAD_XDICTIONARY
360
A6FD
102
}
102
{ACAD_REACTORS
330
A67F
102
}
330
A67F
100
AcDbVisualStyle
  2
X-Ray
 70
    25
 71
     2
 72
     2
 73
     1
 90
        1
 40
0.5
 41
-30.0
 62
     5
 63
     7
 74
     1
 91
        0
 64
     7
 65
   257
 75
     1
175
     1
 42
1.0
 92
        8
 66
     7
 43
1.0
 76
     1
 77
     6
 78
     2
 67
     7
 79
     3
170
     0
171
     0
290
     0
174
     0
 93
       13
 44
0.0
173
     0
291
     0
 45
0.0
1001
ACAD
1000
AcDbSavedByObjectVersion
1070
     0
  0
DICTIONARYVAR
  5
A6CC
102
{ACAD_REACTORS
330
A6C7
102
}
330
A6C7
100
DictionaryVariables
280
     0
  1
1:1
  0
DICTIONARYVAR
  5
A6C9
102
{ACAD_REACTORS
330
A6C7
102
}
330
A6C7
100
DictionaryVariables
280
     0
  1
STANDARD
  0
DICTIONARYVAR
  5
A6C8
102
{ACAD_REACTORS
330
A6C7
102
}
330
A6C7
100
DictionaryVariables
280
     0
  1
STANDARD
  0
DICTIONARYVAR
  5
A6CA
102
{ACAD_REACTORS
330
A6C7
102
}
330
A6C7
100
DictionaryVariables
280
     0
  1
Imperial24
  0
DICTIONARYVAR
  5
A6CB
102
{ACAD_REACTORS
330
A6C7
102
}
330
A6C7
100
DictionaryVariables
280
     0
  1
Imperial24
  0
DICTIONARYVAR
  5
A6CF
102
{ACAD_REACTORS
330
A6C7
102
}
330
A6C7
100
DictionaryVariables
280
     0
  1
1
  0
DICTIONARYVAR
  5
A6CE
102
{ACAD_REACTORS
330
A6C7
102
}
330
A6C7
100
DictionaryVariables
280
     0
  1
0
  0
DICTIONARYVAR
  5
A6CD
102
{ACAD_REACTORS
330
A6C7
102
}
330
A6C7
100
DictionaryVariables
280
     0
  1
127
  0
DICTIONARYVAR
  5
A6D0
102
{ACAD_REACTORS
330
A6C7
102
}
330
A6C7
100
DictionaryVariables
280
     0
  1
2
  0
DICTIONARY
  5
A70D
330
A6B2
100
AcDbDictionary
280
     1
281
     1
  3
ACAD_XREC_ROUNDTRIP
360
A70E
  0
DICTIONARY
  5
A70F
330
A6B3
100
AcDbDictionary
280
     1
281
     1
  3
ACAD_XREC_ROUNDTRIP
360
A710
  0
DICTIONARY
  5
A711
330
A6B4
100
AcDbDictionary
280
     1
281
     1
  3
ACAD_XREC_ROUNDTRIP
360
A712
  0
DICTIONARY
  5
A670
330
A66F
100
AcDbDictionary
280
     1
281
     1
  3
ACAD_XREC_ROUNDTRIP
360
A6D7
  3
BUMPTILE
360
A672
  3
DIFFUSETILE
360
A671
  3
OPACITYTILE
360
A675
  3
REFLECTIONTILE
360
A674
  3
REFRACTIONTILE
360
A676
  3
SPECULARTILE
360
A673
  0
DICTIONARY
  5
A668
330
A667
100
AcDbDictionary
280
     1
281
     1
  3
ACAD_XREC_ROUNDTRIP
360
A6D6
  3
BUMPTILE
360
A66A
  3
DIFFUSETILE
360
A669
  3
OPACITYTILE
360
A66D
  3
REFLECTIONTILE
360
A66C
  3
REFRACTIONTILE
360
A66E
  3
SPECULARTILE
360
A66B
  0
DICTIONARY
  5
A678
330
A677
100
AcDbDictionary
280
     1
281
     1
  3
ACAD_XREC_ROUNDTRIP
360
A6D8
  3
BUMPTILE
360
A67A
  3
DIFFUSETILE
360
A679
  3
OPACITYTILE
360
A67D
  3
REFLECTIONTILE
360
A67C
  3
REFRACTIONTILE
360
A67E
  3
SPECULARTILE
360
A67B
  0
DICTIONARY
  5
A70B
330
A6B0
100
AcDbDictionary
280
     1
281
     1
  3
ACAD_XREC_ROUNDTRIP
360
A70C
  0
DICTIONARY
  5
A6D2
330
A69A
100
AcDbDictionary
280
     1
281
     1
  3
ACAD_ROUNDTRIP_2008_TABLESTYLE_CELLSTYLEMAP
360
A6D3
  3
ACAD_XREC_ROUNDTRIP
360
A709
  0
DICTIONARY
  5
A6E3
330
A685
100
AcDbDictionary
280
     1
281
     1
  3
ACAD_XREC_ROUNDTRIP
360
A6E4
  0
DICTIONARY
  5
A6E1
330
A684
100
AcDbDictionary
280
     1
281
     1
  3
ACAD_XREC_ROUNDTRIP
360
A6E2
  0
DICTIONARY
  5
A6EF
330
A68B
100
AcDbDictionary
280
     1
281
     1
  3
ACAD_XREC_ROUNDTRIP
360
A6F0
  0
DICTIONARY
  5
A6F7
330
A68F
100
AcDbDictionary
280
     1
281
     1
  3
ACAD_XREC_ROUNDTRIP
360
A6F8
  0
DICTIONARY
  5
A6E9
330
A688
100
AcDbDictionary
280
     1
281
     1
  3
ACAD_XREC_ROUNDTRIP
360
A6EA
  0
DICTIONARY
  5
A6ED
330
A68A
100
AcDbDictionary
280
     1
281
     1
  3
ACAD_XREC_ROUNDTRIP
360
A6EE
  0
DICTIONARY
  5
A707
330
A697
100
AcDbDictionary
280
     1
281
     1
  3
ACAD_XREC_ROUNDTRIP
360
A708
  0
DICTIONARY
  5
A6F5
330
A68E
100
AcDbDictionary
280
     1
281
     1
  3
ACAD_XREC_ROUNDTRIP
360
A6F6
  0
DICTIONARY
  5
A6D9
330
A680
100
AcDbDictionary
280
     1
281
     1
  3
ACAD_XREC_ROUNDTRIP
360
A6DA
  0
DICTIONARY
  5
A6DB
330
A681
100
AcDbDictionary
280
     1
281
     1
  3
ACAD_XREC_ROUNDTRIP
360
A6DC
  0
DICTIONARY
  5
A6DD
330
A682
100
AcDbDictionary
280
     1
281
     1
  3
ACAD_XREC_ROUNDTRIP
360
A6DE
  0
DICTIONARY
  5
A6DF
330
A683
100
AcDbDictionary
280
     1
281
     1
  3
ACAD_XREC_ROUNDTRIP
360
A6E0
  0
DICTIONARY
  5
A6E7
330
A687
100
AcDbDictionary
280
     1
281
     1
  3
ACAD_XREC_ROUNDTRIP
360
A6E8
  0
DICTIONARY
  5
A703
330
A695
100
AcDbDictionary
280
     1
281
     1
  3
ACAD_XREC_ROUNDTRIP
360
A704
  0
DICTIONARY
  5
A6F3
330
A68D
100
AcDbDictionary
280
     1
281
     1
  3
ACAD_XREC_ROUNDTRIP
360
A6F4
  0
DICTIONARY
  5
A705
330
A696
100
AcDbDictionary
280
     1
281
     1
  3
ACAD_XREC_ROUNDTRIP
360
A706
  0
DICTIONARY
  5
A6EB
330
A689
100
AcDbDictionary
280
     1
281
     1
  3
ACAD_XREC_ROUNDTRIP
360
A6EC
  0
DICTIONARY
  5
A701
330
A694
100
AcDbDictionary
280
     1
281
     1
  3
ACAD_XREC_ROUNDTRIP
360
A702
  0
DICTIONARY
  5
A6FF
330
A693
100
AcDbDictionary
280
     1
281
     1
  3
ACAD_XREC_ROUNDTRIP
360
A700
  0
DICTIONARY
  5
A6F9
330
A690
100
AcDbDictionary
280
     1
281
     1
  3
ACAD_XREC_ROUNDTRIP
360
A6FA
  0
DICTIONARY
  5
A6FB
330
A691
100
AcDbDictionary
280
     1
281
     1
  3
ACAD_XREC_ROUNDTRIP
360
A6FC
  0
DICTIONARY
  5
A6F1
330
A68C
100
AcDbDictionary
280
     1
281
     1
  3
ACAD_XREC_ROUNDTRIP
360
A6F2
  0
DICTIONARY
  5
A6E5
330
A686
100
AcDbDictionary
280
     1
281
     1
  3
ACAD_XREC_ROUNDTRIP
360
A6E6
  0
DICTIONARY
  5
A6FD
330
A692
100
AcDbDictionary
280
     1
281
     1
  3
ACAD_XREC_ROUNDTRIP
360
A6FE
  0
XRECORD
  5
A70E
102
{ACAD_REACTORS
330
A70D
102
}
330
A70D
100
AcDbXrecord
280
     1
102
DISPLAYNAME
  1
Imperial24
102
FLAGS
 90
        0
  0
XRECORD
  5
A710
102
{ACAD_REACTORS
330
A70F
102
}
330
A70F
100
AcDbXrecord
280
     1
102
SHADEPLOT
 70
     0
102
SHADEPLOTRESLEVEL
 70
     2
102
SHADEPLOTCUSTOMDPI
 70
   300
  0
XRECORD
  5
A712
102
{ACAD_REACTORS
330
A711
102
}
330
A711
100
AcDbXrecord
280
     1
102
SHADEPLOT
 70
     0
102
SHADEPLOTRESLEVEL
 70
     2
102
SHADEPLOTCUSTOMDPI
 70
   300
  0
XRECORD
  5
A6D7
102
{ACAD_REACTORS
330
A670
102
}
330
A670
100
AcDbXrecord
280
     1
102
MATERIAL
148
0.0
149
0.0
149
0.0
 93
        0
 94
      127
282
     0
 72
     0
 77
     0
171
     0
175
     0
179
     0
273
     0
  0
XRECORD
  5
A672
102
{ACAD_REACTORS
330
A670
102
}
330
A670
100
AcDbXrecord
280
     1
270
     1
271
     1
  0
XRECORD
  5
A671
102
{ACAD_REACTORS
330
A670
102
}
330
A670
100
AcDbXrecord
280
     1
270
     1
271
     1
  0
XRECORD
  5
A675
102
{ACAD_REACTORS
330
A670
102
}
330
A670
100
AcDbXrecord
280
     1
270
     1
271
     1
  0
XRECORD
  5
A674
102
{ACAD_REACTORS
330
A670
102
}
330
A670
100
AcDbXrecord
280
     1
270
     1
271
     1
  0
XRECORD
  5
A676
102
{ACAD_REACTORS
330
A670
102
}
330
A670
100
AcDbXrecord
280
     1
270
     1
271
     1
  0
XRECORD
  5
A673
102
{ACAD_REACTORS
330
A670
102
}
330
A670
100
AcDbXrecord
280
     1
270
     1
271
     1
  0
XRECORD
  5
A6D6
102
{ACAD_REACTORS
330
A668
102
}
330
A668
100
AcDbXrecord
280
     1
102
MATERIAL
148
0.0
149
0.0
149
0.0
 93
        0
 94
      127
282
     0
 72
     0
 77
     0
171
     0
175
     0
179
     0
273
     0
  0
XRECORD
  5
A66A
102
{ACAD_REACTORS
330
A668
102
}
330
A668
100
AcDbXrecord
280
     1
270
     1
271
     1
  0
XRECORD
  5
A669
102
{ACAD_REACTORS
330
A668
102
}
330
A668
100
AcDbXrecord
280
     1
270
     1
271
     1
  0
XRECORD
  5
A66D
102
{ACAD_REACTORS
330
A668
102
}
330
A668
100
AcDbXrecord
280
     1
270
     1
271
     1
  0
XRECORD
  5
A66C
102
{ACAD_REACTORS
330
A668
102
}
330
A668
100
AcDbXrecord
280
     1
270
     1
271
     1
  0
XRECORD
  5
A66E
102
{ACAD_REACTORS
330
A668
102
}
330
A668
100
AcDbXrecord
280
     1
270
     1
271
     1
  0
XRECORD
  5
A66B
102
{ACAD_REACTORS
330
A668
102
}
330
A668
100
AcDbXrecord
280
     1
270
     1
271
     1
  0
XRECORD
  5
A6D8
102
{ACAD_REACTORS
330
A678
102
}
330
A678
100
AcDbXrecord
280
     1
102
MATERIAL
148
0.0
149
0.0
149
0.0
 93
        0
 94
      127
282
     0
 72
     0
 77
     0
171
     0
175
     0
179
     0
273
     0
  0
XRECORD
  5
A67A
102
{ACAD_REACTORS
330
A678
102
}
330
A678
100
AcDbXrecord
280
     1
270
     1
271
     1
  0
XRECORD
  5
A679
102
{ACAD_REACTORS
330
A678
102
}
330
A678
100
AcDbXrecord
280
     1
270
     1
271
     1
  0
XRECORD
  5
A67D
102
{ACAD_REACTORS
330
A678
102
}
330
A678
100
AcDbXrecord
280
     1
270
     1
271
     1
  0
XRECORD
  5
A67C
102
{ACAD_REACTORS
330
A678
102
}
330
A678
100
AcDbXrecord
280
     1
270
     1
271
     1
  0
XRECORD
  5
A67E
102
{ACAD_REACTORS
330
A678
102
}
330
A678
100
AcDbXrecord
280
     1
270
     1
271
     1
  0
XRECORD
  5
A67B
102
{ACAD_REACTORS
330
A678
102
}
330
A678
100
AcDbXrecord
280
     1
270
     1
271
     1
  0
XRECORD
  5
A70C
102
{ACAD_REACTORS
330
A70B
102
}
330
A70B
100
AcDbXrecord
280
     1
102
DISPLAYNAME
  1
Imperial24
102
FLAGS
 90
        0
  0
CELLSTYLEMAP
  5
A6D3
102
{ACAD_REACTORS
330
A6D2
102
}
330
A6D2
100
AcDbCellStyleMap
 90
        3
300
CELLSTYLE
  1
TABLEFORMAT_BEGIN
 90
        5
170
     1
 91
        0
 92
    32768
 62
   257
 93
        1
300
CONTENTFORMAT
  1
CONTENTFORMAT_BEGIN
 90
        0
 91
        0
 92
      512
 93
        0
300

 40
0.0
140
1.0
 94
        5
 62
     0
340
A413
144
0.25
309
CONTENTFORMAT_END
171
     0
 94
        0
309
TABLEFORMAT_END
  1
CELLSTYLE_BEGIN
 90
        1
 91
        1
300
_TITLE
309
CELLSTYLE_END
300
CELLSTYLE
  1
TABLEFORMAT_BEGIN
 90
        5
170
     1
 91
        0
 92
        0
 62
   257
 93
        1
300
CONTENTFORMAT
  1
CONTENTFORMAT_BEGIN
 90
        0
 91
        0
 92
      512
 93
        0
300

 40
0.0
140
1.0
 94
        5
 62
     0
340
A413
144
0.18
309
CONTENTFORMAT_END
171
     0
 94
        0
309
TABLEFORMAT_END
  1
CELLSTYLE_BEGIN
 90
        2
 91
        1
300
_HEADER
309
CELLSTYLE_END
300
CELLSTYLE
  1
TABLEFORMAT_BEGIN
 90
        5
170
     1
 91
        0
 92
        0
 62
   257
 93
        1
300
CONTENTFORMAT
  1
CONTENTFORMAT_BEGIN
 90
        0
 91
        0
 92
      512
 93
        0
300

 40
0.0
140
1.0
 94
        2
 62
     0
340
A413
144
0.18
309
CONTENTFORMAT_END
171
     0
 94
        0
309
TABLEFORMAT_END
  1
CELLSTYLE_BEGIN
 90
        3
 91
        2
300
_DATA
309
CELLSTYLE_END
  0
XRECORD
  5
A709
102
{ACAD_REACTORS
330
A6D2
102
}
330
A6D2
100
AcDbXrecord
280
     1
102
ACAD_ROUNDTRIP_PRE2007_TABLESTYLE
 90
      512
 91
        0
  1

 92
      512
 93
        0
  2

 94
      512
 95
        0
  3

  0
XRECORD
  5
A6E4
102
{ACAD_REACTORS
330
A6E3
102
}
330
A6E3
100
AcDbXrecord
280
     1
102
RTVSPost2010Prop28
280
     1
102
RTVSPost2010PropOp28
 70
     1
102
RTVSPost2010Prop29
280
     1
102
RTVSPost2010PropOp29
 70
     1
102
RTVSPost2010Prop30
280
     0
102
RTVSPost2010PropOp30
 70
     1
102
RTVSPost2010Prop31
280
     0
102
RTVSPost2010PropOp31
 70
     1
102
RTVSPost2010Prop32
280
     0
102
RTVSPost2010PropOp32
 70
     1
102
RTVSPost2010Prop33
280
     0
102
RTVSPost2010PropOp33
 70
     1
102
RTVSPost2010Prop34
280
     0
102
RTVSPost2010PropOp34
 70
     1
102
RTVSPost2010Prop35
280
     0
102
RTVSPost2010PropOp35
 70
     1
102
RTVSPost2010Prop36
280
     0
102
RTVSPost2010PropOp36
 70
     1
102
RTVSPost2010Prop37
 90
       50
102
RTVSPost2010PropOp37
 70
     1
102
RTVSPost2010Prop38
140
0.0
102
RTVSPost2010PropOp38
 70
     1
102
RTVSPost2010Prop39
140
1.0
102
RTVSPost2010PropOp39
 70
     1
102
RTVSPost2010Prop40
 90
        0
102
RTVSPost2010PropOp40
 70
     1
102
RTVSPost2010Prop41ColorIndex
 90
       18
102
RTVSPost2010Prop41ColorRGB
 90
        0
102
RTVSPost2010PropOp41
 70
     1
102
RTVSPost2010Prop42
 90
       50
102
RTVSPost2010PropOp42
 70
     1
102
RTVSPost2010Prop43
 90
        3
102
RTVSPost2010PropOp43
 70
     1
102
RTVSPost2010Prop44ColorIndex
 90
        5
102
RTVSPost2010Prop44ColorRGB
 90
      255
102
RTVSPost2010PropOp44
 70
     1
102
RTVSPost2010Prop45
280
     0
102
RTVSPost2010PropOp45
 70
     1
102
RTVSPost2010Prop46
 90
       50
102
RTVSPost2010PropOp46
 70
     1
102
RTVSPost2010Prop47
 90
       50
102
RTVSPost2010PropOp47
 70
     1
102
RTVSPost2010Prop48
 90
       50
102
RTVSPost2010PropOp48
 70
     1
102
RTVSPost2010Prop49
280
     0
102
RTVSPost2010PropOp49
 70
     1
102
RTVSPost2010Prop50
 90
       50
102
RTVSPost2010PropOp50
 70
     1
102
RTVSPost2010Prop51ColorIndex
 90
      256
102
RTVSPost2010Prop51ColorRGB
 90
-16777216
102
RTVSPost2010PropOp51
 70
     0
102
RTVSPost2010Prop52
140
1.0
102
RTVSPost2010PropOp52
 70
     0
102
RTVSPost2010Prop53
 90
        2
102
RTVSPost2010PropOp53
 70
     1
102
RTVSPost2010Prop54
  1
strokes_ogs.tif
102
RTVSPost2010PropOp54
 70
     1
102
RTVSPost2010Prop55
280
     0
102
RTVSPost2010PropOp55
 70
     1
102
RTVSPost2010Prop56
140
1.0
102
RTVSPost2010PropOp56
 70
     1
102
RTVSPost2010Prop57
140
1.0
102
RTVSPost2010PropOp57
 70
     1
102
RTVSPropertyOp0
 70
     1
102
RTVSPropertyOp1
 70
     1
102
RTVSPropertyOp2
 70
     1
102
RTVSPropertyOp3
 70
     1
102
RTVSPropertyOp4
 70
     1
102
RTVSPropertyOp5
 70
     1
102
RTVSPropertyOp6
 70
     1
102
RTVSPropertyOp7
 70
     1
102
RTVSPropertyOp8
 70
     1
102
RTVSPropertyOp9
 70
     1
102
RTVSPropertyOp10
 70
     1
102
RTVSPropertyOp11
 70
     1
102
RTVSPropertyOp12
 70
     1
102
RTVSPropertyOp13
 70
     1
102
RTVSPropertyOp14
 70
     1
102
RTVSPropertyOp15
 70
     1
102
RTVSPropertyOp16
 70
     1
102
RTVSPropertyOp17
 70
     1
102
RTVSPropertyOp18
 70
     1
102
RTVSPropertyOp19
 70
     1
102
RTVSPropertyOp20
 70
     1
102
RTVSPropertyOp21
 70
     1
102
RTVSPropertyOp22
 70
     1
102
RTVSPropertyOp23
 70
     1
102
RTVSPropertyOp24
 70
     1
102
RTVSPropertyOp25
 70
     1
102
RTVSPropertyOp26
 70
     1
102
RTVSPropertyOp27
 70
     1
102
RTVSPropertyOp28
 70
     1
102
RTVSPropertyOp29
 70
     1
102
RTVSPropertyOp30
 70
     1
102
RTVSPropertyOp31
 70
     1
102
RTVSPropertyOp32
 70
     1
102
RTVSPropertyOp33
 70
     1
102
RTVSPropertyOp34
 70
     1
102
RTVSPropertyOp35
 70
     1
102
RTVSPropertyOp36
 70
     1
102
RTVSPropertyOp37
 70
     1
102
RTVSPropertyOp38
 70
     1
102
RTVSPropertyOp39
 70
     1
102
RTVSPropertyOp40
 70
     1
102
RTVSPropertyOp41
 70
     1
102
RTVSPropertyOp42
 70
     1
102
RTVSPropertyOp43
 70
     1
102
RTVSPropertyOp44
 70
     1
102
RTVSPropertyOp45
 70
     1
102
RTVSPropertyOp46
 70
     1
102
RTVSPropertyOp47
 70
     1
102
RTVSPropertyOp48
 70
     1
102
RTVSPropertyOp49
 70
     1
102
RTVSPropertyOp50
 70
     1
102
RTVSPropertyOp51
 70
     0
102
RTVSPropertyOp52
 70
     0
102
RTVSPropertyOp53
 70
     1
102
RTVSPropertyOp54
 70
     1
102
RTVSPropertyOp55
 70
     1
102
RTVSPropertyOp56
 70
     1
102
RTVSPropertyOp57
 70
     1
102
RTVSPropertyOp58
 70
     1
102
RTVSPropertyOp59
 70
     1
102
RTVSPropertyOp60
 70
     1
102
RTVSPropertyOp61
 70
     1
102
RTVSPropertyOp62
 70
     1
  0
XRECORD
  5
A6E2
102
{ACAD_REACTORS
330
A6E1
102
}
330
A6E1
100
AcDbXrecord
280
     1
102
RTVSPost2010Prop28
280
     0
102
RTVSPost2010PropOp28
 70
     1
102
RTVSPost2010Prop29
280
     1
102
RTVSPost2010PropOp29
 70
     1
102
RTVSPost2010Prop30
280
     1
102
RTVSPost2010PropOp30
 70
     1
102
RTVSPost2010Prop31
280
     0
102
RTVSPost2010PropOp31
 70
     1
102
RTVSPost2010Prop32
280
     0
102
RTVSPost2010PropOp32
 70
     1
102
RTVSPost2010Prop33
280
     0
102
RTVSPost2010PropOp33
 70
     1
102
RTVSPost2010Prop34
280
     0
102
RTVSPost2010PropOp34
 70
     1
102
RTVSPost2010Prop35
280
     0
102
RTVSPost2010PropOp35
 70
     1
102
RTVSPost2010Prop36
280
     0
102
RTVSPost2010PropOp36
 70
     1
102
RTVSPost2010Prop37
 90
       50
102
RTVSPost2010PropOp37
 70
     1
102
RTVSPost2010Prop38
140
0.0
102
RTVSPost2010PropOp38
 70
     1
102
RTVSPost2010Prop39
140
1.0
102
RTVSPost2010PropOp39
 70
     1
102
RTVSPost2010Prop40
 90
        0
102
RTVSPost2010PropOp40
 70
     1
102
RTVSPost2010Prop41ColorIndex
 90
       18
102
RTVSPost2010Prop41ColorRGB
 90
        0
102
RTVSPost2010PropOp41
 70
     1
102
RTVSPost2010Prop42
 90
       50
102
RTVSPost2010PropOp42
 70
     1
102
RTVSPost2010Prop43
 90
        3
102
RTVSPost2010PropOp43
 70
     1
102
RTVSPost2010Prop44ColorIndex
 90
        5
102
RTVSPost2010Prop44ColorRGB
 90
      255
102
RTVSPost2010PropOp44
 70
     1
102
RTVSPost2010Prop45
280
     0
102
RTVSPost2010PropOp45
 70
     1
102
RTVSPost2010Prop46
 90
       50
102
RTVSPost2010PropOp46
 70
     1
102
RTVSPost2010Prop47
 90
       50
102
RTVSPost2010PropOp47
 70
     1
102
RTVSPost2010Prop48
 90
       50
102
RTVSPost2010PropOp48
 70
     1
102
RTVSPost2010Prop49
280
     0
102
RTVSPost2010PropOp49
 70
     1
102
RTVSPost2010Prop50
 90
       50
102
RTVSPost2010PropOp50
 70
     1
102
RTVSPost2010Prop51ColorIndex
 90
      256
102
RTVSPost2010Prop51ColorRGB
 90
-16777216
102
RTVSPost2010PropOp51
 70
     0
102
RTVSPost2010Prop52
140
1.0
102
RTVSPost2010PropOp52
 70
     0
102
RTVSPost2010Prop53
 90
        2
102
RTVSPost2010PropOp53
 70
     1
102
RTVSPost2010Prop54
  1
strokes_ogs.tif
102
RTVSPost2010PropOp54
 70
     1
102
RTVSPost2010Prop55
280
     0
102
RTVSPost2010PropOp55
 70
     1
102
RTVSPost2010Prop56
140
1.0
102
RTVSPost2010PropOp56
 70
     1
102
RTVSPost2010Prop57
140
1.0
102
RTVSPost2010PropOp57
 70
     1
102
RTVSPropertyOp0
 70
     1
102
RTVSPropertyOp1
 70
     1
102
RTVSPropertyOp2
 70
     1
102
RTVSPropertyOp3
 70
     1
102
RTVSPropertyOp4
 70
     1
102
RTVSPropertyOp5
 70
     1
102
RTVSPropertyOp6
 70
     1
102
RTVSPropertyOp7
 70
     1
102
RTVSPropertyOp8
 70
     1
102
RTVSPropertyOp9
 70
     1
102
RTVSPropertyOp10
 70
     1
102
RTVSPropertyOp11
 70
     1
102
RTVSPropertyOp12
 70
     1
102
RTVSPropertyOp13
 70
     1
102
RTVSPropertyOp14
 70
     1
102
RTVSPropertyOp15
 70
     1
102
RTVSPropertyOp16
 70
     1
102
RTVSPropertyOp17
 70
     1
102
RTVSPropertyOp18
 70
     1
102
RTVSPropertyOp19
 70
     1
102
RTVSPropertyOp20
 70
     1
102
RTVSPropertyOp21
 70
     1
102
RTVSPropertyOp22
 70
     1
102
RTVSPropertyOp23
 70
     1
102
RTVSPropertyOp24
 70
     1
102
RTVSPropertyOp25
 70
     1
102
RTVSPropertyOp26
 70
     1
102
RTVSPropertyOp27
 70
     1
102
RTVSPropertyOp28
 70
     1
102
RTVSPropertyOp29
 70
     1
102
RTVSPropertyOp30
 70
     1
102
RTVSPropertyOp31
 70
     1
102
RTVSPropertyOp32
 70
     1
102
RTVSPropertyOp33
 70
     1
102
RTVSPropertyOp34
 70
     1
102
RTVSPropertyOp35
 70
     1
102
RTVSPropertyOp36
 70
     1
102
RTVSPropertyOp37
 70
     1
102
RTVSPropertyOp38
 70
     1
102
RTVSPropertyOp39
 70
     1
102
RTVSPropertyOp40
 70
     1
102
RTVSPropertyOp41
 70
     1
102
RTVSPropertyOp42
 70
     1
102
RTVSPropertyOp43
 70
     1
102
RTVSPropertyOp44
 70
     1
102
RTVSPropertyOp45
 70
     1
102
RTVSPropertyOp46
 70
     1
102
RTVSPropertyOp47
 70
     1
102
RTVSPropertyOp48
 70
     1
102
RTVSPropertyOp49
 70
     1
102
RTVSPropertyOp50
 70
     1
102
RTVSPropertyOp51
 70
     0
102
RTVSPropertyOp52
 70
     0
102
RTVSPropertyOp53
 70
     1
102
RTVSPropertyOp54
 70
     1
102
RTVSPropertyOp55
 70
     1
102
RTVSPropertyOp56
 70
     1
102
RTVSPropertyOp57
 70
     1
102
RTVSPropertyOp58
 70
     1
102
RTVSPropertyOp59
 70
     1
102
RTVSPropertyOp60
 70
     1
102
RTVSPropertyOp61
 70
     1
102
RTVSPropertyOp62
 70
     1
  0
XRECORD
  5
A6F0
102
{ACAD_REACTORS
330
A6EF
102
}
330
A6EF
100
AcDbXrecord
280
     1
102
RTVSPost2010Prop28
280
     0
102
RTVSPost2010PropOp28
 70
     1
102
RTVSPost2010Prop29
280
     1
102
RTVSPost2010PropOp29
 70
     1
102
RTVSPost2010Prop30
280
     1
102
RTVSPost2010PropOp30
 70
     1
102
RTVSPost2010Prop31
280
     0
102
RTVSPost2010PropOp31
 70
     1
102
RTVSPost2010Prop32
280
     0
102
RTVSPost2010PropOp32
 70
     1
102
RTVSPost2010Prop33
280
     0
102
RTVSPost2010PropOp33
 70
     1
102
RTVSPost2010Prop34
280
     0
102
RTVSPost2010PropOp34
 70
     1
102
RTVSPost2010Prop35
280
     0
102
RTVSPost2010PropOp35
 70
     1
102
RTVSPost2010Prop36
280
     0
102
RTVSPost2010PropOp36
 70
     1
102
RTVSPost2010Prop37
 90
       50
102
RTVSPost2010PropOp37
 70
     1
102
RTVSPost2010Prop38
140
0.0
102
RTVSPost2010PropOp38
 70
     1
102
RTVSPost2010Prop39
140
1.0
102
RTVSPost2010PropOp39
 70
     1
102
RTVSPost2010Prop40
 90
        0
102
RTVSPost2010PropOp40
 70
     1
102
RTVSPost2010Prop41ColorIndex
 90
       18
102
RTVSPost2010Prop41ColorRGB
 90
        0
102
RTVSPost2010PropOp41
 70
     1
102
RTVSPost2010Prop42
 90
       50
102
RTVSPost2010PropOp42
 70
     1
102
RTVSPost2010Prop43
 90
        3
102
RTVSPost2010PropOp43
 70
     1
102
RTVSPost2010Prop44ColorIndex
 90
        5
102
RTVSPost2010Prop44ColorRGB
 90
      255
102
RTVSPost2010PropOp44
 70
     1
102
RTVSPost2010Prop45
280
     0
102
RTVSPost2010PropOp45
 70
     1
102
RTVSPost2010Prop46
 90
       50
102
RTVSPost2010PropOp46
 70
     1
102
RTVSPost2010Prop47
 90
       50
102
RTVSPost2010PropOp47
 70
     1
102
RTVSPost2010Prop48
 90
       50
102
RTVSPost2010PropOp48
 70
     1
102
RTVSPost2010Prop49
280
     0
102
RTVSPost2010PropOp49
 70
     1
102
RTVSPost2010Prop50
 90
       50
102
RTVSPost2010PropOp50
 70
     1
102
RTVSPost2010Prop51ColorIndex
 90
      256
102
RTVSPost2010Prop51ColorRGB
 90
-16777216
102
RTVSPost2010PropOp51
 70
     0
102
RTVSPost2010Prop52
140
1.0
102
RTVSPost2010PropOp52
 70
     0
102
RTVSPost2010Prop53
 90
        2
102
RTVSPost2010PropOp53
 70
     1
102
RTVSPost2010Prop54
  1
strokes_ogs.tif
102
RTVSPost2010PropOp54
 70
     1
102
RTVSPost2010Prop55
280
     0
102
RTVSPost2010PropOp55
 70
     1
102
RTVSPost2010Prop56
140
1.0
102
RTVSPost2010PropOp56
 70
     1
102
RTVSPost2010Prop57
140
1.0
102
RTVSPost2010PropOp57
 70
     1
102
RTVSPropertyOp0
 70
     1
102
RTVSPropertyOp1
 70
     1
102
RTVSPropertyOp2
 70
     1
102
RTVSPropertyOp3
 70
     1
102
RTVSPropertyOp4
 70
     1
102
RTVSPropertyOp5
 70
     1
102
RTVSPropertyOp6
 70
     1
102
RTVSPropertyOp7
 70
     1
102
RTVSPropertyOp8
 70
     1
102
RTVSPropertyOp9
 70
     1
102
RTVSPropertyOp10
 70
     1
102
RTVSPropertyOp11
 70
     1
102
RTVSPropertyOp12
 70
     1
102
RTVSPropertyOp13
 70
     1
102
RTVSPropertyOp14
 70
     1
102
RTVSPropertyOp15
 70
     1
102
RTVSPropertyOp16
 70
     1
102
RTVSPropertyOp17
 70
     1
102
RTVSPropertyOp18
 70
     1
102
RTVSPropertyOp19
 70
     1
102
RTVSPropertyOp20
 70
     1
102
RTVSPropertyOp21
 70
     1
102
RTVSPropertyOp22
 70
     1
102
RTVSPropertyOp23
 70
     1
102
RTVSPropertyOp24
 70
     1
102
RTVSPropertyOp25
 70
     1
102
RTVSPropertyOp26
 70
     1
102
RTVSPropertyOp27
 70
     1
102
RTVSPropertyOp28
 70
     1
102
RTVSPropertyOp29
 70
     1
102
RTVSPropertyOp30
 70
     1
102
RTVSPropertyOp31
 70
     1
102
RTVSPropertyOp32
 70
     1
102
RTVSPropertyOp33
 70
     1
102
RTVSPropertyOp34
 70
     1
102
RTVSPropertyOp35
 70
     1
102
RTVSPropertyOp36
 70
     1
102
RTVSPropertyOp37
 70
     1
102
RTVSPropertyOp38
 70
     1
102
RTVSPropertyOp39
 70
     1
102
RTVSPropertyOp40
 70
     1
102
RTVSPropertyOp41
 70
     1
102
RTVSPropertyOp42
 70
     1
102
RTVSPropertyOp43
 70
     1
102
RTVSPropertyOp44
 70
     1
102
RTVSPropertyOp45
 70
     1
102
RTVSPropertyOp46
 70
     1
102
RTVSPropertyOp47
 70
     1
102
RTVSPropertyOp48
 70
     1
102
RTVSPropertyOp49
 70
     1
102
RTVSPropertyOp50
 70
     1
102
RTVSPropertyOp51
 70
     0
102
RTVSPropertyOp52
 70
     0
102
RTVSPropertyOp53
 70
     1
102
RTVSPropertyOp54
 70
     1
102
RTVSPropertyOp55
 70
     1
102
RTVSPropertyOp56
 70
     1
102
RTVSPropertyOp57
 70
     1
102
RTVSPropertyOp58
 70
     1
102
RTVSPropertyOp59
 70
     1
102
RTVSPropertyOp60
 70
     1
102
RTVSPropertyOp61
 70
     1
102
RTVSPropertyOp62
 70
     1
  0
XRECORD
  5
A6F8
102
{ACAD_REACTORS
330
A6F7
102
}
330
A6F7
100
AcDbXrecord
280
     1
102
RTVSPost2010Prop28
280
     0
102
RTVSPost2010PropOp28
 70
     1
102
RTVSPost2010Prop29
280
     1
102
RTVSPost2010PropOp29
 70
     1
102
RTVSPost2010Prop30
280
     1
102
RTVSPost2010PropOp30
 70
     1
102
RTVSPost2010Prop31
280
     0
102
RTVSPost2010PropOp31
 70
     1
102
RTVSPost2010Prop32
280
     0
102
RTVSPost2010PropOp32
 70
     1
102
RTVSPost2010Prop33
280
     0
102
RTVSPost2010PropOp33
 70
     1
102
RTVSPost2010Prop34
280
     0
102
RTVSPost2010PropOp34
 70
     1
102
RTVSPost2010Prop35
280
     0
102
RTVSPost2010PropOp35
 70
     1
102
RTVSPost2010Prop36
280
     0
102
RTVSPost2010PropOp36
 70
     1
102
RTVSPost2010Prop37
 90
       50
102
RTVSPost2010PropOp37
 70
     1
102
RTVSPost2010Prop38
140
0.0
102
RTVSPost2010PropOp38
 70
     1
102
RTVSPost2010Prop39
140
1.0
102
RTVSPost2010PropOp39
 70
     1
102
RTVSPost2010Prop40
 90
        0
102
RTVSPost2010PropOp40
 70
     1
102
RTVSPost2010Prop41ColorIndex
 90
       18
102
RTVSPost2010Prop41ColorRGB
 90
        0
102
RTVSPost2010PropOp41
 70
     1
102
RTVSPost2010Prop42
 90
       50
102
RTVSPost2010PropOp42
 70
     1
102
RTVSPost2010Prop43
 90
        3
102
RTVSPost2010PropOp43
 70
     1
102
RTVSPost2010Prop44ColorIndex
 90
        5
102
RTVSPost2010Prop44ColorRGB
 90
      255
102
RTVSPost2010PropOp44
 70
     1
102
RTVSPost2010Prop45
280
     0
102
RTVSPost2010PropOp45
 70
     1
102
RTVSPost2010Prop46
 90
       50
102
RTVSPost2010PropOp46
 70
     1
102
RTVSPost2010Prop47
 90
       50
102
RTVSPost2010PropOp47
 70
     1
102
RTVSPost2010Prop48
 90
       50
102
RTVSPost2010PropOp48
 70
     1
102
RTVSPost2010Prop49
280
     0
102
RTVSPost2010PropOp49
 70
     1
102
RTVSPost2010Prop50
 90
       50
102
RTVSPost2010PropOp50
 70
     1
102
RTVSPost2010Prop51ColorIndex
 90
      256
102
RTVSPost2010Prop51ColorRGB
 90
-16777216
102
RTVSPost2010PropOp51
 70
     0
102
RTVSPost2010Prop52
140
1.0
102
RTVSPost2010PropOp52
 70
     0
102
RTVSPost2010Prop53
 90
        2
102
RTVSPost2010PropOp53
 70
     1
102
RTVSPost2010Prop54
  1
strokes_ogs.tif
102
RTVSPost2010PropOp54
 70
     1
102
RTVSPost2010Prop55
280
     0
102
RTVSPost2010PropOp55
 70
     1
102
RTVSPost2010Prop56
140
1.0
102
RTVSPost2010PropOp56
 70
     1
102
RTVSPost2010Prop57
140
1.0
102
RTVSPost2010PropOp57
 70
     1
102
RTVSPropertyOp0
 70
     1
102
RTVSPropertyOp1
 70
     1
102
RTVSPropertyOp2
 70
     1
102
RTVSPropertyOp3
 70
     1
102
RTVSPropertyOp4
 70
     1
102
RTVSPropertyOp5
 70
     1
102
RTVSPropertyOp6
 70
     1
102
RTVSPropertyOp7
 70
     1
102
RTVSPropertyOp8
 70
     1
102
RTVSPropertyOp9
 70
     1
102
RTVSPropertyOp10
 70
     1
102
RTVSPropertyOp11
 70
     1
102
RTVSPropertyOp12
 70
     1
102
RTVSPropertyOp13
 70
     1
102
RTVSPropertyOp14
 70
     1
102
RTVSPropertyOp15
 70
     1
102
RTVSPropertyOp16
 70
     1
102
RTVSPropertyOp17
 70
     1
102
RTVSPropertyOp18
 70
     1
102
RTVSPropertyOp19
 70
     1
102
RTVSPropertyOp20
 70
     1
102
RTVSPropertyOp21
 70
     1
102
RTVSPropertyOp22
 70
     1
102
RTVSPropertyOp23
 70
     1
102
RTVSPropertyOp24
 70
     1
102
RTVSPropertyOp25
 70
     1
102
RTVSPropertyOp26
 70
     1
102
RTVSPropertyOp27
 70
     1
102
RTVSPropertyOp28
 70
     1
102
RTVSPropertyOp29
 70
     1
102
RTVSPropertyOp30
 70
     1
102
RTVSPropertyOp31
 70
     1
102
RTVSPropertyOp32
 70
     1
102
RTVSPropertyOp33
 70
     1
102
RTVSPropertyOp34
 70
     1
102
RTVSPropertyOp35
 70
     1
102
RTVSPropertyOp36
 70
     1
102
RTVSPropertyOp37
 70
     1
102
RTVSPropertyOp38
 70
     1
102
RTVSPropertyOp39
 70
     1
102
RTVSPropertyOp40
 70
     1
102
RTVSPropertyOp41
 70
     1
102
RTVSPropertyOp42
 70
     1
102
RTVSPropertyOp43
 70
     1
102
RTVSPropertyOp44
 70
     1
102
RTVSPropertyOp45
 70
     1
102
RTVSPropertyOp46
 70
     1
102
RTVSPropertyOp47
 70
     1
102
RTVSPropertyOp48
 70
     1
102
RTVSPropertyOp49
 70
     1
102
RTVSPropertyOp50
 70
     1
102
RTVSPropertyOp51
 70
     0
102
RTVSPropertyOp52
 70
     0
102
RTVSPropertyOp53
 70
     1
102
RTVSPropertyOp54
 70
     1
102
RTVSPropertyOp55
 70
     1
102
RTVSPropertyOp56
 70
     1
102
RTVSPropertyOp57
 70
     1
102
RTVSPropertyOp58
 70
     1
102
RTVSPropertyOp59
 70
     1
102
RTVSPropertyOp60
 70
     1
102
RTVSPropertyOp61
 70
     1
102
RTVSPropertyOp62
 70
     1
  0
XRECORD
  5
A6EA
102
{ACAD_REACTORS
330
A6E9
102
}
330
A6E9
100
AcDbXrecord
280
     1
102
RTVSPost2010Prop28
280
     0
102
RTVSPost2010PropOp28
 70
     1
102
RTVSPost2010Prop29
280
     1
102
RTVSPost2010PropOp29
 70
     1
102
RTVSPost2010Prop30
280
     1
102
RTVSPost2010PropOp30
 70
     1
102
RTVSPost2010Prop31
280
     0
102
RTVSPost2010PropOp31
 70
     1
102
RTVSPost2010Prop32
280
     0
102
RTVSPost2010PropOp32
 70
     1
102
RTVSPost2010Prop33
280
     0
102
RTVSPost2010PropOp33
 70
     1
102
RTVSPost2010Prop34
280
     0
102
RTVSPost2010PropOp34
 70
     1
102
RTVSPost2010Prop35
280
     0
102
RTVSPost2010PropOp35
 70
     1
102
RTVSPost2010Prop36
280
     0
102
RTVSPost2010PropOp36
 70
     1
102
RTVSPost2010Prop37
 90
       50
102
RTVSPost2010PropOp37
 70
     1
102
RTVSPost2010Prop38
140
0.0
102
RTVSPost2010PropOp38
 70
     1
102
RTVSPost2010Prop39
140
1.0
102
RTVSPost2010PropOp39
 70
     1
102
RTVSPost2010Prop40
 90
        0
102
RTVSPost2010PropOp40
 70
     1
102
RTVSPost2010Prop41ColorIndex
 90
       18
102
RTVSPost2010Prop41ColorRGB
 90
        0
102
RTVSPost2010PropOp41
 70
     1
102
RTVSPost2010Prop42
 90
       50
102
RTVSPost2010PropOp42
 70
     1
102
RTVSPost2010Prop43
 90
        3
102
RTVSPost2010PropOp43
 70
     1
102
RTVSPost2010Prop44ColorIndex
 90
        5
102
RTVSPost2010Prop44ColorRGB
 90
      255
102
RTVSPost2010PropOp44
 70
     1
102
RTVSPost2010Prop45
280
     0
102
RTVSPost2010PropOp45
 70
     1
102
RTVSPost2010Prop46
 90
       50
102
RTVSPost2010PropOp46
 70
     1
102
RTVSPost2010Prop47
 90
       50
102
RTVSPost2010PropOp47
 70
     1
102
RTVSPost2010Prop48
 90
       50
102
RTVSPost2010PropOp48
 70
     1
102
RTVSPost2010Prop49
280
     0
102
RTVSPost2010PropOp49
 70
     1
102
RTVSPost2010Prop50
 90
       50
102
RTVSPost2010PropOp50
 70
     1
102
RTVSPost2010Prop51ColorIndex
 90
      256
102
RTVSPost2010Prop51ColorRGB
 90
-16777216
102
RTVSPost2010PropOp51
 70
     0
102
RTVSPost2010Prop52
140
1.0
102
RTVSPost2010PropOp52
 70
     0
102
RTVSPost2010Prop53
 90
        2
102
RTVSPost2010PropOp53
 70
     1
102
RTVSPost2010Prop54
  1
strokes_ogs.tif
102
RTVSPost2010PropOp54
 70
     1
102
RTVSPost2010Prop55
280
     0
102
RTVSPost2010PropOp55
 70
     1
102
RTVSPost2010Prop56
140
1.0
102
RTVSPost2010PropOp56
 70
     1
102
RTVSPost2010Prop57
140
1.0
102
RTVSPost2010PropOp57
 70
     1
102
RTVSPropertyOp0
 70
     1
102
RTVSPropertyOp1
 70
     1
102
RTVSPropertyOp2
 70
     1
102
RTVSPropertyOp3
 70
     1
102
RTVSPropertyOp4
 70
     1
102
RTVSPropertyOp5
 70
     1
102
RTVSPropertyOp6
 70
     1
102
RTVSPropertyOp7
 70
     1
102
RTVSPropertyOp8
 70
     1
102
RTVSPropertyOp9
 70
     1
102
RTVSPropertyOp10
 70
     1
102
RTVSPropertyOp11
 70
     1
102
RTVSPropertyOp12
 70
     1
102
RTVSPropertyOp13
 70
     1
102
RTVSPropertyOp14
 70
     1
102
RTVSPropertyOp15
 70
     1
102
RTVSPropertyOp16
 70
     1
102
RTVSPropertyOp17
 70
     1
102
RTVSPropertyOp18
 70
     1
102
RTVSPropertyOp19
 70
     1
102
RTVSPropertyOp20
 70
     1
102
RTVSPropertyOp21
 70
     1
102
RTVSPropertyOp22
 70
     1
102
RTVSPropertyOp23
 70
     1
102
RTVSPropertyOp24
 70
     1
102
RTVSPropertyOp25
 70
     1
102
RTVSPropertyOp26
 70
     1
102
RTVSPropertyOp27
 70
     1
102
RTVSPropertyOp28
 70
     1
102
RTVSPropertyOp29
 70
     1
102
RTVSPropertyOp30
 70
     1
102
RTVSPropertyOp31
 70
     1
102
RTVSPropertyOp32
 70
     1
102
RTVSPropertyOp33
 70
     1
102
RTVSPropertyOp34
 70
     1
102
RTVSPropertyOp35
 70
     1
102
RTVSPropertyOp36
 70
     1
102
RTVSPropertyOp37
 70
     1
102
RTVSPropertyOp38
 70
     1
102
RTVSPropertyOp39
 70
     1
102
RTVSPropertyOp40
 70
     1
102
RTVSPropertyOp41
 70
     1
102
RTVSPropertyOp42
 70
     1
102
RTVSPropertyOp43
 70
     1
102
RTVSPropertyOp44
 70
     1
102
RTVSPropertyOp45
 70
     1
102
RTVSPropertyOp46
 70
     1
102
RTVSPropertyOp47
 70
     1
102
RTVSPropertyOp48
 70
     1
102
RTVSPropertyOp49
 70
     1
102
RTVSPropertyOp50
 70
     1
102
RTVSPropertyOp51
 70
     0
102
RTVSPropertyOp52
 70
     0
102
RTVSPropertyOp53
 70
     1
102
RTVSPropertyOp54
 70
     1
102
RTVSPropertyOp55
 70
     1
102
RTVSPropertyOp56
 70
     1
102
RTVSPropertyOp57
 70
     1
102
RTVSPropertyOp58
 70
     1
102
RTVSPropertyOp59
 70
     1
102
RTVSPropertyOp60
 70
     1
102
RTVSPropertyOp61
 70
     1
102
RTVSPropertyOp62
 70
     1
  0
XRECORD
  5
A6EE
102
{ACAD_REACTORS
330
A6ED
102
}
330
A6ED
100
AcDbXrecord
280
     1
102
RTVSPost2010Prop28
280
     0
102
RTVSPost2010PropOp28
 70
     1
102
RTVSPost2010Prop29
280
     1
102
RTVSPost2010PropOp29
 70
     1
102
RTVSPost2010Prop30
280
     1
102
RTVSPost2010PropOp30
 70
     1
102
RTVSPost2010Prop31
280
     0
102
RTVSPost2010PropOp31
 70
     1
102
RTVSPost2010Prop32
280
     0
102
RTVSPost2010PropOp32
 70
     1
102
RTVSPost2010Prop33
280
     0
102
RTVSPost2010PropOp33
 70
     1
102
RTVSPost2010Prop34
280
     0
102
RTVSPost2010PropOp34
 70
     1
102
RTVSPost2010Prop35
280
     0
102
RTVSPost2010PropOp35
 70
     1
102
RTVSPost2010Prop36
280
     0
102
RTVSPost2010PropOp36
 70
     1
102
RTVSPost2010Prop37
 90
       50
102
RTVSPost2010PropOp37
 70
     1
102
RTVSPost2010Prop38
140
0.0
102
RTVSPost2010PropOp38
 70
     1
102
RTVSPost2010Prop39
140
1.0
102
RTVSPost2010PropOp39
 70
     1
102
RTVSPost2010Prop40
 90
        0
102
RTVSPost2010PropOp40
 70
     1
102
RTVSPost2010Prop41ColorIndex
 90
       18
102
RTVSPost2010Prop41ColorRGB
 90
        0
102
RTVSPost2010PropOp41
 70
     1
102
RTVSPost2010Prop42
 90
       50
102
RTVSPost2010PropOp42
 70
     1
102
RTVSPost2010Prop43
 90
        3
102
RTVSPost2010PropOp43
 70
     1
102
RTVSPost2010Prop44ColorIndex
 90
        5
102
RTVSPost2010Prop44ColorRGB
 90
      255
102
RTVSPost2010PropOp44
 70
     1
102
RTVSPost2010Prop45
280
     0
102
RTVSPost2010PropOp45
 70
     1
102
RTVSPost2010Prop46
 90
       50
102
RTVSPost2010PropOp46
 70
     1
102
RTVSPost2010Prop47
 90
       50
102
RTVSPost2010PropOp47
 70
     1
102
RTVSPost2010Prop48
 90
       50
102
RTVSPost2010PropOp48
 70
     1
102
RTVSPost2010Prop49
280
     0
102
RTVSPost2010PropOp49
 70
     1
102
RTVSPost2010Prop50
 90
       50
102
RTVSPost2010PropOp50
 70
     1
102
RTVSPost2010Prop51ColorIndex
 90
      256
102
RTVSPost2010Prop51ColorRGB
 90
-16777216
102
RTVSPost2010PropOp51
 70
     0
102
RTVSPost2010Prop52
140
1.0
102
RTVSPost2010PropOp52
 70
     0
102
RTVSPost2010Prop53
 90
        2
102
RTVSPost2010PropOp53
 70
     1
102
RTVSPost2010Prop54
  1
strokes_ogs.tif
102
RTVSPost2010PropOp54
 70
     1
102
RTVSPost2010Prop55
280
     0
102
RTVSPost2010PropOp55
 70
     1
102
RTVSPost2010Prop56
140
1.0
102
RTVSPost2010PropOp56
 70
     1
102
RTVSPost2010Prop57
140
1.0
102
RTVSPost2010PropOp57
 70
     1
102
RTVSPropertyOp0
 70
     1
102
RTVSPropertyOp1
 70
     1
102
RTVSPropertyOp2
 70
     1
102
RTVSPropertyOp3
 70
     1
102
RTVSPropertyOp4
 70
     1
102
RTVSPropertyOp5
 70
     1
102
RTVSPropertyOp6
 70
     1
102
RTVSPropertyOp7
 70
     1
102
RTVSPropertyOp8
 70
     1
102
RTVSPropertyOp9
 70
     1
102
RTVSPropertyOp10
 70
     1
102
RTVSPropertyOp11
 70
     1
102
RTVSPropertyOp12
 70
     1
102
RTVSPropertyOp13
 70
     1
102
RTVSPropertyOp14
 70
     1
102
RTVSPropertyOp15
 70
     1
102
RTVSPropertyOp16
 70
     1
102
RTVSPropertyOp17
 70
     1
102
RTVSPropertyOp18
 70
     1
102
RTVSPropertyOp19
 70
     1
102
RTVSPropertyOp20
 70
     1
102
RTVSPropertyOp21
 70
     1
102
RTVSPropertyOp22
 70
     1
102
RTVSPropertyOp23
 70
     1
102
RTVSPropertyOp24
 70
     1
102
RTVSPropertyOp25
 70
     1
102
RTVSPropertyOp26
 70
     1
102
RTVSPropertyOp27
 70
     1
102
RTVSPropertyOp28
 70
     1
102
RTVSPropertyOp29
 70
     1
102
RTVSPropertyOp30
 70
     1
102
RTVSPropertyOp31
 70
     1
102
RTVSPropertyOp32
 70
     1
102
RTVSPropertyOp33
 70
     1
102
RTVSPropertyOp34
 70
     1
102
RTVSPropertyOp35
 70
     1
102
RTVSPropertyOp36
 70
     1
102
RTVSPropertyOp37
 70
     1
102
RTVSPropertyOp38
 70
     1
102
RTVSPropertyOp39
 70
     1
102
RTVSPropertyOp40
 70
     1
102
RTVSPropertyOp41
 70
     1
102
RTVSPropertyOp42
 70
     1
102
RTVSPropertyOp43
 70
     1
102
RTVSPropertyOp44
 70
     1
102
RTVSPropertyOp45
 70
     1
102
RTVSPropertyOp46
 70
     1
102
RTVSPropertyOp47
 70
     1
102
RTVSPropertyOp48
 70
     1
102
RTVSPropertyOp49
 70
     1
102
RTVSPropertyOp50
 70
     1
102
RTVSPropertyOp51
 70
     0
102
RTVSPropertyOp52
 70
     0
102
RTVSPropertyOp53
 70
     1
102
RTVSPropertyOp54
 70
     1
102
RTVSPropertyOp55
 70
     1
102
RTVSPropertyOp56
 70
     1
102
RTVSPropertyOp57
 70
     1
102
RTVSPropertyOp58
 70
     1
102
RTVSPropertyOp59
 70
     1
102
RTVSPropertyOp60
 70
     1
102
RTVSPropertyOp61
 70
     1
102
RTVSPropertyOp62
 70
     1
  0
XRECORD
  5
A708
102
{ACAD_REACTORS
330
A707
102
}
330
A707
100
AcDbXrecord
280
     1
102
RTVSPost2010Prop28
280
     0
102
RTVSPost2010PropOp28
 70
     1
102
RTVSPost2010Prop29
280
     1
102
RTVSPost2010PropOp29
 70
     1
102
RTVSPost2010Prop30
280
     1
102
RTVSPost2010PropOp30
 70
     1
102
RTVSPost2010Prop31
280
     0
102
RTVSPost2010PropOp31
 70
     1
102
RTVSPost2010Prop32
280
     0
102
RTVSPost2010PropOp32
 70
     1
102
RTVSPost2010Prop33
280
     0
102
RTVSPost2010PropOp33
 70
     1
102
RTVSPost2010Prop34
280
     0
102
RTVSPost2010PropOp34
 70
     1
102
RTVSPost2010Prop35
280
     0
102
RTVSPost2010PropOp35
 70
     1
102
RTVSPost2010Prop36
280
     0
102
RTVSPost2010PropOp36
 70
     1
102
RTVSPost2010Prop37
 90
       50
102
RTVSPost2010PropOp37
 70
     0
102
RTVSPost2010Prop38
140
0.0
102
RTVSPost2010PropOp38
 70
     0
102
RTVSPost2010Prop39
140
1.0
102
RTVSPost2010PropOp39
 70
     0
102
RTVSPost2010Prop40
 90
        0
102
RTVSPost2010PropOp40
 70
     0
102
RTVSPost2010Prop41ColorIndex
 90
       18
102
RTVSPost2010Prop41ColorRGB
 90
        0
102
RTVSPost2010PropOp41
 70
     0
102
RTVSPost2010Prop42
 90
       50
102
RTVSPost2010PropOp42
 70
     0
102
RTVSPost2010Prop43
 90
        3
102
RTVSPost2010PropOp43
 70
     0
102
RTVSPost2010Prop44ColorIndex
 90
        5
102
RTVSPost2010Prop44ColorRGB
 90
      255
102
RTVSPost2010PropOp44
 70
     0
102
RTVSPost2010Prop45
280
     0
102
RTVSPost2010PropOp45
 70
     1
102
RTVSPost2010Prop46
 90
       50
102
RTVSPost2010PropOp46
 70
     0
102
RTVSPost2010Prop47
 90
       50
102
RTVSPost2010PropOp47
 70
     0
102
RTVSPost2010Prop48
 90
       50
102
RTVSPost2010PropOp48
 70
     0
102
RTVSPost2010Prop49
280
     0
102
RTVSPost2010PropOp49
 70
     1
102
RTVSPost2010Prop50
 90
       50
102
RTVSPost2010PropOp50
 70
     0
102
RTVSPost2010Prop51ColorIndex
 90
      256
102
RTVSPost2010Prop51ColorRGB
 90
-16777216
102
RTVSPost2010PropOp51
 70
     0
102
RTVSPost2010Prop52
140
1.0
102
RTVSPost2010PropOp52
 70
     0
102
RTVSPost2010Prop53
 90
        2
102
RTVSPost2010PropOp53
 70
     0
102
RTVSPost2010Prop54
  1
strokes_ogs.tif
102
RTVSPost2010PropOp54
 70
     0
102
RTVSPost2010Prop55
280
     0
102
RTVSPost2010PropOp55
 70
     1
102
RTVSPost2010Prop56
140
1.0
102
RTVSPost2010PropOp56
 70
     0
102
RTVSPost2010Prop57
140
1.0
102
RTVSPost2010PropOp57
 70
     0
102
RTVSPropertyOp0
 70
     0
102
RTVSPropertyOp1
 70
     0
102
RTVSPropertyOp2
 70
     0
102
RTVSPropertyOp3
 70
     0
102
RTVSPropertyOp4
 70
     0
102
RTVSPropertyOp5
 70
     0
102
RTVSPropertyOp6
 70
     0
102
RTVSPropertyOp7
 70
     0
102
RTVSPropertyOp8
 70
     0
102
RTVSPropertyOp9
 70
     0
102
RTVSPropertyOp10
 70
     0
102
RTVSPropertyOp11
 70
     0
102
RTVSPropertyOp12
 70
     0
102
RTVSPropertyOp13
 70
     0
102
RTVSPropertyOp14
 70
     2
102
RTVSPropertyOp15
 70
     0
102
RTVSPropertyOp16
 70
     0
102
RTVSPropertyOp17
 70
     0
102
RTVSPropertyOp18
 70
     0
102
RTVSPropertyOp19
 70
     0
102
RTVSPropertyOp20
 70
     0
102
RTVSPropertyOp21
 70
     0
102
RTVSPropertyOp22
 70
     0
102
RTVSPropertyOp23
 70
     0
102
RTVSPropertyOp24
 70
     0
102
RTVSPropertyOp25
 70
     0
102
RTVSPropertyOp26
 70
     0
102
RTVSPropertyOp27
 70
     0
102
RTVSPropertyOp28
 70
     1
102
RTVSPropertyOp29
 70
     1
102
RTVSPropertyOp30
 70
     1
102
RTVSPropertyOp31
 70
     1
102
RTVSPropertyOp32
 70
     1
102
RTVSPropertyOp33
 70
     1
102
RTVSPropertyOp34
 70
     1
102
RTVSPropertyOp35
 70
     1
102
RTVSPropertyOp36
 70
     1
102
RTVSPropertyOp37
 70
     0
102
RTVSPropertyOp38
 70
     0
102
RTVSPropertyOp39
 70
     0
102
RTVSPropertyOp40
 70
     0
102
RTVSPropertyOp41
 70
     0
102
RTVSPropertyOp42
 70
     0
102
RTVSPropertyOp43
 70
     0
102
RTVSPropertyOp44
 70
     0
102
RTVSPropertyOp45
 70
     1
102
RTVSPropertyOp46
 70
     0
102
RTVSPropertyOp47
 70
     0
102
RTVSPropertyOp48
 70
     0
102
RTVSPropertyOp49
 70
     1
102
RTVSPropertyOp50
 70
     0
102
RTVSPropertyOp51
 70
     0
102
RTVSPropertyOp52
 70
     0
102
RTVSPropertyOp53
 70
     0
102
RTVSPropertyOp54
 70
     0
102
RTVSPropertyOp55
 70
     1
102
RTVSPropertyOp56
 70
     0
102
RTVSPropertyOp57
 70
     0
102
RTVSPropertyOp58
 70
     0
102
RTVSPropertyOp59
 70
     0
102
RTVSPropertyOp60
 70
     0
102
RTVSPropertyOp61
 70
     0
102
RTVSPropertyOp62
 70
     0
  0
XRECORD
  5
A6F6
102
{ACAD_REACTORS
330
A6F5
102
}
330
A6F5
100
AcDbXrecord
280
     1
102
RTVSPost2010Prop28
280
     0
102
RTVSPost2010PropOp28
 70
     1
102
RTVSPost2010Prop29
280
     1
102
RTVSPost2010PropOp29
 70
     1
102
RTVSPost2010Prop30
280
     1
102
RTVSPost2010PropOp30
 70
     1
102
RTVSPost2010Prop31
280
     0
102
RTVSPost2010PropOp31
 70
     1
102
RTVSPost2010Prop32
280
     0
102
RTVSPost2010PropOp32
 70
     1
102
RTVSPost2010Prop33
280
     0
102
RTVSPost2010PropOp33
 70
     1
102
RTVSPost2010Prop34
280
     0
102
RTVSPost2010PropOp34
 70
     1
102
RTVSPost2010Prop35
280
     0
102
RTVSPost2010PropOp35
 70
     1
102
RTVSPost2010Prop36
280
     0
102
RTVSPost2010PropOp36
 70
     1
102
RTVSPost2010Prop37
 90
       50
102
RTVSPost2010PropOp37
 70
     1
102
RTVSPost2010Prop38
140
0.0
102
RTVSPost2010PropOp38
 70
     1
102
RTVSPost2010Prop39
140
1.0
102
RTVSPost2010PropOp39
 70
     1
102
RTVSPost2010Prop40
 90
        0
102
RTVSPost2010PropOp40
 70
     1
102
RTVSPost2010Prop41ColorIndex
 90
       18
102
RTVSPost2010Prop41ColorRGB
 90
        0
102
RTVSPost2010PropOp41
 70
     1
102
RTVSPost2010Prop42
 90
       50
102
RTVSPost2010PropOp42
 70
     1
102
RTVSPost2010Prop43
 90
        3
102
RTVSPost2010PropOp43
 70
     1
102
RTVSPost2010Prop44ColorIndex
 90
        5
102
RTVSPost2010Prop44ColorRGB
 90
      255
102
RTVSPost2010PropOp44
 70
     1
102
RTVSPost2010Prop45
280
     0
102
RTVSPost2010PropOp45
 70
     1
102
RTVSPost2010Prop46
 90
       50
102
RTVSPost2010PropOp46
 70
     1
102
RTVSPost2010Prop47
 90
       50
102
RTVSPost2010PropOp47
 70
     1
102
RTVSPost2010Prop48
 90
       50
102
RTVSPost2010PropOp48
 70
     1
102
RTVSPost2010Prop49
280
     0
102
RTVSPost2010PropOp49
 70
     1
102
RTVSPost2010Prop50
 90
       50
102
RTVSPost2010PropOp50
 70
     1
102
RTVSPost2010Prop51ColorIndex
 90
      256
102
RTVSPost2010Prop51ColorRGB
 90
-16777216
102
RTVSPost2010PropOp51
 70
     0
102
RTVSPost2010Prop52
140
1.0
102
RTVSPost2010PropOp52
 70
     0
102
RTVSPost2010Prop53
 90
        2
102
RTVSPost2010PropOp53
 70
     1
102
RTVSPost2010Prop54
  1
strokes_ogs.tif
102
RTVSPost2010PropOp54
 70
     1
102
RTVSPost2010Prop55
280
     0
102
RTVSPost2010PropOp55
 70
     1
102
RTVSPost2010Prop56
140
1.0
102
RTVSPost2010PropOp56
 70
     1
102
RTVSPost2010Prop57
140
1.0
102
RTVSPost2010PropOp57
 70
     1
102
RTVSPropertyOp0
 70
     1
102
RTVSPropertyOp1
 70
     1
102
RTVSPropertyOp2
 70
     1
102
RTVSPropertyOp3
 70
     1
102
RTVSPropertyOp4
 70
     1
102
RTVSPropertyOp5
 70
     1
102
RTVSPropertyOp6
 70
     1
102
RTVSPropertyOp7
 70
     1
102
RTVSPropertyOp8
 70
     1
102
RTVSPropertyOp9
 70
     1
102
RTVSPropertyOp10
 70
     1
102
RTVSPropertyOp11
 70
     1
102
RTVSPropertyOp12
 70
     1
102
RTVSPropertyOp13
 70
     1
102
RTVSPropertyOp14
 70
     1
102
RTVSPropertyOp15
 70
     1
102
RTVSPropertyOp16
 70
     1
102
RTVSPropertyOp17
 70
     1
102
RTVSPropertyOp18
 70
     1
102
RTVSPropertyOp19
 70
     1
102
RTVSPropertyOp20
 70
     1
102
RTVSPropertyOp21
 70
     1
102
RTVSPropertyOp22
 70
     1
102
RTVSPropertyOp23
 70
     1
102
RTVSPropertyOp24
 70
     1
102
RTVSPropertyOp25
 70
     1
102
RTVSPropertyOp26
 70
     1
102
RTVSPropertyOp27
 70
     1
102
RTVSPropertyOp28
 70
     1
102
RTVSPropertyOp29
 70
     1
102
RTVSPropertyOp30
 70
     1
102
RTVSPropertyOp31
 70
     1
102
RTVSPropertyOp32
 70
     1
102
RTVSPropertyOp33
 70
     1
102
RTVSPropertyOp34
 70
     1
102
RTVSPropertyOp35
 70
     1
102
RTVSPropertyOp36
 70
     1
102
RTVSPropertyOp37
 70
     1
102
RTVSPropertyOp38
 70
     1
102
RTVSPropertyOp39
 70
     1
102
RTVSPropertyOp40
 70
     1
102
RTVSPropertyOp41
 70
     1
102
RTVSPropertyOp42
 70
     1
102
RTVSPropertyOp43
 70
     1
102
RTVSPropertyOp44
 70
     1
102
RTVSPropertyOp45
 70
     1
102
RTVSPropertyOp46
 70
     1
102
RTVSPropertyOp47
 70
     1
102
RTVSPropertyOp48
 70
     1
102
RTVSPropertyOp49
 70
     1
102
RTVSPropertyOp50
 70
     1
102
RTVSPropertyOp51
 70
     0
102
RTVSPropertyOp52
 70
     0
102
RTVSPropertyOp53
 70
     1
102
RTVSPropertyOp54
 70
     1
102
RTVSPropertyOp55
 70
     1
102
RTVSPropertyOp56
 70
     1
102
RTVSPropertyOp57
 70
     1
102
RTVSPropertyOp58
 70
     1
102
RTVSPropertyOp59
 70
     1
102
RTVSPropertyOp60
 70
     1
102
RTVSPropertyOp61
 70
     1
102
RTVSPropertyOp62
 70
     1
  0
XRECORD
  5
A6DA
102
{ACAD_REACTORS
330
A6D9
102
}
330
A6D9
100
AcDbXrecord
280
     1
102
RTVSPost2010Prop28
280
     0
102
RTVSPost2010PropOp28
 70
     1
102
RTVSPost2010Prop29
280
     1
102
RTVSPost2010PropOp29
 70
     1
102
RTVSPost2010Prop30
280
     1
102
RTVSPost2010PropOp30
 70
     1
102
RTVSPost2010Prop31
280
     0
102
RTVSPost2010PropOp31
 70
     1
102
RTVSPost2010Prop32
280
     0
102
RTVSPost2010PropOp32
 70
     1
102
RTVSPost2010Prop33
280
     0
102
RTVSPost2010PropOp33
 70
     1
102
RTVSPost2010Prop34
280
     0
102
RTVSPost2010PropOp34
 70
     1
102
RTVSPost2010Prop35
280
     0
102
RTVSPost2010PropOp35
 70
     1
102
RTVSPost2010Prop36
280
     0
102
RTVSPost2010PropOp36
 70
     1
102
RTVSPost2010Prop37
 90
       50
102
RTVSPost2010PropOp37
 70
     1
102
RTVSPost2010Prop38
140
0.0
102
RTVSPost2010PropOp38
 70
     1
102
RTVSPost2010Prop39
140
1.0
102
RTVSPost2010PropOp39
 70
     1
102
RTVSPost2010Prop40
 90
        0
102
RTVSPost2010PropOp40
 70
     1
102
RTVSPost2010Prop41ColorIndex
 90
       18
102
RTVSPost2010Prop41ColorRGB
 90
        0
102
RTVSPost2010PropOp41
 70
     1
102
RTVSPost2010Prop42
 90
       50
102
RTVSPost2010PropOp42
 70
     1
102
RTVSPost2010Prop43
 90
        3
102
RTVSPost2010PropOp43
 70
     1
102
RTVSPost2010Prop44ColorIndex
 90
        5
102
RTVSPost2010Prop44ColorRGB
 90
      255
102
RTVSPost2010PropOp44
 70
     1
102
RTVSPost2010Prop45
280
     0
102
RTVSPost2010PropOp45
 70
     1
102
RTVSPost2010Prop46
 90
       50
102
RTVSPost2010PropOp46
 70
     1
102
RTVSPost2010Prop47
 90
       50
102
RTVSPost2010PropOp47
 70
     1
102
RTVSPost2010Prop48
 90
       50
102
RTVSPost2010PropOp48
 70
     1
102
RTVSPost2010Prop49
280
     0
102
RTVSPost2010PropOp49
 70
     1
102
RTVSPost2010Prop50
 90
       50
102
RTVSPost2010PropOp50
 70
     1
102
RTVSPost2010Prop51ColorIndex
 90
      256
102
RTVSPost2010Prop51ColorRGB
 90
-16777216
102
RTVSPost2010PropOp51
 70
     0
102
RTVSPost2010Prop52
140
1.0
102
RTVSPost2010PropOp52
 70
     0
102
RTVSPost2010Prop53
 90
        2
102
RTVSPost2010PropOp53
 70
     1
102
RTVSPost2010Prop54
  1
strokes_ogs.tif
102
RTVSPost2010PropOp54
 70
     1
102
RTVSPost2010Prop55
280
     0
102
RTVSPost2010PropOp55
 70
     1
102
RTVSPost2010Prop56
140
1.0
102
RTVSPost2010PropOp56
 70
     1
102
RTVSPost2010Prop57
140
1.0
102
RTVSPost2010PropOp57
 70
     1
102
RTVSPropertyOp0
 70
     1
102
RTVSPropertyOp1
 70
     1
102
RTVSPropertyOp2
 70
     1
102
RTVSPropertyOp3
 70
     1
102
RTVSPropertyOp4
 70
     1
102
RTVSPropertyOp5
 70
     1
102
RTVSPropertyOp6
 70
     1
102
RTVSPropertyOp7
 70
     1
102
RTVSPropertyOp8
 70
     1
102
RTVSPropertyOp9
 70
     1
102
RTVSPropertyOp10
 70
     1
102
RTVSPropertyOp11
 70
     1
102
RTVSPropertyOp12
 70
     1
102
RTVSPropertyOp13
 70
     1
102
RTVSPropertyOp14
 70
     1
102
RTVSPropertyOp15
 70
     1
102
RTVSPropertyOp16
 70
     1
102
RTVSPropertyOp17
 70
     1
102
RTVSPropertyOp18
 70
     1
102
RTVSPropertyOp19
 70
     1
102
RTVSPropertyOp20
 70
     1
102
RTVSPropertyOp21
 70
     1
102
RTVSPropertyOp22
 70
     1
102
RTVSPropertyOp23
 70
     1
102
RTVSPropertyOp24
 70
     1
102
RTVSPropertyOp25
 70
     1
102
RTVSPropertyOp26
 70
     1
102
RTVSPropertyOp27
 70
     1
102
RTVSPropertyOp28
 70
     1
102
RTVSPropertyOp29
 70
     1
102
RTVSPropertyOp30
 70
     1
102
RTVSPropertyOp31
 70
     1
102
RTVSPropertyOp32
 70
     1
102
RTVSPropertyOp33
 70
     1
102
RTVSPropertyOp34
 70
     1
102
RTVSPropertyOp35
 70
     1
102
RTVSPropertyOp36
 70
     1
102
RTVSPropertyOp37
 70
     1
102
RTVSPropertyOp38
 70
     1
102
RTVSPropertyOp39
 70
     1
102
RTVSPropertyOp40
 70
     1
102
RTVSPropertyOp41
 70
     1
102
RTVSPropertyOp42
 70
     1
102
RTVSPropertyOp43
 70
     1
102
RTVSPropertyOp44
 70
     1
102
RTVSPropertyOp45
 70
     1
102
RTVSPropertyOp46
 70
     1
102
RTVSPropertyOp47
 70
     1
102
RTVSPropertyOp48
 70
     1
102
RTVSPropertyOp49
 70
     1
102
RTVSPropertyOp50
 70
     1
102
RTVSPropertyOp51
 70
     0
102
RTVSPropertyOp52
 70
     0
102
RTVSPropertyOp53
 70
     1
102
RTVSPropertyOp54
 70
     1
102
RTVSPropertyOp55
 70
     1
102
RTVSPropertyOp56
 70
     1
102
RTVSPropertyOp57
 70
     1
102
RTVSPropertyOp58
 70
     1
102
RTVSPropertyOp59
 70
     1
102
RTVSPropertyOp60
 70
     1
102
RTVSPropertyOp61
 70
     1
102
RTVSPropertyOp62
 70
     1
  0
XRECORD
  5
A6DC
102
{ACAD_REACTORS
330
A6DB
102
}
330
A6DB
100
AcDbXrecord
280
     1
102
RTVSPost2010Prop28
280
     0
102
RTVSPost2010PropOp28
 70
     1
102
RTVSPost2010Prop29
280
     1
102
RTVSPost2010PropOp29
 70
     1
102
RTVSPost2010Prop30
280
     1
102
RTVSPost2010PropOp30
 70
     1
102
RTVSPost2010Prop31
280
     0
102
RTVSPost2010PropOp31
 70
     1
102
RTVSPost2010Prop32
280
     0
102
RTVSPost2010PropOp32
 70
     1
102
RTVSPost2010Prop33
280
     0
102
RTVSPost2010PropOp33
 70
     1
102
RTVSPost2010Prop34
280
     0
102
RTVSPost2010PropOp34
 70
     1
102
RTVSPost2010Prop35
280
     0
102
RTVSPost2010PropOp35
 70
     1
102
RTVSPost2010Prop36
280
     0
102
RTVSPost2010PropOp36
 70
     1
102
RTVSPost2010Prop37
 90
       50
102
RTVSPost2010PropOp37
 70
     1
102
RTVSPost2010Prop38
140
0.0
102
RTVSPost2010PropOp38
 70
     1
102
RTVSPost2010Prop39
140
1.0
102
RTVSPost2010PropOp39
 70
     1
102
RTVSPost2010Prop40
 90
        0
102
RTVSPost2010PropOp40
 70
     1
102
RTVSPost2010Prop41ColorIndex
 90
       18
102
RTVSPost2010Prop41ColorRGB
 90
        0
102
RTVSPost2010PropOp41
 70
     1
102
RTVSPost2010Prop42
 90
       50
102
RTVSPost2010PropOp42
 70
     1
102
RTVSPost2010Prop43
 90
        3
102
RTVSPost2010PropOp43
 70
     1
102
RTVSPost2010Prop44ColorIndex
 90
        5
102
RTVSPost2010Prop44ColorRGB
 90
      255
102
RTVSPost2010PropOp44
 70
     1
102
RTVSPost2010Prop45
280
     0
102
RTVSPost2010PropOp45
 70
     1
102
RTVSPost2010Prop46
 90
       50
102
RTVSPost2010PropOp46
 70
     1
102
RTVSPost2010Prop47
 90
       50
102
RTVSPost2010PropOp47
 70
     1
102
RTVSPost2010Prop48
 90
       50
102
RTVSPost2010PropOp48
 70
     1
102
RTVSPost2010Prop49
280
     0
102
RTVSPost2010PropOp49
 70
     1
102
RTVSPost2010Prop50
 90
       50
102
RTVSPost2010PropOp50
 70
     1
102
RTVSPost2010Prop51ColorIndex
 90
      256
102
RTVSPost2010Prop51ColorRGB
 90
-16777216
102
RTVSPost2010PropOp51
 70
     0
102
RTVSPost2010Prop52
140
1.0
102
RTVSPost2010PropOp52
 70
     0
102
RTVSPost2010Prop53
 90
        2
102
RTVSPost2010PropOp53
 70
     1
102
RTVSPost2010Prop54
  1
strokes_ogs.tif
102
RTVSPost2010PropOp54
 70
     1
102
RTVSPost2010Prop55
280
     0
102
RTVSPost2010PropOp55
 70
     1
102
RTVSPost2010Prop56
140
1.0
102
RTVSPost2010PropOp56
 70
     1
102
RTVSPost2010Prop57
140
1.0
102
RTVSPost2010PropOp57
 70
     1
102
RTVSPropertyOp0
 70
     1
102
RTVSPropertyOp1
 70
     1
102
RTVSPropertyOp2
 70
     1
102
RTVSPropertyOp3
 70
     1
102
RTVSPropertyOp4
 70
     1
102
RTVSPropertyOp5
 70
     1
102
RTVSPropertyOp6
 70
     1
102
RTVSPropertyOp7
 70
     1
102
RTVSPropertyOp8
 70
     1
102
RTVSPropertyOp9
 70
     1
102
RTVSPropertyOp10
 70
     1
102
RTVSPropertyOp11
 70
     1
102
RTVSPropertyOp12
 70
     1
102
RTVSPropertyOp13
 70
     1
102
RTVSPropertyOp14
 70
     1
102
RTVSPropertyOp15
 70
     1
102
RTVSPropertyOp16
 70
     1
102
RTVSPropertyOp17
 70
     1
102
RTVSPropertyOp18
 70
     1
102
RTVSPropertyOp19
 70
     1
102
RTVSPropertyOp20
 70
     1
102
RTVSPropertyOp21
 70
     1
102
RTVSPropertyOp22
 70
     1
102
RTVSPropertyOp23
 70
     1
102
RTVSPropertyOp24
 70
     1
102
RTVSPropertyOp25
 70
     1
102
RTVSPropertyOp26
 70
     1
102
RTVSPropertyOp27
 70
     1
102
RTVSPropertyOp28
 70
     1
102
RTVSPropertyOp29
 70
     1
102
RTVSPropertyOp30
 70
     1
102
RTVSPropertyOp31
 70
     1
102
RTVSPropertyOp32
 70
     1
102
RTVSPropertyOp33
 70
     1
102
RTVSPropertyOp34
 70
     1
102
RTVSPropertyOp35
 70
     1
102
RTVSPropertyOp36
 70
     1
102
RTVSPropertyOp37
 70
     1
102
RTVSPropertyOp38
 70
     1
102
RTVSPropertyOp39
 70
     1
102
RTVSPropertyOp40
 70
     1
102
RTVSPropertyOp41
 70
     1
102
RTVSPropertyOp42
 70
     1
102
RTVSPropertyOp43
 70
     1
102
RTVSPropertyOp44
 70
     1
102
RTVSPropertyOp45
 70
     1
102
RTVSPropertyOp46
 70
     1
102
RTVSPropertyOp47
 70
     1
102
RTVSPropertyOp48
 70
     1
102
RTVSPropertyOp49
 70
     1
102
RTVSPropertyOp50
 70
     1
102
RTVSPropertyOp51
 70
     0
102
RTVSPropertyOp52
 70
     0
102
RTVSPropertyOp53
 70
     1
102
RTVSPropertyOp54
 70
     1
102
RTVSPropertyOp55
 70
     1
102
RTVSPropertyOp56
 70
     1
102
RTVSPropertyOp57
 70
     1
102
RTVSPropertyOp58
 70
     1
102
RTVSPropertyOp59
 70
     1
102
RTVSPropertyOp60
 70
     1
102
RTVSPropertyOp61
 70
     1
102
RTVSPropertyOp62
 70
     1
  0
XRECORD
  5
A6DE
102
{ACAD_REACTORS
330
A6DD
102
}
330
A6DD
100
AcDbXrecord
280
     1
102
RTVSPost2010Prop28
280
     0
102
RTVSPost2010PropOp28
 70
     1
102
RTVSPost2010Prop29
280
     1
102
RTVSPost2010PropOp29
 70
     1
102
RTVSPost2010Prop30
280
     1
102
RTVSPost2010PropOp30
 70
     1
102
RTVSPost2010Prop31
280
     0
102
RTVSPost2010PropOp31
 70
     1
102
RTVSPost2010Prop32
280
     0
102
RTVSPost2010PropOp32
 70
     1
102
RTVSPost2010Prop33
280
     0
102
RTVSPost2010PropOp33
 70
     1
102
RTVSPost2010Prop34
280
     0
102
RTVSPost2010PropOp34
 70
     1
102
RTVSPost2010Prop35
280
     0
102
RTVSPost2010PropOp35
 70
     1
102
RTVSPost2010Prop36
280
     0
102
RTVSPost2010PropOp36
 70
     1
102
RTVSPost2010Prop37
 90
       50
102
RTVSPost2010PropOp37
 70
     1
102
RTVSPost2010Prop38
140
0.0
102
RTVSPost2010PropOp38
 70
     1
102
RTVSPost2010Prop39
140
1.0
102
RTVSPost2010PropOp39
 70
     1
102
RTVSPost2010Prop40
 90
        0
102
RTVSPost2010PropOp40
 70
     1
102
RTVSPost2010Prop41ColorIndex
 90
       18
102
RTVSPost2010Prop41ColorRGB
 90
        0
102
RTVSPost2010PropOp41
 70
     1
102
RTVSPost2010Prop42
 90
       50
102
RTVSPost2010PropOp42
 70
     1
102
RTVSPost2010Prop43
 90
        3
102
RTVSPost2010PropOp43
 70
     1
102
RTVSPost2010Prop44ColorIndex
 90
        5
102
RTVSPost2010Prop44ColorRGB
 90
      255
102
RTVSPost2010PropOp44
 70
     1
102
RTVSPost2010Prop45
280
     0
102
RTVSPost2010PropOp45
 70
     1
102
RTVSPost2010Prop46
 90
       50
102
RTVSPost2010PropOp46
 70
     1
102
RTVSPost2010Prop47
 90
       50
102
RTVSPost2010PropOp47
 70
     1
102
RTVSPost2010Prop48
 90
       50
102
RTVSPost2010PropOp48
 70
     1
102
RTVSPost2010Prop49
280
     0
102
RTVSPost2010PropOp49
 70
     1
102
RTVSPost2010Prop50
 90
       50
102
RTVSPost2010PropOp50
 70
     1
102
RTVSPost2010Prop51ColorIndex
 90
      256
102
RTVSPost2010Prop51ColorRGB
 90
-16777216
102
RTVSPost2010PropOp51
 70
     0
102
RTVSPost2010Prop52
140
1.0
102
RTVSPost2010PropOp52
 70
     0
102
RTVSPost2010Prop53
 90
        2
102
RTVSPost2010PropOp53
 70
     1
102
RTVSPost2010Prop54
  1
strokes_ogs.tif
102
RTVSPost2010PropOp54
 70
     1
102
RTVSPost2010Prop55
280
     0
102
RTVSPost2010PropOp55
 70
     1
102
RTVSPost2010Prop56
140
1.0
102
RTVSPost2010PropOp56
 70
     1
102
RTVSPost2010Prop57
140
1.0
102
RTVSPost2010PropOp57
 70
     1
102
RTVSPropertyOp0
 70
     1
102
RTVSPropertyOp1
 70
     1
102
RTVSPropertyOp2
 70
     1
102
RTVSPropertyOp3
 70
     1
102
RTVSPropertyOp4
 70
     1
102
RTVSPropertyOp5
 70
     1
102
RTVSPropertyOp6
 70
     1
102
RTVSPropertyOp7
 70
     1
102
RTVSPropertyOp8
 70
     1
102
RTVSPropertyOp9
 70
     1
102
RTVSPropertyOp10
 70
     1
102
RTVSPropertyOp11
 70
     1
102
RTVSPropertyOp12
 70
     1
102
RTVSPropertyOp13
 70
     1
102
RTVSPropertyOp14
 70
     1
102
RTVSPropertyOp15
 70
     1
102
RTVSPropertyOp16
 70
     1
102
RTVSPropertyOp17
 70
     1
102
RTVSPropertyOp18
 70
     1
102
RTVSPropertyOp19
 70
     1
102
RTVSPropertyOp20
 70
     1
102
RTVSPropertyOp21
 70
     1
102
RTVSPropertyOp22
 70
     1
102
RTVSPropertyOp23
 70
     1
102
RTVSPropertyOp24
 70
     1
102
RTVSPropertyOp25
 70
     1
102
RTVSPropertyOp26
 70
     1
102
RTVSPropertyOp27
 70
     1
102
RTVSPropertyOp28
 70
     1
102
RTVSPropertyOp29
 70
     1
102
RTVSPropertyOp30
 70
     1
102
RTVSPropertyOp31
 70
     1
102
RTVSPropertyOp32
 70
     1
102
RTVSPropertyOp33
 70
     1
102
RTVSPropertyOp34
 70
     1
102
RTVSPropertyOp35
 70
     1
102
RTVSPropertyOp36
 70
     1
102
RTVSPropertyOp37
 70
     1
102
RTVSPropertyOp38
 70
     1
102
RTVSPropertyOp39
 70
     1
102
RTVSPropertyOp40
 70
     1
102
RTVSPropertyOp41
 70
     1
102
RTVSPropertyOp42
 70
     1
102
RTVSPropertyOp43
 70
     1
102
RTVSPropertyOp44
 70
     1
102
RTVSPropertyOp45
 70
     1
102
RTVSPropertyOp46
 70
     1
102
RTVSPropertyOp47
 70
     1
102
RTVSPropertyOp48
 70
     1
102
RTVSPropertyOp49
 70
     1
102
RTVSPropertyOp50
 70
     1
102
RTVSPropertyOp51
 70
     0
102
RTVSPropertyOp52
 70
     0
102
RTVSPropertyOp53
 70
     1
102
RTVSPropertyOp54
 70
     1
102
RTVSPropertyOp55
 70
     1
102
RTVSPropertyOp56
 70
     1
102
RTVSPropertyOp57
 70
     1
102
RTVSPropertyOp58
 70
     1
102
RTVSPropertyOp59
 70
     1
102
RTVSPropertyOp60
 70
     1
102
RTVSPropertyOp61
 70
     1
102
RTVSPropertyOp62
 70
     1
  0
XRECORD
  5
A6E0
102
{ACAD_REACTORS
330
A6DF
102
}
330
A6DF
100
AcDbXrecord
280
     1
102
RTVSPost2010Prop28
280
     0
102
RTVSPost2010PropOp28
 70
     1
102
RTVSPost2010Prop29
280
     1
102
RTVSPost2010PropOp29
 70
     1
102
RTVSPost2010Prop30
280
     1
102
RTVSPost2010PropOp30
 70
     1
102
RTVSPost2010Prop31
280
     0
102
RTVSPost2010PropOp31
 70
     1
102
RTVSPost2010Prop32
280
     0
102
RTVSPost2010PropOp32
 70
     1
102
RTVSPost2010Prop33
280
     0
102
RTVSPost2010PropOp33
 70
     1
102
RTVSPost2010Prop34
280
     0
102
RTVSPost2010PropOp34
 70
     1
102
RTVSPost2010Prop35
280
     0
102
RTVSPost2010PropOp35
 70
     1
102
RTVSPost2010Prop36
280
     0
102
RTVSPost2010PropOp36
 70
     1
102
RTVSPost2010Prop37
 90
       50
102
RTVSPost2010PropOp37
 70
     1
102
RTVSPost2010Prop38
140
0.0
102
RTVSPost2010PropOp38
 70
     1
102
RTVSPost2010Prop39
140
1.0
102
RTVSPost2010PropOp39
 70
     1
102
RTVSPost2010Prop40
 90
        0
102
RTVSPost2010PropOp40
 70
     1
102
RTVSPost2010Prop41ColorIndex
 90
       18
102
RTVSPost2010Prop41ColorRGB
 90
        0
102
RTVSPost2010PropOp41
 70
     1
102
RTVSPost2010Prop42
 90
       50
102
RTVSPost2010PropOp42
 70
     1
102
RTVSPost2010Prop43
 90
        3
102
RTVSPost2010PropOp43
 70
     1
102
RTVSPost2010Prop44ColorIndex
 90
        5
102
RTVSPost2010Prop44ColorRGB
 90
      255
102
RTVSPost2010PropOp44
 70
     1
102
RTVSPost2010Prop45
280
     0
102
RTVSPost2010PropOp45
 70
     1
102
RTVSPost2010Prop46
 90
       50
102
RTVSPost2010PropOp46
 70
     1
102
RTVSPost2010Prop47
 90
       50
102
RTVSPost2010PropOp47
 70
     1
102
RTVSPost2010Prop48
 90
       50
102
RTVSPost2010PropOp48
 70
     1
102
RTVSPost2010Prop49
280
     0
102
RTVSPost2010PropOp49
 70
     1
102
RTVSPost2010Prop50
 90
       50
102
RTVSPost2010PropOp50
 70
     1
102
RTVSPost2010Prop51ColorIndex
 90
      256
102
RTVSPost2010Prop51ColorRGB
 90
-16777216
102
RTVSPost2010PropOp51
 70
     0
102
RTVSPost2010Prop52
140
1.0
102
RTVSPost2010PropOp52
 70
     0
102
RTVSPost2010Prop53
 90
        2
102
RTVSPost2010PropOp53
 70
     1
102
RTVSPost2010Prop54
  1
strokes_ogs.tif
102
RTVSPost2010PropOp54
 70
     1
102
RTVSPost2010Prop55
280
     0
102
RTVSPost2010PropOp55
 70
     1
102
RTVSPost2010Prop56
140
1.0
102
RTVSPost2010PropOp56
 70
     1
102
RTVSPost2010Prop57
140
1.0
102
RTVSPost2010PropOp57
 70
     1
102
RTVSPropertyOp0
 70
     1
102
RTVSPropertyOp1
 70
     1
102
RTVSPropertyOp2
 70
     1
102
RTVSPropertyOp3
 70
     1
102
RTVSPropertyOp4
 70
     1
102
RTVSPropertyOp5
 70
     1
102
RTVSPropertyOp6
 70
     1
102
RTVSPropertyOp7
 70
     1
102
RTVSPropertyOp8
 70
     1
102
RTVSPropertyOp9
 70
     1
102
RTVSPropertyOp10
 70
     1
102
RTVSPropertyOp11
 70
     1
102
RTVSPropertyOp12
 70
     1
102
RTVSPropertyOp13
 70
     1
102
RTVSPropertyOp14
 70
     1
102
RTVSPropertyOp15
 70
     1
102
RTVSPropertyOp16
 70
     1
102
RTVSPropertyOp17
 70
     1
102
RTVSPropertyOp18
 70
     1
102
RTVSPropertyOp19
 70
     1
102
RTVSPropertyOp20
 70
     1
102
RTVSPropertyOp21
 70
     1
102
RTVSPropertyOp22
 70
     1
102
RTVSPropertyOp23
 70
     1
102
RTVSPropertyOp24
 70
     1
102
RTVSPropertyOp25
 70
     1
102
RTVSPropertyOp26
 70
     1
102
RTVSPropertyOp27
 70
     1
102
RTVSPropertyOp28
 70
     1
102
RTVSPropertyOp29
 70
     1
102
RTVSPropertyOp30
 70
     1
102
RTVSPropertyOp31
 70
     1
102
RTVSPropertyOp32
 70
     1
102
RTVSPropertyOp33
 70
     1
102
RTVSPropertyOp34
 70
     1
102
RTVSPropertyOp35
 70
     1
102
RTVSPropertyOp36
 70
     1
102
RTVSPropertyOp37
 70
     1
102
RTVSPropertyOp38
 70
     1
102
RTVSPropertyOp39
 70
     1
102
RTVSPropertyOp40
 70
     1
102
RTVSPropertyOp41
 70
     1
102
RTVSPropertyOp42
 70
     1
102
RTVSPropertyOp43
 70
     1
102
RTVSPropertyOp44
 70
     1
102
RTVSPropertyOp45
 70
     1
102
RTVSPropertyOp46
 70
     1
102
RTVSPropertyOp47
 70
     1
102
RTVSPropertyOp48
 70
     1
102
RTVSPropertyOp49
 70
     1
102
RTVSPropertyOp50
 70
     1
102
RTVSPropertyOp51
 70
     0
102
RTVSPropertyOp52
 70
     0
102
RTVSPropertyOp53
 70
     1
102
RTVSPropertyOp54
 70
     1
102
RTVSPropertyOp55
 70
     1
102
RTVSPropertyOp56
 70
     1
102
RTVSPropertyOp57
 70
     1
102
RTVSPropertyOp58
 70
     1
102
RTVSPropertyOp59
 70
     1
102
RTVSPropertyOp60
 70
     1
102
RTVSPropertyOp61
 70
     1
102
RTVSPropertyOp62
 70
     1
  0
XRECORD
  5
A6E8
102
{ACAD_REACTORS
330
A6E7
102
}
330
A6E7
100
AcDbXrecord
280
     1
102
RTVSPost2010Prop28
280
     0
102
RTVSPost2010PropOp28
 70
     1
102
RTVSPost2010Prop29
280
     1
102
RTVSPost2010PropOp29
 70
     1
102
RTVSPost2010Prop30
280
     1
102
RTVSPost2010PropOp30
 70
     1
102
RTVSPost2010Prop31
280
     0
102
RTVSPost2010PropOp31
 70
     1
102
RTVSPost2010Prop32
280
     0
102
RTVSPost2010PropOp32
 70
     1
102
RTVSPost2010Prop33
280
     0
102
RTVSPost2010PropOp33
 70
     1
102
RTVSPost2010Prop34
280
     0
102
RTVSPost2010PropOp34
 70
     1
102
RTVSPost2010Prop35
280
     0
102
RTVSPost2010PropOp35
 70
     1
102
RTVSPost2010Prop36
280
     0
102
RTVSPost2010PropOp36
 70
     1
102
RTVSPost2010Prop37
 90
       50
102
RTVSPost2010PropOp37
 70
     1
102
RTVSPost2010Prop38
140
0.0
102
RTVSPost2010PropOp38
 70
     1
102
RTVSPost2010Prop39
140
1.0
102
RTVSPost2010PropOp39
 70
     1
102
RTVSPost2010Prop40
 90
        0
102
RTVSPost2010PropOp40
 70
     1
102
RTVSPost2010Prop41ColorIndex
 90
       18
102
RTVSPost2010Prop41ColorRGB
 90
        0
102
RTVSPost2010PropOp41
 70
     1
102
RTVSPost2010Prop42
 90
       50
102
RTVSPost2010PropOp42
 70
     1
102
RTVSPost2010Prop43
 90
        3
102
RTVSPost2010PropOp43
 70
     1
102
RTVSPost2010Prop44ColorIndex
 90
        5
102
RTVSPost2010Prop44ColorRGB
 90
      255
102
RTVSPost2010PropOp44
 70
     1
102
RTVSPost2010Prop45
280
     0
102
RTVSPost2010PropOp45
 70
     1
102
RTVSPost2010Prop46
 90
       50
102
RTVSPost2010PropOp46
 70
     1
102
RTVSPost2010Prop47
 90
       50
102
RTVSPost2010PropOp47
 70
     1
102
RTVSPost2010Prop48
 90
       50
102
RTVSPost2010PropOp48
 70
     1
102
RTVSPost2010Prop49
280
     0
102
RTVSPost2010PropOp49
 70
     1
102
RTVSPost2010Prop50
 90
       50
102
RTVSPost2010PropOp50
 70
     1
102
RTVSPost2010Prop51ColorIndex
 90
      256
102
RTVSPost2010Prop51ColorRGB
 90
-16777216
102
RTVSPost2010PropOp51
 70
     0
102
RTVSPost2010Prop52
140
1.0
102
RTVSPost2010PropOp52
 70
     0
102
RTVSPost2010Prop53
 90
        2
102
RTVSPost2010PropOp53
 70
     1
102
RTVSPost2010Prop54
  1
strokes_ogs.tif
102
RTVSPost2010PropOp54
 70
     1
102
RTVSPost2010Prop55
280
     0
102
RTVSPost2010PropOp55
 70
     1
102
RTVSPost2010Prop56
140
1.0
102
RTVSPost2010PropOp56
 70
     1
102
RTVSPost2010Prop57
140
1.0
102
RTVSPost2010PropOp57
 70
     1
102
RTVSPropertyOp0
 70
     1
102
RTVSPropertyOp1
 70
     1
102
RTVSPropertyOp2
 70
     1
102
RTVSPropertyOp3
 70
     1
102
RTVSPropertyOp4
 70
     1
102
RTVSPropertyOp5
 70
     1
102
RTVSPropertyOp6
 70
     1
102
RTVSPropertyOp7
 70
     1
102
RTVSPropertyOp8
 70
     1
102
RTVSPropertyOp9
 70
     1
102
RTVSPropertyOp10
 70
     1
102
RTVSPropertyOp11
 70
     1
102
RTVSPropertyOp12
 70
     1
102
RTVSPropertyOp13
 70
     1
102
RTVSPropertyOp14
 70
     1
102
RTVSPropertyOp15
 70
     1
102
RTVSPropertyOp16
 70
     1
102
RTVSPropertyOp17
 70
     1
102
RTVSPropertyOp18
 70
     1
102
RTVSPropertyOp19
 70
     1
102
RTVSPropertyOp20
 70
     1
102
RTVSPropertyOp21
 70
     1
102
RTVSPropertyOp22
 70
     1
102
RTVSPropertyOp23
 70
     1
102
RTVSPropertyOp24
 70
     1
102
RTVSPropertyOp25
 70
     1
102
RTVSPropertyOp26
 70
     1
102
RTVSPropertyOp27
 70
     1
102
RTVSPropertyOp28
 70
     1
102
RTVSPropertyOp29
 70
     1
102
RTVSPropertyOp30
 70
     1
102
RTVSPropertyOp31
 70
     1
102
RTVSPropertyOp32
 70
     1
102
RTVSPropertyOp33
 70
     1
102
RTVSPropertyOp34
 70
     1
102
RTVSPropertyOp35
 70
     1
102
RTVSPropertyOp36
 70
     1
102
RTVSPropertyOp37
 70
     1
102
RTVSPropertyOp38
 70
     1
102
RTVSPropertyOp39
 70
     1
102
RTVSPropertyOp40
 70
     1
102
RTVSPropertyOp41
 70
     1
102
RTVSPropertyOp42
 70
     1
102
RTVSPropertyOp43
 70
     1
102
RTVSPropertyOp44
 70
     1
102
RTVSPropertyOp45
 70
     1
102
RTVSPropertyOp46
 70
     1
102
RTVSPropertyOp47
 70
     1
102
RTVSPropertyOp48
 70
     1
102
RTVSPropertyOp49
 70
     1
102
RTVSPropertyOp50
 70
     1
102
RTVSPropertyOp51
 70
     0
102
RTVSPropertyOp52
 70
     0
102
RTVSPropertyOp53
 70
     1
102
RTVSPropertyOp54
 70
     1
102
RTVSPropertyOp55
 70
     1
102
RTVSPropertyOp56
 70
     1
102
RTVSPropertyOp57
 70
     1
102
RTVSPropertyOp58
 70
     1
102
RTVSPropertyOp59
 70
     1
102
RTVSPropertyOp60
 70
     1
102
RTVSPropertyOp61
 70
     1
102
RTVSPropertyOp62
 70
     1
  0
XRECORD
  5
A704
102
{ACAD_REACTORS
330
A703
102
}
330
A703
100
AcDbXrecord
280
     1
102
RTVSPost2010Prop28
280
     0
102
RTVSPost2010PropOp28
 70
     1
102
RTVSPost2010Prop29
280
     1
102
RTVSPost2010PropOp29
 70
     1
102
RTVSPost2010Prop30
280
     1
102
RTVSPost2010PropOp30
 70
     1
102
RTVSPost2010Prop31
280
     0
102
RTVSPost2010PropOp31
 70
     1
102
RTVSPost2010Prop32
280
     0
102
RTVSPost2010PropOp32
 70
     1
102
RTVSPost2010Prop33
280
     0
102
RTVSPost2010PropOp33
 70
     1
102
RTVSPost2010Prop34
280
     0
102
RTVSPost2010PropOp34
 70
     1
102
RTVSPost2010Prop35
280
     0
102
RTVSPost2010PropOp35
 70
     1
102
RTVSPost2010Prop36
280
     0
102
RTVSPost2010PropOp36
 70
     1
102
RTVSPost2010Prop37
 90
       50
102
RTVSPost2010PropOp37
 70
     0
102
RTVSPost2010Prop38
140
0.0
102
RTVSPost2010PropOp38
 70
     0
102
RTVSPost2010Prop39
140
1.0
102
RTVSPost2010PropOp39
 70
     0
102
RTVSPost2010Prop40
 90
        0
102
RTVSPost2010PropOp40
 70
     0
102
RTVSPost2010Prop41ColorIndex
 90
       18
102
RTVSPost2010Prop41ColorRGB
 90
        0
102
RTVSPost2010PropOp41
 70
     0
102
RTVSPost2010Prop42
 90
       50
102
RTVSPost2010PropOp42
 70
     0
102
RTVSPost2010Prop43
 90
        3
102
RTVSPost2010PropOp43
 70
     0
102
RTVSPost2010Prop44ColorIndex
 90
        5
102
RTVSPost2010Prop44ColorRGB
 90
      255
102
RTVSPost2010PropOp44
 70
     0
102
RTVSPost2010Prop45
280
     0
102
RTVSPost2010PropOp45
 70
     1
102
RTVSPost2010Prop46
 90
       50
102
RTVSPost2010PropOp46
 70
     0
102
RTVSPost2010Prop47
 90
       50
102
RTVSPost2010PropOp47
 70
     0
102
RTVSPost2010Prop48
 90
       50
102
RTVSPost2010PropOp48
 70
     0
102
RTVSPost2010Prop49
280
     0
102
RTVSPost2010PropOp49
 70
     1
102
RTVSPost2010Prop50
 90
       50
102
RTVSPost2010PropOp50
 70
     0
102
RTVSPost2010Prop51ColorIndex
 90
      256
102
RTVSPost2010Prop51ColorRGB
 90
-16777216
102
RTVSPost2010PropOp51
 70
     0
102
RTVSPost2010Prop52
140
1.0
102
RTVSPost2010PropOp52
 70
     0
102
RTVSPost2010Prop53
 90
        2
102
RTVSPost2010PropOp53
 70
     0
102
RTVSPost2010Prop54
  1
strokes_ogs.tif
102
RTVSPost2010PropOp54
 70
     0
102
RTVSPost2010Prop55
280
     0
102
RTVSPost2010PropOp55
 70
     1
102
RTVSPost2010Prop56
140
1.0
102
RTVSPost2010PropOp56
 70
     0
102
RTVSPost2010Prop57
140
1.0
102
RTVSPost2010PropOp57
 70
     0
102
RTVSPropertyOp0
 70
     0
102
RTVSPropertyOp1
 70
     0
102
RTVSPropertyOp2
 70
     0
102
RTVSPropertyOp3
 70
     0
102
RTVSPropertyOp4
 70
     0
102
RTVSPropertyOp5
 70
     0
102
RTVSPropertyOp6
 70
     0
102
RTVSPropertyOp7
 70
     0
102
RTVSPropertyOp8
 70
     0
102
RTVSPropertyOp9
 70
     0
102
RTVSPropertyOp10
 70
     0
102
RTVSPropertyOp11
 70
     0
102
RTVSPropertyOp12
 70
     0
102
RTVSPropertyOp13
 70
     0
102
RTVSPropertyOp14
 70
     2
102
RTVSPropertyOp15
 70
     0
102
RTVSPropertyOp16
 70
     0
102
RTVSPropertyOp17
 70
     0
102
RTVSPropertyOp18
 70
     0
102
RTVSPropertyOp19
 70
     0
102
RTVSPropertyOp20
 70
     0
102
RTVSPropertyOp21
 70
     0
102
RTVSPropertyOp22
 70
     0
102
RTVSPropertyOp23
 70
     0
102
RTVSPropertyOp24
 70
     0
102
RTVSPropertyOp25
 70
     0
102
RTVSPropertyOp26
 70
     0
102
RTVSPropertyOp27
 70
     0
102
RTVSPropertyOp28
 70
     1
102
RTVSPropertyOp29
 70
     1
102
RTVSPropertyOp30
 70
     1
102
RTVSPropertyOp31
 70
     1
102
RTVSPropertyOp32
 70
     1
102
RTVSPropertyOp33
 70
     1
102
RTVSPropertyOp34
 70
     1
102
RTVSPropertyOp35
 70
     1
102
RTVSPropertyOp36
 70
     1
102
RTVSPropertyOp37
 70
     0
102
RTVSPropertyOp38
 70
     0
102
RTVSPropertyOp39
 70
     0
102
RTVSPropertyOp40
 70
     0
102
RTVSPropertyOp41
 70
     0
102
RTVSPropertyOp42
 70
     0
102
RTVSPropertyOp43
 70
     0
102
RTVSPropertyOp44
 70
     0
102
RTVSPropertyOp45
 70
     1
102
RTVSPropertyOp46
 70
     0
102
RTVSPropertyOp47
 70
     0
102
RTVSPropertyOp48
 70
     0
102
RTVSPropertyOp49
 70
     1
102
RTVSPropertyOp50
 70
     0
102
RTVSPropertyOp51
 70
     0
102
RTVSPropertyOp52
 70
     0
102
RTVSPropertyOp53
 70
     0
102
RTVSPropertyOp54
 70
     0
102
RTVSPropertyOp55
 70
     1
102
RTVSPropertyOp56
 70
     0
102
RTVSPropertyOp57
 70
     0
102
RTVSPropertyOp58
 70
     0
102
RTVSPropertyOp59
 70
     0
102
RTVSPropertyOp60
 70
     0
102
RTVSPropertyOp61
 70
     0
102
RTVSPropertyOp62
 70
     0
  0
XRECORD
  5
A6F4
102
{ACAD_REACTORS
330
A6F3
102
}
330
A6F3
100
AcDbXrecord
280
     1
102
RTVSPost2010Prop28
280
     0
102
RTVSPost2010PropOp28
 70
     1
102
RTVSPost2010Prop29
280
     1
102
RTVSPost2010PropOp29
 70
     1
102
RTVSPost2010Prop30
280
     1
102
RTVSPost2010PropOp30
 70
     1
102
RTVSPost2010Prop31
280
     0
102
RTVSPost2010PropOp31
 70
     1
102
RTVSPost2010Prop32
280
     0
102
RTVSPost2010PropOp32
 70
     1
102
RTVSPost2010Prop33
280
     0
102
RTVSPost2010PropOp33
 70
     1
102
RTVSPost2010Prop34
280
     0
102
RTVSPost2010PropOp34
 70
     1
102
RTVSPost2010Prop35
280
     0
102
RTVSPost2010PropOp35
 70
     1
102
RTVSPost2010Prop36
280
     0
102
RTVSPost2010PropOp36
 70
     1
102
RTVSPost2010Prop37
 90
       50
102
RTVSPost2010PropOp37
 70
     1
102
RTVSPost2010Prop38
140
0.0
102
RTVSPost2010PropOp38
 70
     1
102
RTVSPost2010Prop39
140
1.0
102
RTVSPost2010PropOp39
 70
     1
102
RTVSPost2010Prop40
 90
        0
102
RTVSPost2010PropOp40
 70
     1
102
RTVSPost2010Prop41ColorIndex
 90
       18
102
RTVSPost2010Prop41ColorRGB
 90
        0
102
RTVSPost2010PropOp41
 70
     1
102
RTVSPost2010Prop42
 90
       50
102
RTVSPost2010PropOp42
 70
     1
102
RTVSPost2010Prop43
 90
        3
102
RTVSPost2010PropOp43
 70
     1
102
RTVSPost2010Prop44ColorIndex
 90
        5
102
RTVSPost2010Prop44ColorRGB
 90
      255
102
RTVSPost2010PropOp44
 70
     1
102
RTVSPost2010Prop45
280
     0
102
RTVSPost2010PropOp45
 70
     1
102
RTVSPost2010Prop46
 90
       50
102
RTVSPost2010PropOp46
 70
     1
102
RTVSPost2010Prop47
 90
       50
102
RTVSPost2010PropOp47
 70
     1
102
RTVSPost2010Prop48
 90
       50
102
RTVSPost2010PropOp48
 70
     1
102
RTVSPost2010Prop49
280
     0
102
RTVSPost2010PropOp49
 70
     1
102
RTVSPost2010Prop50
 90
       50
102
RTVSPost2010PropOp50
 70
     1
102
RTVSPost2010Prop51ColorIndex
 90
      256
102
RTVSPost2010Prop51ColorRGB
 90
-16777216
102
RTVSPost2010PropOp51
 70
     0
102
RTVSPost2010Prop52
140
1.0
102
RTVSPost2010PropOp52
 70
     0
102
RTVSPost2010Prop53
 90
        2
102
RTVSPost2010PropOp53
 70
     1
102
RTVSPost2010Prop54
  1
strokes_ogs.tif
102
RTVSPost2010PropOp54
 70
     1
102
RTVSPost2010Prop55
280
     0
102
RTVSPost2010PropOp55
 70
     1
102
RTVSPost2010Prop56
140
1.0
102
RTVSPost2010PropOp56
 70
     1
102
RTVSPost2010Prop57
140
1.0
102
RTVSPost2010PropOp57
 70
     1
102
RTVSPropertyOp0
 70
     1
102
RTVSPropertyOp1
 70
     1
102
RTVSPropertyOp2
 70
     1
102
RTVSPropertyOp3
 70
     1
102
RTVSPropertyOp4
 70
     1
102
RTVSPropertyOp5
 70
     1
102
RTVSPropertyOp6
 70
     1
102
RTVSPropertyOp7
 70
     1
102
RTVSPropertyOp8
 70
     1
102
RTVSPropertyOp9
 70
     1
102
RTVSPropertyOp10
 70
     1
102
RTVSPropertyOp11
 70
     1
102
RTVSPropertyOp12
 70
     1
102
RTVSPropertyOp13
 70
     1
102
RTVSPropertyOp14
 70
     1
102
RTVSPropertyOp15
 70
     1
102
RTVSPropertyOp16
 70
     1
102
RTVSPropertyOp17
 70
     1
102
RTVSPropertyOp18
 70
     1
102
RTVSPropertyOp19
 70
     1
102
RTVSPropertyOp20
 70
     1
102
RTVSPropertyOp21
 70
     1
102
RTVSPropertyOp22
 70
     1
102
RTVSPropertyOp23
 70
     1
102
RTVSPropertyOp24
 70
     1
102
RTVSPropertyOp25
 70
     1
102
RTVSPropertyOp26
 70
     1
102
RTVSPropertyOp27
 70
     1
102
RTVSPropertyOp28
 70
     1
102
RTVSPropertyOp29
 70
     1
102
RTVSPropertyOp30
 70
     1
102
RTVSPropertyOp31
 70
     1
102
RTVSPropertyOp32
 70
     1
102
RTVSPropertyOp33
 70
     1
102
RTVSPropertyOp34
 70
     1
102
RTVSPropertyOp35
 70
     1
102
RTVSPropertyOp36
 70
     1
102
RTVSPropertyOp37
 70
     1
102
RTVSPropertyOp38
 70
     1
102
RTVSPropertyOp39
 70
     1
102
RTVSPropertyOp40
 70
     1
102
RTVSPropertyOp41
 70
     1
102
RTVSPropertyOp42
 70
     1
102
RTVSPropertyOp43
 70
     1
102
RTVSPropertyOp44
 70
     1
102
RTVSPropertyOp45
 70
     1
102
RTVSPropertyOp46
 70
     1
102
RTVSPropertyOp47
 70
     1
102
RTVSPropertyOp48
 70
     1
102
RTVSPropertyOp49
 70
     1
102
RTVSPropertyOp50
 70
     1
102
RTVSPropertyOp51
 70
     0
102
RTVSPropertyOp52
 70
     0
102
RTVSPropertyOp53
 70
     1
102
RTVSPropertyOp54
 70
     1
102
RTVSPropertyOp55
 70
     1
102
RTVSPropertyOp56
 70
     1
102
RTVSPropertyOp57
 70
     1
102
RTVSPropertyOp58
 70
     1
102
RTVSPropertyOp59
 70
     1
102
RTVSPropertyOp60
 70
     1
102
RTVSPropertyOp61
 70
     1
102
RTVSPropertyOp62
 70
     1
  0
XRECORD
  5
A706
102
{ACAD_REACTORS
330
A705
102
}
330
A705
100
AcDbXrecord
280
     1
102
RTVSPost2010Prop28
280
     0
102
RTVSPost2010PropOp28
 70
     1
102
RTVSPost2010Prop29
280
     1
102
RTVSPost2010PropOp29
 70
     1
102
RTVSPost2010Prop30
280
     1
102
RTVSPost2010PropOp30
 70
     1
102
RTVSPost2010Prop31
280
     0
102
RTVSPost2010PropOp31
 70
     1
102
RTVSPost2010Prop32
280
     0
102
RTVSPost2010PropOp32
 70
     1
102
RTVSPost2010Prop33
280
     0
102
RTVSPost2010PropOp33
 70
     1
102
RTVSPost2010Prop34
280
     0
102
RTVSPost2010PropOp34
 70
     1
102
RTVSPost2010Prop35
280
     0
102
RTVSPost2010PropOp35
 70
     1
102
RTVSPost2010Prop36
280
     0
102
RTVSPost2010PropOp36
 70
     1
102
RTVSPost2010Prop37
 90
       50
102
RTVSPost2010PropOp37
 70
     0
102
RTVSPost2010Prop38
140
0.0
102
RTVSPost2010PropOp38
 70
     0
102
RTVSPost2010Prop39
140
1.0
102
RTVSPost2010PropOp39
 70
     0
102
RTVSPost2010Prop40
 90
        0
102
RTVSPost2010PropOp40
 70
     0
102
RTVSPost2010Prop41ColorIndex
 90
       18
102
RTVSPost2010Prop41ColorRGB
 90
        0
102
RTVSPost2010PropOp41
 70
     0
102
RTVSPost2010Prop42
 90
       50
102
RTVSPost2010PropOp42
 70
     0
102
RTVSPost2010Prop43
 90
        3
102
RTVSPost2010PropOp43
 70
     0
102
RTVSPost2010Prop44ColorIndex
 90
        5
102
RTVSPost2010Prop44ColorRGB
 90
      255
102
RTVSPost2010PropOp44
 70
     0
102
RTVSPost2010Prop45
280
     0
102
RTVSPost2010PropOp45
 70
     1
102
RTVSPost2010Prop46
 90
       50
102
RTVSPost2010PropOp46
 70
     0
102
RTVSPost2010Prop47
 90
       50
102
RTVSPost2010PropOp47
 70
     0
102
RTVSPost2010Prop48
 90
       50
102
RTVSPost2010PropOp48
 70
     0
102
RTVSPost2010Prop49
280
     0
102
RTVSPost2010PropOp49
 70
     1
102
RTVSPost2010Prop50
 90
       50
102
RTVSPost2010PropOp50
 70
     0
102
RTVSPost2010Prop51ColorIndex
 90
      256
102
RTVSPost2010Prop51ColorRGB
 90
-16777216
102
RTVSPost2010PropOp51
 70
     0
102
RTVSPost2010Prop52
140
1.0
102
RTVSPost2010PropOp52
 70
     0
102
RTVSPost2010Prop53
 90
        2
102
RTVSPost2010PropOp53
 70
     0
102
RTVSPost2010Prop54
  1
strokes_ogs.tif
102
RTVSPost2010PropOp54
 70
     0
102
RTVSPost2010Prop55
280
     0
102
RTVSPost2010PropOp55
 70
     1
102
RTVSPost2010Prop56
140
1.0
102
RTVSPost2010PropOp56
 70
     0
102
RTVSPost2010Prop57
140
1.0
102
RTVSPost2010PropOp57
 70
     0
102
RTVSPropertyOp0
 70
     0
102
RTVSPropertyOp1
 70
     0
102
RTVSPropertyOp2
 70
     0
102
RTVSPropertyOp3
 70
     0
102
RTVSPropertyOp4
 70
     0
102
RTVSPropertyOp5
 70
     0
102
RTVSPropertyOp6
 70
     0
102
RTVSPropertyOp7
 70
     0
102
RTVSPropertyOp8
 70
     0
102
RTVSPropertyOp9
 70
     0
102
RTVSPropertyOp10
 70
     0
102
RTVSPropertyOp11
 70
     0
102
RTVSPropertyOp12
 70
     0
102
RTVSPropertyOp13
 70
     0
102
RTVSPropertyOp14
 70
     2
102
RTVSPropertyOp15
 70
     0
102
RTVSPropertyOp16
 70
     0
102
RTVSPropertyOp17
 70
     0
102
RTVSPropertyOp18
 70
     0
102
RTVSPropertyOp19
 70
     0
102
RTVSPropertyOp20
 70
     0
102
RTVSPropertyOp21
 70
     0
102
RTVSPropertyOp22
 70
     0
102
RTVSPropertyOp23
 70
     0
102
RTVSPropertyOp24
 70
     0
102
RTVSPropertyOp25
 70
     0
102
RTVSPropertyOp26
 70
     0
102
RTVSPropertyOp27
 70
     0
102
RTVSPropertyOp28
 70
     1
102
RTVSPropertyOp29
 70
     1
102
RTVSPropertyOp30
 70
     1
102
RTVSPropertyOp31
 70
     1
102
RTVSPropertyOp32
 70
     1
102
RTVSPropertyOp33
 70
     1
102
RTVSPropertyOp34
 70
     1
102
RTVSPropertyOp35
 70
     1
102
RTVSPropertyOp36
 70
     1
102
RTVSPropertyOp37
 70
     0
102
RTVSPropertyOp38
 70
     0
102
RTVSPropertyOp39
 70
     0
102
RTVSPropertyOp40
 70
     0
102
RTVSPropertyOp41
 70
     0
102
RTVSPropertyOp42
 70
     0
102
RTVSPropertyOp43
 70
     0
102
RTVSPropertyOp44
 70
     0
102
RTVSPropertyOp45
 70
     1
102
RTVSPropertyOp46
 70
     0
102
RTVSPropertyOp47
 70
     0
102
RTVSPropertyOp48
 70
     0
102
RTVSPropertyOp49
 70
     1
102
RTVSPropertyOp50
 70
     0
102
RTVSPropertyOp51
 70
     0
102
RTVSPropertyOp52
 70
     0
102
RTVSPropertyOp53
 70
     0
102
RTVSPropertyOp54
 70
     0
102
RTVSPropertyOp55
 70
     1
102
RTVSPropertyOp56
 70
     0
102
RTVSPropertyOp57
 70
     0
102
RTVSPropertyOp58
 70
     0
102
RTVSPropertyOp59
 70
     0
102
RTVSPropertyOp60
 70
     0
102
RTVSPropertyOp61
 70
     0
102
RTVSPropertyOp62
 70
     0
  0
XRECORD
  5
A6EC
102
{ACAD_REACTORS
330
A6EB
102
}
330
A6EB
100
AcDbXrecord
280
     1
102
RTVSPost2010Prop28
280
     0
102
RTVSPost2010PropOp28
 70
     1
102
RTVSPost2010Prop29
280
     1
102
RTVSPost2010PropOp29
 70
     1
102
RTVSPost2010Prop30
280
     1
102
RTVSPost2010PropOp30
 70
     1
102
RTVSPost2010Prop31
280
     0
102
RTVSPost2010PropOp31
 70
     1
102
RTVSPost2010Prop32
280
     0
102
RTVSPost2010PropOp32
 70
     1
102
RTVSPost2010Prop33
280
     0
102
RTVSPost2010PropOp33
 70
     1
102
RTVSPost2010Prop34
280
     0
102
RTVSPost2010PropOp34
 70
     1
102
RTVSPost2010Prop35
280
     0
102
RTVSPost2010PropOp35
 70
     1
102
RTVSPost2010Prop36
280
     0
102
RTVSPost2010PropOp36
 70
     1
102
RTVSPost2010Prop37
 90
       50
102
RTVSPost2010PropOp37
 70
     1
102
RTVSPost2010Prop38
140
0.0
102
RTVSPost2010PropOp38
 70
     1
102
RTVSPost2010Prop39
140
1.0
102
RTVSPost2010PropOp39
 70
     1
102
RTVSPost2010Prop40
 90
        0
102
RTVSPost2010PropOp40
 70
     1
102
RTVSPost2010Prop41ColorIndex
 90
       18
102
RTVSPost2010Prop41ColorRGB
 90
        0
102
RTVSPost2010PropOp41
 70
     1
102
RTVSPost2010Prop42
 90
       50
102
RTVSPost2010PropOp42
 70
     1
102
RTVSPost2010Prop43
 90
        3
102
RTVSPost2010PropOp43
 70
     1
102
RTVSPost2010Prop44ColorIndex
 90
        5
102
RTVSPost2010Prop44ColorRGB
 90
      255
102
RTVSPost2010PropOp44
 70
     1
102
RTVSPost2010Prop45
280
     0
102
RTVSPost2010PropOp45
 70
     1
102
RTVSPost2010Prop46
 90
       50
102
RTVSPost2010PropOp46
 70
     1
102
RTVSPost2010Prop47
 90
       50
102
RTVSPost2010PropOp47
 70
     1
102
RTVSPost2010Prop48
 90
       50
102
RTVSPost2010PropOp48
 70
     1
102
RTVSPost2010Prop49
280
     0
102
RTVSPost2010PropOp49
 70
     1
102
RTVSPost2010Prop50
 90
       50
102
RTVSPost2010PropOp50
 70
     1
102
RTVSPost2010Prop51ColorIndex
 90
      256
102
RTVSPost2010Prop51ColorRGB
 90
-16777216
102
RTVSPost2010PropOp51
 70
     0
102
RTVSPost2010Prop52
140
1.0
102
RTVSPost2010PropOp52
 70
     0
102
RTVSPost2010Prop53
 90
        2
102
RTVSPost2010PropOp53
 70
     1
102
RTVSPost2010Prop54
  1
strokes_ogs.tif
102
RTVSPost2010PropOp54
 70
     1
102
RTVSPost2010Prop55
280
     0
102
RTVSPost2010PropOp55
 70
     1
102
RTVSPost2010Prop56
140
1.0
102
RTVSPost2010PropOp56
 70
     1
102
RTVSPost2010Prop57
140
1.0
102
RTVSPost2010PropOp57
 70
     1
102
RTVSPropertyOp0
 70
     1
102
RTVSPropertyOp1
 70
     1
102
RTVSPropertyOp2
 70
     1
102
RTVSPropertyOp3
 70
     1
102
RTVSPropertyOp4
 70
     1
102
RTVSPropertyOp5
 70
     1
102
RTVSPropertyOp6
 70
     1
102
RTVSPropertyOp7
 70
     1
102
RTVSPropertyOp8
 70
     1
102
RTVSPropertyOp9
 70
     1
102
RTVSPropertyOp10
 70
     1
102
RTVSPropertyOp11
 70
     1
102
RTVSPropertyOp12
 70
     1
102
RTVSPropertyOp13
 70
     1
102
RTVSPropertyOp14
 70
     1
102
RTVSPropertyOp15
 70
     1
102
RTVSPropertyOp16
 70
     1
102
RTVSPropertyOp17
 70
     1
102
RTVSPropertyOp18
 70
     1
102
RTVSPropertyOp19
 70
     1
102
RTVSPropertyOp20
 70
     1
102
RTVSPropertyOp21
 70
     1
102
RTVSPropertyOp22
 70
     1
102
RTVSPropertyOp23
 70
     1
102
RTVSPropertyOp24
 70
     1
102
RTVSPropertyOp25
 70
     1
102
RTVSPropertyOp26
 70
     1
102
RTVSPropertyOp27
 70
     1
102
RTVSPropertyOp28
 70
     1
102
RTVSPropertyOp29
 70
     1
102
RTVSPropertyOp30
 70
     1
102
RTVSPropertyOp31
 70
     1
102
RTVSPropertyOp32
 70
     1
102
RTVSPropertyOp33
 70
     1
102
RTVSPropertyOp34
 70
     1
102
RTVSPropertyOp35
 70
     1
102
RTVSPropertyOp36
 70
     1
102
RTVSPropertyOp37
 70
     1
102
RTVSPropertyOp38
 70
     1
102
RTVSPropertyOp39
 70
     1
102
RTVSPropertyOp40
 70
     1
102
RTVSPropertyOp41
 70
     1
102
RTVSPropertyOp42
 70
     1
102
RTVSPropertyOp43
 70
     1
102
RTVSPropertyOp44
 70
     1
102
RTVSPropertyOp45
 70
     1
102
RTVSPropertyOp46
 70
     1
102
RTVSPropertyOp47
 70
     1
102
RTVSPropertyOp48
 70
     1
102
RTVSPropertyOp49
 70
     1
102
RTVSPropertyOp50
 70
     1
102
RTVSPropertyOp51
 70
     0
102
RTVSPropertyOp52
 70
     0
102
RTVSPropertyOp53
 70
     1
102
RTVSPropertyOp54
 70
     1
102
RTVSPropertyOp55
 70
     1
102
RTVSPropertyOp56
 70
     1
102
RTVSPropertyOp57
 70
     1
102
RTVSPropertyOp58
 70
     1
102
RTVSPropertyOp59
 70
     1
102
RTVSPropertyOp60
 70
     1
102
RTVSPropertyOp61
 70
     1
102
RTVSPropertyOp62
 70
     1
  0
XRECORD
  5
A702
102
{ACAD_REACTORS
330
A701
102
}
330
A701
100
AcDbXrecord
280
     1
102
RTVSPost2010Prop28
280
     0
102
RTVSPost2010PropOp28
 70
     1
102
RTVSPost2010Prop29
280
     1
102
RTVSPost2010PropOp29
 70
     1
102
RTVSPost2010Prop30
280
     1
102
RTVSPost2010PropOp30
 70
     1
102
RTVSPost2010Prop31
280
     0
102
RTVSPost2010PropOp31
 70
     1
102
RTVSPost2010Prop32
280
     0
102
RTVSPost2010PropOp32
 70
     1
102
RTVSPost2010Prop33
280
     0
102
RTVSPost2010PropOp33
 70
     1
102
RTVSPost2010Prop34
280
     0
102
RTVSPost2010PropOp34
 70
     1
102
RTVSPost2010Prop35
280
     0
102
RTVSPost2010PropOp35
 70
     1
102
RTVSPost2010Prop36
280
     0
102
RTVSPost2010PropOp36
 70
     1
102
RTVSPost2010Prop37
 90
       50
102
RTVSPost2010PropOp37
 70
     1
102
RTVSPost2010Prop38
140
0.0
102
RTVSPost2010PropOp38
 70
     1
102
RTVSPost2010Prop39
140
1.0
102
RTVSPost2010PropOp39
 70
     1
102
RTVSPost2010Prop40
 90
        0
102
RTVSPost2010PropOp40
 70
     1
102
RTVSPost2010Prop41ColorIndex
 90
       18
102
RTVSPost2010Prop41ColorRGB
 90
        0
102
RTVSPost2010PropOp41
 70
     1
102
RTVSPost2010Prop42
 90
       50
102
RTVSPost2010PropOp42
 70
     1
102
RTVSPost2010Prop43
 90
        3
102
RTVSPost2010PropOp43
 70
     1
102
RTVSPost2010Prop44ColorIndex
 90
        5
102
RTVSPost2010Prop44ColorRGB
 90
      255
102
RTVSPost2010PropOp44
 70
     1
102
RTVSPost2010Prop45
280
     0
102
RTVSPost2010PropOp45
 70
     1
102
RTVSPost2010Prop46
 90
       50
102
RTVSPost2010PropOp46
 70
     1
102
RTVSPost2010Prop47
 90
       50
102
RTVSPost2010PropOp47
 70
     1
102
RTVSPost2010Prop48
 90
       50
102
RTVSPost2010PropOp48
 70
     1
102
RTVSPost2010Prop49
280
     0
102
RTVSPost2010PropOp49
 70
     1
102
RTVSPost2010Prop50
 90
       50
102
RTVSPost2010PropOp50
 70
     1
102
RTVSPost2010Prop51ColorIndex
 90
      256
102
RTVSPost2010Prop51ColorRGB
 90
-16777216
102
RTVSPost2010PropOp51
 70
     0
102
RTVSPost2010Prop52
140
1.0
102
RTVSPost2010PropOp52
 70
     0
102
RTVSPost2010Prop53
 90
        2
102
RTVSPost2010PropOp53
 70
     1
102
RTVSPost2010Prop54
  1
strokes_ogs.tif
102
RTVSPost2010PropOp54
 70
     1
102
RTVSPost2010Prop55
280
     0
102
RTVSPost2010PropOp55
 70
     1
102
RTVSPost2010Prop56
140
1.0
102
RTVSPost2010PropOp56
 70
     1
102
RTVSPost2010Prop57
140
1.0
102
RTVSPost2010PropOp57
 70
     1
102
RTVSPropertyOp0
 70
     1
102
RTVSPropertyOp1
 70
     1
102
RTVSPropertyOp2
 70
     1
102
RTVSPropertyOp3
 70
     1
102
RTVSPropertyOp4
 70
     1
102
RTVSPropertyOp5
 70
     1
102
RTVSPropertyOp6
 70
     1
102
RTVSPropertyOp7
 70
     1
102
RTVSPropertyOp8
 70
     1
102
RTVSPropertyOp9
 70
     1
102
RTVSPropertyOp10
 70
     1
102
RTVSPropertyOp11
 70
     1
102
RTVSPropertyOp12
 70
     1
102
RTVSPropertyOp13
 70
     1
102
RTVSPropertyOp14
 70
     1
102
RTVSPropertyOp15
 70
     1
102
RTVSPropertyOp16
 70
     1
102
RTVSPropertyOp17
 70
     1
102
RTVSPropertyOp18
 70
     1
102
RTVSPropertyOp19
 70
     1
102
RTVSPropertyOp20
 70
     1
102
RTVSPropertyOp21
 70
     1
102
RTVSPropertyOp22
 70
     1
102
RTVSPropertyOp23
 70
     1
102
RTVSPropertyOp24
 70
     1
102
RTVSPropertyOp25
 70
     1
102
RTVSPropertyOp26
 70
     1
102
RTVSPropertyOp27
 70
     1
102
RTVSPropertyOp28
 70
     1
102
RTVSPropertyOp29
 70
     1
102
RTVSPropertyOp30
 70
     1
102
RTVSPropertyOp31
 70
     1
102
RTVSPropertyOp32
 70
     1
102
RTVSPropertyOp33
 70
     1
102
RTVSPropertyOp34
 70
     1
102
RTVSPropertyOp35
 70
     1
102
RTVSPropertyOp36
 70
     1
102
RTVSPropertyOp37
 70
     1
102
RTVSPropertyOp38
 70
     1
102
RTVSPropertyOp39
 70
     1
102
RTVSPropertyOp40
 70
     1
102
RTVSPropertyOp41
 70
     1
102
RTVSPropertyOp42
 70
     1
102
RTVSPropertyOp43
 70
     1
102
RTVSPropertyOp44
 70
     1
102
RTVSPropertyOp45
 70
     1
102
RTVSPropertyOp46
 70
     1
102
RTVSPropertyOp47
 70
     1
102
RTVSPropertyOp48
 70
     1
102
RTVSPropertyOp49
 70
     1
102
RTVSPropertyOp50
 70
     1
102
RTVSPropertyOp51
 70
     0
102
RTVSPropertyOp52
 70
     0
102
RTVSPropertyOp53
 70
     1
102
RTVSPropertyOp54
 70
     1
102
RTVSPropertyOp55
 70
     1
102
RTVSPropertyOp56
 70
     1
102
RTVSPropertyOp57
 70
     1
102
RTVSPropertyOp58
 70
     1
102
RTVSPropertyOp59
 70
     1
102
RTVSPropertyOp60
 70
     1
102
RTVSPropertyOp61
 70
     1
102
RTVSPropertyOp62
 70
     1
  0
XRECORD
  5
A700
102
{ACAD_REACTORS
330
A6FF
102
}
330
A6FF
100
AcDbXrecord
280
     1
102
RTVSPost2010Prop28
280
     0
102
RTVSPost2010PropOp28
 70
     1
102
RTVSPost2010Prop29
280
     1
102
RTVSPost2010PropOp29
 70
     1
102
RTVSPost2010Prop30
280
     1
102
RTVSPost2010PropOp30
 70
     1
102
RTVSPost2010Prop31
280
     0
102
RTVSPost2010PropOp31
 70
     1
102
RTVSPost2010Prop32
280
     0
102
RTVSPost2010PropOp32
 70
     1
102
RTVSPost2010Prop33
280
     0
102
RTVSPost2010PropOp33
 70
     1
102
RTVSPost2010Prop34
280
     0
102
RTVSPost2010PropOp34
 70
     1
102
RTVSPost2010Prop35
280
     0
102
RTVSPost2010PropOp35
 70
     1
102
RTVSPost2010Prop36
280
     0
102
RTVSPost2010PropOp36
 70
     1
102
RTVSPost2010Prop37
 90
       50
102
RTVSPost2010PropOp37
 70
     1
102
RTVSPost2010Prop38
140
0.0
102
RTVSPost2010PropOp38
 70
     1
102
RTVSPost2010Prop39
140
1.0
102
RTVSPost2010PropOp39
 70
     1
102
RTVSPost2010Prop40
 90
        0
102
RTVSPost2010PropOp40
 70
     1
102
RTVSPost2010Prop41ColorIndex
 90
       18
102
RTVSPost2010Prop41ColorRGB
 90
        0
102
RTVSPost2010PropOp41
 70
     1
102
RTVSPost2010Prop42
 90
       50
102
RTVSPost2010PropOp42
 70
     1
102
RTVSPost2010Prop43
 90
        3
102
RTVSPost2010PropOp43
 70
     1
102
RTVSPost2010Prop44ColorIndex
 90
        5
102
RTVSPost2010Prop44ColorRGB
 90
      255
102
RTVSPost2010PropOp44
 70
     1
102
RTVSPost2010Prop45
280
     0
102
RTVSPost2010PropOp45
 70
     1
102
RTVSPost2010Prop46
 90
       50
102
RTVSPost2010PropOp46
 70
     1
102
RTVSPost2010Prop47
 90
       50
102
RTVSPost2010PropOp47
 70
     1
102
RTVSPost2010Prop48
 90
       50
102
RTVSPost2010PropOp48
 70
     1
102
RTVSPost2010Prop49
280
     0
102
RTVSPost2010PropOp49
 70
     1
102
RTVSPost2010Prop50
 90
       50
102
RTVSPost2010PropOp50
 70
     1
102
RTVSPost2010Prop51ColorIndex
 90
      256
102
RTVSPost2010Prop51ColorRGB
 90
-16777216
102
RTVSPost2010PropOp51
 70
     0
102
RTVSPost2010Prop52
140
1.0
102
RTVSPost2010PropOp52
 70
     0
102
RTVSPost2010Prop53
 90
        2
102
RTVSPost2010PropOp53
 70
     1
102
RTVSPost2010Prop54
  1
strokes_ogs.tif
102
RTVSPost2010PropOp54
 70
     1
102
RTVSPost2010Prop55
280
     0
102
RTVSPost2010PropOp55
 70
     1
102
RTVSPost2010Prop56
140
1.0
102
RTVSPost2010PropOp56
 70
     1
102
RTVSPost2010Prop57
140
1.0
102
RTVSPost2010PropOp57
 70
     1
102
RTVSPropertyOp0
 70
     1
102
RTVSPropertyOp1
 70
     1
102
RTVSPropertyOp2
 70
     1
102
RTVSPropertyOp3
 70
     1
102
RTVSPropertyOp4
 70
     1
102
RTVSPropertyOp5
 70
     1
102
RTVSPropertyOp6
 70
     1
102
RTVSPropertyOp7
 70
     1
102
RTVSPropertyOp8
 70
     1
102
RTVSPropertyOp9
 70
     1
102
RTVSPropertyOp10
 70
     1
102
RTVSPropertyOp11
 70
     1
102
RTVSPropertyOp12
 70
     1
102
RTVSPropertyOp13
 70
     1
102
RTVSPropertyOp14
 70
     1
102
RTVSPropertyOp15
 70
     1
102
RTVSPropertyOp16
 70
     1
102
RTVSPropertyOp17
 70
     1
102
RTVSPropertyOp18
 70
     1
102
RTVSPropertyOp19
 70
     1
102
RTVSPropertyOp20
 70
     1
102
RTVSPropertyOp21
 70
     1
102
RTVSPropertyOp22
 70
     1
102
RTVSPropertyOp23
 70
     1
102
RTVSPropertyOp24
 70
     1
102
RTVSPropertyOp25
 70
     1
102
RTVSPropertyOp26
 70
     1
102
RTVSPropertyOp27
 70
     1
102
RTVSPropertyOp28
 70
     1
102
RTVSPropertyOp29
 70
     1
102
RTVSPropertyOp30
 70
     1
102
RTVSPropertyOp31
 70
     1
102
RTVSPropertyOp32
 70
     1
102
RTVSPropertyOp33
 70
     1
102
RTVSPropertyOp34
 70
     1
102
RTVSPropertyOp35
 70
     1
102
RTVSPropertyOp36
 70
     1
102
RTVSPropertyOp37
 70
     1
102
RTVSPropertyOp38
 70
     1
102
RTVSPropertyOp39
 70
     1
102
RTVSPropertyOp40
 70
     1
102
RTVSPropertyOp41
 70
     1
102
RTVSPropertyOp42
 70
     1
102
RTVSPropertyOp43
 70
     1
102
RTVSPropertyOp44
 70
     1
102
RTVSPropertyOp45
 70
     1
102
RTVSPropertyOp46
 70
     1
102
RTVSPropertyOp47
 70
     1
102
RTVSPropertyOp48
 70
     1
102
RTVSPropertyOp49
 70
     1
102
RTVSPropertyOp50
 70
     1
102
RTVSPropertyOp51
 70
     0
102
RTVSPropertyOp52
 70
     0
102
RTVSPropertyOp53
 70
     1
102
RTVSPropertyOp54
 70
     1
102
RTVSPropertyOp55
 70
     1
102
RTVSPropertyOp56
 70
     1
102
RTVSPropertyOp57
 70
     1
102
RTVSPropertyOp58
 70
     1
102
RTVSPropertyOp59
 70
     1
102
RTVSPropertyOp60
 70
     1
102
RTVSPropertyOp61
 70
     1
102
RTVSPropertyOp62
 70
     1
  0
XRECORD
  5
A6FA
102
{ACAD_REACTORS
330
A6F9
102
}
330
A6F9
100
AcDbXrecord
280
     1
102
RTVSPost2010Prop28
280
     0
102
RTVSPost2010PropOp28
 70
     1
102
RTVSPost2010Prop29
280
     1
102
RTVSPost2010PropOp29
 70
     1
102
RTVSPost2010Prop30
280
     1
102
RTVSPost2010PropOp30
 70
     1
102
RTVSPost2010Prop31
280
     0
102
RTVSPost2010PropOp31
 70
     1
102
RTVSPost2010Prop32
280
     0
102
RTVSPost2010PropOp32
 70
     1
102
RTVSPost2010Prop33
280
     0
102
RTVSPost2010PropOp33
 70
     1
102
RTVSPost2010Prop34
280
     0
102
RTVSPost2010PropOp34
 70
     1
102
RTVSPost2010Prop35
280
     0
102
RTVSPost2010PropOp35
 70
     1
102
RTVSPost2010Prop36
280
     0
102
RTVSPost2010PropOp36
 70
     1
102
RTVSPost2010Prop37
 90
       50
102
RTVSPost2010PropOp37
 70
     1
102
RTVSPost2010Prop38
140
0.0
102
RTVSPost2010PropOp38
 70
     1
102
RTVSPost2010Prop39
140
1.0
102
RTVSPost2010PropOp39
 70
     1
102
RTVSPost2010Prop40
 90
        0
102
RTVSPost2010PropOp40
 70
     1
102
RTVSPost2010Prop41ColorIndex
 90
       18
102
RTVSPost2010Prop41ColorRGB
 90
        0
102
RTVSPost2010PropOp41
 70
     1
102
RTVSPost2010Prop42
 90
       50
102
RTVSPost2010PropOp42
 70
     1
102
RTVSPost2010Prop43
 90
        3
102
RTVSPost2010PropOp43
 70
     1
102
RTVSPost2010Prop44ColorIndex
 90
        5
102
RTVSPost2010Prop44ColorRGB
 90
      255
102
RTVSPost2010PropOp44
 70
     1
102
RTVSPost2010Prop45
280
     0
102
RTVSPost2010PropOp45
 70
     1
102
RTVSPost2010Prop46
 90
       50
102
RTVSPost2010PropOp46
 70
     1
102
RTVSPost2010Prop47
 90
       50
102
RTVSPost2010PropOp47
 70
     1
102
RTVSPost2010Prop48
 90
       50
102
RTVSPost2010PropOp48
 70
     1
102
RTVSPost2010Prop49
280
     0
102
RTVSPost2010PropOp49
 70
     1
102
RTVSPost2010Prop50
 90
       50
102
RTVSPost2010PropOp50
 70
     1
102
RTVSPost2010Prop51ColorIndex
 90
      256
102
RTVSPost2010Prop51ColorRGB
 90
-16777216
102
RTVSPost2010PropOp51
 70
     0
102
RTVSPost2010Prop52
140
1.0
102
RTVSPost2010PropOp52
 70
     0
102
RTVSPost2010Prop53
 90
        2
102
RTVSPost2010PropOp53
 70
     1
102
RTVSPost2010Prop54
  1
strokes_ogs.tif
102
RTVSPost2010PropOp54
 70
     1
102
RTVSPost2010Prop55
280
     0
102
RTVSPost2010PropOp55
 70
     1
102
RTVSPost2010Prop56
140
1.0
102
RTVSPost2010PropOp56
 70
     1
102
RTVSPost2010Prop57
140
1.0
102
RTVSPost2010PropOp57
 70
     1
102
RTVSPropertyOp0
 70
     1
102
RTVSPropertyOp1
 70
     1
102
RTVSPropertyOp2
 70
     1
102
RTVSPropertyOp3
 70
     1
102
RTVSPropertyOp4
 70
     1
102
RTVSPropertyOp5
 70
     1
102
RTVSPropertyOp6
 70
     1
102
RTVSPropertyOp7
 70
     1
102
RTVSPropertyOp8
 70
     1
102
RTVSPropertyOp9
 70
     1
102
RTVSPropertyOp10
 70
     1
102
RTVSPropertyOp11
 70
     1
102
RTVSPropertyOp12
 70
     1
102
RTVSPropertyOp13
 70
     1
102
RTVSPropertyOp14
 70
     1
102
RTVSPropertyOp15
 70
     1
102
RTVSPropertyOp16
 70
     1
102
RTVSPropertyOp17
 70
     1
102
RTVSPropertyOp18
 70
     1
102
RTVSPropertyOp19
 70
     1
102
RTVSPropertyOp20
 70
     1
102
RTVSPropertyOp21
 70
     1
102
RTVSPropertyOp22
 70
     1
102
RTVSPropertyOp23
 70
     1
102
RTVSPropertyOp24
 70
     1
102
RTVSPropertyOp25
 70
     1
102
RTVSPropertyOp26
 70
     1
102
RTVSPropertyOp27
 70
     1
102
RTVSPropertyOp28
 70
     1
102
RTVSPropertyOp29
 70
     1
102
RTVSPropertyOp30
 70
     1
102
RTVSPropertyOp31
 70
     1
102
RTVSPropertyOp32
 70
     1
102
RTVSPropertyOp33
 70
     1
102
RTVSPropertyOp34
 70
     1
102
RTVSPropertyOp35
 70
     1
102
RTVSPropertyOp36
 70
     1
102
RTVSPropertyOp37
 70
     1
102
RTVSPropertyOp38
 70
     1
102
RTVSPropertyOp39
 70
     1
102
RTVSPropertyOp40
 70
     1
102
RTVSPropertyOp41
 70
     1
102
RTVSPropertyOp42
 70
     1
102
RTVSPropertyOp43
 70
     1
102
RTVSPropertyOp44
 70
     1
102
RTVSPropertyOp45
 70
     1
102
RTVSPropertyOp46
 70
     1
102
RTVSPropertyOp47
 70
     1
102
RTVSPropertyOp48
 70
     1
102
RTVSPropertyOp49
 70
     1
102
RTVSPropertyOp50
 70
     1
102
RTVSPropertyOp51
 70
     0
102
RTVSPropertyOp52
 70
     0
102
RTVSPropertyOp53
 70
     1
102
RTVSPropertyOp54
 70
     1
102
RTVSPropertyOp55
 70
     1
102
RTVSPropertyOp56
 70
     1
102
RTVSPropertyOp57
 70
     1
102
RTVSPropertyOp58
 70
     1
102
RTVSPropertyOp59
 70
     1
102
RTVSPropertyOp60
 70
     1
102
RTVSPropertyOp61
 70
     1
102
RTVSPropertyOp62
 70
     1
  0
XRECORD
  5
A6FC
102
{ACAD_REACTORS
330
A6FB
102
}
330
A6FB
100
AcDbXrecord
280
     1
102
RTVSPost2010Prop28
280
     0
102
RTVSPost2010PropOp28
 70
     1
102
RTVSPost2010Prop29
280
     1
102
RTVSPost2010PropOp29
 70
     1
102
RTVSPost2010Prop30
280
     1
102
RTVSPost2010PropOp30
 70
     1
102
RTVSPost2010Prop31
280
     0
102
RTVSPost2010PropOp31
 70
     1
102
RTVSPost2010Prop32
280
     0
102
RTVSPost2010PropOp32
 70
     1
102
RTVSPost2010Prop33
280
     0
102
RTVSPost2010PropOp33
 70
     1
102
RTVSPost2010Prop34
280
     0
102
RTVSPost2010PropOp34
 70
     1
102
RTVSPost2010Prop35
280
     0
102
RTVSPost2010PropOp35
 70
     1
102
RTVSPost2010Prop36
280
     0
102
RTVSPost2010PropOp36
 70
     1
102
RTVSPost2010Prop37
 90
       50
102
RTVSPost2010PropOp37
 70
     1
102
RTVSPost2010Prop38
140
0.0
102
RTVSPost2010PropOp38
 70
     1
102
RTVSPost2010Prop39
140
1.0
102
RTVSPost2010PropOp39
 70
     1
102
RTVSPost2010Prop40
 90
        0
102
RTVSPost2010PropOp40
 70
     1
102
RTVSPost2010Prop41ColorIndex
 90
       18
102
RTVSPost2010Prop41ColorRGB
 90
        0
102
RTVSPost2010PropOp41
 70
     1
102
RTVSPost2010Prop42
 90
       50
102
RTVSPost2010PropOp42
 70
     1
102
RTVSPost2010Prop43
 90
        3
102
RTVSPost2010PropOp43
 70
     1
102
RTVSPost2010Prop44ColorIndex
 90
        5
102
RTVSPost2010Prop44ColorRGB
 90
      255
102
RTVSPost2010PropOp44
 70
     1
102
RTVSPost2010Prop45
280
     0
102
RTVSPost2010PropOp45
 70
     1
102
RTVSPost2010Prop46
 90
       50
102
RTVSPost2010PropOp46
 70
     1
102
RTVSPost2010Prop47
 90
       50
102
RTVSPost2010PropOp47
 70
     1
102
RTVSPost2010Prop48
 90
       50
102
RTVSPost2010PropOp48
 70
     1
102
RTVSPost2010Prop49
280
     0
102
RTVSPost2010PropOp49
 70
     1
102
RTVSPost2010Prop50
 90
       50
102
RTVSPost2010PropOp50
 70
     1
102
RTVSPost2010Prop51ColorIndex
 90
      256
102
RTVSPost2010Prop51ColorRGB
 90
-16777216
102
RTVSPost2010PropOp51
 70
     0
102
RTVSPost2010Prop52
140
1.0
102
RTVSPost2010PropOp52
 70
     0
102
RTVSPost2010Prop53
 90
        2
102
RTVSPost2010PropOp53
 70
     1
102
RTVSPost2010Prop54
  1
strokes_ogs.tif
102
RTVSPost2010PropOp54
 70
     1
102
RTVSPost2010Prop55
280
     0
102
RTVSPost2010PropOp55
 70
     1
102
RTVSPost2010Prop56
140
1.0
102
RTVSPost2010PropOp56
 70
     1
102
RTVSPost2010Prop57
140
1.0
102
RTVSPost2010PropOp57
 70
     1
102
RTVSPropertyOp0
 70
     1
102
RTVSPropertyOp1
 70
     1
102
RTVSPropertyOp2
 70
     1
102
RTVSPropertyOp3
 70
     1
102
RTVSPropertyOp4
 70
     1
102
RTVSPropertyOp5
 70
     1
102
RTVSPropertyOp6
 70
     1
102
RTVSPropertyOp7
 70
     1
102
RTVSPropertyOp8
 70
     1
102
RTVSPropertyOp9
 70
     1
102
RTVSPropertyOp10
 70
     1
102
RTVSPropertyOp11
 70
     1
102
RTVSPropertyOp12
 70
     1
102
RTVSPropertyOp13
 70
     1
102
RTVSPropertyOp14
 70
     1
102
RTVSPropertyOp15
 70
     1
102
RTVSPropertyOp16
 70
     1
102
RTVSPropertyOp17
 70
     1
102
RTVSPropertyOp18
 70
     1
102
RTVSPropertyOp19
 70
     1
102
RTVSPropertyOp20
 70
     1
102
RTVSPropertyOp21
 70
     1
102
RTVSPropertyOp22
 70
     1
102
RTVSPropertyOp23
 70
     1
102
RTVSPropertyOp24
 70
     1
102
RTVSPropertyOp25
 70
     1
102
RTVSPropertyOp26
 70
     1
102
RTVSPropertyOp27
 70
     1
102
RTVSPropertyOp28
 70
     1
102
RTVSPropertyOp29
 70
     1
102
RTVSPropertyOp30
 70
     1
102
RTVSPropertyOp31
 70
     1
102
RTVSPropertyOp32
 70
     1
102
RTVSPropertyOp33
 70
     1
102
RTVSPropertyOp34
 70
     1
102
RTVSPropertyOp35
 70
     1
102
RTVSPropertyOp36
 70
     1
102
RTVSPropertyOp37
 70
     1
102
RTVSPropertyOp38
 70
     1
102
RTVSPropertyOp39
 70
     1
102
RTVSPropertyOp40
 70
     1
102
RTVSPropertyOp41
 70
     1
102
RTVSPropertyOp42
 70
     1
102
RTVSPropertyOp43
 70
     1
102
RTVSPropertyOp44
 70
     1
102
RTVSPropertyOp45
 70
     1
102
RTVSPropertyOp46
 70
     1
102
RTVSPropertyOp47
 70
     1
102
RTVSPropertyOp48
 70
     1
102
RTVSPropertyOp49
 70
     1
102
RTVSPropertyOp50
 70
     1
102
RTVSPropertyOp51
 70
     0
102
RTVSPropertyOp52
 70
     0
102
RTVSPropertyOp53
 70
     1
102
RTVSPropertyOp54
 70
     1
102
RTVSPropertyOp55
 70
     1
102
RTVSPropertyOp56
 70
     1
102
RTVSPropertyOp57
 70
     1
102
RTVSPropertyOp58
 70
     1
102
RTVSPropertyOp59
 70
     1
102
RTVSPropertyOp60
 70
     1
102
RTVSPropertyOp61
 70
     1
102
RTVSPropertyOp62
 70
     1
  0
XRECORD
  5
A6F2
102
{ACAD_REACTORS
330
A6F1
102
}
330
A6F1
100
AcDbXrecord
280
     1
102
RTVSPost2010Prop28
280
     0
102
RTVSPost2010PropOp28
 70
     1
102
RTVSPost2010Prop29
280
     1
102
RTVSPost2010PropOp29
 70
     1
102
RTVSPost2010Prop30
280
     1
102
RTVSPost2010PropOp30
 70
     1
102
RTVSPost2010Prop31
280
     0
102
RTVSPost2010PropOp31
 70
     1
102
RTVSPost2010Prop32
280
     0
102
RTVSPost2010PropOp32
 70
     1
102
RTVSPost2010Prop33
280
     0
102
RTVSPost2010PropOp33
 70
     1
102
RTVSPost2010Prop34
280
     0
102
RTVSPost2010PropOp34
 70
     1
102
RTVSPost2010Prop35
280
     0
102
RTVSPost2010PropOp35
 70
     1
102
RTVSPost2010Prop36
280
     0
102
RTVSPost2010PropOp36
 70
     1
102
RTVSPost2010Prop37
 90
       50
102
RTVSPost2010PropOp37
 70
     1
102
RTVSPost2010Prop38
140
0.0
102
RTVSPost2010PropOp38
 70
     1
102
RTVSPost2010Prop39
140
1.0
102
RTVSPost2010PropOp39
 70
     1
102
RTVSPost2010Prop40
 90
        0
102
RTVSPost2010PropOp40
 70
     1
102
RTVSPost2010Prop41ColorIndex
 90
       18
102
RTVSPost2010Prop41ColorRGB
 90
        0
102
RTVSPost2010PropOp41
 70
     1
102
RTVSPost2010Prop42
 90
       50
102
RTVSPost2010PropOp42
 70
     1
102
RTVSPost2010Prop43
 90
        3
102
RTVSPost2010PropOp43
 70
     1
102
RTVSPost2010Prop44ColorIndex
 90
        5
102
RTVSPost2010Prop44ColorRGB
 90
      255
102
RTVSPost2010PropOp44
 70
     1
102
RTVSPost2010Prop45
280
     0
102
RTVSPost2010PropOp45
 70
     1
102
RTVSPost2010Prop46
 90
       50
102
RTVSPost2010PropOp46
 70
     1
102
RTVSPost2010Prop47
 90
       50
102
RTVSPost2010PropOp47
 70
     1
102
RTVSPost2010Prop48
 90
       50
102
RTVSPost2010PropOp48
 70
     1
102
RTVSPost2010Prop49
280
     0
102
RTVSPost2010PropOp49
 70
     1
102
RTVSPost2010Prop50
 90
       50
102
RTVSPost2010PropOp50
 70
     1
102
RTVSPost2010Prop51ColorIndex
 90
      256
102
RTVSPost2010Prop51ColorRGB
 90
-16777216
102
RTVSPost2010PropOp51
 70
     0
102
RTVSPost2010Prop52
140
1.0
102
RTVSPost2010PropOp52
 70
     0
102
RTVSPost2010Prop53
 90
        2
102
RTVSPost2010PropOp53
 70
     1
102
RTVSPost2010Prop54
  1
strokes_ogs.tif
102
RTVSPost2010PropOp54
 70
     1
102
RTVSPost2010Prop55
280
     0
102
RTVSPost2010PropOp55
 70
     1
102
RTVSPost2010Prop56
140
1.0
102
RTVSPost2010PropOp56
 70
     1
102
RTVSPost2010Prop57
140
1.0
102
RTVSPost2010PropOp57
 70
     1
102
RTVSPropertyOp0
 70
     1
102
RTVSPropertyOp1
 70
     1
102
RTVSPropertyOp2
 70
     1
102
RTVSPropertyOp3
 70
     1
102
RTVSPropertyOp4
 70
     1
102
RTVSPropertyOp5
 70
     1
102
RTVSPropertyOp6
 70
     1
102
RTVSPropertyOp7
 70
     1
102
RTVSPropertyOp8
 70
     1
102
RTVSPropertyOp9
 70
     1
102
RTVSPropertyOp10
 70
     1
102
RTVSPropertyOp11
 70
     1
102
RTVSPropertyOp12
 70
     1
102
RTVSPropertyOp13
 70
     1
102
RTVSPropertyOp14
 70
     1
102
RTVSPropertyOp15
 70
     1
102
RTVSPropertyOp16
 70
     1
102
RTVSPropertyOp17
 70
     1
102
RTVSPropertyOp18
 70
     1
102
RTVSPropertyOp19
 70
     1
102
RTVSPropertyOp20
 70
     1
102
RTVSPropertyOp21
 70
     1
102
RTVSPropertyOp22
 70
     1
102
RTVSPropertyOp23
 70
     1
102
RTVSPropertyOp24
 70
     1
102
RTVSPropertyOp25
 70
     1
102
RTVSPropertyOp26
 70
     1
102
RTVSPropertyOp27
 70
     1
102
RTVSPropertyOp28
 70
     1
102
RTVSPropertyOp29
 70
     1
102
RTVSPropertyOp30
 70
     1
102
RTVSPropertyOp31
 70
     1
102
RTVSPropertyOp32
 70
     1
102
RTVSPropertyOp33
 70
     1
102
RTVSPropertyOp34
 70
     1
102
RTVSPropertyOp35
 70
     1
102
RTVSPropertyOp36
 70
     1
102
RTVSPropertyOp37
 70
     1
102
RTVSPropertyOp38
 70
     1
102
RTVSPropertyOp39
 70
     1
102
RTVSPropertyOp40
 70
     1
102
RTVSPropertyOp41
 70
     1
102
RTVSPropertyOp42
 70
     1
102
RTVSPropertyOp43
 70
     1
102
RTVSPropertyOp44
 70
     1
102
RTVSPropertyOp45
 70
     1
102
RTVSPropertyOp46
 70
     1
102
RTVSPropertyOp47
 70
     1
102
RTVSPropertyOp48
 70
     1
102
RTVSPropertyOp49
 70
     1
102
RTVSPropertyOp50
 70
     1
102
RTVSPropertyOp51
 70
     0
102
RTVSPropertyOp52
 70
     0
102
RTVSPropertyOp53
 70
     1
102
RTVSPropertyOp54
 70
     1
102
RTVSPropertyOp55
 70
     1
102
RTVSPropertyOp56
 70
     1
102
RTVSPropertyOp57
 70
     1
102
RTVSPropertyOp58
 70
     1
102
RTVSPropertyOp59
 70
     1
102
RTVSPropertyOp60
 70
     1
102
RTVSPropertyOp61
 70
     1
102
RTVSPropertyOp62
 70
     1
  0
XRECORD
  5
A6E6
102
{ACAD_REACTORS
330
A6E5
102
}
330
A6E5
100
AcDbXrecord
280
     1
102
RTVSPost2010Prop28
280
     0
102
RTVSPost2010PropOp28
 70
     1
102
RTVSPost2010Prop29
280
     1
102
RTVSPost2010PropOp29
 70
     1
102
RTVSPost2010Prop30
280
     1
102
RTVSPost2010PropOp30
 70
     1
102
RTVSPost2010Prop31
280
     0
102
RTVSPost2010PropOp31
 70
     1
102
RTVSPost2010Prop32
280
     0
102
RTVSPost2010PropOp32
 70
     1
102
RTVSPost2010Prop33
280
     0
102
RTVSPost2010PropOp33
 70
     1
102
RTVSPost2010Prop34
280
     0
102
RTVSPost2010PropOp34
 70
     1
102
RTVSPost2010Prop35
280
     0
102
RTVSPost2010PropOp35
 70
     1
102
RTVSPost2010Prop36
280
     0
102
RTVSPost2010PropOp36
 70
     1
102
RTVSPost2010Prop37
 90
       50
102
RTVSPost2010PropOp37
 70
     1
102
RTVSPost2010Prop38
140
0.0
102
RTVSPost2010PropOp38
 70
     1
102
RTVSPost2010Prop39
140
1.0
102
RTVSPost2010PropOp39
 70
     1
102
RTVSPost2010Prop40
 90
        0
102
RTVSPost2010PropOp40
 70
     1
102
RTVSPost2010Prop41ColorIndex
 90
       18
102
RTVSPost2010Prop41ColorRGB
 90
        0
102
RTVSPost2010PropOp41
 70
     1
102
RTVSPost2010Prop42
 90
       50
102
RTVSPost2010PropOp42
 70
     1
102
RTVSPost2010Prop43
 90
        3
102
RTVSPost2010PropOp43
 70
     1
102
RTVSPost2010Prop44ColorIndex
 90
        5
102
RTVSPost2010Prop44ColorRGB
 90
      255
102
RTVSPost2010PropOp44
 70
     1
102
RTVSPost2010Prop45
280
     0
102
RTVSPost2010PropOp45
 70
     1
102
RTVSPost2010Prop46
 90
       50
102
RTVSPost2010PropOp46
 70
     1
102
RTVSPost2010Prop47
 90
       50
102
RTVSPost2010PropOp47
 70
     1
102
RTVSPost2010Prop48
 90
       50
102
RTVSPost2010PropOp48
 70
     1
102
RTVSPost2010Prop49
280
     0
102
RTVSPost2010PropOp49
 70
     1
102
RTVSPost2010Prop50
 90
       50
102
RTVSPost2010PropOp50
 70
     1
102
RTVSPost2010Prop51ColorIndex
 90
      256
102
RTVSPost2010Prop51ColorRGB
 90
-16777216
102
RTVSPost2010PropOp51
 70
     0
102
RTVSPost2010Prop52
140
1.0
102
RTVSPost2010PropOp52
 70
     0
102
RTVSPost2010Prop53
 90
        2
102
RTVSPost2010PropOp53
 70
     1
102
RTVSPost2010Prop54
  1
strokes_ogs.tif
102
RTVSPost2010PropOp54
 70
     1
102
RTVSPost2010Prop55
280
     0
102
RTVSPost2010PropOp55
 70
     1
102
RTVSPost2010Prop56
140
1.0
102
RTVSPost2010PropOp56
 70
     1
102
RTVSPost2010Prop57
140
1.0
102
RTVSPost2010PropOp57
 70
     1
102
RTVSPropertyOp0
 70
     1
102
RTVSPropertyOp1
 70
     1
102
RTVSPropertyOp2
 70
     1
102
RTVSPropertyOp3
 70
     1
102
RTVSPropertyOp4
 70
     1
102
RTVSPropertyOp5
 70
     1
102
RTVSPropertyOp6
 70
     1
102
RTVSPropertyOp7
 70
     1
102
RTVSPropertyOp8
 70
     1
102
RTVSPropertyOp9
 70
     1
102
RTVSPropertyOp10
 70
     1
102
RTVSPropertyOp11
 70
     1
102
RTVSPropertyOp12
 70
     1
102
RTVSPropertyOp13
 70
     1
102
RTVSPropertyOp14
 70
     1
102
RTVSPropertyOp15
 70
     1
102
RTVSPropertyOp16
 70
     1
102
RTVSPropertyOp17
 70
     1
102
RTVSPropertyOp18
 70
     1
102
RTVSPropertyOp19
 70
     1
102
RTVSPropertyOp20
 70
     1
102
RTVSPropertyOp21
 70
     1
102
RTVSPropertyOp22
 70
     1
102
RTVSPropertyOp23
 70
     1
102
RTVSPropertyOp24
 70
     1
102
RTVSPropertyOp25
 70
     1
102
RTVSPropertyOp26
 70
     1
102
RTVSPropertyOp27
 70
     1
102
RTVSPropertyOp28
 70
     1
102
RTVSPropertyOp29
 70
     1
102
RTVSPropertyOp30
 70
     1
102
RTVSPropertyOp31
 70
     1
102
RTVSPropertyOp32
 70
     1
102
RTVSPropertyOp33
 70
     1
102
RTVSPropertyOp34
 70
     1
102
RTVSPropertyOp35
 70
     1
102
RTVSPropertyOp36
 70
     1
102
RTVSPropertyOp37
 70
     1
102
RTVSPropertyOp38
 70
     1
102
RTVSPropertyOp39
 70
     1
102
RTVSPropertyOp40
 70
     1
102
RTVSPropertyOp41
 70
     1
102
RTVSPropertyOp42
 70
     1
102
RTVSPropertyOp43
 70
     1
102
RTVSPropertyOp44
 70
     1
102
RTVSPropertyOp45
 70
     1
102
RTVSPropertyOp46
 70
     1
102
RTVSPropertyOp47
 70
     1
102
RTVSPropertyOp48
 70
     1
102
RTVSPropertyOp49
 70
     1
102
RTVSPropertyOp50
 70
     1
102
RTVSPropertyOp51
 70
     0
102
RTVSPropertyOp52
 70
     0
102
RTVSPropertyOp53
 70
     1
102
RTVSPropertyOp54
 70
     1
102
RTVSPropertyOp55
 70
     1
102
RTVSPropertyOp56
 70
     1
102
RTVSPropertyOp57
 70
     1
102
RTVSPropertyOp58
 70
     1
102
RTVSPropertyOp59
 70
     1
102
RTVSPropertyOp60
 70
     1
102
RTVSPropertyOp61
 70
     1
102
RTVSPropertyOp62
 70
     1
  0
XRECORD
  5
A6FE
102
{ACAD_REACTORS
330
A6FD
102
}
330
A6FD
100
AcDbXrecord
280
     1
102
RTVSPost2010Prop28
280
     0
102
RTVSPost2010PropOp28
 70
     1
102
RTVSPost2010Prop29
280
     1
102
RTVSPost2010PropOp29
 70
     1
102
RTVSPost2010Prop30
280
     1
102
RTVSPost2010PropOp30
 70
     1
102
RTVSPost2010Prop31
280
     0
102
RTVSPost2010PropOp31
 70
     1
102
RTVSPost2010Prop32
280
     0
102
RTVSPost2010PropOp32
 70
     1
102
RTVSPost2010Prop33
280
     0
102
RTVSPost2010PropOp33
 70
     1
102
RTVSPost2010Prop34
280
     0
102
RTVSPost2010PropOp34
 70
     1
102
RTVSPost2010Prop35
280
     0
102
RTVSPost2010PropOp35
 70
     1
102
RTVSPost2010Prop36
280
     0
102
RTVSPost2010PropOp36
 70
     1
102
RTVSPost2010Prop37
 90
       50
102
RTVSPost2010PropOp37
 70
     1
102
RTVSPost2010Prop38
140
0.0
102
RTVSPost2010PropOp38
 70
     1
102
RTVSPost2010Prop39
140
1.0
102
RTVSPost2010PropOp39
 70
     1
102
RTVSPost2010Prop40
 90
        0
102
RTVSPost2010PropOp40
 70
     1
102
RTVSPost2010Prop41ColorIndex
 90
       18
102
RTVSPost2010Prop41ColorRGB
 90
        0
102
RTVSPost2010PropOp41
 70
     1
102
RTVSPost2010Prop42
 90
       50
102
RTVSPost2010PropOp42
 70
     1
102
RTVSPost2010Prop43
 90
        3
102
RTVSPost2010PropOp43
 70
     1
102
RTVSPost2010Prop44ColorIndex
 90
        5
102
RTVSPost2010Prop44ColorRGB
 90
      255
102
RTVSPost2010PropOp44
 70
     1
102
RTVSPost2010Prop45
280
     0
102
RTVSPost2010PropOp45
 70
     1
102
RTVSPost2010Prop46
 90
       50
102
RTVSPost2010PropOp46
 70
     1
102
RTVSPost2010Prop47
 90
       50
102
RTVSPost2010PropOp47
 70
     1
102
RTVSPost2010Prop48
 90
       50
102
RTVSPost2010PropOp48
 70
     1
102
RTVSPost2010Prop49
280
     0
102
RTVSPost2010PropOp49
 70
     1
102
RTVSPost2010Prop50
 90
       50
102
RTVSPost2010PropOp50
 70
     1
102
RTVSPost2010Prop51ColorIndex
 90
      256
102
RTVSPost2010Prop51ColorRGB
 90
-16777216
102
RTVSPost2010PropOp51
 70
     0
102
RTVSPost2010Prop52
140
1.0
102
RTVSPost2010PropOp52
 70
     0
102
RTVSPost2010Prop53
 90
        2
102
RTVSPost2010PropOp53
 70
     1
102
RTVSPost2010Prop54
  1
strokes_ogs.tif
102
RTVSPost2010PropOp54
 70
     1
102
RTVSPost2010Prop55
280
     0
102
RTVSPost2010PropOp55
 70
     1
102
RTVSPost2010Prop56
140
1.0
102
RTVSPost2010PropOp56
 70
     1
102
RTVSPost2010Prop57
140
1.0
102
RTVSPost2010PropOp57
 70
     1
102
RTVSPropertyOp0
 70
     1
102
RTVSPropertyOp1
 70
     1
102
RTVSPropertyOp2
 70
     1
102
RTVSPropertyOp3
 70
     1
102
RTVSPropertyOp4
 70
     1
102
RTVSPropertyOp5
 70
     1
102
RTVSPropertyOp6
 70
     1
102
RTVSPropertyOp7
 70
     1
102
RTVSPropertyOp8
 70
     1
102
RTVSPropertyOp9
 70
     1
102
RTVSPropertyOp10
 70
     1
102
RTVSPropertyOp11
 70
     1
102
RTVSPropertyOp12
 70
     1
102
RTVSPropertyOp13
 70
     1
102
RTVSPropertyOp14
 70
     1
102
RTVSPropertyOp15
 70
     1
102
RTVSPropertyOp16
 70
     1
102
RTVSPropertyOp17
 70
     1
102
RTVSPropertyOp18
 70
     1
102
RTVSPropertyOp19
 70
     1
102
RTVSPropertyOp20
 70
     1
102
RTVSPropertyOp21
 70
     1
102
RTVSPropertyOp22
 70
     1
102
RTVSPropertyOp23
 70
     1
102
RTVSPropertyOp24
 70
     1
102
RTVSPropertyOp25
 70
     1
102
RTVSPropertyOp26
 70
     1
102
RTVSPropertyOp27
 70
     1
102
RTVSPropertyOp28
 70
     1
102
RTVSPropertyOp29
 70
     1
102
RTVSPropertyOp30
 70
     1
102
RTVSPropertyOp31
 70
     1
102
RTVSPropertyOp32
 70
     1
102
RTVSPropertyOp33
 70
     1
102
RTVSPropertyOp34
 70
     1
102
RTVSPropertyOp35
 70
     1
102
RTVSPropertyOp36
 70
     1
102
RTVSPropertyOp37
 70
     1
102
RTVSPropertyOp38
 70
     1
102
RTVSPropertyOp39
 70
     1
102
RTVSPropertyOp40
 70
     1
102
RTVSPropertyOp41
 70
     1
102
RTVSPropertyOp42
 70
     1
102
RTVSPropertyOp43
 70
     1
102
RTVSPropertyOp44
 70
     1
102
RTVSPropertyOp45
 70
     1
102
RTVSPropertyOp46
 70
     1
102
RTVSPropertyOp47
 70
     1
102
RTVSPropertyOp48
 70
     1
102
RTVSPropertyOp49
 70
     1
102
RTVSPropertyOp50
 70
     1
102
RTVSPropertyOp51
 70
     0
102
RTVSPropertyOp52
 70
     0
102
RTVSPropertyOp53
 70
     1
102
RTVSPropertyOp54
 70
     1
102
RTVSPropertyOp55
 70
     1
102
RTVSPropertyOp56
 70
     1
102
RTVSPropertyOp57
 70
     1
102
RTVSPropertyOp58
 70
     1
102
RTVSPropertyOp59
 70
     1
102
RTVSPropertyOp60
 70
     1
102
RTVSPropertyOp61
 70
     1
102
RTVSPropertyOp62
 70
     1
  0
ENDSEC
  0
EOF
