  0
SECTION
  2
HEADER
  9
$ACADVER
  1
AC1015
  9
$ACADMAINTVER
 70
    20
  9
$DWGCODEPAGE
  3
ANSI_932
  9
$INSBASE
 10
0.0
 20
0.0
 30
0.0
  9
$EXTMIN
 10
9.99995
 20
9.999999999999998
 30
0.0
  9
$EXTMAX
 10
325.28006
 20
182.0
 30
0.0
  9
$LIMMIN
 10
0.0
 20
0.0
  9
$LIMMAX
 10
396.0
 20
273.0
  9
$ORTHOMODE
 70
     1
  9
$REGENMODE
 70
     1
  9
$FILLMODE
 70
     1
  9
$QTEXTMODE
 70
     0
  9
$MIRRTEXT
 70
     1
  9
$LTSCALE
 40
20.0
  9
$ATTMODE
 70
     1
  9
$TEXTSIZE
 40
5.0
  9
$TRACEWID
 40
1.0
  9
$TEXTSTYLE
  7
STANDARD
  9
$CLAYER
  8
0
  9
$CELTYPE
  6
BYLAYER
  9
$CECOLOR
 62
   256
  9
$CELTSCALE
 40
1.0
  9
$DISPSILH
 70
     0
  9
$DIMSCALE
 40
1.0
  9
$DIMASZ
 40
3.0
  9
$DIMEXO
 40
1.0
  9
$DIMDLI
 40
10.0
  9
$DIMRND
 40
0.0
  9
$DIMDLE
 40
0.0
  9
$DIMEXE
 40
1.0
  9
$DIMTP
 40
0.0
  9
$DIMTM
 40
0.0
  9
$DIMTXT
 40
3.2
  9
$DIMCEN
 40
0.0
  9
$DIMTSZ
 40
0.0
  9
$DIMTOL
 70
     0
  9
$DIMLIM
 70
     0
  9
$DIMTIH
 70
     0
  9
$DIMTOH
 70
     0
  9
$DIMSE1
 70
     0
  9
$DIMSE2
 70
     0
  9
$DIMTAD
 70
     3
  9
$DIMZIN
 70
     8
  9
$DIMBLK
  1

  9
$DIMASO
 70
     1
  9
$DIMSHO
 70
     1
  9
$DIMPOST
  1

  9
$DIMAPOST
  1

  9
$DIMALT
 70
     0
  9
$DIMALTD
 70
     2
  9
$DIMALTF
 40
25.4
  9
$DIMLFAC
 40
1.0
  9
$DIMTOFL
 70
     1
  9
$DIMTVP
 40
0.0
  9
$DIMTIX
 70
     0
  9
$DIMSOXD
 70
     0
  9
$DIMSAH
 70
     1
  9
$DIMBLK1
  1

  9
$DIMBLK2
  1

  9
$DIMSTYLE
  2
STANDARD
  9
$DIMCLRD
 70
     0
  9
$DIMCLRE
 70
     0
  9
$DIMCLRT
 70
     0
  9
$DIMTFAC
 40
1.0
  9
$DIMGAP
 40
1.0
  9
$DIMJUST
 70
     0
  9
$DIMSD1
 70
     0
  9
$DIMSD2
 70
     0
  9
$DIMTOLJ
 70
     1
  9
$DIMTZIN
 70
     0
  9
$DIMALTZ
 70
     0
  9
$DIMALTTZ
 70
     0
  9
$DIMUPT
 70
     0
  9
$DIMDEC
 70
     4
  9
$DIMTDEC
 70
     4
  9
$DIMALTU
 70
     2
  9
$DIMALTTD
 70
     2
  9
$DIMTXSTY
  7
STANDARD
  9
$DIMAUNIT
 70
     0
  9
$DIMADEC
 70
     0
  9
$DIMALTRND
 40
0.0
  9
$DIMAZIN
 70
     0
  9
$DIMDSEP
 70
    46
  9
$DIMATFIT
 70
     3
  9
$DIMFRAC
 70
     0
  9
$DIMLDRBLK
  1

  9
$DIMLUNIT
 70
     2
  9
$DIMLWD
 70
    -2
  9
$DIMLWE
 70
    -2
  9
$DIMTMOVE
 70
     0
  9
$LUNITS
 70
     2
  9
$LUPREC
 70
     4
  9
$SKETCHINC
 40
1.0
  9
$FILLETRAD
 40
2.5
  9
$AUNITS
 70
     0
  9
$AUPREC
 70
     2
  9
$MENU
  1
.
  9
$ELEVATION
 40
0.0
  9
$PELEVATION
 40
0.0
  9
$THICKNESS
 40
0.0
  9
$LIMCHECK
 70
     0
  9
$CHAMFERA
 40
10.0
  9
$CHAMFERB
 40
10.0
  9
$CHAMFERC
 40
0.0
  9
$CHAMFERD
 40
0.0
  9
$SKPOLY
 70
     0
  9
$TDCREATE
 40
2451054.635213310
  9
$TDUCREATE
 40
2451054.260213310
  9
$TDUPDATE
 40
2457192.621203808
  9
$TDUUPDATE
 40
2457192.246203808
  9
$TDINDWG
 40
0.0000144213
  9
$TDUSRTIMER
 40
0.0000140972
  9
$USRTIMER
 70
     1
  9
$ANGBASE
 50
0.0
  9
$ANGDIR
 70
     0
  9
$PDMODE
 70
     0
  9
$PDSIZE
 40
0.0
  9
$PLINEWID
 40
0.0
  9
$SPLFRAME
 70
     0
  9
$SPLINETYPE
 70
     6
  9
$SPLINESEGS
 70
     8
  9
$HANDSEED
  5
967C
  9
$SURFTAB1
 70
     6
  9
$SURFTAB2
 70
     6
  9
$SURFTYPE
 70
     6
  9
$SURFU
 70
     6
  9
$SURFV
 70
     6
  9
$UCSBASE
  2

  9
$UCSNAME
  2

  9
$UCSORG
 10
0.0
 20
0.0
 30
0.0
  9
$UCSXDIR
 10
1.0
 20
0.0
 30
0.0
  9
$UCSYDIR
 10
0.0
 20
1.0
 30
0.0
  9
$UCSORTHOREF
  2

  9
$UCSORTHOVIEW
 70
     0
  9
$UCSORGTOP
 10
0.0
 20
0.0
 30
0.0
  9
$UCSORGBOTTOM
 10
0.0
 20
0.0
 30
0.0
  9
$UCSORGLEFT
 10
0.0
 20
0.0
 30
0.0
  9
$UCSORGRIGHT
 10
0.0
 20
0.0
 30
0.0
  9
$UCSORGFRONT
 10
0.0
 20
0.0
 30
0.0
  9
$UCSORGBACK
 10
0.0
 20
0.0
 30
0.0
  9
$PUCSBASE
  2

  9
$PUCSNAME
  2

  9
$PUCSORG
 10
0.0
 20
0.0
 30
0.0
  9
$PUCSXDIR
 10
1.0
 20
0.0
 30
0.0
  9
$PUCSYDIR
 10
0.0
 20
1.0
 30
0.0
  9
$PUCSORTHOREF
  2

  9
$PUCSORTHOVIEW
 70
     0
  9
$PUCSORGTOP
 10
0.0
 20
0.0
 30
0.0
  9
$PUCSORGBOTTOM
 10
0.0
 20
0.0
 30
0.0
  9
$PUCSORGLEFT
 10
0.0
 20
0.0
 30
0.0
  9
$PUCSORGRIGHT
 10
0.0
 20
0.0
 30
0.0
  9
$PUCSORGFRONT
 10
0.0
 20
0.0
 30
0.0
  9
$PUCSORGBACK
 10
0.0
 20
0.0
 30
0.0
  9
$USERI1
 70
     0
  9
$USERI2
 70
     0
  9
$USERI3
 70
     0
  9
$USERI4
 70
     0
  9
$USERI5
 70
     0
  9
$USERR1
 40
0.0
  9
$USERR2
 40
0.0
  9
$USERR3
 40
0.0
  9
$USERR4
 40
0.0
  9
$USERR5
 40
0.0
  9
$WORLDVIEW
 70
     1
  9
$SHADEDGE
 70
     3
  9
$SHADEDIF
 70
    70
  9
$TILEMODE
 70
     1
  9
$MAXACTVP
 70
    16
  9
$PINSBASE
 10
0.0
 20
0.0
 30
0.0
  9
$PLIMCHECK
 70
     0
  9
$PEXTMIN
 10
1.000000000000000E+20
 20
1.000000000000000E+20
 30
1.000000000000000E+20
  9
$PEXTMAX
 10
-1.000000000000000E+20
 20
-1.000000000000000E+20
 30
-1.000000000000000E+20
  9
$PLIMMIN
 10
0.0
 20
0.0
  9
$PLIMMAX
 10
420.0
 20
297.0
  9
$UNITMODE
 70
     0
  9
$VISRETAIN
 70
     0
  9
$PLINEGEN
 70
     0
  9
$PSLTSCALE
 70
     0
  9
$TREEDEPTH
 70
  3020
  9
$CMLSTYLE
  2
STANDARD
  9
$CMLJUST
 70
     0
  9
$CMLSCALE
 40
1.0
  9
$PROXYGRAPHICS
 70
     1
  9
$MEASUREMENT
 70
     0
  9
$CELWEIGHT
370
    -1
  9
$ENDCAPS
280
     0
  9
$JOINSTYLE
280
     0
  9
$LWDISPLAY
290
     0
  9
$INSUNITS
 70
     0
  9
$HYPERLINKBASE
  1

  9
$STYLESHEET
  1

  9
$XEDIT
290
     1
  9
$CEPSNTYPE
380
     0
  9
$PSTYLEMODE
290
     1
  9
$FINGERPRINTGUID
  2
{FDAE82C5-B024-41C3-AC43-1D145AEAF695}
  9
$VERSIONGUID
  2
{A9311B9B-693C-487E-976E-84D3EBCD0772}
  9
$EXTNAMES
290
     1
  9
$PSVPSCALE
 40
0.0
  9
$OLESTARTUP
290
     0
  0
ENDSEC
  0
SECTION
  2
CLASSES
  0
CLASS
  1
ACDBDICTIONARYWDFLT
  2
AcDbDictionaryWithDefault
  3
ObjectDBX Classes
 90
        0
280
     0
281
     0
  0
CLASS
  1
ACDBPLACEHOLDER
  2
AcDbPlaceHolder
  3
ObjectDBX Classes
 90
        0
280
     0
281
     0
  0
CLASS
  1
LAYOUT
  2
AcDbLayout
  3
ObjectDBX Classes
 90
        0
280
     0
281
     0
  0
CLASS
  1
DICTIONARYVAR
  2
AcDbDictionaryVar
  3
ObjectDBX Classes
 90
        0
280
     0
281
     0
  0
CLASS
  1
MATERIAL
  2
AcDbMaterial
  3
ObjectDBX Classes
 90
     1153
280
     0
281
     0
  0
CLASS
  1
VISUALSTYLE
  2
AcDbVisualStyle
  3
ObjectDBX Classes
 90
     4095
280
     0
281
     0
  0
CLASS
  1
TABLESTYLE
  2
AcDbTableStyle
  3
ObjectDBX Classes
 90
     4095
280
     0
281
     0
  0
CLASS
  1
SCALE
  2
AcDbScale
  3
ObjectDBX Classes
 90
     1153
280
     0
281
     0
  0
CLASS
  1
MLEADERSTYLE
  2
AcDbMLeaderStyle
  3
ACDB_MLEADERSTYLE_CLASS
 90
     4095
280
     0
281
     0
  0
CLASS
  1
ACDBSECTIONVIEWSTYLE
  2
AcDbSectionViewStyle
  3
ObjectDBX Classes
 90
     1025
280
     0
281
     0
  0
CLASS
  1
ACDBDETAILVIEWSTYLE
  2
AcDbDetailViewStyle
  3
ObjectDBX Classes
 90
     1025
280
     0
281
     0
  0
CLASS
  1
CELLSTYLEMAP
  2
AcDbCellStyleMap
  3
ObjectDBX Classes
 90
     1152
280
     0
281
     0
  0
ENDSEC
  0
SECTION
  2
TABLES
  0
TABLE
  2
VPORT
  5
9374
330
0
100
AcDbSymbolTable
 70
     1
  0
VPORT
  5
95C5
330
9374
100
AcDbSymbolTableRecord
100
AcDbViewportTableRecord
  2
*ACTIVE
 70
     0
 10
0.0
 20
0.0
 11
1.0
 21
1.0
 12
221.9222342856348
 22
95.99947416025612
 13
0.0
 23
0.0
 14
10.0
 24
10.0
 15
10.0
 25
10.0
 16
0.0
 26
0.0
 36
1.0
 17
0.0
 27
0.0
 37
0.0
 40
181.2351334301462
 41
1.899603698811096
 42
50.0
 43
0.0
 44
0.0
 50
0.0
 51
0.0
 71
     0
 72
   100
 73
     1
 74
     0
 75
     0
 76
     0
 77
     0
 78
     0
281
     0
 65
     1
110
0.0
120
0.0
130
0.0
111
1.0
121
0.0
131
0.0
112
0.0
122
1.0
132
0.0
 79
     0
146
0.0
1001
ACAD_NAV_VCDISPLAY
1070
     3
  0
ENDTAB
  0
TABLE
  2
LTYPE
  5
9371
330
0
100
AcDbSymbolTable
 70
     4
  0
LTYPE
  5
937F
330
9371
100
AcDbSymbolTableRecord
100
AcDbLinetypeTableRecord
  2
BYBLOCK
 70
     0
  3

 72
    65
 73
     0
 40
0.0
  0
LTYPE
  5
9380
330
9371
100
AcDbSymbolTableRecord
100
AcDbLinetypeTableRecord
  2
BYLAYER
 70
     0
  3

 72
    65
 73
     0
 40
0.0
  0
LTYPE
  5
9381
330
9371
100
AcDbSymbolTableRecord
100
AcDbLinetypeTableRecord
  2
CONTINUOUS
 70
     0
  3
Solid line
 72
    65
 73
     0
 40
0.0
  0
LTYPE
  5
938F
330
9371
100
AcDbSymbolTableRecord
100
AcDbLinetypeTableRecord
  2
DASHED
 70
     0
  3
__ __ __ __ __ __ __ __ __ __ __ __ __ __ __ __
 72
    65
 73
     2
 40
0.75
 49
0.5
 74
     0
 49
-0.25
 74
     0
  0
LTYPE
  5
9390
330
9371
100
AcDbSymbolTableRecord
100
AcDbLinetypeTableRecord
  2
CENTER
 70
     0
  3
____ _ ____ _ ____ _ ____ _ ____ _ ____ _ ____ 
 72
    65
 73
     4
 40
2.0
 49
1.25
 74
     0
 49
-0.25
 74
     0
 49
0.25
 74
     0
 49
-0.25
 74
     0
  0
LTYPE
  5
9391
330
9371
100
AcDbSymbolTableRecord
100
AcDbLinetypeTableRecord
  2
PHANTOM
 70
     0
  3
______  __  __  ______  __  __  ______  __  __ 
 72
    65
 73
     6
 40
2.5
 49
1.25
 74
     0
 49
-0.25
 74
     0
 49
0.25
 74
     0
 49
-0.25
 74
     0
 49
0.25
 74
     0
 49
-0.25
 74
     0
  0
ENDTAB
  0
TABLE
  2
LAYER
  5
936E
330
0
100
AcDbSymbolTable
 70
     8
  0
LAYER
  5
937C
102
{ACAD_XDICTIONARY
360
9620
102
}
330
936E
100
AcDbSymbolTableRecord
100
AcDbLayerTableRecord
  2
0
 70
     0
 62
     7
  6
CONTINUOUS
370
    -3
390
95CE
  0
LAYER
  5
9392
102
{ACAD_XDICTIONARY
360
9622
102
}
330
936E
100
AcDbSymbolTableRecord
100
AcDbLayerTableRecord
  2
4
 70
     0
 62
     1
  6
CENTER
370
    -3
390
95CE
  0
LAYER
  5
9393
102
{ACAD_XDICTIONARY
360
9624
102
}
330
936E
100
AcDbSymbolTableRecord
100
AcDbLayerTableRecord
  2
5
 70
     0
 62
     6
  6
PHANTOM
370
    -3
390
95CE
  0
LAYER
  5
9394
102
{ACAD_XDICTIONARY
360
9626
102
}
330
936E
100
AcDbSymbolTableRecord
100
AcDbLayerTableRecord
  2
1
 70
     0
 62
     7
  6
CONTINUOUS
370
    -3
390
95CE
  0
LAYER
  5
9395
102
{ACAD_XDICTIONARY
360
9628
102
}
330
936E
100
AcDbSymbolTableRecord
100
AcDbLayerTableRecord
  2
2
 70
     0
 62
     4
  6
CONTINUOUS
370
    -3
390
95CE
  0
LAYER
  5
9396
102
{ACAD_XDICTIONARY
360
962A
102
}
330
936E
100
AcDbSymbolTableRecord
100
AcDbLayerTableRecord
  2
3
 70
     0
 62
     2
  6
DASHED
370
    -3
390
95CE
  0
LAYER
  5
9397
102
{ACAD_XDICTIONARY
360
962C
102
}
330
936E
100
AcDbSymbolTableRecord
100
AcDbLayerTableRecord
  2
6
 70
     0
 62
     5
  6
CONTINUOUS
370
    -3
390
95CE
  0
LAYER
  5
9398
102
{ACAD_XDICTIONARY
360
962E
102
}
330
936E
100
AcDbSymbolTableRecord
100
AcDbLayerTableRecord
  2
7
 70
     0
 62
     3
  6
CONTINUOUS
370
    -3
390
95CE
  0
ENDTAB
  0
TABLE
  2
STYLE
  5
936F
330
0
100
AcDbSymbolTable
 70
     1
  0
STYLE
  5
937D
330
936F
100
AcDbSymbolTableRecord
100
AcDbTextStyleTableRecord
  2
STANDARD
 70
     0
 40
0.0
 41
1.0
 50
0.0
 71
     0
 42
5.0
  3
txt
  4

  0
ENDTAB
  0
TABLE
  2
VIEW
  5
9372
330
0
100
AcDbSymbolTable
 70
     0
  0
ENDTAB
  0
TABLE
  2
UCS
  5
9373
330
0
100
AcDbSymbolTable
 70
     0
  0
ENDTAB
  0
TABLE
  2
APPID
  5
9375
330
0
100
AcDbSymbolTable
 70
     3
  0
APPID
  5
937E
330
9375
100
AcDbSymbolTableRecord
100
AcDbRegAppTableRecord
  2
ACAD
 70
     0
  0
APPID
  5
963A
330
9375
100
AcDbSymbolTableRecord
100
AcDbRegAppTableRecord
  2
ACAD_NAV_VCDISPLAY
 70
     0
  0
APPID
  5
9673
330
9375
100
AcDbSymbolTableRecord
100
AcDbRegAppTableRecord
  2
ACAD_MLEADERVER
 70
     0
  0
ENDTAB
  0
TABLE
  2
DIMSTYLE
  5
9376
330
0
100
AcDbSymbolTable
 70
     1
100
AcDbDimStyleTable
 71
     0
  0
DIMSTYLE
105
939A
330
9376
100
AcDbSymbolTableRecord
100
AcDbDimStyleTableRecord
  2
STANDARD
 70
     0
 41
3.0
 42
1.0
 43
10.0
 44
1.0
 73
     0
 74
     0
 77
     3
 78
     8
140
3.2
141
0.0
147
1.0
172
     1
173
     1
284
     8
285
     8
286
     8
340
937D
  0
ENDTAB
  0
TABLE
  2
BLOCK_RECORD
  5
936D
330
0
100
AcDbSymbolTable
 70
     0
  0
BLOCK_RECORD
  5
938A
102
{ACAD_XDICTIONARY
360
95C8
102
}
330
936D
100
AcDbSymbolTableRecord
100
AcDbBlockTableRecord
  2
*MODEL_SPACE
340
961C
  0
BLOCK_RECORD
  5
9386
102
{ACAD_XDICTIONARY
360
95C6
102
}
330
936D
100
AcDbSymbolTableRecord
100
AcDbBlockTableRecord
  2
*PAPER_SPACE
340
961D
  0
ENDTAB
  0
ENDSEC
  0
SECTION
  2
BLOCKS
  0
BLOCK
  5
938B
330
938A
100
AcDbEntity
  8
0
100
AcDbBlockBegin
  2
*MODEL_SPACE
 70
     0
 10
0.0
 20
0.0
 30
0.0
  3
*MODEL_SPACE
  1

  0
ENDBLK
  5
938C
330
938A
100
AcDbEntity
  8
0
100
AcDbBlockEnd
  0
BLOCK
  5
9387
330
9386
100
AcDbEntity
 67
     1
  8
0
100
AcDbBlockBegin
  2
*PAPER_SPACE
 70
     0
 10
0.0
 20
0.0
 30
0.0
  3
*PAPER_SPACE
  1

  0
ENDBLK
  5
9388
330
9386
100
AcDbEntity
 67
     1
  8
0
100
AcDbBlockEnd
  0
ENDSEC
  0
SECTION
  2
ENTITIES
  0
LINE
  5
93A2
330
938A
100
AcDbEntity
  8
1
  6
Continuous
100
AcDbLine
 10
73.000023
 20
109.0
 30
0.0
 11
153.6400149999998
 21
109.0
 31
0.0
  0
LINE
  5
93A3
330
938A
100
AcDbEntity
  8
1
  6
Continuous
100
AcDbLine
 10
153.6400149999998
 20
112.5
 30
0.0
 11
153.6400149999998
 21
109.0
 31
0.0
  0
LINE
  5
93A4
330
938A
100
AcDbEntity
  8
1
  6
Continuous
100
AcDbLine
 10
152.0650179999998
 20
114.0
 30
0.0
 11
152.6950229999999
 21
114.0
 31
0.0
  0
LINE
  5
93A5
330
938A
100
AcDbEntity
  8
1
  6
Continuous
100
AcDbLine
 10
73.000023
 20
111.4999999999999
 30
0.0
 11
153.6400149999998
 21
111.4999999999999
 31
0.0
  0
LINE
  5
93A6
330
938A
100
AcDbEntity
  8
1
  6
Continuous
100
AcDbLine
 10
152.6950229999999
 20
113.9999919999999
 30
0.0
 11
153.3250119999999
 21
112.499992
 31
0.0
  0
LINE
  5
93A7
330
938A
100
AcDbEntity
  8
1
  6
Continuous
100
AcDbLine
 10
153.325027
 20
112.5
 30
0.0
 11
153.6400149999998
 21
112.5
 31
0.0
  0
LINE
  5
93A8
330
938A
100
AcDbEntity
  8
4
  6
CENTER
100
AcDbLine
 10
73.22002399999998
 20
113.199997
 30
0.0
 11
153.6400149999998
 21
113.199997
 31
0.0
  0
LINE
  5
93A9
330
938A
100
AcDbEntity
  8
1
  6
Continuous
100
AcDbLine
 10
153.6400149999998
 20
182.0
 30
0.0
 11
153.6400149999998
 21
174.0
 31
0.0
  0
LINE
  5
93AA
330
938A
100
AcDbEntity
  8
1
  6
Continuous
100
AcDbLine
 10
73.000023
 20
174.0
 30
0.0
 11
153.6400149999998
 21
174.0
 31
0.0
  0
LINE
  5
93AB
330
938A
100
AcDbEntity
  8
1
  6
Continuous
100
AcDbLine
 10
73.000023
 20
182.0
 30
0.0
 11
153.6400149999998
 21
182.0
 31
0.0
  0
LINE
  5
93AC
330
938A
100
AcDbEntity
  8
1
  6
Continuous
100
AcDbLine
 10
73.000023
 20
179.0
 30
0.0
 11
153.6400149999998
 21
179.0
 31
0.0
  0
LINE
  5
93AD
330
938A
100
AcDbEntity
  8
4
  6
CENTER
100
AcDbLine
 10
143.430023
 20
178.699997
 30
0.0
 11
143.430023
 21
174.2999879999999
 31
0.0
  0
LINE
  5
93AE
330
938A
100
AcDbEntity
  8
4
  6
CENTER
100
AcDbLine
 10
141.230026
 20
176.5
 30
0.0
 11
145.63002
 21
176.5
 31
0.0
  0
LINE
  5
93AF
330
938A
100
AcDbEntity
  8
4
  6
CENTER
100
AcDbLine
 10
128.430023
 20
178.699997
 30
0.0
 11
128.430023
 21
174.2999879999999
 31
0.0
  0
LINE
  5
93B0
330
938A
100
AcDbEntity
  8
4
  6
CENTER
100
AcDbLine
 10
126.2300189999999
 20
176.5
 30
0.0
 11
130.63002
 21
176.5
 31
0.0
  0
LINE
  5
93B1
330
938A
100
AcDbEntity
  8
4
  6
CENTER
100
AcDbLine
 10
113.430023
 20
178.699997
 30
0.0
 11
113.430023
 21
174.2999879999999
 31
0.0
  0
LINE
  5
93B2
330
938A
100
AcDbEntity
  8
4
  6
CENTER
100
AcDbLine
 10
111.230019
 20
176.5
 30
0.0
 11
115.63002
 21
176.5
 31
0.0
  0
LINE
  5
93B3
330
938A
100
AcDbEntity
  8
4
  6
CENTER
100
AcDbLine
 10
98.43002300000001
 20
178.699997
 30
0.0
 11
98.43002300000001
 21
174.2999879999999
 31
0.0
  0
LINE
  5
93B4
330
938A
100
AcDbEntity
  8
4
  6
CENTER
100
AcDbLine
 10
96.230019
 20
176.5
 30
0.0
 11
100.63002
 21
176.5
 31
0.0
  0
LINE
  5
93B5
330
938A
100
AcDbEntity
  8
4
  6
CENTER
100
AcDbLine
 10
83.430023
 20
178.699997
 30
0.0
 11
83.430023
 21
174.2999879999999
 31
0.0
  0
LINE
  5
93B6
330
938A
100
AcDbEntity
  8
4
  6
CENTER
100
AcDbLine
 10
81.230019
 20
176.5
 30
0.0
 11
85.63002
 21
176.5
 31
0.0
  0
LINE
  5
93B7
330
938A
100
AcDbEntity
  8
1
  6
Continuous
100
AcDbLine
 10
198.6400449999999
 20
114.0
 30
0.0
 11
201.6400449999999
 21
114.0
 31
0.0
  0
LINE
  5
93B8
330
938A
100
AcDbEntity
  8
1
  6
Continuous
100
AcDbLine
 10
193.6400449999999
 20
109.0
 30
0.0
 11
201.6400449999999
 21
109.0
 31
0.0
  0
LINE
  5
93B9
330
938A
100
AcDbEntity
  8
1
  6
Continuous
100
AcDbLine
 10
193.6400449999999
 20
111.4999999999999
 30
0.0
 11
193.6400449999999
 21
109.0
 31
0.0
  0
LINE
  5
93BA
330
938A
100
AcDbEntity
  8
1
  6
Continuous
100
AcDbLine
 10
198.6400449999999
 20
114.0
 30
0.0
 11
198.6400449999999
 21
111.4999999999999
 31
0.0
  0
LINE
  5
93BB
330
938A
100
AcDbEntity
  8
1
  6
Continuous
100
AcDbLine
 10
201.6400449999999
 20
114.0
 30
0.0
 11
201.6400449999999
 21
109.0
 31
0.0
  0
LINE
  5
93BC
330
938A
100
AcDbEntity
  8
1
  6
Continuous
100
AcDbLine
 10
193.6400449999999
 20
111.4999999999999
 30
0.0
 11
198.6400449999999
 21
111.4999999999999
 31
0.0
  0
LINE
  5
93BD
330
938A
100
AcDbEntity
  8
1
  6
Continuous
100
AcDbLine
 10
198.6400449999999
 20
112.5
 30
0.0
 11
201.6400449999999
 21
112.5
 31
0.0
  0
LINE
  5
93BE
330
938A
100
AcDbEntity
  8
4
  6
CENTER
100
AcDbLine
 10
196.140045
 20
112.5
 30
0.0
 11
196.140045
 21
108.0
 31
0.0
  0
LINE
  5
93BF
330
938A
100
AcDbEntity
  8
1
  6
Continuous
100
AcDbLine
 10
73.000023
 20
49.0
 30
0.0
 11
153.6400149999998
 21
49.0
 31
0.0
  0
LINE
  5
93C0
330
938A
100
AcDbEntity
  8
1
  6
Continuous
100
AcDbLine
 10
153.6400149999998
 20
41.0
 30
0.0
 11
153.6400149999998
 21
49.0
 31
0.0
  0
LINE
  5
93C1
330
938A
100
AcDbEntity
  8
1
  6
Continuous
100
AcDbLine
 10
73.000023
 20
41.0
 30
0.0
 11
153.6400149999998
 21
41.0
 31
0.0
  0
LINE
  5
93C2
330
938A
100
AcDbEntity
  8
4
  6
CENTER
100
AcDbLine
 10
143.430023
 20
44.299999
 30
0.0
 11
143.430023
 21
48.700001
 31
0.0
  0
LINE
  5
93C3
330
938A
100
AcDbEntity
  8
4
  6
CENTER
100
AcDbLine
 10
141.230026
 20
46.5
 30
0.0
 11
145.63002
 21
46.5
 31
0.0
  0
LINE
  5
93C4
330
938A
100
AcDbEntity
  8
4
  6
CENTER
100
AcDbLine
 10
128.430023
 20
44.299999
 30
0.0
 11
128.430023
 21
48.700001
 31
0.0
  0
LINE
  5
93C5
330
938A
100
AcDbEntity
  8
4
  6
CENTER
100
AcDbLine
 10
126.2300189999999
 20
46.5
 30
0.0
 11
130.63002
 21
46.5
 31
0.0
  0
LINE
  5
93C6
330
938A
100
AcDbEntity
  8
4
  6
CENTER
100
AcDbLine
 10
113.430023
 20
44.299999
 30
0.0
 11
113.430023
 21
48.700001
 31
0.0
  0
LINE
  5
93C7
330
938A
100
AcDbEntity
  8
4
  6
CENTER
100
AcDbLine
 10
111.230019
 20
46.5
 30
0.0
 11
115.63002
 21
46.5
 31
0.0
  0
LINE
  5
93C8
330
938A
100
AcDbEntity
  8
4
  6
CENTER
100
AcDbLine
 10
98.43002300000001
 20
44.299999
 30
0.0
 11
98.43002300000001
 21
48.700001
 31
0.0
  0
LINE
  5
93C9
330
938A
100
AcDbEntity
  8
4
  6
CENTER
100
AcDbLine
 10
96.230019
 20
46.5
 30
0.0
 11
100.63002
 21
46.5
 31
0.0
  0
LINE
  5
93CA
330
938A
100
AcDbEntity
  8
4
  6
CENTER
100
AcDbLine
 10
83.430023
 20
44.299999
 30
0.0
 11
83.430023
 21
48.700001
 31
0.0
  0
LINE
  5
93CB
330
938A
100
AcDbEntity
  8
4
  6
CENTER
100
AcDbLine
 10
81.230019
 20
46.5
 30
0.0
 11
85.63002
 21
46.5
 31
0.0
  0
LINE
  5
93CC
330
938A
100
AcDbEntity
  8
1
  6
Continuous
100
AcDbLine
 10
73.000023
 20
112.5
 30
0.0
 11
73.000023
 21
109.0
 31
0.0
  0
LINE
  5
93CD
330
938A
100
AcDbEntity
  8
1
  6
Continuous
100
AcDbLine
 10
73.000023
 20
49.0
 30
0.0
 11
73.000023
 21
41.0
 31
0.0
  0
LINE
  5
93CE
330
938A
100
AcDbEntity
  8
1
  6
Continuous
100
AcDbLine
 10
73.000023
 20
182.0
 30
0.0
 11
73.000023
 21
174.0
 31
0.0
  0
LINE
  5
93CF
330
938A
100
AcDbEntity
  8
1
  6
Continuous
100
AcDbLine
 10
28.0
 20
114.0
 30
0.0
 11
28.0
 21
111.4999999999999
 31
0.0
  0
LINE
  5
93D0
330
938A
100
AcDbEntity
  8
1
  6
Continuous
100
AcDbLine
 10
28.0
 20
112.5
 30
0.0
 11
25.0
 21
112.5
 31
0.0
  0
LINE
  5
93D1
330
938A
100
AcDbEntity
  8
4
  6
CENTER
100
AcDbLine
 10
30.5
 20
112.5
 30
0.0
 11
30.5
 21
108.0
 31
0.0
  0
LINE
  5
93D2
330
938A
100
AcDbEntity
  8
1
  6
Continuous
100
AcDbLine
 10
25.0
 20
114.0
 30
0.0
 11
25.0
 21
109.0
 31
0.0
  0
LINE
  5
93D3
330
938A
100
AcDbEntity
  8
1
  6
Continuous
100
AcDbLine
 10
33.0
 20
111.4999999999999
 30
0.0
 11
28.0
 21
111.4999999999999
 31
0.0
  0
LINE
  5
93D4
330
938A
100
AcDbEntity
  8
1
  6
Continuous
100
AcDbLine
 10
28.0
 20
114.0
 30
0.0
 11
25.0
 21
114.0
 31
0.0
  0
LINE
  5
93D5
330
938A
100
AcDbEntity
  8
1
  6
Continuous
100
AcDbLine
 10
33.0
 20
109.0
 30
0.0
 11
25.0
 21
109.0
 31
0.0
  0
LINE
  5
93D6
330
938A
100
AcDbEntity
  8
1
  6
Continuous
100
AcDbLine
 10
33.0
 20
111.4999999999999
 30
0.0
 11
33.0
 21
109.0
 31
0.0
  0
LINE
  5
93D7
330
938A
100
AcDbEntity
  8
1
  6
Continuous
100
AcDbLine
 10
153.325027
 20
182.0
 30
0.0
 11
153.325027
 21
179.0
 31
0.0
  0
LINE
  5
93D8
330
938A
100
AcDbEntity
  8
1
  6
Continuous
100
AcDbLine
 10
152.6950229999999
 20
182.0
 30
0.0
 11
152.6950229999999
 21
179.0
 31
0.0
  0
LINE
  5
93D9
330
938A
100
AcDbEntity
  8
1
  6
Continuous
100
AcDbLine
 10
152.0650179999998
 20
182.0
 30
0.0
 11
152.0650179999998
 21
179.0
 31
0.0
  0
LINE
  5
93DA
330
938A
100
AcDbEntity
  8
1
  6
Continuous
100
AcDbLine
 10
151.4350279999999
 20
182.0
 30
0.0
 11
151.4350279999999
 21
179.0
 31
0.0
  0
LINE
  5
93DB
330
938A
100
AcDbEntity
  8
1
  6
Continuous
100
AcDbLine
 10
150.805023
 20
182.0
 30
0.0
 11
150.805023
 21
179.0
 31
0.0
  0
LINE
  5
93DC
330
938A
100
AcDbEntity
  8
1
  6
Continuous
100
AcDbLine
 10
150.1750179999999
 20
182.0
 30
0.0
 11
150.1750179999999
 21
179.0
 31
0.0
  0
LINE
  5
93DD
330
938A
100
AcDbEntity
  8
1
  6
Continuous
100
AcDbLine
 10
149.5450129999998
 20
182.0
 30
0.0
 11
149.5450129999998
 21
179.0
 31
0.0
  0
LINE
  5
93DE
330
938A
100
AcDbEntity
  8
1
  6
Continuous
100
AcDbLine
 10
148.9150239999998
 20
182.0
 30
0.0
 11
148.9150239999998
 21
179.0
 31
0.0
  0
LINE
  5
93DF
330
938A
100
AcDbEntity
  8
1
  6
Continuous
100
AcDbLine
 10
148.285019
 20
182.0
 30
0.0
 11
148.285019
 21
179.0
 31
0.0
  0
LINE
  5
93E0
330
938A
100
AcDbEntity
  8
1
  6
Continuous
100
AcDbLine
 10
147.655014
 20
182.0
 30
0.0
 11
147.655014
 21
179.0
 31
0.0
  0
LINE
  5
93E1
330
938A
100
AcDbEntity
  8
1
  6
Continuous
100
AcDbLine
 10
147.025024
 20
182.0
 30
0.0
 11
147.025024
 21
179.0
 31
0.0
  0
LINE
  5
93E2
330
938A
100
AcDbEntity
  8
1
  6
Continuous
100
AcDbLine
 10
146.39502
 20
182.0
 30
0.0
 11
146.39502
 21
179.0
 31
0.0
  0
LINE
  5
93E3
330
938A
100
AcDbEntity
  8
1
  6
Continuous
100
AcDbLine
 10
145.7650149999998
 20
182.0
 30
0.0
 11
145.7650149999998
 21
179.0
 31
0.0
  0
LINE
  5
93E4
330
938A
100
AcDbEntity
  8
1
  6
Continuous
100
AcDbLine
 10
145.135025
 20
182.0
 30
0.0
 11
145.135025
 21
179.0
 31
0.0
  0
LINE
  5
93E5
330
938A
100
AcDbEntity
  8
1
  6
Continuous
100
AcDbLine
 10
144.50502
 20
182.0
 30
0.0
 11
144.50502
 21
179.0
 31
0.0
  0
LINE
  5
93E6
330
938A
100
AcDbEntity
  8
1
  6
Continuous
100
AcDbLine
 10
143.8750149999999
 20
182.0
 30
0.0
 11
143.8750149999999
 21
179.0
 31
0.0
  0
LINE
  5
93E7
330
938A
100
AcDbEntity
  8
1
  6
Continuous
100
AcDbLine
 10
143.2450259999999
 20
182.0
 30
0.0
 11
143.2450259999999
 21
179.0
 31
0.0
  0
LINE
  5
93E8
330
938A
100
AcDbEntity
  8
1
  6
Continuous
100
AcDbLine
 10
142.6150209999998
 20
182.0
 30
0.0
 11
142.6150209999998
 21
179.0
 31
0.0
  0
LINE
  5
93E9
330
938A
100
AcDbEntity
  8
1
  6
Continuous
100
AcDbLine
 10
141.985016
 20
182.0
 30
0.0
 11
141.985016
 21
179.0
 31
0.0
  0
LINE
  5
93EA
330
938A
100
AcDbEntity
  8
1
  6
Continuous
100
AcDbLine
 10
141.355026
 20
182.0
 30
0.0
 11
141.355026
 21
179.0
 31
0.0
  0
LINE
  5
93EB
330
938A
100
AcDbEntity
  8
1
  6
Continuous
100
AcDbLine
 10
140.7250209999999
 20
182.0
 30
0.0
 11
140.7250209999999
 21
179.0
 31
0.0
  0
LINE
  5
93EC
330
938A
100
AcDbEntity
  8
1
  6
Continuous
100
AcDbLine
 10
140.0950159999998
 20
182.0
 30
0.0
 11
140.0950159999998
 21
179.0
 31
0.0
  0
LINE
  5
93ED
330
938A
100
AcDbEntity
  8
1
  6
Continuous
100
AcDbLine
 10
139.4650269999999
 20
182.0
 30
0.0
 11
139.4650269999999
 21
179.0
 31
0.0
  0
LINE
  5
93EE
330
938A
100
AcDbEntity
  8
1
  6
Continuous
100
AcDbLine
 10
138.835022
 20
182.0
 30
0.0
 11
138.835022
 21
179.0
 31
0.0
  0
LINE
  5
93EF
330
938A
100
AcDbEntity
  8
1
  6
Continuous
100
AcDbLine
 10
138.205017
 20
182.0
 30
0.0
 11
138.205017
 21
179.0
 31
0.0
  0
LINE
  5
93F0
330
938A
100
AcDbEntity
  8
1
  6
Continuous
100
AcDbLine
 10
137.575027
 20
182.0
 30
0.0
 11
137.575027
 21
179.0
 31
0.0
  0
LINE
  5
93F1
330
938A
100
AcDbEntity
  8
1
  6
Continuous
100
AcDbLine
 10
136.9450229999999
 20
182.0
 30
0.0
 11
136.9450229999999
 21
179.0
 31
0.0
  0
LINE
  5
93F2
330
938A
100
AcDbEntity
  8
1
  6
Continuous
100
AcDbLine
 10
136.3150179999998
 20
182.0
 30
0.0
 11
136.3150179999998
 21
179.0
 31
0.0
  0
LINE
  5
93F3
330
938A
100
AcDbEntity
  8
1
  6
Continuous
100
AcDbLine
 10
135.6850279999999
 20
182.0
 30
0.0
 11
135.6850279999999
 21
179.0
 31
0.0
  0
LINE
  5
93F4
330
938A
100
AcDbEntity
  8
1
  6
Continuous
100
AcDbLine
 10
135.055023
 20
182.0
 30
0.0
 11
135.055023
 21
179.0
 31
0.0
  0
LINE
  5
93F5
330
938A
100
AcDbEntity
  8
1
  6
Continuous
100
AcDbLine
 10
134.4250179999999
 20
182.0
 30
0.0
 11
134.4250179999999
 21
179.0
 31
0.0
  0
LINE
  5
93F6
330
938A
100
AcDbEntity
  8
1
  6
Continuous
100
AcDbLine
 10
133.7950129999998
 20
182.0
 30
0.0
 11
133.7950129999998
 21
179.0
 31
0.0
  0
LINE
  5
93F7
330
938A
100
AcDbEntity
  8
1
  6
Continuous
100
AcDbLine
 10
133.1650239999998
 20
182.0
 30
0.0
 11
133.1650239999998
 21
179.0
 31
0.0
  0
LINE
  5
93F8
330
938A
100
AcDbEntity
  8
1
  6
Continuous
100
AcDbLine
 10
132.5350189999997
 20
182.0
 30
0.0
 11
132.5350189999997
 21
179.0
 31
0.0
  0
LINE
  5
93F9
330
938A
100
AcDbEntity
  8
1
  6
Continuous
100
AcDbLine
 10
131.9050139999999
 20
182.0
 30
0.0
 11
131.9050139999999
 21
179.0
 31
0.0
  0
LINE
  5
93FA
330
938A
100
AcDbEntity
  8
1
  6
Continuous
100
AcDbLine
 10
131.2750239999998
 20
182.0
 30
0.0
 11
131.2750239999998
 21
179.0
 31
0.0
  0
LINE
  5
93FB
330
938A
100
AcDbEntity
  8
1
  6
Continuous
100
AcDbLine
 10
130.64502
 20
182.0
 30
0.0
 11
130.64502
 21
179.0
 31
0.0
  0
LINE
  5
93FC
330
938A
100
AcDbEntity
  8
1
  6
Continuous
100
AcDbLine
 10
130.0150149999998
 20
182.0
 30
0.0
 11
130.0150149999998
 21
179.0
 31
0.0
  0
LINE
  5
93FD
330
938A
100
AcDbEntity
  8
1
  6
Continuous
100
AcDbLine
 10
129.385025
 20
182.0
 30
0.0
 11
129.385025
 21
179.0
 31
0.0
  0
LINE
  5
93FE
330
938A
100
AcDbEntity
  8
1
  6
Continuous
100
AcDbLine
 10
128.75502
 20
182.0
 30
0.0
 11
128.75502
 21
179.0
 31
0.0
  0
LINE
  5
93FF
330
938A
100
AcDbEntity
  8
1
  6
Continuous
100
AcDbLine
 10
128.1250149999999
 20
182.0
 30
0.0
 11
128.1250149999999
 21
179.0
 31
0.0
  0
LINE
  5
9400
330
938A
100
AcDbEntity
  8
1
  6
Continuous
100
AcDbLine
 10
127.4950179999999
 20
182.0
 30
0.0
 11
127.4950179999999
 21
179.0
 31
0.0
  0
LINE
  5
9401
330
938A
100
AcDbEntity
  8
1
  6
Continuous
100
AcDbLine
 10
126.865021
 20
182.0
 30
0.0
 11
126.865021
 21
179.0
 31
0.0
  0
LINE
  5
9402
330
938A
100
AcDbEntity
  8
1
  6
Continuous
100
AcDbLine
 10
126.235023
 20
182.0
 30
0.0
 11
126.235023
 21
179.0
 31
0.0
  0
LINE
  5
9403
330
938A
100
AcDbEntity
  8
1
  6
Continuous
100
AcDbLine
 10
125.605019
 20
182.0
 30
0.0
 11
125.605019
 21
179.0
 31
0.0
  0
LINE
  5
9404
330
938A
100
AcDbEntity
  8
1
  6
Continuous
100
AcDbLine
 10
124.9750209999999
 20
182.0
 30
0.0
 11
124.9750209999999
 21
179.0
 31
0.0
  0
LINE
  5
9405
330
938A
100
AcDbEntity
  8
1
  6
Continuous
100
AcDbLine
 10
124.345024
 20
182.0
 30
0.0
 11
124.345024
 21
179.0
 31
0.0
  0
LINE
  5
9406
330
938A
100
AcDbEntity
  8
1
  6
Continuous
100
AcDbLine
 10
123.7150189999999
 20
182.0
 30
0.0
 11
123.7150189999999
 21
179.0
 31
0.0
  0
LINE
  5
9407
330
938A
100
AcDbEntity
  8
1
  6
Continuous
100
AcDbLine
 10
123.0850219999999
 20
182.0
 30
0.0
 11
123.0850219999999
 21
179.0
 31
0.0
  0
LINE
  5
9408
330
938A
100
AcDbEntity
  8
1
  6
Continuous
100
AcDbLine
 10
122.455017
 20
182.0
 30
0.0
 11
122.455017
 21
179.0
 31
0.0
  0
LINE
  5
9409
330
938A
100
AcDbEntity
  8
1
  6
Continuous
100
AcDbLine
 10
121.8250199999999
 20
182.0
 30
0.0
 11
121.8250199999999
 21
179.0
 31
0.0
  0
LINE
  5
940A
330
938A
100
AcDbEntity
  8
1
  6
Continuous
100
AcDbLine
 10
121.195023
 20
182.0
 30
0.0
 11
121.195023
 21
179.0
 31
0.0
  0
LINE
  5
940B
330
938A
100
AcDbEntity
  8
1
  6
Continuous
100
AcDbLine
 10
120.5650179999999
 20
182.0
 30
0.0
 11
120.5650179999999
 21
179.0
 31
0.0
  0
LINE
  5
940C
330
938A
100
AcDbEntity
  8
1
  6
Continuous
100
AcDbLine
 10
119.93502
 20
182.0
 30
0.0
 11
119.93502
 21
179.0
 31
0.0
  0
LINE
  5
940D
330
938A
100
AcDbEntity
  8
1
  6
Continuous
100
AcDbLine
 10
119.3050229999999
 20
182.0
 30
0.0
 11
119.3050229999999
 21
179.0
 31
0.0
  0
LINE
  5
940E
330
938A
100
AcDbEntity
  8
1
  6
Continuous
100
AcDbLine
 10
118.6750179999998
 20
182.0
 30
0.0
 11
118.6750179999998
 21
179.0
 31
0.0
  0
LINE
  5
940F
330
938A
100
AcDbEntity
  8
1
  6
Continuous
100
AcDbLine
 10
118.0450209999999
 20
182.0
 30
0.0
 11
118.0450209999999
 21
179.0
 31
0.0
  0
LINE
  5
9410
330
938A
100
AcDbEntity
  8
1
  6
Continuous
100
AcDbLine
 10
117.415024
 20
182.0
 30
0.0
 11
117.415024
 21
179.0
 31
0.0
  0
LINE
  5
9411
330
938A
100
AcDbEntity
  8
1
  6
Continuous
100
AcDbLine
 10
116.785019
 20
182.0
 30
0.0
 11
116.785019
 21
179.0
 31
0.0
  0
LINE
  5
9412
330
938A
100
AcDbEntity
  8
1
  6
Continuous
100
AcDbLine
 10
116.155022
 20
182.0
 30
0.0
 11
116.155022
 21
179.0
 31
0.0
  0
LINE
  5
9413
330
938A
100
AcDbEntity
  8
1
  6
Continuous
100
AcDbLine
 10
115.5250239999999
 20
182.0
 30
0.0
 11
115.5250239999999
 21
179.0
 31
0.0
  0
LINE
  5
9414
330
938A
100
AcDbEntity
  8
1
  6
Continuous
100
AcDbLine
 10
114.89502
 20
182.0
 30
0.0
 11
114.89502
 21
179.0
 31
0.0
  0
LINE
  5
9415
330
938A
100
AcDbEntity
  8
1
  6
Continuous
100
AcDbLine
 10
114.2650219999999
 20
182.0
 30
0.0
 11
114.2650219999999
 21
179.0
 31
0.0
  0
LINE
  5
9416
330
938A
100
AcDbEntity
  8
1
  6
Continuous
100
AcDbLine
 10
113.6350169999999
 20
182.0
 30
0.0
 11
113.6350169999999
 21
179.0
 31
0.0
  0
LINE
  5
9417
330
938A
100
AcDbEntity
  8
1
  6
Continuous
100
AcDbLine
 10
113.00502
 20
182.0
 30
0.0
 11
113.00502
 21
179.0
 31
0.0
  0
LINE
  5
9418
330
938A
100
AcDbEntity
  8
1
  6
Continuous
100
AcDbLine
 10
112.3750229999999
 20
182.0
 30
0.0
 11
112.3750229999999
 21
179.0
 31
0.0
  0
LINE
  5
9419
330
938A
100
AcDbEntity
  8
1
  6
Continuous
100
AcDbLine
 10
111.7450179999998
 20
182.0
 30
0.0
 11
111.7450179999998
 21
179.0
 31
0.0
  0
LINE
  5
941A
330
938A
100
AcDbEntity
  8
1
  6
Continuous
100
AcDbLine
 10
111.1150209999999
 20
182.0
 30
0.0
 11
111.1150209999999
 21
179.0
 31
0.0
  0
LINE
  5
941B
330
938A
100
AcDbEntity
  8
1
  6
Continuous
100
AcDbLine
 10
110.485023
 20
182.0
 30
0.0
 11
110.485023
 21
179.0
 31
0.0
  0
LINE
  5
941C
330
938A
100
AcDbEntity
  8
1
  6
Continuous
100
AcDbLine
 10
109.855019
 20
182.0
 30
0.0
 11
109.855019
 21
179.0
 31
0.0
  0
LINE
  5
941D
330
938A
100
AcDbEntity
  8
1
  6
Continuous
100
AcDbLine
 10
109.2250209999999
 20
182.0
 30
0.0
 11
109.2250209999999
 21
179.0
 31
0.0
  0
LINE
  5
941E
330
938A
100
AcDbEntity
  8
1
  6
Continuous
100
AcDbLine
 10
108.595024
 20
182.0
 30
0.0
 11
108.595024
 21
179.0
 31
0.0
  0
LINE
  5
941F
330
938A
100
AcDbEntity
  8
1
  6
Continuous
100
AcDbLine
 10
107.9650189999999
 20
182.0
 30
0.0
 11
107.9650189999999
 21
179.0
 31
0.0
  0
LINE
  5
9420
330
938A
100
AcDbEntity
  8
1
  6
Continuous
100
AcDbLine
 10
107.335022
 20
182.0
 30
0.0
 11
107.335022
 21
179.0
 31
0.0
  0
LINE
  5
9421
330
938A
100
AcDbEntity
  8
1
  6
Continuous
100
AcDbLine
 10
106.7050169999999
 20
182.0
 30
0.0
 11
106.7050169999999
 21
179.0
 31
0.0
  0
LINE
  5
9422
330
938A
100
AcDbEntity
  8
1
  6
Continuous
100
AcDbLine
 10
106.0750199999999
 20
182.0
 30
0.0
 11
106.0750199999999
 21
179.0
 31
0.0
  0
LINE
  5
9423
330
938A
100
AcDbEntity
  8
1
  6
Continuous
100
AcDbLine
 10
105.445023
 20
182.0
 30
0.0
 11
105.445023
 21
179.0
 31
0.0
  0
LINE
  5
9424
330
938A
100
AcDbEntity
  8
1
  6
Continuous
100
AcDbLine
 10
104.8150179999999
 20
182.0
 30
0.0
 11
104.8150179999999
 21
179.0
 31
0.0
  0
LINE
  5
9425
330
938A
100
AcDbEntity
  8
1
  6
Continuous
100
AcDbLine
 10
104.18502
 20
182.0
 30
0.0
 11
104.18502
 21
179.0
 31
0.0
  0
LINE
  5
9426
330
938A
100
AcDbEntity
  8
1
  6
Continuous
100
AcDbLine
 10
103.5550229999999
 20
182.0
 30
0.0
 11
103.5550229999999
 21
179.0
 31
0.0
  0
LINE
  5
9427
330
938A
100
AcDbEntity
  8
1
  6
Continuous
100
AcDbLine
 10
102.925018
 20
182.0
 30
0.0
 11
102.925018
 21
179.0
 31
0.0
  0
LINE
  5
9428
330
938A
100
AcDbEntity
  8
1
  6
Continuous
100
AcDbLine
 10
102.2950209999999
 20
182.0
 30
0.0
 11
102.2950209999999
 21
179.0
 31
0.0
  0
LINE
  5
9429
330
938A
100
AcDbEntity
  8
1
  6
Continuous
100
AcDbLine
 10
101.665024
 20
182.0
 30
0.0
 11
101.665024
 21
179.0
 31
0.0
  0
LINE
  5
942A
330
938A
100
AcDbEntity
  8
1
  6
Continuous
100
AcDbLine
 10
101.035019
 20
182.0
 30
0.0
 11
101.035019
 21
179.0
 31
0.0
  0
LINE
  5
942B
330
938A
100
AcDbEntity
  8
1
  6
Continuous
100
AcDbLine
 10
100.405022
 20
182.0
 30
0.0
 11
100.405022
 21
179.0
 31
0.0
  0
LINE
  5
942C
330
938A
100
AcDbEntity
  8
1
  6
Continuous
100
AcDbLine
 10
99.775024
 20
182.0
 30
0.0
 11
99.775024
 21
179.0
 31
0.0
  0
LINE
  5
942D
330
938A
100
AcDbEntity
  8
1
  6
Continuous
100
AcDbLine
 10
99.14502
 20
182.0
 30
0.0
 11
99.14502
 21
179.0
 31
0.0
  0
LINE
  5
942E
330
938A
100
AcDbEntity
  8
1
  6
Continuous
100
AcDbLine
 10
98.515022
 20
182.0
 30
0.0
 11
98.515022
 21
179.0
 31
0.0
  0
LINE
  5
942F
330
938A
100
AcDbEntity
  8
1
  6
Continuous
100
AcDbLine
 10
97.88501700000001
 20
182.0
 30
0.0
 11
97.88501700000001
 21
179.0
 31
0.0
  0
LINE
  5
9430
330
938A
100
AcDbEntity
  8
1
  6
Continuous
100
AcDbLine
 10
97.25502
 20
182.0
 30
0.0
 11
97.25502
 21
179.0
 31
0.0
  0
LINE
  5
9431
330
938A
100
AcDbEntity
  8
1
  6
Continuous
100
AcDbLine
 10
96.62502299999999
 20
182.0
 30
0.0
 11
96.62502299999999
 21
179.0
 31
0.0
  0
LINE
  5
9432
330
938A
100
AcDbEntity
  8
1
  6
Continuous
100
AcDbLine
 10
95.995018
 20
182.0
 30
0.0
 11
95.995018
 21
179.0
 31
0.0
  0
LINE
  5
9433
330
938A
100
AcDbEntity
  8
1
  6
Continuous
100
AcDbLine
 10
95.36502099999998
 20
182.0
 30
0.0
 11
95.36502099999998
 21
179.0
 31
0.0
  0
LINE
  5
9434
330
938A
100
AcDbEntity
  8
1
  6
Continuous
100
AcDbLine
 10
94.73502299999998
 20
182.0
 30
0.0
 11
94.73502299999998
 21
179.0
 31
0.0
  0
LINE
  5
9435
330
938A
100
AcDbEntity
  8
1
  6
Continuous
100
AcDbLine
 10
94.10501899999998
 20
182.0
 30
0.0
 11
94.10501899999998
 21
179.0
 31
0.0
  0
LINE
  5
9436
330
938A
100
AcDbEntity
  8
1
  6
Continuous
100
AcDbLine
 10
93.47502099999998
 20
182.0
 30
0.0
 11
93.47502099999998
 21
179.0
 31
0.0
  0
LINE
  5
9437
330
938A
100
AcDbEntity
  8
1
  6
Continuous
100
AcDbLine
 10
92.84502399999999
 20
182.0
 30
0.0
 11
92.84502399999999
 21
179.0
 31
0.0
  0
LINE
  5
9438
330
938A
100
AcDbEntity
  8
1
  6
Continuous
100
AcDbLine
 10
92.21501899999998
 20
182.0
 30
0.0
 11
92.21501899999998
 21
179.0
 31
0.0
  0
LINE
  5
9439
330
938A
100
AcDbEntity
  8
1
  6
Continuous
100
AcDbLine
 10
91.58502199999999
 20
182.0
 30
0.0
 11
91.58502199999999
 21
179.0
 31
0.0
  0
LINE
  5
943A
330
938A
100
AcDbEntity
  8
1
  6
Continuous
100
AcDbLine
 10
90.95501699999998
 20
182.0
 30
0.0
 11
90.95501699999998
 21
179.0
 31
0.0
  0
LINE
  5
943B
330
938A
100
AcDbEntity
  8
1
  6
Continuous
100
AcDbLine
 10
90.32501999999999
 20
182.0
 30
0.0
 11
90.32501999999999
 21
179.0
 31
0.0
  0
LINE
  5
943C
330
938A
100
AcDbEntity
  8
1
  6
Continuous
100
AcDbLine
 10
89.695023
 20
182.0
 30
0.0
 11
89.695023
 21
179.0
 31
0.0
  0
LINE
  5
943D
330
938A
100
AcDbEntity
  8
1
  6
Continuous
100
AcDbLine
 10
89.06501799999999
 20
182.0
 30
0.0
 11
89.06501799999999
 21
179.0
 31
0.0
  0
LINE
  5
943E
330
938A
100
AcDbEntity
  8
1
  6
Continuous
100
AcDbLine
 10
88.43501999999999
 20
182.0
 30
0.0
 11
88.43501999999999
 21
179.0
 31
0.0
  0
LINE
  5
943F
330
938A
100
AcDbEntity
  8
1
  6
Continuous
100
AcDbLine
 10
87.805023
 20
182.0
 30
0.0
 11
87.805023
 21
179.0
 31
0.0
  0
LINE
  5
9440
330
938A
100
AcDbEntity
  8
1
  6
Continuous
100
AcDbLine
 10
87.17501799999999
 20
182.0
 30
0.0
 11
87.17501799999999
 21
179.0
 31
0.0
  0
LINE
  5
9441
330
938A
100
AcDbEntity
  8
1
  6
Continuous
100
AcDbLine
 10
86.545021
 20
182.0
 30
0.0
 11
86.545021
 21
179.0
 31
0.0
  0
LINE
  5
9442
330
938A
100
AcDbEntity
  8
1
  6
Continuous
100
AcDbLine
 10
85.91502400000001
 20
182.0
 30
0.0
 11
85.91502400000001
 21
179.0
 31
0.0
  0
LINE
  5
9443
330
938A
100
AcDbEntity
  8
1
  6
Continuous
100
AcDbLine
 10
85.285019
 20
182.0
 30
0.0
 11
85.285019
 21
179.0
 31
0.0
  0
LINE
  5
9444
330
938A
100
AcDbEntity
  8
1
  6
Continuous
100
AcDbLine
 10
84.65502200000001
 20
182.0
 30
0.0
 11
84.65502200000001
 21
179.0
 31
0.0
  0
LINE
  5
9445
330
938A
100
AcDbEntity
  8
1
  6
Continuous
100
AcDbLine
 10
84.02502400000001
 20
182.0
 30
0.0
 11
84.02502400000001
 21
179.0
 31
0.0
  0
LINE
  5
9446
330
938A
100
AcDbEntity
  8
1
  6
Continuous
100
AcDbLine
 10
83.39502000000001
 20
182.0
 30
0.0
 11
83.39502000000001
 21
179.0
 31
0.0
  0
LINE
  5
9447
330
938A
100
AcDbEntity
  8
1
  6
Continuous
100
AcDbLine
 10
82.76502200000001
 20
182.0
 30
0.0
 11
82.76502200000001
 21
179.0
 31
0.0
  0
LINE
  5
9448
330
938A
100
AcDbEntity
  8
1
  6
Continuous
100
AcDbLine
 10
82.135017
 20
182.0
 30
0.0
 11
82.135017
 21
179.0
 31
0.0
  0
LINE
  5
9449
330
938A
100
AcDbEntity
  8
1
  6
Continuous
100
AcDbLine
 10
81.50502000000001
 20
182.0
 30
0.0
 11
81.50502000000001
 21
179.0
 31
0.0
  0
LINE
  5
944A
330
938A
100
AcDbEntity
  8
1
  6
Continuous
100
AcDbLine
 10
80.875023
 20
182.0
 30
0.0
 11
80.875023
 21
179.0
 31
0.0
  0
LINE
  5
944B
330
938A
100
AcDbEntity
  8
1
  6
Continuous
100
AcDbLine
 10
80.24501800000001
 20
182.0
 30
0.0
 11
80.24501800000001
 21
179.0
 31
0.0
  0
LINE
  5
944C
330
938A
100
AcDbEntity
  8
1
  6
Continuous
100
AcDbLine
 10
79.615021
 20
182.0
 30
0.0
 11
79.615021
 21
179.0
 31
0.0
  0
LINE
  5
944D
330
938A
100
AcDbEntity
  8
1
  6
Continuous
100
AcDbLine
 10
78.985023
 20
182.0
 30
0.0
 11
78.985023
 21
179.0
 31
0.0
  0
LINE
  5
944E
330
938A
100
AcDbEntity
  8
1
  6
Continuous
100
AcDbLine
 10
78.355019
 20
182.0
 30
0.0
 11
78.355019
 21
179.0
 31
0.0
  0
LINE
  5
944F
330
938A
100
AcDbEntity
  8
1
  6
Continuous
100
AcDbLine
 10
77.725021
 20
182.0
 30
0.0
 11
77.725021
 21
179.0
 31
0.0
  0
LINE
  5
9450
330
938A
100
AcDbEntity
  8
1
  6
Continuous
100
AcDbLine
 10
77.09502399999998
 20
182.0
 30
0.0
 11
77.09502399999998
 21
179.0
 31
0.0
  0
LINE
  5
9451
330
938A
100
AcDbEntity
  8
1
  6
Continuous
100
AcDbLine
 10
76.465019
 20
182.0
 30
0.0
 11
76.465019
 21
179.0
 31
0.0
  0
LINE
  5
9452
330
938A
100
AcDbEntity
  8
1
  6
Continuous
100
AcDbLine
 10
75.83502199999998
 20
182.0
 30
0.0
 11
75.83502199999998
 21
179.0
 31
0.0
  0
LINE
  5
9453
330
938A
100
AcDbEntity
  8
1
  6
Continuous
100
AcDbLine
 10
75.205017
 20
182.0
 30
0.0
 11
75.205017
 21
179.0
 31
0.0
  0
LINE
  5
9454
330
938A
100
AcDbEntity
  8
1
  6
Continuous
100
AcDbLine
 10
74.57501999999998
 20
182.0
 30
0.0
 11
74.57501999999998
 21
179.0
 31
0.0
  0
LINE
  5
9455
330
938A
100
AcDbEntity
  8
1
  6
Continuous
100
AcDbLine
 10
73.94502299999998
 20
182.0
 30
0.0
 11
73.94502299999998
 21
179.0
 31
0.0
  0
LINE
  5
9456
330
938A
100
AcDbEntity
  8
1
  6
Continuous
100
AcDbLine
 10
73.31501800000002
 20
182.0
 30
0.0
 11
73.31501800000002
 21
179.0
 31
0.0
  0
LINE
  5
9457
330
938A
100
AcDbEntity
  8
4
  6
CENTER
100
AcDbLine
 10
143.430023
 20
112.5
 30
0.0
 11
143.430023
 21
108.0
 31
0.0
  0
LINE
  5
9458
330
938A
100
AcDbEntity
  8
4
  6
CENTER
100
AcDbLine
 10
128.430023
 20
112.5
 30
0.0
 11
128.430023
 21
108.0
 31
0.0
  0
LINE
  5
9459
330
938A
100
AcDbEntity
  8
4
  6
CENTER
100
AcDbLine
 10
113.430023
 20
112.5
 30
0.0
 11
113.430023
 21
108.0
 31
0.0
  0
LINE
  5
945A
330
938A
100
AcDbEntity
  8
4
  6
CENTER
100
AcDbLine
 10
98.43002300000001
 20
112.5
 30
0.0
 11
98.43002300000001
 21
108.0
 31
0.0
  0
LINE
  5
945B
330
938A
100
AcDbEntity
  8
4
  6
CENTER
100
AcDbLine
 10
83.430023
 20
112.5
 30
0.0
 11
83.430023
 21
108.0
 31
0.0
  0
LINE
  5
945C
330
938A
100
AcDbEntity
  8
4
  6
CENTER
100
AcDbLine
 10
152.38002
 20
115.0
 30
0.0
 11
152.38002
 21
110.4999999999999
 31
0.0
  0
LINE
  5
945D
330
938A
100
AcDbEntity
  8
1
  6
Continuous
100
AcDbLine
 10
73.000023
 20
112.5
 30
0.0
 11
73.31501800000002
 21
112.5
 31
0.0
  0
LINE
  5
945E
330
938A
100
AcDbEntity
  8
1
  6
Continuous
100
AcDbLine
 10
150.805023
 20
112.5
 30
0.0
 11
151.4350279999999
 21
112.5
 31
0.0
  0
LINE
  5
945F
330
938A
100
AcDbEntity
  8
1
  6
Continuous
100
AcDbLine
 10
152.0650179999998
 20
114.0
 30
0.0
 11
151.4350129999999
 21
112.499992
 31
0.0
  0
LINE
  5
9460
330
938A
100
AcDbEntity
  8
1
  6
Continuous
100
AcDbLine
 10
149.5450129999998
 20
114.0
 30
0.0
 11
150.1750179999999
 21
114.0
 31
0.0
  0
LINE
  5
9461
330
938A
100
AcDbEntity
  8
1
  6
Continuous
100
AcDbLine
 10
150.1750179999999
 20
113.9999919999999
 30
0.0
 11
150.805023
 21
112.499992
 31
0.0
  0
LINE
  5
9462
330
938A
100
AcDbEntity
  8
1
  6
Continuous
100
AcDbLine
 10
149.5450129999998
 20
114.0
 30
0.0
 11
148.9150239999998
 21
112.499992
 31
0.0
  0
LINE
  5
9463
330
938A
100
AcDbEntity
  8
4
  6
CENTER
100
AcDbLine
 10
149.860016
 20
115.0
 30
0.0
 11
149.860016
 21
110.4999999999999
 31
0.0
  0
LINE
  5
9464
330
938A
100
AcDbEntity
  8
1
  6
Continuous
100
AcDbLine
 10
147.655014
 20
114.0
 30
0.0
 11
148.285019
 21
112.499992
 31
0.0
  0
LINE
  5
9465
330
938A
100
AcDbEntity
  8
1
  6
Continuous
100
AcDbLine
 10
147.025024
 20
113.9999919999999
 30
0.0
 11
146.39502
 21
112.5
 31
0.0
  0
LINE
  5
9466
330
938A
100
AcDbEntity
  8
1
  6
Continuous
100
AcDbLine
 10
147.025024
 20
114.0
 30
0.0
 11
147.655014
 21
114.0
 31
0.0
  0
LINE
  5
9467
330
938A
100
AcDbEntity
  8
1
  6
Continuous
100
AcDbLine
 10
148.285019
 20
112.5
 30
0.0
 11
148.9150239999998
 21
112.5
 31
0.0
  0
LINE
  5
9468
330
938A
100
AcDbEntity
  8
1
  6
Continuous
100
AcDbLine
 10
145.1350099999999
 20
114.0
 30
0.0
 11
145.7650149999998
 21
112.5
 31
0.0
  0
LINE
  5
9469
330
938A
100
AcDbEntity
  8
1
  6
Continuous
100
AcDbLine
 10
145.7650149999998
 20
112.5
 30
0.0
 11
146.39502
 21
112.5
 31
0.0
  0
LINE
  5
946A
330
938A
100
AcDbEntity
  8
1
  6
Continuous
100
AcDbLine
 10
144.50502
 20
114.0
 30
0.0
 11
145.135025
 21
114.0
 31
0.0
  0
LINE
  5
946B
330
938A
100
AcDbEntity
  8
1
  6
Continuous
100
AcDbLine
 10
144.50502
 20
113.9999919999999
 30
0.0
 11
143.8750149999999
 21
112.5
 31
0.0
  0
LINE
  5
946C
330
938A
100
AcDbEntity
  8
1
  6
Continuous
100
AcDbLine
 10
141.985016
 20
114.0
 30
0.0
 11
141.3550109999999
 21
112.499992
 31
0.0
  0
LINE
  5
946D
330
938A
100
AcDbEntity
  8
1
  6
Continuous
100
AcDbLine
 10
141.985016
 20
114.0
 30
0.0
 11
142.6150209999998
 21
114.0
 31
0.0
  0
LINE
  5
946E
330
938A
100
AcDbEntity
  8
1
  6
Continuous
100
AcDbLine
 10
143.2450259999999
 20
112.5
 30
0.0
 11
143.8750149999999
 21
112.5
 31
0.0
  0
LINE
  5
946F
330
938A
100
AcDbEntity
  8
1
  6
Continuous
100
AcDbLine
 10
142.6150209999998
 20
114.0
 30
0.0
 11
143.24501
 21
112.5
 31
0.0
  0
LINE
  5
9470
330
938A
100
AcDbEntity
  8
1
  6
Continuous
100
AcDbLine
 10
140.0950159999998
 20
113.9999919999999
 30
0.0
 11
140.7250209999999
 21
112.5
 31
0.0
  0
LINE
  5
9471
330
938A
100
AcDbEntity
  8
1
  6
Continuous
100
AcDbLine
 10
140.7250209999999
 20
112.5
 30
0.0
 11
141.355026
 21
112.5
 31
0.0
  0
LINE
  5
9472
330
938A
100
AcDbEntity
  8
1
  6
Continuous
100
AcDbLine
 10
139.4650269999999
 20
114.0
 30
0.0
 11
140.0950159999998
 21
114.0
 31
0.0
  0
LINE
  5
9473
330
938A
100
AcDbEntity
  8
1
  6
Continuous
100
AcDbLine
 10
139.4650269999999
 20
114.0
 30
0.0
 11
138.835022
 21
112.5000079999999
 31
0.0
  0
LINE
  5
9474
330
938A
100
AcDbEntity
  8
1
  6
Continuous
100
AcDbLine
 10
136.9450229999999
 20
113.9999919999999
 30
0.0
 11
136.3150179999998
 21
112.5
 31
0.0
  0
LINE
  5
9475
330
938A
100
AcDbEntity
  8
1
  6
Continuous
100
AcDbLine
 10
136.9450229999999
 20
114.0
 30
0.0
 11
137.575027
 21
114.0
 31
0.0
  0
LINE
  5
9476
330
938A
100
AcDbEntity
  8
1
  6
Continuous
100
AcDbLine
 10
138.205017
 20
112.5
 30
0.0
 11
138.835022
 21
112.5
 31
0.0
  0
LINE
  5
9477
330
938A
100
AcDbEntity
  8
1
  6
Continuous
100
AcDbLine
 10
137.5750119999999
 20
113.9999919999999
 30
0.0
 11
138.205017
 21
112.499992
 31
0.0
  0
LINE
  5
9478
330
938A
100
AcDbEntity
  8
4
  6
CENTER
100
AcDbLine
 10
147.3400269999999
 20
115.0
 30
0.0
 11
147.3400269999999
 21
110.4999999999999
 31
0.0
  0
LINE
  5
9479
330
938A
100
AcDbEntity
  8
4
  6
CENTER
100
AcDbLine
 10
144.8200229999999
 20
115.0
 30
0.0
 11
144.8200229999999
 21
110.4999999999999
 31
0.0
  0
LINE
  5
947A
330
938A
100
AcDbEntity
  8
4
  6
CENTER
100
AcDbLine
 10
142.300018
 20
115.0
 30
0.0
 11
142.300018
 21
110.4999999999999
 31
0.0
  0
LINE
  5
947B
330
938A
100
AcDbEntity
  8
4
  6
CENTER
100
AcDbLine
 10
139.7800139999999
 20
115.0
 30
0.0
 11
139.7800139999999
 21
110.4999999999999
 31
0.0
  0
LINE
  5
947C
330
938A
100
AcDbEntity
  8
4
  6
CENTER
100
AcDbLine
 10
137.260025
 20
115.0
 30
0.0
 11
137.260025
 21
110.4999999999999
 31
0.0
  0
LINE
  5
947D
330
938A
100
AcDbEntity
  8
4
  6
CENTER
100
AcDbLine
 10
134.7400209999999
 20
115.0
 30
0.0
 11
134.7400209999999
 21
110.4999999999999
 31
0.0
  0
LINE
  5
947E
330
938A
100
AcDbEntity
  8
1
  6
Continuous
100
AcDbLine
 10
135.055023
 20
113.9999919999999
 30
0.0
 11
135.6850129999999
 21
112.499992
 31
0.0
  0
LINE
  5
947F
330
938A
100
AcDbEntity
  8
1
  6
Continuous
100
AcDbLine
 10
135.6850279999999
 20
112.5
 30
0.0
 11
136.3150179999998
 21
112.5
 31
0.0
  0
LINE
  5
9480
330
938A
100
AcDbEntity
  8
1
  6
Continuous
100
AcDbLine
 10
134.4250179999999
 20
114.0
 30
0.0
 11
135.055023
 21
114.0
 31
0.0
  0
LINE
  5
9481
330
938A
100
AcDbEntity
  8
1
  6
Continuous
100
AcDbLine
 10
134.4250179999999
 20
114.0
 30
0.0
 11
133.7950129999998
 21
112.499992
 31
0.0
  0
LINE
  5
9482
330
938A
100
AcDbEntity
  8
1
  6
Continuous
100
AcDbLine
 10
131.9050139999999
 20
114.0
 30
0.0
 11
131.2750239999998
 21
112.499992
 31
0.0
  0
LINE
  5
9483
330
938A
100
AcDbEntity
  8
1
  6
Continuous
100
AcDbLine
 10
131.9050139999999
 20
114.0
 30
0.0
 11
132.5350189999997
 21
114.0
 31
0.0
  0
LINE
  5
9484
330
938A
100
AcDbEntity
  8
1
  6
Continuous
100
AcDbLine
 10
133.1650239999998
 20
112.5
 30
0.0
 11
133.7950129999998
 21
112.5
 31
0.0
  0
LINE
  5
9485
330
938A
100
AcDbEntity
  8
1
  6
Continuous
100
AcDbLine
 10
132.5350189999997
 20
113.9999919999999
 30
0.0
 11
133.1650239999998
 21
112.499992
 31
0.0
  0
LINE
  5
9486
330
938A
100
AcDbEntity
  8
4
  6
CENTER
100
AcDbLine
 10
132.2200159999999
 20
115.0
 30
0.0
 11
132.2200159999999
 21
110.4999999999999
 31
0.0
  0
LINE
  5
9487
330
938A
100
AcDbEntity
  8
4
  6
CENTER
100
AcDbLine
 10
129.700027
 20
115.0
 30
0.0
 11
129.700027
 21
110.4999999999999
 31
0.0
  0
LINE
  5
9488
330
938A
100
AcDbEntity
  8
1
  6
Continuous
100
AcDbLine
 10
130.0150149999998
 20
113.9999919999999
 30
0.0
 11
130.64502
 21
112.499992
 31
0.0
  0
LINE
  5
9489
330
938A
100
AcDbEntity
  8
1
  6
Continuous
100
AcDbLine
 10
130.64502
 20
112.5
 30
0.0
 11
131.2750239999998
 21
112.5
 31
0.0
  0
LINE
  5
948A
330
938A
100
AcDbEntity
  8
1
  6
Continuous
100
AcDbLine
 10
129.385025
 20
114.0
 30
0.0
 11
130.0150149999998
 21
114.0
 31
0.0
  0
LINE
  5
948B
330
938A
100
AcDbEntity
  8
1
  6
Continuous
100
AcDbLine
 10
129.385025
 20
113.9999919999999
 30
0.0
 11
128.75502
 21
112.5
 31
0.0
  0
LINE
  5
948C
330
938A
100
AcDbEntity
  8
1
  6
Continuous
100
AcDbLine
 10
126.865021
 20
113.9999919999999
 30
0.0
 11
126.235023
 21
112.5
 31
0.0
  0
LINE
  5
948D
330
938A
100
AcDbEntity
  8
1
  6
Continuous
100
AcDbLine
 10
126.865021
 20
114.0
 30
0.0
 11
127.4950179999999
 21
114.0
 31
0.0
  0
LINE
  5
948E
330
938A
100
AcDbEntity
  8
1
  6
Continuous
100
AcDbLine
 10
128.1250149999999
 20
112.5
 30
0.0
 11
128.75502
 21
112.5
 31
0.0
  0
LINE
  5
948F
330
938A
100
AcDbEntity
  8
1
  6
Continuous
100
AcDbLine
 10
127.4950179999999
 20
114.0
 30
0.0
 11
128.1250149999999
 21
112.499992
 31
0.0
  0
LINE
  5
9490
330
938A
100
AcDbEntity
  8
4
  6
CENTER
100
AcDbLine
 10
127.1800229999999
 20
115.0
 30
0.0
 11
127.1800229999999
 21
110.4999999999999
 31
0.0
  0
LINE
  5
9491
330
938A
100
AcDbEntity
  8
4
  6
CENTER
100
AcDbLine
 10
124.6600189999999
 20
115.0
 30
0.0
 11
124.6600189999999
 21
110.4999999999999
 31
0.0
  0
LINE
  5
9492
330
938A
100
AcDbEntity
  8
1
  6
Continuous
100
AcDbLine
 10
124.9750209999999
 20
114.0
 30
0.0
 11
125.605019
 21
112.499992
 31
0.0
  0
LINE
  5
9493
330
938A
100
AcDbEntity
  8
1
  6
Continuous
100
AcDbLine
 10
125.605019
 20
112.5
 30
0.0
 11
126.235023
 21
112.5
 31
0.0
  0
LINE
  5
9494
330
938A
100
AcDbEntity
  8
1
  6
Continuous
100
AcDbLine
 10
124.345024
 20
114.0
 30
0.0
 11
124.9750209999999
 21
114.0
 31
0.0
  0
LINE
  5
9495
330
938A
100
AcDbEntity
  8
1
  6
Continuous
100
AcDbLine
 10
124.345024
 20
114.0
 30
0.0
 11
123.7150189999999
 21
112.499992
 31
0.0
  0
LINE
  5
9496
330
938A
100
AcDbEntity
  8
1
  6
Continuous
100
AcDbLine
 10
121.8250199999999
 20
114.0
 30
0.0
 11
121.195023
 21
112.5000079999999
 31
0.0
  0
LINE
  5
9497
330
938A
100
AcDbEntity
  8
1
  6
Continuous
100
AcDbLine
 10
121.8250199999999
 20
114.0
 30
0.0
 11
122.455017
 21
114.0
 31
0.0
  0
LINE
  5
9498
330
938A
100
AcDbEntity
  8
1
  6
Continuous
100
AcDbLine
 10
123.0850219999999
 20
112.5
 30
0.0
 11
123.7150189999999
 21
112.5
 31
0.0
  0
LINE
  5
9499
330
938A
100
AcDbEntity
  8
1
  6
Continuous
100
AcDbLine
 10
122.455017
 20
114.0
 30
0.0
 11
123.0850219999999
 21
112.5
 31
0.0
  0
LINE
  5
949A
330
938A
100
AcDbEntity
  8
4
  6
CENTER
100
AcDbLine
 10
122.140022
 20
115.0
 30
0.0
 11
122.140022
 21
110.4999999999999
 31
0.0
  0
LINE
  5
949B
330
938A
100
AcDbEntity
  8
4
  6
CENTER
100
AcDbLine
 10
119.6200179999999
 20
115.0
 30
0.0
 11
119.6200179999999
 21
110.4999999999999
 31
0.0
  0
LINE
  5
949C
330
938A
100
AcDbEntity
  8
1
  6
Continuous
100
AcDbLine
 10
119.93502
 20
114.0
 30
0.0
 11
120.5650179999999
 21
112.5
 31
0.0
  0
LINE
  5
949D
330
938A
100
AcDbEntity
  8
1
  6
Continuous
100
AcDbLine
 10
120.5650179999999
 20
112.5
 30
0.0
 11
121.195023
 21
112.5
 31
0.0
  0
LINE
  5
949E
330
938A
100
AcDbEntity
  8
1
  6
Continuous
100
AcDbLine
 10
119.3050229999999
 20
114.0
 30
0.0
 11
119.93502
 21
114.0
 31
0.0
  0
LINE
  5
949F
330
938A
100
AcDbEntity
  8
1
  6
Continuous
100
AcDbLine
 10
119.305016
 20
113.9999919999999
 30
0.0
 11
118.6750179999998
 21
112.5
 31
0.0
  0
LINE
  5
94A0
330
938A
100
AcDbEntity
  8
1
  6
Continuous
100
AcDbLine
 10
116.7850269999999
 20
114.0000079999999
 30
0.0
 11
116.155022
 21
112.5
 31
0.0
  0
LINE
  5
94A1
330
938A
100
AcDbEntity
  8
1
  6
Continuous
100
AcDbLine
 10
116.785019
 20
114.0
 30
0.0
 11
117.415024
 21
114.0
 31
0.0
  0
LINE
  5
94A2
330
938A
100
AcDbEntity
  8
1
  6
Continuous
100
AcDbLine
 10
118.0450209999999
 20
112.5
 30
0.0
 11
118.6750179999998
 21
112.5
 31
0.0
  0
LINE
  5
94A3
330
938A
100
AcDbEntity
  8
1
  6
Continuous
100
AcDbLine
 10
117.4150159999998
 20
113.9999919999999
 30
0.0
 11
118.0450209999999
 21
112.5
 31
0.0
  0
LINE
  5
94A4
330
938A
100
AcDbEntity
  8
4
  6
CENTER
100
AcDbLine
 10
117.100021
 20
115.0
 30
0.0
 11
117.100021
 21
110.4999999999999
 31
0.0
  0
LINE
  5
94A5
330
938A
100
AcDbEntity
  8
4
  6
CENTER
100
AcDbLine
 10
114.580017
 20
115.0
 30
0.0
 11
114.580017
 21
110.4999999999999
 31
0.0
  0
LINE
  5
94A6
330
938A
100
AcDbEntity
  8
1
  6
Continuous
100
AcDbLine
 10
114.89502
 20
113.9999919999999
 30
0.0
 11
115.5250169999999
 21
112.5
 31
0.0
  0
LINE
  5
94A7
330
938A
100
AcDbEntity
  8
1
  6
Continuous
100
AcDbLine
 10
115.5250239999999
 20
112.5
 30
0.0
 11
116.155022
 21
112.5
 31
0.0
  0
LINE
  5
94A8
330
938A
100
AcDbEntity
  8
1
  6
Continuous
100
AcDbLine
 10
114.2650219999999
 20
114.0
 30
0.0
 11
114.89502
 21
114.0
 31
0.0
  0
LINE
  5
94A9
330
938A
100
AcDbEntity
  8
1
  6
Continuous
100
AcDbLine
 10
114.2650219999999
 20
114.0
 30
0.0
 11
113.6350169999999
 21
112.499992
 31
0.0
  0
LINE
  5
94AA
330
938A
100
AcDbEntity
  8
1
  6
Continuous
100
AcDbLine
 10
111.7450179999998
 20
114.0
 30
0.0
 11
111.1150209999999
 21
112.5
 31
0.0
  0
LINE
  5
94AB
330
938A
100
AcDbEntity
  8
1
  6
Continuous
100
AcDbLine
 10
111.7450179999998
 20
114.0
 30
0.0
 11
112.3750229999999
 21
114.0
 31
0.0
  0
LINE
  5
94AC
330
938A
100
AcDbEntity
  8
1
  6
Continuous
100
AcDbLine
 10
113.00502
 20
112.5
 30
0.0
 11
113.6350169999999
 21
112.5
 31
0.0
  0
LINE
  5
94AD
330
938A
100
AcDbEntity
  8
1
  6
Continuous
100
AcDbLine
 10
112.3750229999999
 20
113.9999919999999
 30
0.0
 11
113.00502
 21
112.499992
 31
0.0
  0
LINE
  5
94AE
330
938A
100
AcDbEntity
  8
4
  6
CENTER
100
AcDbLine
 10
112.0600199999998
 20
115.0
 30
0.0
 11
112.0600199999998
 21
110.4999999999999
 31
0.0
  0
LINE
  5
94AF
330
938A
100
AcDbEntity
  8
4
  6
CENTER
100
AcDbLine
 10
109.540024
 20
115.0
 30
0.0
 11
109.540024
 21
110.4999999999999
 31
0.0
  0
LINE
  5
94B0
330
938A
100
AcDbEntity
  8
1
  6
Continuous
100
AcDbLine
 10
109.855019
 20
113.9999919999999
 30
0.0
 11
110.485023
 21
112.499992
 31
0.0
  0
LINE
  5
94B1
330
938A
100
AcDbEntity
  8
1
  6
Continuous
100
AcDbLine
 10
110.485023
 20
112.5
 30
0.0
 11
111.1150209999999
 21
112.5
 31
0.0
  0
LINE
  5
94B2
330
938A
100
AcDbEntity
  8
1
  6
Continuous
100
AcDbLine
 10
109.2250209999999
 20
114.0
 30
0.0
 11
109.855019
 21
114.0
 31
0.0
  0
LINE
  5
94B3
330
938A
100
AcDbEntity
  8
1
  6
Continuous
100
AcDbLine
 10
109.2250209999999
 20
113.9999919999999
 30
0.0
 11
108.595024
 21
112.5
 31
0.0
  0
LINE
  5
94B4
330
938A
100
AcDbEntity
  8
1
  6
Continuous
100
AcDbLine
 10
106.705025
 20
114.0
 30
0.0
 11
106.0750199999999
 21
112.499992
 31
0.0
  0
LINE
  5
94B5
330
938A
100
AcDbEntity
  8
1
  6
Continuous
100
AcDbLine
 10
106.7050169999999
 20
114.0
 30
0.0
 11
107.335022
 21
114.0
 31
0.0
  0
LINE
  5
94B6
330
938A
100
AcDbEntity
  8
1
  6
Continuous
100
AcDbLine
 10
107.9650189999999
 20
112.5
 30
0.0
 11
108.595024
 21
112.5
 31
0.0
  0
LINE
  5
94B7
330
938A
100
AcDbEntity
  8
1
  6
Continuous
100
AcDbLine
 10
107.335022
 20
114.0
 30
0.0
 11
107.9650189999999
 21
112.499992
 31
0.0
  0
LINE
  5
94B8
330
938A
100
AcDbEntity
  8
4
  6
CENTER
100
AcDbLine
 10
107.02002
 20
115.0
 30
0.0
 11
107.02002
 21
110.4999999999999
 31
0.0
  0
LINE
  5
94B9
330
938A
100
AcDbEntity
  8
4
  6
CENTER
100
AcDbLine
 10
104.500023
 20
115.0
 30
0.0
 11
104.500023
 21
110.4999999999999
 31
0.0
  0
LINE
  5
94BA
330
938A
100
AcDbEntity
  8
1
  6
Continuous
100
AcDbLine
 10
104.8150179999999
 20
113.9999919999999
 30
0.0
 11
105.445023
 21
112.499992
 31
0.0
  0
LINE
  5
94BB
330
938A
100
AcDbEntity
  8
1
  6
Continuous
100
AcDbLine
 10
105.445023
 20
112.5
 30
0.0
 11
106.0750199999999
 21
112.5
 31
0.0
  0
LINE
  5
94BC
330
938A
100
AcDbEntity
  8
1
  6
Continuous
100
AcDbLine
 10
104.18502
 20
114.0
 30
0.0
 11
104.8150179999999
 21
114.0
 31
0.0
  0
LINE
  5
94BD
330
938A
100
AcDbEntity
  8
1
  6
Continuous
100
AcDbLine
 10
104.18502
 20
114.0
 30
0.0
 11
103.5550159999999
 21
112.499992
 31
0.0
  0
LINE
  5
94BE
330
938A
100
AcDbEntity
  8
1
  6
Continuous
100
AcDbLine
 10
101.665024
 20
113.9999919999999
 30
0.0
 11
101.0350269999999
 21
112.5
 31
0.0
  0
LINE
  5
94BF
330
938A
100
AcDbEntity
  8
1
  6
Continuous
100
AcDbLine
 10
101.665024
 20
114.0
 30
0.0
 11
102.2950209999999
 21
114.0
 31
0.0
  0
LINE
  5
94C0
330
938A
100
AcDbEntity
  8
1
  6
Continuous
100
AcDbLine
 10
102.925018
 20
112.5
 30
0.0
 11
103.5550229999999
 21
112.5
 31
0.0
  0
LINE
  5
94C1
330
938A
100
AcDbEntity
  8
1
  6
Continuous
100
AcDbLine
 10
102.2950209999999
 20
114.0
 30
0.0
 11
102.925018
 21
112.5
 31
0.0
  0
LINE
  5
94C2
330
938A
100
AcDbEntity
  8
4
  6
CENTER
100
AcDbLine
 10
101.9800189999999
 20
115.0
 30
0.0
 11
101.9800189999999
 21
110.4999999999999
 31
0.0
  0
LINE
  5
94C3
330
938A
100
AcDbEntity
  8
4
  6
CENTER
100
AcDbLine
 10
99.460022
 20
115.0
 30
0.0
 11
99.460022
 21
110.4999999999999
 31
0.0
  0
LINE
  5
94C4
330
938A
100
AcDbEntity
  8
1
  6
Continuous
100
AcDbLine
 10
99.775024
 20
113.9999919999999
 30
0.0
 11
100.405022
 21
112.499992
 31
0.0
  0
LINE
  5
94C5
330
938A
100
AcDbEntity
  8
1
  6
Continuous
100
AcDbLine
 10
100.405022
 20
112.5
 30
0.0
 11
101.035019
 21
112.5
 31
0.0
  0
LINE
  5
94C6
330
938A
100
AcDbEntity
  8
1
  6
Continuous
100
AcDbLine
 10
99.14502
 20
114.0
 30
0.0
 11
99.775024
 21
114.0
 31
0.0
  0
LINE
  5
94C7
330
938A
100
AcDbEntity
  8
1
  6
Continuous
100
AcDbLine
 10
99.14502
 20
113.9999919999999
 30
0.0
 11
98.515022
 21
112.5
 31
0.0
  0
LINE
  5
94C8
330
938A
100
AcDbEntity
  8
1
  6
Continuous
100
AcDbLine
 10
96.62502299999999
 20
114.0
 30
0.0
 11
95.995018
 21
112.499992
 31
0.0
  0
LINE
  5
94C9
330
938A
100
AcDbEntity
  8
1
  6
Continuous
100
AcDbLine
 10
96.62502299999999
 20
114.0
 30
0.0
 11
97.25502
 21
114.0
 31
0.0
  0
LINE
  5
94CA
330
938A
100
AcDbEntity
  8
1
  6
Continuous
100
AcDbLine
 10
97.88501700000001
 20
112.5
 30
0.0
 11
98.515022
 21
112.5
 31
0.0
  0
LINE
  5
94CB
330
938A
100
AcDbEntity
  8
1
  6
Continuous
100
AcDbLine
 10
97.25502
 20
114.0
 30
0.0
 11
97.88501700000001
 21
112.5
 31
0.0
  0
LINE
  5
94CC
330
938A
100
AcDbEntity
  8
4
  6
CENTER
100
AcDbLine
 10
96.94001800000002
 20
115.0
 30
0.0
 11
96.94001800000002
 21
110.4999999999999
 31
0.0
  0
LINE
  5
94CD
330
938A
100
AcDbEntity
  8
4
  6
CENTER
100
AcDbLine
 10
94.42002100000001
 20
115.0
 30
0.0
 11
94.42002100000001
 21
110.4999999999999
 31
0.0
  0
LINE
  5
94CE
330
938A
100
AcDbEntity
  8
1
  6
Continuous
100
AcDbLine
 10
94.73502299999998
 20
113.9999919999999
 30
0.0
 11
95.36502099999998
 21
112.499992
 31
0.0
  0
LINE
  5
94CF
330
938A
100
AcDbEntity
  8
1
  6
Continuous
100
AcDbLine
 10
95.36502099999998
 20
112.5
 30
0.0
 11
95.995018
 21
112.5
 31
0.0
  0
LINE
  5
94D0
330
938A
100
AcDbEntity
  8
1
  6
Continuous
100
AcDbLine
 10
94.10501899999998
 20
114.0
 30
0.0
 11
94.73502299999998
 21
114.0
 31
0.0
  0
LINE
  5
94D1
330
938A
100
AcDbEntity
  8
1
  6
Continuous
100
AcDbLine
 10
94.10501899999998
 20
114.0
 30
0.0
 11
93.47502099999998
 21
112.5
 31
0.0
  0
LINE
  5
94D2
330
938A
100
AcDbEntity
  8
1
  6
Continuous
100
AcDbLine
 10
91.585014
 20
113.9999919999999
 30
0.0
 11
90.95501699999998
 21
112.5
 31
0.0
  0
LINE
  5
94D3
330
938A
100
AcDbEntity
  8
1
  6
Continuous
100
AcDbLine
 10
91.58502199999999
 20
114.0
 30
0.0
 11
92.21501899999998
 21
114.0
 31
0.0
  0
LINE
  5
94D4
330
938A
100
AcDbEntity
  8
1
  6
Continuous
100
AcDbLine
 10
92.84502399999999
 20
112.5
 30
0.0
 11
93.47502099999998
 21
112.5
 31
0.0
  0
LINE
  5
94D5
330
938A
100
AcDbEntity
  8
1
  6
Continuous
100
AcDbLine
 10
92.21501899999998
 20
114.0
 30
0.0
 11
92.845016
 21
112.5
 31
0.0
  0
LINE
  5
94D6
330
938A
100
AcDbEntity
  8
4
  6
CENTER
100
AcDbLine
 10
91.900024
 20
115.0
 30
0.0
 11
91.900024
 21
110.4999999999999
 31
0.0
  0
LINE
  5
94D7
330
938A
100
AcDbEntity
  8
4
  6
CENTER
100
AcDbLine
 10
89.38002
 20
115.0
 30
0.0
 11
89.38002
 21
110.4999999999999
 31
0.0
  0
LINE
  5
94D8
330
938A
100
AcDbEntity
  8
1
  6
Continuous
100
AcDbLine
 10
89.695023
 20
113.9999919999999
 30
0.0
 11
90.32501999999999
 21
112.499992
 31
0.0
  0
LINE
  5
94D9
330
938A
100
AcDbEntity
  8
1
  6
Continuous
100
AcDbLine
 10
90.32501999999999
 20
112.5
 30
0.0
 11
90.95501699999998
 21
112.5
 31
0.0
  0
LINE
  5
94DA
330
938A
100
AcDbEntity
  8
1
  6
Continuous
100
AcDbLine
 10
89.06501799999999
 20
114.0
 30
0.0
 11
89.695023
 21
114.0
 31
0.0
  0
LINE
  5
94DB
330
938A
100
AcDbEntity
  8
1
  6
Continuous
100
AcDbLine
 10
89.06501799999999
 20
114.0000079999999
 30
0.0
 11
88.43501999999999
 21
112.5
 31
0.0
  0
LINE
  5
94DC
330
938A
100
AcDbEntity
  8
1
  6
Continuous
100
AcDbLine
 10
86.545021
 20
114.0
 30
0.0
 11
85.91501599999999
 21
112.499992
 31
0.0
  0
LINE
  5
94DD
330
938A
100
AcDbEntity
  8
1
  6
Continuous
100
AcDbLine
 10
86.545021
 20
114.0
 30
0.0
 11
87.17501799999999
 21
114.0
 31
0.0
  0
LINE
  5
94DE
330
938A
100
AcDbEntity
  8
1
  6
Continuous
100
AcDbLine
 10
87.805023
 20
112.5
 30
0.0
 11
88.43501999999999
 21
112.5
 31
0.0
  0
LINE
  5
94DF
330
938A
100
AcDbEntity
  8
1
  6
Continuous
100
AcDbLine
 10
87.17501799999999
 20
114.0
 30
0.0
 11
87.80501599999999
 21
112.5
 31
0.0
  0
LINE
  5
94E0
330
938A
100
AcDbEntity
  8
4
  6
CENTER
100
AcDbLine
 10
86.860023
 20
115.0
 30
0.0
 11
86.860023
 21
110.4999999999999
 31
0.0
  0
LINE
  5
94E1
330
938A
100
AcDbEntity
  8
4
  6
CENTER
100
AcDbLine
 10
84.340019
 20
115.0
 30
0.0
 11
84.340019
 21
110.4999999999999
 31
0.0
  0
LINE
  5
94E2
330
938A
100
AcDbEntity
  8
1
  6
Continuous
100
AcDbLine
 10
84.65502200000001
 20
114.0
 30
0.0
 11
85.285019
 21
112.499992
 31
0.0
  0
LINE
  5
94E3
330
938A
100
AcDbEntity
  8
1
  6
Continuous
100
AcDbLine
 10
85.285019
 20
112.5
 30
0.0
 11
85.91502400000001
 21
112.5
 31
0.0
  0
LINE
  5
94E4
330
938A
100
AcDbEntity
  8
1
  6
Continuous
100
AcDbLine
 10
84.02502400000001
 20
114.0
 30
0.0
 11
84.65502200000001
 21
114.0
 31
0.0
  0
LINE
  5
94E5
330
938A
100
AcDbEntity
  8
1
  6
Continuous
100
AcDbLine
 10
84.025017
 20
114.0
 30
0.0
 11
83.39502000000001
 21
112.5
 31
0.0
  0
LINE
  5
94E6
330
938A
100
AcDbEntity
  8
1
  6
Continuous
100
AcDbLine
 10
81.50502000000001
 20
113.9999919999999
 30
0.0
 11
80.875023
 21
112.5
 31
0.0
  0
LINE
  5
94E7
330
938A
100
AcDbEntity
  8
1
  6
Continuous
100
AcDbLine
 10
81.50502000000001
 20
114.0
 30
0.0
 11
82.135017
 21
114.0
 31
0.0
  0
LINE
  5
94E8
330
938A
100
AcDbEntity
  8
1
  6
Continuous
100
AcDbLine
 10
82.76502200000001
 20
112.5
 30
0.0
 11
83.39502000000001
 21
112.5
 31
0.0
  0
LINE
  5
94E9
330
938A
100
AcDbEntity
  8
1
  6
Continuous
100
AcDbLine
 10
82.135025
 20
113.9999919999999
 30
0.0
 11
82.76502200000001
 21
112.5
 31
0.0
  0
LINE
  5
94EA
330
938A
100
AcDbEntity
  8
4
  6
CENTER
100
AcDbLine
 10
81.82002299999998
 20
115.0
 30
0.0
 11
81.82002299999998
 21
110.4999999999999
 31
0.0
  0
LINE
  5
94EB
330
938A
100
AcDbEntity
  8
4
  6
CENTER
100
AcDbLine
 10
79.30001800000002
 20
115.0
 30
0.0
 11
79.30001800000002
 21
110.4999999999999
 31
0.0
  0
LINE
  5
94EC
330
938A
100
AcDbEntity
  8
1
  6
Continuous
100
AcDbLine
 10
79.615021
 20
114.0
 30
0.0
 11
80.24501800000001
 21
112.5
 31
0.0
  0
LINE
  5
94ED
330
938A
100
AcDbEntity
  8
1
  6
Continuous
100
AcDbLine
 10
80.24501800000001
 20
112.5
 30
0.0
 11
80.875023
 21
112.5
 31
0.0
  0
LINE
  5
94EE
330
938A
100
AcDbEntity
  8
1
  6
Continuous
100
AcDbLine
 10
78.985023
 20
114.0
 30
0.0
 11
79.615021
 21
114.0
 31
0.0
  0
LINE
  5
94EF
330
938A
100
AcDbEntity
  8
1
  6
Continuous
100
AcDbLine
 10
78.985023
 20
114.0
 30
0.0
 11
78.355019
 21
112.499992
 31
0.0
  0
LINE
  5
94F0
330
938A
100
AcDbEntity
  8
1
  6
Continuous
100
AcDbLine
 10
76.465019
 20
114.0
 30
0.0
 11
75.835014
 21
112.499992
 31
0.0
  0
LINE
  5
94F1
330
938A
100
AcDbEntity
  8
1
  6
Continuous
100
AcDbLine
 10
76.465019
 20
114.0
 30
0.0
 11
77.09502399999998
 21
114.0
 31
0.0
  0
LINE
  5
94F2
330
938A
100
AcDbEntity
  8
1
  6
Continuous
100
AcDbLine
 10
77.725021
 20
112.5
 30
0.0
 11
78.355019
 21
112.5
 31
0.0
  0
LINE
  5
94F3
330
938A
100
AcDbEntity
  8
1
  6
Continuous
100
AcDbLine
 10
77.09502399999998
 20
113.9999919999999
 30
0.0
 11
77.725021
 21
112.499992
 31
0.0
  0
LINE
  5
94F4
330
938A
100
AcDbEntity
  8
4
  6
CENTER
100
AcDbLine
 10
76.780022
 20
115.0
 30
0.0
 11
76.780022
 21
110.4999999999999
 31
0.0
  0
LINE
  5
94F5
330
938A
100
AcDbEntity
  8
1
  6
Continuous
100
AcDbLine
 10
73.94502299999998
 20
113.9999919999999
 30
0.0
 11
73.315025
 21
112.5
 31
0.0
  0
LINE
  5
94F6
330
938A
100
AcDbEntity
  8
1
  6
Continuous
100
AcDbLine
 10
74.57501999999998
 20
114.0
 30
0.0
 11
75.205017
 21
112.5
 31
0.0
  0
LINE
  5
94F7
330
938A
100
AcDbEntity
  8
1
  6
Continuous
100
AcDbLine
 10
73.94502299999998
 20
114.0
 30
0.0
 11
74.57501999999998
 21
114.0
 31
0.0
  0
LINE
  5
94F8
330
938A
100
AcDbEntity
  8
1
  6
Continuous
100
AcDbLine
 10
75.205017
 20
112.5
 30
0.0
 11
75.83502199999998
 21
112.5
 31
0.0
  0
LINE
  5
94F9
330
938A
100
AcDbEntity
  8
4
  6
CENTER
100
AcDbLine
 10
74.260017
 20
115.0
 30
0.0
 11
74.260017
 21
110.4999999999999
 31
0.0
  0
LINE
  5
94FA
330
938A
100
AcDbEntity
  8
1
  6
Continuous
100
AcDbLine
 10
321.815063
 20
114.0
 30
0.0
 11
322.4450679999999
 21
112.5
 31
0.0
  0
LINE
  5
94FB
330
938A
100
AcDbEntity
  8
1
  6
Continuous
100
AcDbLine
 10
325.28006
 20
109.0
 30
0.0
 11
244.64006
 21
109.0
 31
0.0
  0
LINE
  5
94FC
330
938A
100
AcDbEntity
  8
1
  6
Continuous
100
AcDbLine
 10
244.64006
 20
112.5
 30
0.0
 11
244.64006
 21
109.0
 31
0.0
  0
LINE
  5
94FD
330
938A
100
AcDbEntity
  8
1
  6
Continuous
100
AcDbLine
 10
246.2150569999999
 20
114.0
 30
0.0
 11
245.585068
 21
114.0
 31
0.0
  0
LINE
  5
94FE
330
938A
100
AcDbEntity
  8
4
  6
CENTER
100
AcDbLine
 10
325.0600589999999
 20
113.199997
 30
0.0
 11
244.64006
 21
113.199997
 31
0.0
  0
LINE
  5
94FF
330
938A
100
AcDbEntity
  8
1
  6
Continuous
100
AcDbLine
 10
321.1850589999999
 20
114.0
 30
0.0
 11
320.5550539999999
 21
112.499992
 31
0.0
  0
LINE
  5
9500
330
938A
100
AcDbEntity
  8
1
  6
Continuous
100
AcDbLine
 10
244.955063
 20
112.5
 30
0.0
 11
244.64006
 21
112.5
 31
0.0
  0
LINE
  5
9501
330
938A
100
AcDbEntity
  8
1
  6
Continuous
100
AcDbLine
 10
250.6250609999999
 20
114.0
 30
0.0
 11
249.995056
 21
112.499992
 31
0.0
  0
LINE
  5
9502
330
938A
100
AcDbEntity
  8
1
  6
Continuous
100
AcDbLine
 10
245.585068
 20
113.9999919999999
 30
0.0
 11
244.955063
 21
112.5
 31
0.0
  0
LINE
  5
9503
330
938A
100
AcDbEntity
  8
1
  6
Continuous
100
AcDbLine
 10
246.2150729999999
 20
114.0
 30
0.0
 11
246.845062
 21
112.5
 31
0.0
  0
LINE
  5
9504
330
938A
100
AcDbEntity
  8
1
  6
Continuous
100
AcDbLine
 10
319.295074
 20
114.0
 30
0.0
 11
319.9250789999999
 21
112.5
 31
0.0
  0
LINE
  5
9505
330
938A
100
AcDbEntity
  8
1
  6
Continuous
100
AcDbLine
 10
319.295074
 20
114.0
 30
0.0
 11
318.66507
 21
114.0
 31
0.0
  0
LINE
  5
9506
330
938A
100
AcDbEntity
  8
1
  6
Continuous
100
AcDbLine
 10
318.0350649999998
 20
112.5
 30
0.0
 11
317.40506
 21
112.5
 31
0.0
  0
LINE
  5
9507
330
938A
100
AcDbEntity
  8
1
  6
Continuous
100
AcDbLine
 10
318.66507
 20
113.9999919999999
 30
0.0
 11
318.0350649999998
 21
112.5
 31
0.0
  0
LINE
  5
9508
330
938A
100
AcDbEntity
  8
4
  6
CENTER
100
AcDbLine
 10
318.980072
 20
115.0
 30
0.0
 11
318.980072
 21
110.4999999999999
 31
0.0
  0
LINE
  5
9509
330
938A
100
AcDbEntity
  8
4
  6
CENTER
100
AcDbLine
 10
316.460052
 20
115.0
 30
0.0
 11
316.460052
 21
110.4999999999999
 31
0.0
  0
LINE
  5
950A
330
938A
100
AcDbEntity
  8
1
  6
Continuous
100
AcDbLine
 10
316.14505
 20
113.9999919999999
 30
0.0
 11
315.5150449999999
 21
112.5
 31
0.0
  0
LINE
  5
950B
330
938A
100
AcDbEntity
  8
1
  6
Continuous
100
AcDbLine
 10
315.5150759999999
 20
112.5
 30
0.0
 11
314.885071
 21
112.5
 31
0.0
  0
LINE
  5
950C
330
938A
100
AcDbEntity
  8
1
  6
Continuous
100
AcDbLine
 10
316.775055
 20
114.0
 30
0.0
 11
316.14505
 21
114.0
 31
0.0
  0
LINE
  5
950D
330
938A
100
AcDbEntity
  8
1
  6
Continuous
100
AcDbLine
 10
316.775055
 20
114.0
 30
0.0
 11
317.40506
 21
112.5
 31
0.0
  0
LINE
  5
950E
330
938A
100
AcDbEntity
  8
1
  6
Continuous
100
AcDbLine
 10
314.2550659999999
 20
114.0
 30
0.0
 11
314.885071
 21
112.5
 31
0.0
  0
LINE
  5
950F
330
938A
100
AcDbEntity
  8
1
  6
Continuous
100
AcDbLine
 10
314.2550659999999
 20
114.0
 30
0.0
 11
313.6250609999998
 21
114.0
 31
0.0
  0
LINE
  5
9510
330
938A
100
AcDbEntity
  8
1
  6
Continuous
100
AcDbLine
 10
312.9950559999999
 20
112.5
 30
0.0
 11
312.365051
 21
112.5
 31
0.0
  0
LINE
  5
9511
330
938A
100
AcDbEntity
  8
1
  6
Continuous
100
AcDbLine
 10
313.6250609999998
 20
114.0
 30
0.0
 11
312.9950559999999
 21
112.499992
 31
0.0
  0
LINE
  5
9512
330
938A
100
AcDbEntity
  8
4
  6
CENTER
100
AcDbLine
 10
313.940063
 20
115.0
 30
0.0
 11
313.940063
 21
110.4999999999999
 31
0.0
  0
LINE
  5
9513
330
938A
100
AcDbEntity
  8
4
  6
CENTER
100
AcDbLine
 10
311.420074
 20
115.0
 30
0.0
 11
311.420074
 21
110.4999999999999
 31
0.0
  0
LINE
  5
9514
330
938A
100
AcDbEntity
  8
1
  6
Continuous
100
AcDbLine
 10
311.105072
 20
114.0
 30
0.0
 11
310.4750669999999
 21
112.5000079999999
 31
0.0
  0
LINE
  5
9515
330
938A
100
AcDbEntity
  8
1
  6
Continuous
100
AcDbLine
 10
310.4750669999999
 20
112.5
 30
0.0
 11
309.8450619999999
 21
112.5
 31
0.0
  0
LINE
  5
9516
330
938A
100
AcDbEntity
  8
1
  6
Continuous
100
AcDbLine
 10
311.7350769999998
 20
114.0
 30
0.0
 11
311.105072
 21
114.0
 31
0.0
  0
LINE
  5
9517
330
938A
100
AcDbEntity
  8
1
  6
Continuous
100
AcDbLine
 10
311.7350769999998
 20
114.0
 30
0.0
 11
312.365051
 21
112.5
 31
0.0
  0
LINE
  5
9518
330
938A
100
AcDbEntity
  8
1
  6
Continuous
100
AcDbLine
 10
309.215057
 20
114.0
 30
0.0
 11
309.8450619999999
 21
112.5
 31
0.0
  0
LINE
  5
9519
330
938A
100
AcDbEntity
  8
1
  6
Continuous
100
AcDbLine
 10
309.215057
 20
114.0
 30
0.0
 11
308.585052
 21
114.0
 31
0.0
  0
LINE
  5
951A
330
938A
100
AcDbEntity
  8
1
  6
Continuous
100
AcDbLine
 10
307.9550479999999
 20
112.5
 30
0.0
 11
307.3250729999998
 21
112.5
 31
0.0
  0
LINE
  5
951B
330
938A
100
AcDbEntity
  8
1
  6
Continuous
100
AcDbLine
 10
308.585052
 20
113.9999919999999
 30
0.0
 11
307.9550479999999
 21
112.5
 31
0.0
  0
LINE
  5
951C
330
938A
100
AcDbEntity
  8
4
  6
CENTER
100
AcDbLine
 10
308.900055
 20
115.0
 30
0.0
 11
308.900055
 21
110.4999999999999
 31
0.0
  0
LINE
  5
951D
330
938A
100
AcDbEntity
  8
4
  6
CENTER
100
AcDbLine
 10
306.380066
 20
115.0
 30
0.0
 11
306.380066
 21
110.4999999999999
 31
0.0
  0
LINE
  5
951E
330
938A
100
AcDbEntity
  8
1
  6
Continuous
100
AcDbLine
 10
306.065063
 20
114.0000079999999
 30
0.0
 11
305.4350589999998
 21
112.5
 31
0.0
  0
LINE
  5
951F
330
938A
100
AcDbEntity
  8
1
  6
Continuous
100
AcDbLine
 10
305.4350589999998
 20
112.5
 30
0.0
 11
304.8050539999999
 21
112.5
 31
0.0
  0
LINE
  5
9520
330
938A
100
AcDbEntity
  8
1
  6
Continuous
100
AcDbLine
 10
306.695068
 20
114.0
 30
0.0
 11
306.065063
 21
114.0
 31
0.0
  0
LINE
  5
9521
330
938A
100
AcDbEntity
  8
1
  6
Continuous
100
AcDbLine
 10
306.695068
 20
114.0
 30
0.0
 11
307.3250729999998
 21
112.5
 31
0.0
  0
LINE
  5
9522
330
938A
100
AcDbEntity
  8
1
  6
Continuous
100
AcDbLine
 10
304.175079
 20
114.0
 30
0.0
 11
304.8050539999999
 21
112.5
 31
0.0
  0
LINE
  5
9523
330
938A
100
AcDbEntity
  8
1
  6
Continuous
100
AcDbLine
 10
304.175049
 20
114.0
 30
0.0
 11
303.5450739999999
 21
114.0
 31
0.0
  0
LINE
  5
9524
330
938A
100
AcDbEntity
  8
1
  6
Continuous
100
AcDbLine
 10
302.91507
 20
112.5
 30
0.0
 11
302.2850649999999
 21
112.5
 31
0.0
  0
LINE
  5
9525
330
938A
100
AcDbEntity
  8
1
  6
Continuous
100
AcDbLine
 10
303.5450739999999
 20
114.0
 30
0.0
 11
302.91507
 21
112.499992
 31
0.0
  0
LINE
  5
9526
330
938A
100
AcDbEntity
  8
4
  6
CENTER
100
AcDbLine
 10
303.8600769999998
 20
115.0
 30
0.0
 11
303.8600769999998
 21
110.4999999999999
 31
0.0
  0
LINE
  5
9527
330
938A
100
AcDbEntity
  8
4
  6
CENTER
100
AcDbLine
 10
301.3400569999999
 20
115.0
 30
0.0
 11
301.3400569999999
 21
110.4999999999999
 31
0.0
  0
LINE
  5
9528
330
938A
100
AcDbEntity
  8
1
  6
Continuous
100
AcDbLine
 10
301.025055
 20
114.0
 30
0.0
 11
300.3950500000001
 21
112.5
 31
0.0
  0
LINE
  5
9529
330
938A
100
AcDbEntity
  8
1
  6
Continuous
100
AcDbLine
 10
300.3950500000001
 20
112.5
 30
0.0
 11
299.7650759999999
 21
112.5
 31
0.0
  0
LINE
  5
952A
330
938A
100
AcDbEntity
  8
1
  6
Continuous
100
AcDbLine
 10
301.6550599999998
 20
114.0
 30
0.0
 11
301.025055
 21
114.0
 31
0.0
  0
LINE
  5
952B
330
938A
100
AcDbEntity
  8
1
  6
Continuous
100
AcDbLine
 10
301.6550599999998
 20
114.0
 30
0.0
 11
302.2850649999999
 21
112.5
 31
0.0
  0
LINE
  5
952C
330
938A
100
AcDbEntity
  8
1
  6
Continuous
100
AcDbLine
 10
299.1350709999999
 20
114.0
 30
0.0
 11
299.7650759999999
 21
112.5
 31
0.0
  0
LINE
  5
952D
330
938A
100
AcDbEntity
  8
1
  6
Continuous
100
AcDbLine
 10
299.1350709999999
 20
114.0
 30
0.0
 11
298.505066
 21
114.0
 31
0.0
  0
LINE
  5
952E
330
938A
100
AcDbEntity
  8
1
  6
Continuous
100
AcDbLine
 10
297.8750609999999
 20
112.5
 30
0.0
 11
297.245056
 21
112.5
 31
0.0
  0
LINE
  5
952F
330
938A
100
AcDbEntity
  8
1
  6
Continuous
100
AcDbLine
 10
298.505066
 20
113.9999919999999
 30
0.0
 11
297.8750609999999
 21
112.5
 31
0.0
  0
LINE
  5
9530
330
938A
100
AcDbEntity
  8
4
  6
CENTER
100
AcDbLine
 10
298.8200679999998
 20
115.0
 30
0.0
 11
298.8200679999998
 21
110.4999999999999
 31
0.0
  0
LINE
  5
9531
330
938A
100
AcDbEntity
  8
4
  6
CENTER
100
AcDbLine
 10
296.300049
 20
115.0
 30
0.0
 11
296.300049
 21
110.4999999999999
 31
0.0
  0
LINE
  5
9532
330
938A
100
AcDbEntity
  8
1
  6
Continuous
100
AcDbLine
 10
295.985077
 20
114.0
 30
0.0
 11
295.3550719999999
 21
112.499992
 31
0.0
  0
LINE
  5
9533
330
938A
100
AcDbEntity
  8
1
  6
Continuous
100
AcDbLine
 10
295.3550719999999
 20
112.5
 30
0.0
 11
294.7250669999998
 21
112.5
 31
0.0
  0
LINE
  5
9534
330
938A
100
AcDbEntity
  8
1
  6
Continuous
100
AcDbLine
 10
296.6150509999998
 20
114.0
 30
0.0
 11
295.985077
 21
114.0
 31
0.0
  0
LINE
  5
9535
330
938A
100
AcDbEntity
  8
1
  6
Continuous
100
AcDbLine
 10
296.6150819999999
 20
114.0
 30
0.0
 11
297.245056
 21
112.5
 31
0.0
  0
LINE
  5
9536
330
938A
100
AcDbEntity
  8
1
  6
Continuous
100
AcDbLine
 10
294.0950619999999
 20
114.0
 30
0.0
 11
294.7250669999998
 21
112.5
 31
0.0
  0
LINE
  5
9537
330
938A
100
AcDbEntity
  8
1
  6
Continuous
100
AcDbLine
 10
294.0950619999999
 20
114.0
 30
0.0
 11
293.465057
 21
114.0
 31
0.0
  0
LINE
  5
9538
330
938A
100
AcDbEntity
  8
1
  6
Continuous
100
AcDbLine
 10
292.835052
 20
112.5
 30
0.0
 11
292.2050479999999
 21
112.5
 31
0.0
  0
LINE
  5
9539
330
938A
100
AcDbEntity
  8
1
  6
Continuous
100
AcDbLine
 10
293.465057
 20
114.0
 30
0.0
 11
292.835052
 21
112.5000079999999
 31
0.0
  0
LINE
  5
953A
330
938A
100
AcDbEntity
  8
4
  6
CENTER
100
AcDbLine
 10
293.78006
 20
115.0
 30
0.0
 11
293.78006
 21
110.4999999999999
 31
0.0
  0
LINE
  5
953B
330
938A
100
AcDbEntity
  8
4
  6
CENTER
100
AcDbLine
 10
291.2600709999999
 20
115.0
 30
0.0
 11
291.2600709999999
 21
110.4999999999999
 31
0.0
  0
LINE
  5
953C
330
938A
100
AcDbEntity
  8
1
  6
Continuous
100
AcDbLine
 10
290.9450679999998
 20
113.9999919999999
 30
0.0
 11
290.315063
 21
112.5
 31
0.0
  0
LINE
  5
953D
330
938A
100
AcDbEntity
  8
1
  6
Continuous
100
AcDbLine
 10
290.315063
 20
112.5
 30
0.0
 11
289.6850589999999
 21
112.5
 31
0.0
  0
LINE
  5
953E
330
938A
100
AcDbEntity
  8
1
  6
Continuous
100
AcDbLine
 10
291.5750729999999
 20
114.0
 30
0.0
 11
290.9450679999998
 21
114.0
 31
0.0
  0
LINE
  5
953F
330
938A
100
AcDbEntity
  8
1
  6
Continuous
100
AcDbLine
 10
291.5750729999999
 20
114.0
 30
0.0
 11
292.2050779999998
 21
112.5
 31
0.0
  0
LINE
  5
9540
330
938A
100
AcDbEntity
  8
1
  6
Continuous
100
AcDbLine
 10
289.0550539999999
 20
114.0
 30
0.0
 11
289.6850589999999
 21
112.5
 31
0.0
  0
LINE
  5
9541
330
938A
100
AcDbEntity
  8
1
  6
Continuous
100
AcDbLine
 10
289.0550539999999
 20
114.0
 30
0.0
 11
288.4250489999999
 21
114.0
 31
0.0
  0
LINE
  5
9542
330
938A
100
AcDbEntity
  8
1
  6
Continuous
100
AcDbLine
 10
287.795074
 20
112.5
 30
0.0
 11
287.16507
 21
112.5
 31
0.0
  0
LINE
  5
9543
330
938A
100
AcDbEntity
  8
1
  6
Continuous
100
AcDbLine
 10
288.4250789999999
 20
114.0000079999999
 30
0.0
 11
287.795074
 21
112.5
 31
0.0
  0
LINE
  5
9544
330
938A
100
AcDbEntity
  8
4
  6
CENTER
100
AcDbLine
 10
288.7400509999998
 20
115.0
 30
0.0
 11
288.7400509999998
 21
110.4999999999999
 31
0.0
  0
LINE
  5
9545
330
938A
100
AcDbEntity
  8
4
  6
CENTER
100
AcDbLine
 10
286.2200619999999
 20
115.0
 30
0.0
 11
286.2200619999999
 21
110.4999999999999
 31
0.0
  0
LINE
  5
9546
330
938A
100
AcDbEntity
  8
1
  6
Continuous
100
AcDbLine
 10
285.9050599999998
 20
114.0
 30
0.0
 11
285.275055
 21
112.499992
 31
0.0
  0
LINE
  5
9547
330
938A
100
AcDbEntity
  8
1
  6
Continuous
100
AcDbLine
 10
285.275055
 20
112.5
 30
0.0
 11
284.64505
 21
112.5
 31
0.0
  0
LINE
  5
9548
330
938A
100
AcDbEntity
  8
1
  6
Continuous
100
AcDbLine
 10
286.5350649999998
 20
114.0
 30
0.0
 11
285.9050599999998
 21
114.0
 31
0.0
  0
LINE
  5
9549
330
938A
100
AcDbEntity
  8
1
  6
Continuous
100
AcDbLine
 10
286.5350649999998
 20
114.0
 30
0.0
 11
287.16507
 21
112.5
 31
0.0
  0
LINE
  5
954A
330
938A
100
AcDbEntity
  8
1
  6
Continuous
100
AcDbLine
 10
284.0150759999999
 20
114.0
 30
0.0
 11
284.6450809999998
 21
112.5
 31
0.0
  0
LINE
  5
954B
330
938A
100
AcDbEntity
  8
1
  6
Continuous
100
AcDbLine
 10
284.0150759999999
 20
114.0
 30
0.0
 11
283.3850709999999
 21
114.0
 31
0.0
  0
LINE
  5
954C
330
938A
100
AcDbEntity
  8
1
  6
Continuous
100
AcDbLine
 10
282.7550659999999
 20
112.5
 30
0.0
 11
282.1250609999998
 21
112.5
 31
0.0
  0
LINE
  5
954D
330
938A
100
AcDbEntity
  8
1
  6
Continuous
100
AcDbLine
 10
283.3850709999999
 20
114.0
 30
0.0
 11
282.7550659999999
 21
112.5
 31
0.0
  0
LINE
  5
954E
330
938A
100
AcDbEntity
  8
4
  6
CENTER
100
AcDbLine
 10
283.7000729999999
 20
115.0
 30
0.0
 11
283.7000729999999
 21
110.4999999999999
 31
0.0
  0
LINE
  5
954F
330
938A
100
AcDbEntity
  8
4
  6
CENTER
100
AcDbLine
 10
281.1800539999999
 20
115.0
 30
0.0
 11
281.1800539999999
 21
110.4999999999999
 31
0.0
  0
LINE
  5
9550
330
938A
100
AcDbEntity
  8
1
  6
Continuous
100
AcDbLine
 10
280.865051
 20
113.9999919999999
 30
0.0
 11
280.2350769999998
 21
112.5
 31
0.0
  0
LINE
  5
9551
330
938A
100
AcDbEntity
  8
1
  6
Continuous
100
AcDbLine
 10
280.2350769999998
 20
112.5
 30
0.0
 11
279.605072
 21
112.5
 31
0.0
  0
LINE
  5
9552
330
938A
100
AcDbEntity
  8
1
  6
Continuous
100
AcDbLine
 10
281.4950559999999
 20
114.0
 30
0.0
 11
280.865051
 21
114.0
 31
0.0
  0
LINE
  5
9553
330
938A
100
AcDbEntity
  8
1
  6
Continuous
100
AcDbLine
 10
281.4950559999999
 20
114.0
 30
0.0
 11
282.1250609999998
 21
112.5
 31
0.0
  0
LINE
  5
9554
330
938A
100
AcDbEntity
  8
1
  6
Continuous
100
AcDbLine
 10
278.9750669999999
 20
114.0
 30
0.0
 11
279.605072
 21
112.5
 31
0.0
  0
LINE
  5
9555
330
938A
100
AcDbEntity
  8
1
  6
Continuous
100
AcDbLine
 10
278.9750669999999
 20
114.0
 30
0.0
 11
278.3450619999999
 21
114.0
 31
0.0
  0
LINE
  5
9556
330
938A
100
AcDbEntity
  8
1
  6
Continuous
100
AcDbLine
 10
277.7150569999998
 20
112.5
 30
0.0
 11
277.085052
 21
112.5
 31
0.0
  0
LINE
  5
9557
330
938A
100
AcDbEntity
  8
1
  6
Continuous
100
AcDbLine
 10
321.815063
 20
114.0
 30
0.0
 11
321.1850589999999
 21
114.0
 31
0.0
  0
LINE
  5
9558
330
938A
100
AcDbEntity
  8
1
  6
Continuous
100
AcDbLine
 10
248.1050569999999
 20
114.0
 30
0.0
 11
247.475067
 21
112.499992
 31
0.0
  0
LINE
  5
9559
330
938A
100
AcDbEntity
  8
1
  6
Continuous
100
AcDbLine
 10
248.7350619999999
 20
114.0
 30
0.0
 11
249.365067
 21
112.5
 31
0.0
  0
LINE
  5
955A
330
938A
100
AcDbEntity
  8
1
  6
Continuous
100
AcDbLine
 10
320.5550539999999
 20
112.5
 30
0.0
 11
319.925049
 21
112.5
 31
0.0
  0
LINE
  5
955B
330
938A
100
AcDbEntity
  8
1
  6
Continuous
100
AcDbLine
 10
278.3450619999999
 20
114.0
 30
0.0
 11
277.7150569999998
 21
112.499992
 31
0.0
  0
LINE
  5
955C
330
938A
100
AcDbEntity
  8
4
  6
CENTER
100
AcDbLine
 10
278.660065
 20
115.0
 30
0.0
 11
278.660065
 21
110.4999999999999
 31
0.0
  0
LINE
  5
955D
330
938A
100
AcDbEntity
  8
4
  6
CENTER
100
AcDbLine
 10
276.1400759999999
 20
115.0
 30
0.0
 11
276.1400759999999
 21
110.4999999999999
 31
0.0
  0
LINE
  5
955E
330
938A
100
AcDbEntity
  8
1
  6
Continuous
100
AcDbLine
 10
275.8250729999999
 20
114.0
 30
0.0
 11
275.1950679999998
 21
112.499992
 31
0.0
  0
LINE
  5
955F
330
938A
100
AcDbEntity
  8
1
  6
Continuous
100
AcDbLine
 10
275.1950679999998
 20
112.5
 30
0.0
 11
274.565063
 21
112.5
 31
0.0
  0
LINE
  5
9560
330
938A
100
AcDbEntity
  8
1
  6
Continuous
100
AcDbLine
 10
276.455048
 20
114.0
 30
0.0
 11
275.8250729999999
 21
114.0
 31
0.0
  0
LINE
  5
9561
330
938A
100
AcDbEntity
  8
1
  6
Continuous
100
AcDbLine
 10
276.4550779999999
 20
114.0
 30
0.0
 11
277.085052
 21
112.5
 31
0.0
  0
LINE
  5
9562
330
938A
100
AcDbEntity
  8
1
  6
Continuous
100
AcDbLine
 10
273.9350589999999
 20
114.0
 30
0.0
 11
274.565063
 21
112.5
 31
0.0
  0
LINE
  5
9563
330
938A
100
AcDbEntity
  8
1
  6
Continuous
100
AcDbLine
 10
273.9350589999999
 20
114.0
 30
0.0
 11
273.3050539999999
 21
114.0
 31
0.0
  0
LINE
  5
9564
330
938A
100
AcDbEntity
  8
1
  6
Continuous
100
AcDbLine
 10
272.675049
 20
112.5
 30
0.0
 11
272.0450739999999
 21
112.5
 31
0.0
  0
LINE
  5
9565
330
938A
100
AcDbEntity
  8
1
  6
Continuous
100
AcDbLine
 10
273.3050539999999
 20
113.9999919999999
 30
0.0
 11
272.675079
 21
112.5
 31
0.0
  0
LINE
  5
9566
330
938A
100
AcDbEntity
  8
4
  6
CENTER
100
AcDbLine
 10
273.6200559999999
 20
115.0
 30
0.0
 11
273.6200559999999
 21
110.4999999999999
 31
0.0
  0
LINE
  5
9567
330
938A
100
AcDbEntity
  8
4
  6
CENTER
100
AcDbLine
 10
271.1000669999999
 20
115.0
 30
0.0
 11
271.1000669999999
 21
110.4999999999999
 31
0.0
  0
LINE
  5
9568
330
938A
100
AcDbEntity
  8
1
  6
Continuous
100
AcDbLine
 10
270.7850649999999
 20
113.9999919999999
 30
0.0
 11
270.15506
 21
112.5
 31
0.0
  0
LINE
  5
9569
330
938A
100
AcDbEntity
  8
1
  6
Continuous
100
AcDbLine
 10
270.15506
 20
112.5
 30
0.0
 11
269.525055
 21
112.5
 31
0.0
  0
LINE
  5
956A
330
938A
100
AcDbEntity
  8
1
  6
Continuous
100
AcDbLine
 10
271.41507
 20
114.0
 30
0.0
 11
270.7850649999999
 21
114.0
 31
0.0
  0
LINE
  5
956B
330
938A
100
AcDbEntity
  8
1
  6
Continuous
100
AcDbLine
 10
271.41507
 20
114.0
 30
0.0
 11
272.0450739999999
 21
112.5
 31
0.0
  0
LINE
  5
956C
330
938A
100
AcDbEntity
  8
1
  6
Continuous
100
AcDbLine
 10
268.895081
 20
114.0
 30
0.0
 11
269.525055
 21
112.5
 31
0.0
  0
LINE
  5
956D
330
938A
100
AcDbEntity
  8
1
  6
Continuous
100
AcDbLine
 10
268.89505
 20
114.0
 30
0.0
 11
268.2650759999999
 21
114.0
 31
0.0
  0
LINE
  5
956E
330
938A
100
AcDbEntity
  8
1
  6
Continuous
100
AcDbLine
 10
267.6350709999999
 20
112.5
 30
0.0
 11
267.005066
 21
112.5
 31
0.0
  0
LINE
  5
956F
330
938A
100
AcDbEntity
  8
1
  6
Continuous
100
AcDbLine
 10
268.2650759999999
 20
114.0
 30
0.0
 11
267.6350709999999
 21
112.499992
 31
0.0
  0
LINE
  5
9570
330
938A
100
AcDbEntity
  8
4
  6
CENTER
100
AcDbLine
 10
268.5800479999999
 20
115.0
 30
0.0
 11
268.5800479999999
 21
110.4999999999999
 31
0.0
  0
LINE
  5
9571
330
938A
100
AcDbEntity
  8
4
  6
CENTER
100
AcDbLine
 10
266.0600589999999
 20
115.0
 30
0.0
 11
266.0600589999999
 21
110.4999999999999
 31
0.0
  0
LINE
  5
9572
330
938A
100
AcDbEntity
  8
1
  6
Continuous
100
AcDbLine
 10
265.745056
 20
114.0
 30
0.0
 11
265.1150509999999
 21
112.5000079999999
 31
0.0
  0
LINE
  5
9573
330
938A
100
AcDbEntity
  8
1
  6
Continuous
100
AcDbLine
 10
265.1150509999999
 20
112.5
 30
0.0
 11
264.485077
 21
112.5
 31
0.0
  0
LINE
  5
9574
330
938A
100
AcDbEntity
  8
1
  6
Continuous
100
AcDbLine
 10
266.3750609999999
 20
114.0
 30
0.0
 11
265.745056
 21
114.0
 31
0.0
  0
LINE
  5
9575
330
938A
100
AcDbEntity
  8
1
  6
Continuous
100
AcDbLine
 10
266.3750609999999
 20
114.0
 30
0.0
 11
267.005066
 21
112.5
 31
0.0
  0
LINE
  5
9576
330
938A
100
AcDbEntity
  8
1
  6
Continuous
100
AcDbLine
 10
263.855072
 20
114.0
 30
0.0
 11
264.485077
 21
112.5
 31
0.0
  0
LINE
  5
9577
330
938A
100
AcDbEntity
  8
1
  6
Continuous
100
AcDbLine
 10
263.855072
 20
114.0
 30
0.0
 11
263.2250669999999
 21
114.0
 31
0.0
  0
LINE
  5
9578
330
938A
100
AcDbEntity
  8
1
  6
Continuous
100
AcDbLine
 10
325.28006
 20
112.5
 30
0.0
 11
325.28006
 21
109.0
 31
0.0
  0
LINE
  5
9579
330
938A
100
AcDbEntity
  8
4
  6
CENTER
100
AcDbLine
 10
314.8500669999999
 20
112.5
 30
0.0
 11
314.8500669999999
 21
108.0
 31
0.0
  0
LINE
  5
957A
330
938A
100
AcDbEntity
  8
4
  6
CENTER
100
AcDbLine
 10
299.8500669999998
 20
112.5
 30
0.0
 11
299.8500669999998
 21
108.0
 31
0.0
  0
LINE
  5
957B
330
938A
100
AcDbEntity
  8
4
  6
CENTER
100
AcDbLine
 10
254.850067
 20
112.5
 30
0.0
 11
254.850067
 21
108.0
 31
0.0
  0
LINE
  5
957C
330
938A
100
AcDbEntity
  8
4
  6
CENTER
100
AcDbLine
 10
269.8500669999999
 20
112.5
 30
0.0
 11
269.8500669999999
 21
108.0
 31
0.0
  0
LINE
  5
957D
330
938A
100
AcDbEntity
  8
4
  6
CENTER
100
AcDbLine
 10
284.8500669999999
 20
112.5
 30
0.0
 11
284.8500669999999
 21
108.0
 31
0.0
  0
LINE
  5
957E
330
938A
100
AcDbEntity
  8
1
  6
Continuous
100
AcDbLine
 10
262.5950619999999
 20
112.5
 30
0.0
 11
261.965057
 21
112.5
 31
0.0
  0
LINE
  5
957F
330
938A
100
AcDbEntity
  8
1
  6
Continuous
100
AcDbLine
 10
248.7350619999999
 20
114.0
 30
0.0
 11
248.1050569999999
 21
114.0
 31
0.0
  0
LINE
  5
9580
330
938A
100
AcDbEntity
  8
4
  6
CENTER
100
AcDbLine
 10
248.4200589999999
 20
115.0
 30
0.0
 11
248.4200589999999
 21
110.4999999999999
 31
0.0
  0
LINE
  5
9581
330
938A
100
AcDbEntity
  8
1
  6
Continuous
100
AcDbLine
 10
263.2250669999999
 20
113.9999919999999
 30
0.0
 11
262.5950619999999
 21
112.5
 31
0.0
  0
LINE
  5
9582
330
938A
100
AcDbEntity
  8
4
  6
CENTER
100
AcDbLine
 10
263.54007
 20
115.0
 30
0.0
 11
263.54007
 21
110.4999999999999
 31
0.0
  0
LINE
  5
9583
330
938A
100
AcDbEntity
  8
4
  6
CENTER
100
AcDbLine
 10
261.02005
 20
115.0
 30
0.0
 11
261.02005
 21
110.4999999999999
 31
0.0
  0
LINE
  5
9584
330
938A
100
AcDbEntity
  8
4
  6
CENTER
100
AcDbLine
 10
258.5000609999998
 20
115.0
 30
0.0
 11
258.5000609999998
 21
110.4999999999999
 31
0.0
  0
LINE
  5
9585
330
938A
100
AcDbEntity
  8
4
  6
CENTER
100
AcDbLine
 10
255.9800569999999
 20
115.0
 30
0.0
 11
255.9800569999999
 21
110.4999999999999
 31
0.0
  0
LINE
  5
9586
330
938A
100
AcDbEntity
  8
4
  6
CENTER
100
AcDbLine
 10
253.460068
 20
115.0
 30
0.0
 11
253.460068
 21
110.4999999999999
 31
0.0
  0
LINE
  5
9587
330
938A
100
AcDbEntity
  8
4
  6
CENTER
100
AcDbLine
 10
250.940063
 20
115.0
 30
0.0
 11
250.940063
 21
110.4999999999999
 31
0.0
  0
LINE
  5
9588
330
938A
100
AcDbEntity
  8
1
  6
Continuous
100
AcDbLine
 10
260.7050779999998
 20
114.0
 30
0.0
 11
260.0750729999999
 21
112.499992
 31
0.0
  0
LINE
  5
9589
330
938A
100
AcDbEntity
  8
1
  6
Continuous
100
AcDbLine
 10
260.0750729999999
 20
112.5
 30
0.0
 11
259.445068
 21
112.5
 31
0.0
  0
LINE
  5
958A
330
938A
100
AcDbEntity
  8
1
  6
Continuous
100
AcDbLine
 10
261.335052
 20
114.0
 30
0.0
 11
260.7050479999999
 21
114.0
 31
0.0
  0
LINE
  5
958B
330
938A
100
AcDbEntity
  8
1
  6
Continuous
100
AcDbLine
 10
261.3350829999999
 20
114.0
 30
0.0
 11
261.965057
 21
112.5
 31
0.0
  0
LINE
  5
958C
330
938A
100
AcDbEntity
  8
1
  6
Continuous
100
AcDbLine
 10
258.815063
 20
114.0
 30
0.0
 11
259.445068
 21
112.5
 31
0.0
  0
LINE
  5
958D
330
938A
100
AcDbEntity
  8
1
  6
Continuous
100
AcDbLine
 10
258.815063
 20
114.0
 30
0.0
 11
258.1850589999999
 21
114.0
 31
0.0
  0
LINE
  5
958E
330
938A
100
AcDbEntity
  8
1
  6
Continuous
100
AcDbLine
 10
257.555054
 20
112.5
 30
0.0
 11
256.9250489999999
 21
112.5
 31
0.0
  0
LINE
  5
958F
330
938A
100
AcDbEntity
  8
1
  6
Continuous
100
AcDbLine
 10
258.1850589999999
 20
114.0
 30
0.0
 11
257.555054
 21
112.499992
 31
0.0
  0
LINE
  5
9590
330
938A
100
AcDbEntity
  8
1
  6
Continuous
100
AcDbLine
 10
255.66507
 20
113.9999919999999
 30
0.0
 11
255.0350649999999
 21
112.5
 31
0.0
  0
LINE
  5
9591
330
938A
100
AcDbEntity
  8
1
  6
Continuous
100
AcDbLine
 10
255.0350649999999
 20
112.5
 30
0.0
 11
254.4050599999999
 21
112.5
 31
0.0
  0
LINE
  5
9592
330
938A
100
AcDbEntity
  8
1
  6
Continuous
100
AcDbLine
 10
256.295074
 20
114.0
 30
0.0
 11
255.66507
 21
114.0
 31
0.0
  0
LINE
  5
9593
330
938A
100
AcDbEntity
  8
1
  6
Continuous
100
AcDbLine
 10
256.295074
 20
114.0
 30
0.0
 11
256.9250789999999
 21
112.5
 31
0.0
  0
LINE
  5
9594
330
938A
100
AcDbEntity
  8
1
  6
Continuous
100
AcDbLine
 10
253.77507
 20
114.0
 30
0.0
 11
254.405075
 21
112.5
 31
0.0
  0
LINE
  5
9595
330
938A
100
AcDbEntity
  8
1
  6
Continuous
100
AcDbLine
 10
253.7750549999999
 20
114.0
 30
0.0
 11
253.145065
 21
114.0
 31
0.0
  0
LINE
  5
9596
330
938A
100
AcDbEntity
  8
1
  6
Continuous
100
AcDbLine
 10
252.5150599999999
 20
112.5
 30
0.0
 11
251.885056
 21
112.5
 31
0.0
  0
LINE
  5
9597
330
938A
100
AcDbEntity
  8
1
  6
Continuous
100
AcDbLine
 10
253.145065
 20
113.9999919999999
 30
0.0
 11
252.5150599999999
 21
112.5
 31
0.0
  0
LINE
  5
9598
330
938A
100
AcDbEntity
  8
1
  6
Continuous
100
AcDbLine
 10
249.995056
 20
112.5
 30
0.0
 11
249.365067
 21
112.5
 31
0.0
  0
LINE
  5
9599
330
938A
100
AcDbEntity
  8
4
  6
CENTER
100
AcDbLine
 10
245.9000549999999
 20
115.0
 30
0.0
 11
245.9000549999999
 21
110.4999999999999
 31
0.0
  0
LINE
  5
959A
330
938A
100
AcDbEntity
  8
1
  6
Continuous
100
AcDbLine
 10
251.255066
 20
114.0
 30
0.0
 11
250.6250609999999
 21
114.0
 31
0.0
  0
LINE
  5
959B
330
938A
100
AcDbEntity
  8
1
  6
Continuous
100
AcDbLine
 10
251.255066
 20
114.0
 30
0.0
 11
251.8850709999999
 21
112.5
 31
0.0
  0
LINE
  5
959C
330
938A
100
AcDbEntity
  8
1
  6
Continuous
100
AcDbLine
 10
247.475067
 20
112.5
 30
0.0
 11
246.845062
 21
112.5
 31
0.0
  0
LINE
  5
959D
330
938A
100
AcDbEntity
  8
4
  6
CENTER
100
AcDbLine
 10
321.5000609999999
 20
115.0
 30
0.0
 11
321.5000609999999
 21
110.4999999999999
 31
0.0
  0
LINE
  5
959E
330
938A
100
AcDbEntity
  8
1
  6
Continuous
100
AcDbLine
 10
323.075073
 20
112.5
 30
0.0
 11
322.4450679999999
 21
112.5
 31
0.0
  0
LINE
  5
959F
330
938A
100
AcDbEntity
  8
1
  6
Continuous
100
AcDbLine
 10
325.28006
 20
112.5
 30
0.0
 11
324.965057
 21
112.5
 31
0.0
  0
LINE
  5
95A0
330
938A
100
AcDbEntity
  8
4
  6
CENTER
100
AcDbLine
 10
324.02005
 20
115.0
 30
0.0
 11
324.02005
 21
110.4999999999999
 31
0.0
  0
LINE
  5
95A1
330
938A
100
AcDbEntity
  8
1
  6
Continuous
100
AcDbLine
 10
323.7050479999999
 20
114.0
 30
0.0
 11
323.075073
 21
112.5
 31
0.0
  0
LINE
  5
95A2
330
938A
100
AcDbEntity
  8
1
  6
Continuous
100
AcDbLine
 10
324.335052
 20
114.0
 30
0.0
 11
324.965057
 21
112.5
 31
0.0
  0
LINE
  5
95A3
330
938A
100
AcDbEntity
  8
1
  6
Continuous
100
AcDbLine
 10
324.335052
 20
114.0
 30
0.0
 11
323.7050479999999
 21
114.0
 31
0.0
  0
LINE
  5
95A4
330
938A
100
AcDbEntity
  8
4
  6
CENTER
100
AcDbLine
 10
29.13761500000001
 20
113.199997
 30
0.0
 11
23.82236499999998
 21
113.199997
 31
0.0
  0
LINE
  5
95A5
330
938A
100
AcDbEntity
  8
4
  6
CENTER
100
AcDbLine
 10
197.24968
 20
113.199997
 30
0.0
 11
203.065186
 21
113.199997
 31
0.0
  0
CIRCLE
  5
95A6
330
938A
100
AcDbEntity
  8
1
  6
Continuous
100
AcDbCircle
 10
143.430023
 20
176.5
 30
0.0
 40
1.1
  0
CIRCLE
  5
95A7
330
938A
100
AcDbEntity
  8
1
  6
Continuous
100
AcDbCircle
 10
128.430023
 20
176.5
 30
0.0
 40
1.1
  0
CIRCLE
  5
95A8
330
938A
100
AcDbEntity
  8
1
  6
Continuous
100
AcDbCircle
 10
113.430023
 20
176.5
 30
0.0
 40
1.1
  0
CIRCLE
  5
95A9
330
938A
100
AcDbEntity
  8
1
  6
Continuous
100
AcDbCircle
 10
98.43002300000001
 20
176.5
 30
0.0
 40
1.1
  0
CIRCLE
  5
95AA
330
938A
100
AcDbEntity
  8
1
  6
Continuous
100
AcDbCircle
 10
83.430023
 20
176.5
 30
0.0
 40
1.1
  0
CIRCLE
  5
95AB
330
938A
100
AcDbEntity
  8
1
  6
Continuous
100
AcDbCircle
 10
143.430023
 20
46.5
 30
0.0
 40
1.1
  0
CIRCLE
  5
95AC
330
938A
100
AcDbEntity
  8
1
  6
Continuous
100
AcDbCircle
 10
128.430023
 20
46.5
 30
0.0
 40
1.1
  0
CIRCLE
  5
95AD
330
938A
100
AcDbEntity
  8
1
  6
Continuous
100
AcDbCircle
 10
113.430023
 20
46.5
 30
0.0
 40
1.1
  0
CIRCLE
  5
95AE
330
938A
100
AcDbEntity
  8
1
  6
Continuous
100
AcDbCircle
 10
98.43002300000001
 20
46.5
 30
0.0
 40
1.1
  0
CIRCLE
  5
95AF
330
938A
100
AcDbEntity
  8
1
  6
Continuous
100
AcDbCircle
 10
83.430023
 20
46.5
 30
0.0
 40
1.1
  0
TEXT
  5
95B0
330
938A
100
AcDbEntity
  8
6
  6
Continuous
100
AcDbText
 10
27.97945
 20
10.0487
 30
0.0
 40
1.399999999999999
  1
6
 41
1.069393
100
AcDbText
  0
TEXT
  5
95B1
330
938A
100
AcDbEntity
  8
1
  6
Continuous
100
AcDbText
 10
17.97945
 20
10.0487
 30
0.0
 40
1.399999999999999
  1
1
 41
1.069393
100
AcDbText
  0
TEXT
  5
95B2
330
938A
100
AcDbEntity
  8
1
  6
Continuous
100
AcDbText
 10
9.99995
 20
10.0
 30
0.0
 40
1.399999999999999
  1
LAYER
 41
1.009912999999997
100
AcDbText
  0
TEXT
  5
95B3
330
938A
100
AcDbEntity
  8
2
  6
Continuous
100
AcDbText
 10
19.97944999999998
 20
10.0487
 30
0.0
 40
1.399999999999999
  1
2
 41
1.069393
100
AcDbText
  0
TEXT
  5
95B4
330
938A
100
AcDbEntity
  8
3
  6
DASHED
100
AcDbText
 10
21.97945
 20
10.0487
 30
0.0
 40
1.399999999999999
  1
3
 41
1.069393
100
AcDbText
  0
TEXT
  5
95B5
330
938A
100
AcDbEntity
  8
4
  6
CENTER
100
AcDbText
 10
23.97944999999999
 20
10.0487
 30
0.0
 40
1.399999999999999
  1
4
 41
1.069393
100
AcDbText
  0
TEXT
  5
95B6
330
938A
100
AcDbEntity
  8
5
  6
PHANTOM
100
AcDbText
 10
25.97945
 20
10.0487
 30
0.0
 40
1.399999999999999
  1
5
 41
1.069393
100
AcDbText
  0
TEXT
  5
95B7
330
938A
100
AcDbEntity
  8
7
  6
Continuous
100
AcDbText
 10
10.00005
 20
26.0
 30
0.0
 40
3.0
  1
CODE No.5498
 41
1.003962999999999
100
AcDbText
  0
TEXT
  5
95B8
330
938A
100
AcDbEntity
  8
7
  6
Continuous
100
AcDbText
 10
10.00005
 20
18.0
 30
0.0
 40
3.0
  1
TYPE No.TM-216-1
 41
1.002950999999999
100
AcDbText
  0
TEXT
  5
95B9
330
938A
100
AcDbEntity
  8
7
  6
Continuous
100
AcDbText
 10
29.97944999999999
 20
10.0487
 30
0.0
 40
1.399999999999999
  1
7
 41
1.069393
100
AcDbText
  0
ENDSEC
  0
SECTION
  2
OBJECTS
  0
DICTIONARY
  5
9378
330
0
100
AcDbDictionary
281
     1
  3
ACAD_CIP_PREVIOUS_PRODUCT_INFO
350
961F
  3
ACAD_COLOR
350
9601
  3
ACAD_DETAILVIEWSTYLE
350
961A
  3
ACAD_GROUP
350
9379
  3
ACAD_LAYOUT
350
9385
  3
ACAD_MATERIAL
350
95CF
  3
ACAD_MLEADERSTYLE
350
9616
  3
ACAD_MLINESTYLE
350
9382
  3
ACAD_PLOTSETTINGS
350
9384
  3
ACAD_PLOTSTYLENAME
350
95CD
  3
ACAD_SCALELIST
350
9604
  3
ACAD_SECTIONVIEWSTYLE
350
9618
  3
ACAD_TABLESTYLE
350
9602
  3
ACAD_VISUALSTYLE
350
95E8
  3
ACDB_RECOMPOSE_DATA
350
963D
  3
AcDbVariableDictionary
350
9630
  3
DWGPROPS
350
963E
  0
DICTIONARY
  5
9620
330
937C
100
AcDbDictionary
280
     1
281
     1
  3
ADSK_XREC_LAYER_RECONCILED
360
9621
  0
DICTIONARY
  5
9622
330
9392
100
AcDbDictionary
280
     1
281
     1
  3
ADSK_XREC_LAYER_RECONCILED
360
9623
  0
DICTIONARY
  5
9624
330
9393
100
AcDbDictionary
280
     1
281
     1
  3
ADSK_XREC_LAYER_RECONCILED
360
9625
  0
DICTIONARY
  5
9626
330
9394
100
AcDbDictionary
280
     1
281
     1
  3
ADSK_XREC_LAYER_RECONCILED
360
9627
  0
DICTIONARY
  5
9628
330
9395
100
AcDbDictionary
280
     1
281
     1
  3
ADSK_XREC_LAYER_RECONCILED
360
9629
  0
DICTIONARY
  5
962A
330
9396
100
AcDbDictionary
280
     1
281
     1
  3
ADSK_XREC_LAYER_RECONCILED
360
962B
  0
DICTIONARY
  5
962C
330
9397
100
AcDbDictionary
280
     1
281
     1
  3
ADSK_XREC_LAYER_RECONCILED
360
962D
  0
DICTIONARY
  5
962E
330
9398
100
AcDbDictionary
280
     1
281
     1
  3
ADSK_XREC_LAYER_RECONCILED
360
962F
  0
DICTIONARY
  5
95C8
330
938A
100
AcDbDictionary
281
     1
  3
ACAD_LAYOUTSELFREF
350
95C9
  0
DICTIONARY
  5
95C6
330
9386
100
AcDbDictionary
281
     1
  3
ACAD_LAYOUTSELFREF
350
95C7
  0
XRECORD
  5
961F
102
{ACAD_REACTORS
330
9378
102
}
330
9378
100
AcDbXrecord
280
     1
300
ACDLT
300
2014
300
ACDLT_F_S
  0
DICTIONARY
  5
9601
102
{ACAD_REACTORS
330
9378
102
}
330
9378
100
AcDbDictionary
281
     1
  0
DICTIONARY
  5
961A
102
{ACAD_REACTORS
330
9378
102
}
330
9378
100
AcDbDictionary
281
     1
  3
Imperial24
350
961B
  0
DICTIONARY
  5
9379
102
{ACAD_REACTORS
330
9378
102
}
330
9378
100
AcDbDictionary
281
     1
  0
DICTIONARY
  5
9385
102
{ACAD_REACTORS
330
9378
102
}
330
9378
100
AcDbDictionary
281
     1
  3
Model
350
961C
  3
レイアウト1
350
961D
  0
DICTIONARY
  5
95CF
102
{ACAD_REACTORS
330
9378
102
}
330
9378
100
AcDbDictionary
281
     1
  3
ByBlock
350
95D8
  3
ByLayer
350
95D0
  3
Global
350
95E0
  0
DICTIONARY
  5
9616
102
{ACAD_REACTORS
330
9378
102
}
330
9378
100
AcDbDictionary
281
     1
  3
Standard
350
9617
  0
DICTIONARY
  5
9382
102
{ACAD_REACTORS
330
9378
102
}
330
9378
100
AcDbDictionary
281
     1
  3
STANDARD
350
9383
  0
DICTIONARY
  5
9384
102
{ACAD_REACTORS
330
9378
102
}
330
9378
100
AcDbDictionary
281
     1
  0
ACDBDICTIONARYWDFLT
  5
95CD
102
{ACAD_REACTORS
330
9378
102
}
330
9378
100
AcDbDictionary
281
     1
  3
Normal
350
95CE
100
AcDbDictionaryWithDefault
340
95CE
  0
DICTIONARY
  5
9604
102
{ACAD_REACTORS
330
9378
102
}
330
9378
100
AcDbDictionary
281
     1
  3
A0
350
9605
  3
A1
350
9606
  3
A2
350
9607
  3
A3
350
9608
  3
A4
350
9609
  3
A5
350
960A
  3
A6
350
960B
  3
A7
350
960C
  3
A8
350
960D
  3
A9
350
960E
  3
B0
350
960F
  3
B1
350
9610
  3
B2
350
9611
  3
B3
350
9612
  3
B4
350
9613
  3
B5
350
9614
  3
B6
350
9615
  0
DICTIONARY
  5
9618
102
{ACAD_REACTORS
330
9378
102
}
330
9378
100
AcDbDictionary
281
     1
  3
Imperial24
350
9619
  0
DICTIONARY
  5
9602
102
{ACAD_REACTORS
330
9378
102
}
330
9378
100
AcDbDictionary
281
     1
  3
Standard
350
9603
  0
DICTIONARY
  5
95E8
102
{ACAD_REACTORS
330
9378
102
}
330
9378
100
AcDbDictionary
281
     1
  3
2dWireframe
350
95EE
  3
Basic
350
95ED
  3
Brighten
350
95F4
  3
ColorChange
350
95F8
  3
Conceptual
350
95F1
  3
Dim
350
95F3
  3
EdgeColorOff
350
9600
  3
Facepattern
350
95F7
  3
Flat
350
95E9
  3
FlatWithEdges
350
95EA
  3
Gouraud
350
95EB
  3
GouraudWithEdges
350
95EC
  3
Hidden
350
95F0
  3
JitterOff
350
95FE
  3
Linepattern
350
95F6
  3
OverhangOff
350
95FF
  3
Realistic
350
95F2
  3
Shaded
350
95FD
  3
Shaded with edges
350
95FC
  3
Shades of Gray
350
95F9
  3
Sketchy
350
95FA
  3
Thicken
350
95F5
  3
Wireframe
350
95EF
  3
X-Ray
350
95FB
  0
XRECORD
  5
963D
102
{ACAD_REACTORS
330
9378
102
}
330
9378
100
AcDbXrecord
280
     1
 90
        1
330
9603
  0
DICTIONARY
  5
9630
102
{ACAD_REACTORS
330
9378
102
}
330
9378
100
AcDbDictionary
281
     1
  3
CANNOSCALE
350
9635
  3
CMLEADERSTYLE
350
9632
  3
CTABLESTYLE
350
9631
  3
CVIEWDETAILSTYLE
350
9633
  3
CVIEWSECTIONSTYLE
350
9634
  3
DIMASSOC
350
9638
  3
INDEXCTL
350
9637
  3
SORTENTS
350
9636
  3
XCLIPFRAME
350
9639
  0
XRECORD
  5
963E
102
{ACAD_REACTORS
330
9378
102
}
330
9378
100
AcDbXrecord
280
     1
  1
DWGPROPS COOKIE
  2

  3

  4

  6

  7

  8
Yoshitsune
  9

300
=
301
=
302
=
303
=
304
=
305
=
306
=
307
=
308
=
309
=
 40
0.0000137615740741
 41
2451054.63521331
 42
2457192.621203808
  1

 90
        0
  0
XRECORD
  5
9621
102
{ACAD_REACTORS
330
9620
102
}
330
9620
100
AcDbXrecord
280
     1
290
     1
  0
XRECORD
  5
9623
102
{ACAD_REACTORS
330
9622
102
}
330
9622
100
AcDbXrecord
280
     1
290
     1
  0
XRECORD
  5
9625
102
{ACAD_REACTORS
330
9624
102
}
330
9624
100
AcDbXrecord
280
     1
290
     1
  0
XRECORD
  5
9627
102
{ACAD_REACTORS
330
9626
102
}
330
9626
100
AcDbXrecord
280
     1
290
     1
  0
XRECORD
  5
9629
102
{ACAD_REACTORS
330
9628
102
}
330
9628
100
AcDbXrecord
280
     1
290
     1
  0
XRECORD
  5
962B
102
{ACAD_REACTORS
330
962A
102
}
330
962A
100
AcDbXrecord
280
     1
290
     1
  0
XRECORD
  5
962D
102
{ACAD_REACTORS
330
962C
102
}
330
962C
100
AcDbXrecord
280
     1
290
     1
  0
XRECORD
  5
962F
102
{ACAD_REACTORS
330
962E
102
}
330
962E
100
AcDbXrecord
280
     1
290
     1
  0
XRECORD
  5
95C9
102
{ACAD_REACTORS
330
95C8
102
}
330
95C8
100
AcDbXrecord
280
     1
340
938A
  0
XRECORD
  5
95C7
102
{ACAD_REACTORS
330
95C6
102
}
330
95C6
100
AcDbXrecord
280
     1
340
9386
  0
ACDBDETAILVIEWSTYLE
  5
961B
102
{ACAD_XDICTIONARY
360
9676
102
}
102
{ACAD_REACTORS
330
961A
102
}
330
961A
100
AcDbModelDocViewStyle
 70
     0
  3
Imperial24
290
     0
100
AcDbDetailViewStyle
 70
     0
 71
     0
 90
        3
 71
     1
340
937D
 40
0.24
340
0
 40
0.24
300

 40
0.36
280
     3
 71
     2
340
9381
 90
       25
 71
     3
340
937D
 40
0.24
 90
        1
 40
0.75
 90
        1
300
%<\AcVar ViewType \f "%tc1">% %<\AcVar ViewDetailId>%\PSCALE %<\AcVar ViewScale \f "%sn">%
 71
     4
340
9381
 90
       25
340
9381
 90
       25
280
     0
  0
LAYOUT
  5
961C
102
{ACAD_XDICTIONARY
360
9678
102
}
102
{ACAD_REACTORS
330
9385
102
}
330
9385
100
AcDbPlotSettings
  1

  2
Canon LBP9100C
  4

  6

 40
0.0
 41
0.0
 42
0.0
 43
0.0
 44
0.0
 45
0.0
 46
0.0
 47
0.0
 48
0.0
 49
0.0
140
0.0
141
0.0
142
1.0
143
1.0
 70
  1712
 72
     0
 73
     0
 74
     0
  7

 75
     0
147
1.0
148
0.0
149
0.0
100
AcDbLayout
  1
Model
 70
     1
 71
     0
 10
0.0
 20
0.0
 11
12.0
 21
9.0
 12
0.0
 22
0.0
 32
0.0
 14
0.0
 24
0.0
 34
0.0
 15
0.0
 25
0.0
 35
0.0
146
0.0
 13
0.0
 23
0.0
 33
0.0
 16
1.0
 26
0.0
 36
0.0
 17
0.0
 27
1.0
 37
0.0
 76
     0
330
938A
331
95C5
  0
LAYOUT
  5
961D
102
{ACAD_XDICTIONARY
360
967A
102
}
102
{ACAD_REACTORS
330
9385
102
}
330
9385
100
AcDbPlotSettings
  1

  2
Canon LBP9100C
  4

  6

 40
0.0
 41
0.0
 42
0.0
 43
0.0
 44
0.0
 45
0.0
 46
0.0
 47
0.0
 48
0.0
 49
0.0
140
0.0
141
0.0
142
1.0
143
1.0
 70
   688
 72
     0
 73
     0
 74
     5
  7

 75
    16
147
1.0
148
0.0
149
0.0
100
AcDbLayout
  1
レイアウト1
 70
     0
 71
     1
 10
0.0
 20
0.0
 11
420.0
 21
297.0
 12
0.0
 22
0.0
 32
0.0
 14
1.000000000000000E+20
 24
1.000000000000000E+20
 34
1.000000000000000E+20
 15
-1.000000000000000E+20
 25
-1.000000000000000E+20
 35
-1.000000000000000E+20
146
0.0
 13
0.0
 23
0.0
 33
0.0
 16
1.0
 26
0.0
 36
0.0
 17
0.0
 27
1.0
 37
0.0
 76
     0
330
9386
  0
MATERIAL
  5
95D8
102
{ACAD_XDICTIONARY
360
95D9
102
}
102
{ACAD_REACTORS
330
95CF
102
}
330
95CF
100
AcDbMaterial
  1
ByBlock
 72
     0
 43
0.0208333333333333
 43
0.0
 43
0.0
 43
0.0
 43
0.0
 43
0.0208333333333333
 43
0.0
 43
0.0
 43
0.0
 43
0.0
 43
1.0
 43
0.0
 43
0.0
 43
0.0
 43
0.0
 43
1.0
 77
     0
 47
0.0208333333333333
 47
0.0
 47
0.0
 47
0.0
 47
0.0
 47
0.0208333333333333
 47
0.0
 47
0.0
 47
0.0
 47
0.0
 47
1.0
 47
0.0
 47
0.0
 47
0.0
 47
0.0
 47
1.0
171
     0
 49
0.0208333333333333
 49
0.0
 49
0.0
 49
0.0
 49
0.0
 49
0.0208333333333333
 49
0.0
 49
0.0
 49
0.0
 49
0.0
 49
1.0
 49
0.0
 49
0.0
 49
0.0
 49
0.0
 49
1.0
175
     0
142
0.0208333333333333
142
0.0
142
0.0
142
0.0
142
0.0
142
0.0208333333333333
142
0.0
142
0.0
142
0.0
142
0.0
142
1.0
142
0.0
142
0.0
142
0.0
142
0.0
142
1.0
179
     0
144
0.0208333333333333
144
0.0
144
0.0
144
0.0
144
0.0
144
0.0208333333333333
144
0.0
144
0.0
144
0.0
144
0.0
144
1.0
144
0.0
144
0.0
144
0.0
144
0.0
144
1.0
147
0.0208333333333333
147
0.0
147
0.0
147
0.0
147
0.0
147
0.0208333333333333
147
0.0
147
0.0
147
0.0
147
0.0
147
1.0
147
0.0
147
0.0
147
0.0
147
0.0
147
1.0
  0
MATERIAL
  5
95D0
102
{ACAD_XDICTIONARY
360
95D1
102
}
102
{ACAD_REACTORS
330
95CF
102
}
330
95CF
100
AcDbMaterial
  1
ByLayer
 72
     0
 43
0.0208333333333333
 43
0.0
 43
0.0
 43
0.0
 43
0.0
 43
0.0208333333333333
 43
0.0
 43
0.0
 43
0.0
 43
0.0
 43
1.0
 43
0.0
 43
0.0
 43
0.0
 43
0.0
 43
1.0
 77
     0
 47
0.0208333333333333
 47
0.0
 47
0.0
 47
0.0
 47
0.0
 47
0.0208333333333333
 47
0.0
 47
0.0
 47
0.0
 47
0.0
 47
1.0
 47
0.0
 47
0.0
 47
0.0
 47
0.0
 47
1.0
171
     0
 49
0.0208333333333333
 49
0.0
 49
0.0
 49
0.0
 49
0.0
 49
0.0208333333333333
 49
0.0
 49
0.0
 49
0.0
 49
0.0
 49
1.0
 49
0.0
 49
0.0
 49
0.0
 49
0.0
 49
1.0
175
     0
142
0.0208333333333333
142
0.0
142
0.0
142
0.0
142
0.0
142
0.0208333333333333
142
0.0
142
0.0
142
0.0
142
0.0
142
1.0
142
0.0
142
0.0
142
0.0
142
0.0
142
1.0
179
     0
144
0.0208333333333333
144
0.0
144
0.0
144
0.0
144
0.0
144
0.0208333333333333
144
0.0
144
0.0
144
0.0
144
0.0
144
1.0
144
0.0
144
0.0
144
0.0
144
0.0
144
1.0
147
0.0208333333333333
147
0.0
147
0.0
147
0.0
147
0.0
147
0.0208333333333333
147
0.0
147
0.0
147
0.0
147
0.0
147
1.0
147
0.0
147
0.0
147
0.0
147
0.0
147
1.0
  0
MATERIAL
  5
95E0
102
{ACAD_XDICTIONARY
360
95E1
102
}
102
{ACAD_REACTORS
330
95CF
102
}
330
95CF
100
AcDbMaterial
  1
Global
 72
     0
 43
0.0208333333333333
 43
0.0
 43
0.0
 43
0.0
 43
0.0
 43
0.0208333333333333
 43
0.0
 43
0.0
 43
0.0
 43
0.0
 43
1.0
 43
0.0
 43
0.0
 43
0.0
 43
0.0
 43
1.0
 77
     0
 47
0.0208333333333333
 47
0.0
 47
0.0
 47
0.0
 47
0.0
 47
0.0208333333333333
 47
0.0
 47
0.0
 47
0.0
 47
0.0
 47
1.0
 47
0.0
 47
0.0
 47
0.0
 47
0.0
 47
1.0
171
     0
 49
0.0208333333333333
 49
0.0
 49
0.0
 49
0.0
 49
0.0
 49
0.0208333333333333
 49
0.0
 49
0.0
 49
0.0
 49
0.0
 49
1.0
 49
0.0
 49
0.0
 49
0.0
 49
0.0
 49
1.0
175
     0
142
0.0208333333333333
142
0.0
142
0.0
142
0.0
142
0.0
142
0.0208333333333333
142
0.0
142
0.0
142
0.0
142
0.0
142
1.0
142
0.0
142
0.0
142
0.0
142
0.0
142
1.0
179
     0
144
0.0208333333333333
144
0.0
144
0.0
144
0.0
144
0.0
144
0.0208333333333333
144
0.0
144
0.0
144
0.0
144
0.0
144
1.0
144
0.0
144
0.0
144
0.0
144
0.0
144
1.0
147
0.0208333333333333
147
0.0
147
0.0
147
0.0
147
0.0
147
0.0208333333333333
147
0.0
147
0.0
147
0.0
147
0.0
147
1.0
147
0.0
147
0.0
147
0.0
147
0.0
147
1.0
  0
MLEADERSTYLE
  5
9617
102
{ACAD_REACTORS
330
9616
102
}
330
9616
100
AcDbMLeaderStyle
170
     2
171
     1
172
     0
 90
        2
 40
0.0
 41
0.0
173
     1
 91
-1056964608
340
937F
 92
       -2
290
     1
 42
0.09
291
     1
 43
0.36
  3
Standard
 44
0.18
300

342
937D
174
     1
178
     6
175
     1
176
     0
 93
-1056964608
 45
0.18
292
     0
297
     0
 46
0.18
 94
-1056964608
 47
1.0
 49
1.0
140
1.0
293
     1
141
0.0
294
     1
177
     0
142
1.0
295
     0
296
     0
143
0.125
1001
ACAD_MLEADERVER
1070
     2
  0
MLINESTYLE
  5
9383
102
{ACAD_REACTORS
330
9382
102
}
330
9382
100
AcDbMlineStyle
  2
STANDARD
 70
     0
  3

 62
   256
 51
90.0
 52
90.0
 71
     2
 49
0.5
 62
   256
  6
BYLAYER
 49
-0.5
 62
   256
  6
BYLAYER
  0
ACDBPLACEHOLDER
  5
95CE
102
{ACAD_REACTORS
330
95CD
102
}
330
95CD
  0
SCALE
  5
9605
102
{ACAD_REACTORS
330
9604
102
}
330
9604
100
AcDbScale
 70
     0
300
1:1
140
1.0
141
1.0
290
     1
  0
SCALE
  5
9606
102
{ACAD_REACTORS
330
9604
102
}
330
9604
100
AcDbScale
 70
     0
300
1/128" = 1'-0"
140
0.0078125
141
12.0
290
     0
  0
SCALE
  5
9607
102
{ACAD_REACTORS
330
9604
102
}
330
9604
100
AcDbScale
 70
     0
300
1/64" = 1'-0"
140
0.015625
141
12.0
290
     0
  0
SCALE
  5
9608
102
{ACAD_REACTORS
330
9604
102
}
330
9604
100
AcDbScale
 70
     0
300
1/32" = 1'-0"
140
0.03125
141
12.0
290
     0
  0
SCALE
  5
9609
102
{ACAD_REACTORS
330
9604
102
}
330
9604
100
AcDbScale
 70
     0
300
1/16" = 1'-0"
140
0.0625
141
12.0
290
     0
  0
SCALE
  5
960A
102
{ACAD_REACTORS
330
9604
102
}
330
9604
100
AcDbScale
 70
     0
300
3/32" = 1'-0"
140
0.09375
141
12.0
290
     0
  0
SCALE
  5
960B
102
{ACAD_REACTORS
330
9604
102
}
330
9604
100
AcDbScale
 70
     0
300
1/8" = 1'-0"
140
0.125
141
12.0
290
     0
  0
SCALE
  5
960C
102
{ACAD_REACTORS
330
9604
102
}
330
9604
100
AcDbScale
 70
     0
300
3/16" = 1'-0"
140
0.1875
141
12.0
290
     0
  0
SCALE
  5
960D
102
{ACAD_REACTORS
330
9604
102
}
330
9604
100
AcDbScale
 70
     0
300
1/4" = 1'-0"
140
0.25
141
12.0
290
     0
  0
SCALE
  5
960E
102
{ACAD_REACTORS
330
9604
102
}
330
9604
100
AcDbScale
 70
     0
300
3/8" = 1'-0"
140
0.375
141
12.0
290
     0
  0
SCALE
  5
960F
102
{ACAD_REACTORS
330
9604
102
}
330
9604
100
AcDbScale
 70
     0
300
1/2" = 1'-0"
140
0.5
141
12.0
290
     0
  0
SCALE
  5
9610
102
{ACAD_REACTORS
330
9604
102
}
330
9604
100
AcDbScale
 70
     0
300
3/4" = 1'-0"
140
0.75
141
12.0
290
     0
  0
SCALE
  5
9611
102
{ACAD_REACTORS
330
9604
102
}
330
9604
100
AcDbScale
 70
     0
300
1" = 1'-0"
140
1.0
141
12.0
290
     0
  0
SCALE
  5
9612
102
{ACAD_REACTORS
330
9604
102
}
330
9604
100
AcDbScale
 70
     0
300
1-1/2" = 1'-0"
140
1.5
141
12.0
290
     0
  0
SCALE
  5
9613
102
{ACAD_REACTORS
330
9604
102
}
330
9604
100
AcDbScale
 70
     0
300
3" = 1'-0"
140
3.0
141
12.0
290
     0
  0
SCALE
  5
9614
102
{ACAD_REACTORS
330
9604
102
}
330
9604
100
AcDbScale
 70
     0
300
6" = 1'-0"
140
6.0
141
12.0
290
     0
  0
SCALE
  5
9615
102
{ACAD_REACTORS
330
9604
102
}
330
9604
100
AcDbScale
 70
     0
300
1'-0" = 1'-0"
140
12.0
141
12.0
290
     0
  0
ACDBSECTIONVIEWSTYLE
  5
9619
102
{ACAD_XDICTIONARY
360
9674
102
}
102
{ACAD_REACTORS
330
9618
102
}
330
9618
100
AcDbModelDocViewStyle
 70
     0
  3
Imperial24
290
     0
100
AcDbSectionViewStyle
 70
     0
 71
     0
 90
       78
 71
     1
340
937D
 40
0.24
340
0
340
0
 40
0.24
300
I, O, Q, S, X, Z
 40
0.48
 90
        3
 40
0.18
 90
        1
 71
     2
340
9381
 90
       25
340
9381
 90
       50
 40
0.24
 40
0.0
 40
0.24
 71
     3
340
937D
 40
0.24
 90
        1
 40
0.75
 90
        1
300
%<\AcVar ViewType \f "%tc1">% %<\AcVar ViewSectionStartId>%-%<\AcVar ViewSectionEndId>%\PSCALE %<\AcVar ViewScale \f "%sn">%
 71
     4
300
ANSI31
 40
1.0
 90
        0
290
     0
290
     0
 90
        6
 40
0.0
 40
1.570796326794896
 40
0.2617993877991494
 40
1.308996938995747
 40
-0.2617993877991494
 40
1.832595714594046
  0
TABLESTYLE
  5
9603
102
{ACAD_XDICTIONARY
360
963B
102
}
102
{ACAD_REACTORS
330
9602
102
}
330
9602
100
AcDbTableStyle
  3
Standard
 70
     0
 71
     0
 40
0.06
 41
0.06
280
     0
281
     0
  7
STANDARD
140
0.18
170
     2
 62
     0
 63
     7
283
     0
274
    -2
284
     1
 64
     0
275
    -2
285
     1
 65
     0
276
    -2
286
     1
 66
     0
277
    -2
287
     1
 67
     0
278
    -2
288
     1
 68
     0
279
    -2
289
     1
 69
     0
  7
STANDARD
140
0.25
170
     5
 62
     0
 63
     7
283
     0
274
    -2
284
     1
 64
     0
275
    -2
285
     1
 65
     0
276
    -2
286
     1
 66
     0
277
    -2
287
     1
 67
     0
278
    -2
288
     1
 68
     0
279
    -2
289
     1
 69
     0
  7
STANDARD
140
0.18
170
     5
 62
     0
 63
     7
283
     0
274
    -2
284
     1
 64
     0
275
    -2
285
     1
 65
     0
276
    -2
286
     1
 66
     0
277
    -2
287
     1
 67
     0
278
    -2
288
     1
 68
     0
279
    -2
289
     1
 69
     0
  0
VISUALSTYLE
  5
95EE
102
{ACAD_XDICTIONARY
360
964C
102
}
102
{ACAD_REACTORS
330
95E8
102
}
330
95E8
100
AcDbVisualStyle
  2
2dWireframe
 70
     4
 71
     0
 72
     2
 73
     0
 90
        0
 40
-0.6
 41
-30.0
 62
     5
 63
     7
 74
     1
 91
        4
 64
     7
 65
   257
 75
     1
175
     1
 42
1.0
 92
        0
 66
   257
 43
1.0
 76
     1
 77
     6
 78
     2
 67
     7
 79
     5
170
     0
171
     0
290
     0
174
     0
 93
        1
 44
0.0
173
     0
291
     0
 45
0.0
1001
ACAD
1000
AcDbSavedByObjectVersion
1070
     0
  0
VISUALSTYLE
  5
95ED
102
{ACAD_XDICTIONARY
360
964A
102
}
102
{ACAD_REACTORS
330
95E8
102
}
330
95E8
100
AcDbVisualStyle
  2
Basic
 70
     7
 71
     1
 72
     0
 73
     1
 90
        0
 40
-0.6
 41
-30.0
 62
     5
 63
     7
 74
     0
 91
        4
 64
     7
 65
   257
 75
     1
175
     1
 42
1.0
 92
        8
 66
     7
 43
1.0
 76
     1
 77
     6
 78
     2
 67
     7
 79
     5
170
     0
171
     0
290
     0
174
     0
 93
        1
 44
0.0
173
     0
291
     1
 45
0.0
1001
ACAD
1000
AcDbSavedByObjectVersion
1070
     0
  0
VISUALSTYLE
  5
95F4
102
{ACAD_XDICTIONARY
360
9658
102
}
102
{ACAD_REACTORS
330
95E8
102
}
330
95E8
100
AcDbVisualStyle
  2
Brighten
 70
    12
 71
     2
 72
     2
 73
     0
 90
        0
 40
-0.6
 41
-30.0
 62
     5
 63
     7
 74
     1
 91
        4
 64
     7
 65
   257
 75
     1
175
     1
 42
1.0
 92
        8
 66
     7
 43
1.0
 76
     1
 77
     6
 78
     2
 67
     7
 79
     5
170
     0
171
     0
290
     0
174
     0
 93
        1
 44
50.0
173
     0
291
     1
 45
0.0
1001
ACAD
1000
AcDbSavedByObjectVersion
1070
     0
  0
VISUALSTYLE
  5
95F8
102
{ACAD_XDICTIONARY
360
9660
102
}
102
{ACAD_REACTORS
330
95E8
102
}
330
95E8
100
AcDbVisualStyle
  2
ColorChange
 70
    16
 71
     2
 72
     2
 73
     3
 90
        0
 40
-0.6
 41
-30.0
 62
     5
 63
     8
 74
     1
 91
        4
 64
     7
 65
   257
 75
     1
175
     1
 42
1.0
 92
        8
 66
     8
 43
1.0
 76
     1
 77
     6
 78
     2
 67
     7
 79
     5
170
     0
171
     0
290
     0
174
     0
 93
        1
 44
0.0
173
     0
291
     1
 45
0.0
1001
ACAD
1000
AcDbSavedByObjectVersion
1070
     0
  0
VISUALSTYLE
  5
95F1
102
{ACAD_XDICTIONARY
360
9652
102
}
102
{ACAD_REACTORS
330
95E8
102
}
330
95E8
100
AcDbVisualStyle
  2
Conceptual
 70
     9
 71
     3
 72
     2
 73
     0
 90
        0
 40
-0.6
 41
-30.0
 62
     5
 63
     7
 74
     2
 91
        2
 64
     7
 65
   257
 75
     1
175
     1
 42
179.0
 92
        8
 66
     7
 43
1.0
 76
     1
 77
     6
 78
     2
 67
     7
 79
     3
170
     0
171
     0
290
     0
174
     0
 93
        1
 44
0.0
173
     0
291
     0
 45
0.0
1001
ACAD
1000
AcDbSavedByObjectVersion
1070
     0
  0
VISUALSTYLE
  5
95F3
102
{ACAD_XDICTIONARY
360
9656
102
}
102
{ACAD_REACTORS
330
95E8
102
}
330
95E8
100
AcDbVisualStyle
  2
Dim
 70
    11
 71
     2
 72
     2
 73
     0
 90
        0
 40
-0.6
 41
-30.0
 62
     5
 63
     7
 74
     1
 91
        4
 64
     7
 65
   257
 75
     1
175
     1
 42
1.0
 92
        8
 66
     7
 43
1.0
 76
     1
 77
     6
 78
     2
 67
     7
 79
     5
170
     0
171
     0
290
     0
174
     0
 93
        1
 44
-50.0
173
     0
291
     1
 45
0.0
1001
ACAD
1000
AcDbSavedByObjectVersion
1070
     0
  0
VISUALSTYLE
  5
9600
102
{ACAD_XDICTIONARY
360
9670
102
}
102
{ACAD_REACTORS
330
95E8
102
}
330
95E8
100
AcDbVisualStyle
  2
EdgeColorOff
 70
    22
 71
     2
 72
     2
 73
     0
 90
        0
 40
-0.6
 41
-30.0
 62
     5
 63
     7
 74
     1
 91
        4
 64
     7
 65
   257
 75
     1
175
     1
 42
1.0
 92
        8
 66
     7
 43
1.0
 76
     1
 77
     6
 78
     2
 67
     7
 79
     5
170
     0
171
     0
290
     0
174
     0
 93
        1
 44
0.0
173
     0
291
     1
 45
0.0
1001
ACAD
1000
AcDbSavedByObjectVersion
1070
     0
  0
VISUALSTYLE
  5
95F7
102
{ACAD_XDICTIONARY
360
965E
102
}
102
{ACAD_REACTORS
330
95E8
102
}
330
95E8
100
AcDbVisualStyle
  2
Facepattern
 70
    15
 71
     2
 72
     2
 73
     0
 90
        0
 40
-0.6
 41
-30.0
 62
     5
 63
     7
 74
     1
 91
        4
 64
     7
 65
   257
 75
     1
175
     1
 42
1.0
 92
        8
 66
     7
 43
1.0
 76
     1
 77
     6
 78
     2
 67
     7
 79
     5
170
     0
171
     0
290
     0
174
     0
 93
        1
 44
0.0
173
     0
291
     1
 45
0.0
1001
ACAD
1000
AcDbSavedByObjectVersion
1070
     0
  0
VISUALSTYLE
  5
95E9
102
{ACAD_XDICTIONARY
360
9642
102
}
102
{ACAD_REACTORS
330
95E8
102
}
330
95E8
100
AcDbVisualStyle
  2
Flat
 70
     0
 71
     2
 72
     1
 73
     1
 90
        2
 40
-0.6
 41
30.0
 62
     5
 63
     7
 74
     0
 91
        0
 64
     7
 65
   257
 75
     1
175
     1
 42
1.0
 92
        8
 66
     7
 43
1.0
 76
     1
 77
     6
 78
     2
 67
     7
 79
     5
170
     0
171
     0
290
     0
174
     0
 93
       13
 44
0.0
173
     0
291
     1
 45
0.0
1001
ACAD
1000
AcDbSavedByObjectVersion
1070
     0
  0
VISUALSTYLE
  5
95EA
102
{ACAD_XDICTIONARY
360
9644
102
}
102
{ACAD_REACTORS
330
95E8
102
}
330
95E8
100
AcDbVisualStyle
  2
FlatWithEdges
 70
     1
 71
     2
 72
     1
 73
     1
 90
        2
 40
-0.6
 41
30.0
 62
     5
 63
     7
 74
     1
 91
        0
 64
     7
 65
   257
 75
     1
175
     1
 42
1.0
 92
        0
 66
   257
 43
1.0
 76
     1
 77
     6
 78
     2
 67
     7
 79
     5
170
     0
171
     0
290
     0
174
     0
 93
       13
 44
0.0
173
     0
291
     1
 45
0.0
1001
ACAD
1000
AcDbSavedByObjectVersion
1070
     0
  0
VISUALSTYLE
  5
95EB
102
{ACAD_XDICTIONARY
360
9646
102
}
102
{ACAD_REACTORS
330
95E8
102
}
330
95E8
100
AcDbVisualStyle
  2
Gouraud
 70
     2
 71
     2
 72
     2
 73
     1
 90
        2
 40
-0.6
 41
30.0
 62
     5
 63
     7
 74
     0
 91
        0
 64
     7
 65
   257
 75
     1
175
     1
 42
1.0
 92
        0
 66
     7
 43
1.0
 76
     1
 77
     6
 78
     2
 67
     7
 79
     5
170
     0
171
     0
290
     0
174
     0
 93
       13
 44
0.0
173
     0
291
     1
 45
0.0
1001
ACAD
1000
AcDbSavedByObjectVersion
1070
     0
  0
VISUALSTYLE
  5
95EC
102
{ACAD_XDICTIONARY
360
9648
102
}
102
{ACAD_REACTORS
330
95E8
102
}
330
95E8
100
AcDbVisualStyle
  2
GouraudWithEdges
 70
     3
 71
     2
 72
     2
 73
     1
 90
        2
 40
-0.6
 41
30.0
 62
     5
 63
     7
 74
     1
 91
        0
 64
     7
 65
   257
 75
     1
175
     1
 42
1.0
 92
        0
 66
   257
 43
1.0
 76
     1
 77
     6
 78
     2
 67
     7
 79
     5
170
     0
171
     0
290
     0
174
     0
 93
       13
 44
0.0
173
     0
291
     1
 45
0.0
1001
ACAD
1000
AcDbSavedByObjectVersion
1070
     0
  0
VISUALSTYLE
  5
95F0
102
{ACAD_XDICTIONARY
360
9650
102
}
102
{ACAD_REACTORS
330
95E8
102
}
330
95E8
100
AcDbVisualStyle
  2
Hidden
 70
     6
 71
     1
 72
     2
 73
     2
 90
        0
 40
-0.6
 41
-30.0
 62
     5
 63
     7
 74
     2
 91
        2
 64
     7
 65
   257
 75
     2
175
     1
 42
40.0
 92
        0
 66
   257
 43
1.0
 76
     1
 77
     6
 78
     2
 67
     7
 79
     3
170
     0
171
     0
290
     0
174
     0
 93
        1
 44
0.0
173
     0
291
     0
 45
0.0
1001
ACAD
1000
AcDbSavedByObjectVersion
1070
     0
  0
VISUALSTYLE
  5
95FE
102
{ACAD_XDICTIONARY
360
966C
102
}
102
{ACAD_REACTORS
330
95E8
102
}
330
95E8
100
AcDbVisualStyle
  2
JitterOff
 70
    20
 71
     2
 72
     2
 73
     0
 90
        0
 40
-0.6
 41
-30.0
 62
     5
 63
     7
 74
     1
 91
        4
 64
     7
 65
   257
 75
     1
175
     1
 42
1.0
 92
       10
 66
     7
 43
1.0
 76
     1
 77
     6
 78
     2
 67
     7
 79
     5
170
     0
171
     0
290
     0
174
     0
 93
        1
 44
0.0
173
     0
291
     1
 45
0.0
1001
ACAD
1000
AcDbSavedByObjectVersion
1070
     0
  0
VISUALSTYLE
  5
95F6
102
{ACAD_XDICTIONARY
360
965C
102
}
102
{ACAD_REACTORS
330
95E8
102
}
330
95E8
100
AcDbVisualStyle
  2
Linepattern
 70
    14
 71
     2
 72
     2
 73
     0
 90
        0
 40
-0.6
 41
-30.0
 62
     5
 63
     7
 74
     1
 91
        4
 64
     7
 65
   257
 75
     7
175
     7
 42
1.0
 92
        8
 66
     7
 43
1.0
 76
     1
 77
     6
 78
     2
 67
     7
 79
     5
170
     0
171
     0
290
     0
174
     0
 93
        1
 44
0.0
173
     0
291
     1
 45
0.0
1001
ACAD
1000
AcDbSavedByObjectVersion
1070
     0
  0
VISUALSTYLE
  5
95FF
102
{ACAD_XDICTIONARY
360
966E
102
}
102
{ACAD_REACTORS
330
95E8
102
}
330
95E8
100
AcDbVisualStyle
  2
OverhangOff
 70
    21
 71
     2
 72
     2
 73
     0
 90
        0
 40
-0.6
 41
-30.0
 62
     5
 63
     7
 74
     1
 91
        4
 64
     7
 65
   257
 75
     1
175
     1
 42
1.0
 92
        9
 66
     7
 43
1.0
 76
     1
 77
     6
 78
     2
 67
     7
 79
     5
170
     0
171
     0
290
     0
174
     0
 93
        1
 44
0.0
173
     0
291
     1
 45
0.0
1001
ACAD
1000
AcDbSavedByObjectVersion
1070
     0
  0
VISUALSTYLE
  5
95F2
102
{ACAD_XDICTIONARY
360
9654
102
}
102
{ACAD_REACTORS
330
95E8
102
}
330
95E8
100
AcDbVisualStyle
  2
Realistic
 70
     8
 71
     2
 72
     3
 73
     0
 90
        2
 40
-0.6
 41
30.0
 62
     5
 63
     7
 74
     0
 91
        0
 64
     7
 65
   257
 75
     1
175
     1
 42
1.0
 92
        8
 66
   257
 43
1.0
 76
     1
 77
     6
 78
     2
 67
     7
 79
     3
170
     0
171
     0
290
     0
174
     0
 93
       13
 44
0.0
173
     0
291
     0
 45
0.0
1001
ACAD
1000
AcDbSavedByObjectVersion
1070
     0
  0
VISUALSTYLE
  5
95FD
102
{ACAD_XDICTIONARY
360
966A
102
}
102
{ACAD_REACTORS
330
95E8
102
}
330
95E8
100
AcDbVisualStyle
  2
Shaded
 70
    27
 71
     2
 72
     2
 73
     1
 90
        2
 40
-0.6
 41
30.0
 62
     5
 63
     7
 74
     0
 91
        4
 64
     7
 65
   257
 75
     1
175
     1
 42
1.0
 92
        8
 66
   257
 43
1.0
 76
     1
 77
     6
 78
     2
 67
     8
 79
     3
170
     0
171
     0
290
     0
174
     0
 93
        5
 44
0.0
173
     0
291
     0
 45
0.0
1001
ACAD
1000
AcDbSavedByObjectVersion
1070
     0
  0
VISUALSTYLE
  5
95FC
102
{ACAD_XDICTIONARY
360
9668
102
}
102
{ACAD_REACTORS
330
95E8
102
}
330
95E8
100
AcDbVisualStyle
  2
Shaded with edges
 70
    26
 71
     2
 72
     2
 73
     1
 90
        2
 40
-0.6
 41
30.0
 62
     5
 63
     7
 74
     1
 91
       10
 64
     7
 65
   257
 75
     2
175
     1
 42
1.0
 92
        8
 66
   257
 43
1.0
 76
     1
 77
     6
 78
     2
 67
     7
 79
     3
170
     0
171
     0
290
     0
174
     0
 93
        5
 44
0.0
173
     0
291
     0
 45
0.0
1001
ACAD
1000
AcDbSavedByObjectVersion
1070
     0
  0
VISUALSTYLE
  5
95F9
102
{ACAD_XDICTIONARY
360
9662
102
}
102
{ACAD_REACTORS
330
95E8
102
}
330
95E8
100
AcDbVisualStyle
  2
Shades of Gray
 70
    23
 71
     2
 72
     2
 73
     3
 90
        0
 40
-0.6
 41
-30.0
 62
     5
 63
     7
 74
     2
 91
        2
 64
     7
 65
     7
 75
     1
175
     1
 42
40.0
 92
        8
 66
     7
 43
1.0
 76
     1
 77
     6
 78
     2
 67
     7
 79
     3
170
     0
171
     0
290
     0
174
     0
 93
        1
 44
0.0
173
     0
291
     0
 45
0.0
1001
ACAD
1000
AcDbSavedByObjectVersion
1070
     0
  0
VISUALSTYLE
  5
95FA
102
{ACAD_XDICTIONARY
360
9664
102
}
102
{ACAD_REACTORS
330
95E8
102
}
330
95E8
100
AcDbVisualStyle
  2
Sketchy
 70
    24
 71
     1
 72
     2
 73
     2
 90
        0
 40
-0.6
 41
-30.0
 62
     5
 63
     7
 74
     2
 91
        2
 64
     7
 65
     7
 75
     1
175
     1
 42
40.0
 92
       11
 66
     7
 43
1.0
 76
     1
 77
     6
 78
     2
 67
     7
 79
     6
170
     0
171
     0
290
     0
174
     0
 93
        1
 44
0.0
173
     0
291
     0
 45
0.0
1001
ACAD
1000
AcDbSavedByObjectVersion
1070
     0
  0
VISUALSTYLE
  5
95F5
102
{ACAD_XDICTIONARY
360
965A
102
}
102
{ACAD_REACTORS
330
95E8
102
}
330
95E8
100
AcDbVisualStyle
  2
Thicken
 70
    13
 71
     2
 72
     2
 73
     0
 90
        0
 40
-0.6
 41
-30.0
 62
     5
 63
     7
 74
     1
 91
        4
 64
     7
 65
   257
 75
     1
175
     1
 42
1.0
 92
       12
 66
     7
 43
1.0
 76
     1
 77
     6
 78
     2
 67
     7
 79
     5
170
     0
171
     0
290
     0
174
     0
 93
        1
 44
0.0
173
     0
291
     1
 45
0.0
1001
ACAD
1000
AcDbSavedByObjectVersion
1070
     0
  0
VISUALSTYLE
  5
95EF
102
{ACAD_XDICTIONARY
360
964E
102
}
102
{ACAD_REACTORS
330
95E8
102
}
330
95E8
100
AcDbVisualStyle
  2
Wireframe
 70
     5
 71
     0
 72
     2
 73
     0
 90
        0
 40
-0.6
 41
-30.0
 62
     5
 63
     7
 74
     1
 91
        4
 64
     7
 65
   257
 75
     1
175
     1
 42
1.0
 92
        0
 66
   257
 43
1.0
 76
     1
 77
     6
 78
     2
 67
     7
 79
     3
170
     0
171
     0
290
     0
174
     0
 93
        1
 44
0.0
173
     0
291
     0
 45
0.0
1001
ACAD
1000
AcDbSavedByObjectVersion
1070
     0
  0
VISUALSTYLE
  5
95FB
102
{ACAD_XDICTIONARY
360
9666
102
}
102
{ACAD_REACTORS
330
95E8
102
}
330
95E8
100
AcDbVisualStyle
  2
X-Ray
 70
    25
 71
     2
 72
     2
 73
     1
 90
        1
 40
0.5
 41
-30.0
 62
     5
 63
     7
 74
     1
 91
        0
 64
     7
 65
   257
 75
     1
175
     1
 42
1.0
 92
        8
 66
     7
 43
1.0
 76
     1
 77
     6
 78
     2
 67
     7
 79
     3
170
     0
171
     0
290
     0
174
     0
 93
       13
 44
0.0
173
     0
291
     0
 45
0.0
1001
ACAD
1000
AcDbSavedByObjectVersion
1070
     0
  0
DICTIONARYVAR
  5
9635
102
{ACAD_REACTORS
330
9630
102
}
330
9630
100
DictionaryVariables
280
     0
  1
1:1
  0
DICTIONARYVAR
  5
9632
102
{ACAD_REACTORS
330
9630
102
}
330
9630
100
DictionaryVariables
280
     0
  1
STANDARD
  0
DICTIONARYVAR
  5
9631
102
{ACAD_REACTORS
330
9630
102
}
330
9630
100
DictionaryVariables
280
     0
  1
STANDARD
  0
DICTIONARYVAR
  5
9633
102
{ACAD_REACTORS
330
9630
102
}
330
9630
100
DictionaryVariables
280
     0
  1
Imperial24
  0
DICTIONARYVAR
  5
9634
102
{ACAD_REACTORS
330
9630
102
}
330
9630
100
DictionaryVariables
280
     0
  1
Imperial24
  0
DICTIONARYVAR
  5
9638
102
{ACAD_REACTORS
330
9630
102
}
330
9630
100
DictionaryVariables
280
     0
  1
1
  0
DICTIONARYVAR
  5
9637
102
{ACAD_REACTORS
330
9630
102
}
330
9630
100
DictionaryVariables
280
     0
  1
0
  0
DICTIONARYVAR
  5
9636
102
{ACAD_REACTORS
330
9630
102
}
330
9630
100
DictionaryVariables
280
     0
  1
127
  0
DICTIONARYVAR
  5
9639
102
{ACAD_REACTORS
330
9630
102
}
330
9630
100
DictionaryVariables
280
     0
  1
2
  0
DICTIONARY
  5
9676
330
961B
100
AcDbDictionary
280
     1
281
     1
  3
ACAD_XREC_ROUNDTRIP
360
9677
  0
DICTIONARY
  5
9678
330
961C
100
AcDbDictionary
280
     1
281
     1
  3
ACAD_XREC_ROUNDTRIP
360
9679
  0
DICTIONARY
  5
967A
330
961D
100
AcDbDictionary
280
     1
281
     1
  3
ACAD_XREC_ROUNDTRIP
360
967B
  0
DICTIONARY
  5
95D9
330
95D8
100
AcDbDictionary
280
     1
281
     1
  3
ACAD_XREC_ROUNDTRIP
360
9640
  3
BUMPTILE
360
95DB
  3
DIFFUSETILE
360
95DA
  3
OPACITYTILE
360
95DE
  3
REFLECTIONTILE
360
95DD
  3
REFRACTIONTILE
360
95DF
  3
SPECULARTILE
360
95DC
  0
DICTIONARY
  5
95D1
330
95D0
100
AcDbDictionary
280
     1
281
     1
  3
ACAD_XREC_ROUNDTRIP
360
963F
  3
BUMPTILE
360
95D3
  3
DIFFUSETILE
360
95D2
  3
OPACITYTILE
360
95D6
  3
REFLECTIONTILE
360
95D5
  3
REFRACTIONTILE
360
95D7
  3
SPECULARTILE
360
95D4
  0
DICTIONARY
  5
95E1
330
95E0
100
AcDbDictionary
280
     1
281
     1
  3
ACAD_XREC_ROUNDTRIP
360
9641
  3
BUMPTILE
360
95E3
  3
DIFFUSETILE
360
95E2
  3
OPACITYTILE
360
95E6
  3
REFLECTIONTILE
360
95E5
  3
REFRACTIONTILE
360
95E7
  3
SPECULARTILE
360
95E4
  0
DICTIONARY
  5
9674
330
9619
100
AcDbDictionary
280
     1
281
     1
  3
ACAD_XREC_ROUNDTRIP
360
9675
  0
DICTIONARY
  5
963B
330
9603
100
AcDbDictionary
280
     1
281
     1
  3
ACAD_ROUNDTRIP_2008_TABLESTYLE_CELLSTYLEMAP
360
963C
  3
ACAD_XREC_ROUNDTRIP
360
9672
  0
DICTIONARY
  5
964C
330
95EE
100
AcDbDictionary
280
     1
281
     1
  3
ACAD_XREC_ROUNDTRIP
360
964D
  0
DICTIONARY
  5
964A
330
95ED
100
AcDbDictionary
280
     1
281
     1
  3
ACAD_XREC_ROUNDTRIP
360
964B
  0
DICTIONARY
  5
9658
330
95F4
100
AcDbDictionary
280
     1
281
     1
  3
ACAD_XREC_ROUNDTRIP
360
9659
  0
DICTIONARY
  5
9660
330
95F8
100
AcDbDictionary
280
     1
281
     1
  3
ACAD_XREC_ROUNDTRIP
360
9661
  0
DICTIONARY
  5
9652
330
95F1
100
AcDbDictionary
280
     1
281
     1
  3
ACAD_XREC_ROUNDTRIP
360
9653
  0
DICTIONARY
  5
9656
330
95F3
100
AcDbDictionary
280
     1
281
     1
  3
ACAD_XREC_ROUNDTRIP
360
9657
  0
DICTIONARY
  5
9670
330
9600
100
AcDbDictionary
280
     1
281
     1
  3
ACAD_XREC_ROUNDTRIP
360
9671
  0
DICTIONARY
  5
965E
330
95F7
100
AcDbDictionary
280
     1
281
     1
  3
ACAD_XREC_ROUNDTRIP
360
965F
  0
DICTIONARY
  5
9642
330
95E9
100
AcDbDictionary
280
     1
281
     1
  3
ACAD_XREC_ROUNDTRIP
360
9643
  0
DICTIONARY
  5
9644
330
95EA
100
AcDbDictionary
280
     1
281
     1
  3
ACAD_XREC_ROUNDTRIP
360
9645
  0
DICTIONARY
  5
9646
330
95EB
100
AcDbDictionary
280
     1
281
     1
  3
ACAD_XREC_ROUNDTRIP
360
9647
  0
DICTIONARY
  5
9648
330
95EC
100
AcDbDictionary
280
     1
281
     1
  3
ACAD_XREC_ROUNDTRIP
360
9649
  0
DICTIONARY
  5
9650
330
95F0
100
AcDbDictionary
280
     1
281
     1
  3
ACAD_XREC_ROUNDTRIP
360
9651
  0
DICTIONARY
  5
966C
330
95FE
100
AcDbDictionary
280
     1
281
     1
  3
ACAD_XREC_ROUNDTRIP
360
966D
  0
DICTIONARY
  5
965C
330
95F6
100
AcDbDictionary
280
     1
281
     1
  3
ACAD_XREC_ROUNDTRIP
360
965D
  0
DICTIONARY
  5
966E
330
95FF
100
AcDbDictionary
280
     1
281
     1
  3
ACAD_XREC_ROUNDTRIP
360
966F
  0
DICTIONARY
  5
9654
330
95F2
100
AcDbDictionary
280
     1
281
     1
  3
ACAD_XREC_ROUNDTRIP
360
9655
  0
DICTIONARY
  5
966A
330
95FD
100
AcDbDictionary
280
     1
281
     1
  3
ACAD_XREC_ROUNDTRIP
360
966B
  0
DICTIONARY
  5
9668
330
95FC
100
AcDbDictionary
280
     1
281
     1
  3
ACAD_XREC_ROUNDTRIP
360
9669
  0
DICTIONARY
  5
9662
330
95F9
100
AcDbDictionary
280
     1
281
     1
  3
ACAD_XREC_ROUNDTRIP
360
9663
  0
DICTIONARY
  5
9664
330
95FA
100
AcDbDictionary
280
     1
281
     1
  3
ACAD_XREC_ROUNDTRIP
360
9665
  0
DICTIONARY
  5
965A
330
95F5
100
AcDbDictionary
280
     1
281
     1
  3
ACAD_XREC_ROUNDTRIP
360
965B
  0
DICTIONARY
  5
964E
330
95EF
100
AcDbDictionary
280
     1
281
     1
  3
ACAD_XREC_ROUNDTRIP
360
964F
  0
DICTIONARY
  5
9666
330
95FB
100
AcDbDictionary
280
     1
281
     1
  3
ACAD_XREC_ROUNDTRIP
360
9667
  0
XRECORD
  5
9677
102
{ACAD_REACTORS
330
9676
102
}
330
9676
100
AcDbXrecord
280
     1
102
DISPLAYNAME
  1
Imperial24
102
FLAGS
 90
        0
  0
XRECORD
  5
9679
102
{ACAD_REACTORS
330
9678
102
}
330
9678
100
AcDbXrecord
280
     1
102
SHADEPLOT
 70
     0
102
SHADEPLOTRESLEVEL
 70
     2
102
SHADEPLOTCUSTOMDPI
 70
   300
  0
XRECORD
  5
967B
102
{ACAD_REACTORS
330
967A
102
}
330
967A
100
AcDbXrecord
280
     1
102
SHADEPLOT
 70
     0
102
SHADEPLOTRESLEVEL
 70
     2
102
SHADEPLOTCUSTOMDPI
 70
   300
  0
XRECORD
  5
9640
102
{ACAD_REACTORS
330
95D9
102
}
330
95D9
100
AcDbXrecord
280
     1
102
MATERIAL
148
0.0
149
0.0
149
0.0
 93
        0
 94
      127
282
     0
 72
     0
 77
     0
171
     0
175
     0
179
     0
273
     0
  0
XRECORD
  5
95DB
102
{ACAD_REACTORS
330
95D9
102
}
330
95D9
100
AcDbXrecord
280
     1
270
     1
271
     1
  0
XRECORD
  5
95DA
102
{ACAD_REACTORS
330
95D9
102
}
330
95D9
100
AcDbXrecord
280
     1
270
     1
271
     1
  0
XRECORD
  5
95DE
102
{ACAD_REACTORS
330
95D9
102
}
330
95D9
100
AcDbXrecord
280
     1
270
     1
271
     1
  0
XRECORD
  5
95DD
102
{ACAD_REACTORS
330
95D9
102
}
330
95D9
100
AcDbXrecord
280
     1
270
     1
271
     1
  0
XRECORD
  5
95DF
102
{ACAD_REACTORS
330
95D9
102
}
330
95D9
100
AcDbXrecord
280
     1
270
     1
271
     1
  0
XRECORD
  5
95DC
102
{ACAD_REACTORS
330
95D9
102
}
330
95D9
100
AcDbXrecord
280
     1
270
     1
271
     1
  0
XRECORD
  5
963F
102
{ACAD_REACTORS
330
95D1
102
}
330
95D1
100
AcDbXrecord
280
     1
102
MATERIAL
148
0.0
149
0.0
149
0.0
 93
        0
 94
      127
282
     0
 72
     0
 77
     0
171
     0
175
     0
179
     0
273
     0
  0
XRECORD
  5
95D3
102
{ACAD_REACTORS
330
95D1
102
}
330
95D1
100
AcDbXrecord
280
     1
270
     1
271
     1
  0
XRECORD
  5
95D2
102
{ACAD_REACTORS
330
95D1
102
}
330
95D1
100
AcDbXrecord
280
     1
270
     1
271
     1
  0
XRECORD
  5
95D6
102
{ACAD_REACTORS
330
95D1
102
}
330
95D1
100
AcDbXrecord
280
     1
270
     1
271
     1
  0
XRECORD
  5
95D5
102
{ACAD_REACTORS
330
95D1
102
}
330
95D1
100
AcDbXrecord
280
     1
270
     1
271
     1
  0
XRECORD
  5
95D7
102
{ACAD_REACTORS
330
95D1
102
}
330
95D1
100
AcDbXrecord
280
     1
270
     1
271
     1
  0
XRECORD
  5
95D4
102
{ACAD_REACTORS
330
95D1
102
}
330
95D1
100
AcDbXrecord
280
     1
270
     1
271
     1
  0
XRECORD
  5
9641
102
{ACAD_REACTORS
330
95E1
102
}
330
95E1
100
AcDbXrecord
280
     1
102
MATERIAL
148
0.0
149
0.0
149
0.0
 93
        0
 94
      127
282
     0
 72
     0
 77
     0
171
     0
175
     0
179
     0
273
     0
  0
XRECORD
  5
95E3
102
{ACAD_REACTORS
330
95E1
102
}
330
95E1
100
AcDbXrecord
280
     1
270
     1
271
     1
  0
XRECORD
  5
95E2
102
{ACAD_REACTORS
330
95E1
102
}
330
95E1
100
AcDbXrecord
280
     1
270
     1
271
     1
  0
XRECORD
  5
95E6
102
{ACAD_REACTORS
330
95E1
102
}
330
95E1
100
AcDbXrecord
280
     1
270
     1
271
     1
  0
XRECORD
  5
95E5
102
{ACAD_REACTORS
330
95E1
102
}
330
95E1
100
AcDbXrecord
280
     1
270
     1
271
     1
  0
XRECORD
  5
95E7
102
{ACAD_REACTORS
330
95E1
102
}
330
95E1
100
AcDbXrecord
280
     1
270
     1
271
     1
  0
XRECORD
  5
95E4
102
{ACAD_REACTORS
330
95E1
102
}
330
95E1
100
AcDbXrecord
280
     1
270
     1
271
     1
  0
XRECORD
  5
9675
102
{ACAD_REACTORS
330
9674
102
}
330
9674
100
AcDbXrecord
280
     1
102
DISPLAYNAME
  1
Imperial24
102
FLAGS
 90
        0
  0
CELLSTYLEMAP
  5
963C
102
{ACAD_REACTORS
330
963B
102
}
330
963B
100
AcDbCellStyleMap
 90
        3
300
CELLSTYLE
  1
TABLEFORMAT_BEGIN
 90
        5
170
     1
 91
        0
 92
    32768
 62
   257
 93
        1
300
CONTENTFORMAT
  1
CONTENTFORMAT_BEGIN
 90
        0
 91
        0
 92
      512
 93
        0
300

 40
0.0
140
1.0
 94
        5
 62
     0
340
937D
144
0.25
309
CONTENTFORMAT_END
171
     0
 94
        0
309
TABLEFORMAT_END
  1
CELLSTYLE_BEGIN
 90
        1
 91
        1
300
_TITLE
309
CELLSTYLE_END
300
CELLSTYLE
  1
TABLEFORMAT_BEGIN
 90
        5
170
     1
 91
        0
 92
        0
 62
   257
 93
        1
300
CONTENTFORMAT
  1
CONTENTFORMAT_BEGIN
 90
        0
 91
        0
 92
      512
 93
        0
300

 40
0.0
140
1.0
 94
        5
 62
     0
340
937D
144
0.18
309
CONTENTFORMAT_END
171
     0
 94
        0
309
TABLEFORMAT_END
  1
CELLSTYLE_BEGIN
 90
        2
 91
        1
300
_HEADER
309
CELLSTYLE_END
300
CELLSTYLE
  1
TABLEFORMAT_BEGIN
 90
        5
170
     1
 91
        0
 92
        0
 62
   257
 93
        1
300
CONTENTFORMAT
  1
CONTENTFORMAT_BEGIN
 90
        0
 91
        0
 92
      512
 93
        0
300

 40
0.0
140
1.0
 94
        2
 62
     0
340
937D
144
0.18
309
CONTENTFORMAT_END
171
     0
 94
        0
309
TABLEFORMAT_END
  1
CELLSTYLE_BEGIN
 90
        3
 91
        2
300
_DATA
309
CELLSTYLE_END
  0
XRECORD
  5
9672
102
{ACAD_REACTORS
330
963B
102
}
330
963B
100
AcDbXrecord
280
     1
102
ACAD_ROUNDTRIP_PRE2007_TABLESTYLE
 90
      512
 91
        0
  1

 92
      512
 93
        0
  2

 94
      512
 95
        0
  3

  0
XRECORD
  5
964D
102
{ACAD_REACTORS
330
964C
102
}
330
964C
100
AcDbXrecord
280
     1
102
RTVSPost2010Prop28
280
     1
102
RTVSPost2010PropOp28
 70
     1
102
RTVSPost2010Prop29
280
     1
102
RTVSPost2010PropOp29
 70
     1
102
RTVSPost2010Prop30
280
     0
102
RTVSPost2010PropOp30
 70
     1
102
RTVSPost2010Prop31
280
     0
102
RTVSPost2010PropOp31
 70
     1
102
RTVSPost2010Prop32
280
     0
102
RTVSPost2010PropOp32
 70
     1
102
RTVSPost2010Prop33
280
     0
102
RTVSPost2010PropOp33
 70
     1
102
RTVSPost2010Prop34
280
     0
102
RTVSPost2010PropOp34
 70
     1
102
RTVSPost2010Prop35
280
     0
102
RTVSPost2010PropOp35
 70
     1
102
RTVSPost2010Prop36
280
     0
102
RTVSPost2010PropOp36
 70
     1
102
RTVSPost2010Prop37
 90
       50
102
RTVSPost2010PropOp37
 70
     1
102
RTVSPost2010Prop38
140
0.0
102
RTVSPost2010PropOp38
 70
     1
102
RTVSPost2010Prop39
140
1.0
102
RTVSPost2010PropOp39
 70
     1
102
RTVSPost2010Prop40
 90
        0
102
RTVSPost2010PropOp40
 70
     1
102
RTVSPost2010Prop41ColorIndex
 90
       18
102
RTVSPost2010Prop41ColorRGB
 90
        0
102
RTVSPost2010PropOp41
 70
     1
102
RTVSPost2010Prop42
 90
       50
102
RTVSPost2010PropOp42
 70
     1
102
RTVSPost2010Prop43
 90
        3
102
RTVSPost2010PropOp43
 70
     1
102
RTVSPost2010Prop44ColorIndex
 90
        5
102
RTVSPost2010Prop44ColorRGB
 90
      255
102
RTVSPost2010PropOp44
 70
     1
102
RTVSPost2010Prop45
280
     0
102
RTVSPost2010PropOp45
 70
     1
102
RTVSPost2010Prop46
 90
       50
102
RTVSPost2010PropOp46
 70
     1
102
RTVSPost2010Prop47
 90
       50
102
RTVSPost2010PropOp47
 70
     1
102
RTVSPost2010Prop48
 90
       50
102
RTVSPost2010PropOp48
 70
     1
102
RTVSPost2010Prop49
280
     0
102
RTVSPost2010PropOp49
 70
     1
102
RTVSPost2010Prop50
 90
       50
102
RTVSPost2010PropOp50
 70
     1
102
RTVSPost2010Prop51ColorIndex
 90
      256
102
RTVSPost2010Prop51ColorRGB
 90
-16777216
102
RTVSPost2010PropOp51
 70
     0
102
RTVSPost2010Prop52
140
1.0
102
RTVSPost2010PropOp52
 70
     0
102
RTVSPost2010Prop53
 90
        2
102
RTVSPost2010PropOp53
 70
     1
102
RTVSPost2010Prop54
  1
strokes_ogs.tif
102
RTVSPost2010PropOp54
 70
     1
102
RTVSPost2010Prop55
280
     0
102
RTVSPost2010PropOp55
 70
     1
102
RTVSPost2010Prop56
140
1.0
102
RTVSPost2010PropOp56
 70
     1
102
RTVSPost2010Prop57
140
1.0
102
RTVSPost2010PropOp57
 70
     1
102
RTVSPropertyOp0
 70
     1
102
RTVSPropertyOp1
 70
     1
102
RTVSPropertyOp2
 70
     1
102
RTVSPropertyOp3
 70
     1
102
RTVSPropertyOp4
 70
     1
102
RTVSPropertyOp5
 70
     1
102
RTVSPropertyOp6
 70
     1
102
RTVSPropertyOp7
 70
     1
102
RTVSPropertyOp8
 70
     1
102
RTVSPropertyOp9
 70
     1
102
RTVSPropertyOp10
 70
     1
102
RTVSPropertyOp11
 70
     1
102
RTVSPropertyOp12
 70
     1
102
RTVSPropertyOp13
 70
     1
102
RTVSPropertyOp14
 70
     1
102
RTVSPropertyOp15
 70
     1
102
RTVSPropertyOp16
 70
     1
102
RTVSPropertyOp17
 70
     1
102
RTVSPropertyOp18
 70
     1
102
RTVSPropertyOp19
 70
     1
102
RTVSPropertyOp20
 70
     1
102
RTVSPropertyOp21
 70
     1
102
RTVSPropertyOp22
 70
     1
102
RTVSPropertyOp23
 70
     1
102
RTVSPropertyOp24
 70
     1
102
RTVSPropertyOp25
 70
     1
102
RTVSPropertyOp26
 70
     1
102
RTVSPropertyOp27
 70
     1
102
RTVSPropertyOp28
 70
     1
102
RTVSPropertyOp29
 70
     1
102
RTVSPropertyOp30
 70
     1
102
RTVSPropertyOp31
 70
     1
102
RTVSPropertyOp32
 70
     1
102
RTVSPropertyOp33
 70
     1
102
RTVSPropertyOp34
 70
     1
102
RTVSPropertyOp35
 70
     1
102
RTVSPropertyOp36
 70
     1
102
RTVSPropertyOp37
 70
     1
102
RTVSPropertyOp38
 70
     1
102
RTVSPropertyOp39
 70
     1
102
RTVSPropertyOp40
 70
     1
102
RTVSPropertyOp41
 70
     1
102
RTVSPropertyOp42
 70
     1
102
RTVSPropertyOp43
 70
     1
102
RTVSPropertyOp44
 70
     1
102
RTVSPropertyOp45
 70
     1
102
RTVSPropertyOp46
 70
     1
102
RTVSPropertyOp47
 70
     1
102
RTVSPropertyOp48
 70
     1
102
RTVSPropertyOp49
 70
     1
102
RTVSPropertyOp50
 70
     1
102
RTVSPropertyOp51
 70
     0
102
RTVSPropertyOp52
 70
     0
102
RTVSPropertyOp53
 70
     1
102
RTVSPropertyOp54
 70
     1
102
RTVSPropertyOp55
 70
     1
102
RTVSPropertyOp56
 70
     1
102
RTVSPropertyOp57
 70
     1
102
RTVSPropertyOp58
 70
     1
102
RTVSPropertyOp59
 70
     1
102
RTVSPropertyOp60
 70
     1
102
RTVSPropertyOp61
 70
     1
102
RTVSPropertyOp62
 70
     1
  0
XRECORD
  5
964B
102
{ACAD_REACTORS
330
964A
102
}
330
964A
100
AcDbXrecord
280
     1
102
RTVSPost2010Prop28
280
     0
102
RTVSPost2010PropOp28
 70
     1
102
RTVSPost2010Prop29
280
     1
102
RTVSPost2010PropOp29
 70
     1
102
RTVSPost2010Prop30
280
     1
102
RTVSPost2010PropOp30
 70
     1
102
RTVSPost2010Prop31
280
     0
102
RTVSPost2010PropOp31
 70
     1
102
RTVSPost2010Prop32
280
     0
102
RTVSPost2010PropOp32
 70
     1
102
RTVSPost2010Prop33
280
     0
102
RTVSPost2010PropOp33
 70
     1
102
RTVSPost2010Prop34
280
     0
102
RTVSPost2010PropOp34
 70
     1
102
RTVSPost2010Prop35
280
     0
102
RTVSPost2010PropOp35
 70
     1
102
RTVSPost2010Prop36
280
     0
102
RTVSPost2010PropOp36
 70
     1
102
RTVSPost2010Prop37
 90
       50
102
RTVSPost2010PropOp37
 70
     1
102
RTVSPost2010Prop38
140
0.0
102
RTVSPost2010PropOp38
 70
     1
102
RTVSPost2010Prop39
140
1.0
102
RTVSPost2010PropOp39
 70
     1
102
RTVSPost2010Prop40
 90
        0
102
RTVSPost2010PropOp40
 70
     1
102
RTVSPost2010Prop41ColorIndex
 90
       18
102
RTVSPost2010Prop41ColorRGB
 90
        0
102
RTVSPost2010PropOp41
 70
     1
102
RTVSPost2010Prop42
 90
       50
102
RTVSPost2010PropOp42
 70
     1
102
RTVSPost2010Prop43
 90
        3
102
RTVSPost2010PropOp43
 70
     1
102
RTVSPost2010Prop44ColorIndex
 90
        5
102
RTVSPost2010Prop44ColorRGB
 90
      255
102
RTVSPost2010PropOp44
 70
     1
102
RTVSPost2010Prop45
280
     0
102
RTVSPost2010PropOp45
 70
     1
102
RTVSPost2010Prop46
 90
       50
102
RTVSPost2010PropOp46
 70
     1
102
RTVSPost2010Prop47
 90
       50
102
RTVSPost2010PropOp47
 70
     1
102
RTVSPost2010Prop48
 90
       50
102
RTVSPost2010PropOp48
 70
     1
102
RTVSPost2010Prop49
280
     0
102
RTVSPost2010PropOp49
 70
     1
102
RTVSPost2010Prop50
 90
       50
102
RTVSPost2010PropOp50
 70
     1
102
RTVSPost2010Prop51ColorIndex
 90
      256
102
RTVSPost2010Prop51ColorRGB
 90
-16777216
102
RTVSPost2010PropOp51
 70
     0
102
RTVSPost2010Prop52
140
1.0
102
RTVSPost2010PropOp52
 70
     0
102
RTVSPost2010Prop53
 90
        2
102
RTVSPost2010PropOp53
 70
     1
102
RTVSPost2010Prop54
  1
strokes_ogs.tif
102
RTVSPost2010PropOp54
 70
     1
102
RTVSPost2010Prop55
280
     0
102
RTVSPost2010PropOp55
 70
     1
102
RTVSPost2010Prop56
140
1.0
102
RTVSPost2010PropOp56
 70
     1
102
RTVSPost2010Prop57
140
1.0
102
RTVSPost2010PropOp57
 70
     1
102
RTVSPropertyOp0
 70
     1
102
RTVSPropertyOp1
 70
     1
102
RTVSPropertyOp2
 70
     1
102
RTVSPropertyOp3
 70
     1
102
RTVSPropertyOp4
 70
     1
102
RTVSPropertyOp5
 70
     1
102
RTVSPropertyOp6
 70
     1
102
RTVSPropertyOp7
 70
     1
102
RTVSPropertyOp8
 70
     1
102
RTVSPropertyOp9
 70
     1
102
RTVSPropertyOp10
 70
     1
102
RTVSPropertyOp11
 70
     1
102
RTVSPropertyOp12
 70
     1
102
RTVSPropertyOp13
 70
     1
102
RTVSPropertyOp14
 70
     1
102
RTVSPropertyOp15
 70
     1
102
RTVSPropertyOp16
 70
     1
102
RTVSPropertyOp17
 70
     1
102
RTVSPropertyOp18
 70
     1
102
RTVSPropertyOp19
 70
     1
102
RTVSPropertyOp20
 70
     1
102
RTVSPropertyOp21
 70
     1
102
RTVSPropertyOp22
 70
     1
102
RTVSPropertyOp23
 70
     1
102
RTVSPropertyOp24
 70
     1
102
RTVSPropertyOp25
 70
     1
102
RTVSPropertyOp26
 70
     1
102
RTVSPropertyOp27
 70
     1
102
RTVSPropertyOp28
 70
     1
102
RTVSPropertyOp29
 70
     1
102
RTVSPropertyOp30
 70
     1
102
RTVSPropertyOp31
 70
     1
102
RTVSPropertyOp32
 70
     1
102
RTVSPropertyOp33
 70
     1
102
RTVSPropertyOp34
 70
     1
102
RTVSPropertyOp35
 70
     1
102
RTVSPropertyOp36
 70
     1
102
RTVSPropertyOp37
 70
     1
102
RTVSPropertyOp38
 70
     1
102
RTVSPropertyOp39
 70
     1
102
RTVSPropertyOp40
 70
     1
102
RTVSPropertyOp41
 70
     1
102
RTVSPropertyOp42
 70
     1
102
RTVSPropertyOp43
 70
     1
102
RTVSPropertyOp44
 70
     1
102
RTVSPropertyOp45
 70
     1
102
RTVSPropertyOp46
 70
     1
102
RTVSPropertyOp47
 70
     1
102
RTVSPropertyOp48
 70
     1
102
RTVSPropertyOp49
 70
     1
102
RTVSPropertyOp50
 70
     1
102
RTVSPropertyOp51
 70
     0
102
RTVSPropertyOp52
 70
     0
102
RTVSPropertyOp53
 70
     1
102
RTVSPropertyOp54
 70
     1
102
RTVSPropertyOp55
 70
     1
102
RTVSPropertyOp56
 70
     1
102
RTVSPropertyOp57
 70
     1
102
RTVSPropertyOp58
 70
     1
102
RTVSPropertyOp59
 70
     1
102
RTVSPropertyOp60
 70
     1
102
RTVSPropertyOp61
 70
     1
102
RTVSPropertyOp62
 70
     1
  0
XRECORD
  5
9659
102
{ACAD_REACTORS
330
9658
102
}
330
9658
100
AcDbXrecord
280
     1
102
RTVSPost2010Prop28
280
     0
102
RTVSPost2010PropOp28
 70
     1
102
RTVSPost2010Prop29
280
     1
102
RTVSPost2010PropOp29
 70
     1
102
RTVSPost2010Prop30
280
     1
102
RTVSPost2010PropOp30
 70
     1
102
RTVSPost2010Prop31
280
     0
102
RTVSPost2010PropOp31
 70
     1
102
RTVSPost2010Prop32
280
     0
102
RTVSPost2010PropOp32
 70
     1
102
RTVSPost2010Prop33
280
     0
102
RTVSPost2010PropOp33
 70
     1
102
RTVSPost2010Prop34
280
     0
102
RTVSPost2010PropOp34
 70
     1
102
RTVSPost2010Prop35
280
     0
102
RTVSPost2010PropOp35
 70
     1
102
RTVSPost2010Prop36
280
     0
102
RTVSPost2010PropOp36
 70
     1
102
RTVSPost2010Prop37
 90
       50
102
RTVSPost2010PropOp37
 70
     1
102
RTVSPost2010Prop38
140
0.0
102
RTVSPost2010PropOp38
 70
     1
102
RTVSPost2010Prop39
140
1.0
102
RTVSPost2010PropOp39
 70
     1
102
RTVSPost2010Prop40
 90
        0
102
RTVSPost2010PropOp40
 70
     1
102
RTVSPost2010Prop41ColorIndex
 90
       18
102
RTVSPost2010Prop41ColorRGB
 90
        0
102
RTVSPost2010PropOp41
 70
     1
102
RTVSPost2010Prop42
 90
       50
102
RTVSPost2010PropOp42
 70
     1
102
RTVSPost2010Prop43
 90
        3
102
RTVSPost2010PropOp43
 70
     1
102
RTVSPost2010Prop44ColorIndex
 90
        5
102
RTVSPost2010Prop44ColorRGB
 90
      255
102
RTVSPost2010PropOp44
 70
     1
102
RTVSPost2010Prop45
280
     0
102
RTVSPost2010PropOp45
 70
     1
102
RTVSPost2010Prop46
 90
       50
102
RTVSPost2010PropOp46
 70
     1
102
RTVSPost2010Prop47
 90
       50
102
RTVSPost2010PropOp47
 70
     1
102
RTVSPost2010Prop48
 90
       50
102
RTVSPost2010PropOp48
 70
     1
102
RTVSPost2010Prop49
280
     0
102
RTVSPost2010PropOp49
 70
     1
102
RTVSPost2010Prop50
 90
       50
102
RTVSPost2010PropOp50
 70
     1
102
RTVSPost2010Prop51ColorIndex
 90
      256
102
RTVSPost2010Prop51ColorRGB
 90
-16777216
102
RTVSPost2010PropOp51
 70
     0
102
RTVSPost2010Prop52
140
1.0
102
RTVSPost2010PropOp52
 70
     0
102
RTVSPost2010Prop53
 90
        2
102
RTVSPost2010PropOp53
 70
     1
102
RTVSPost2010Prop54
  1
strokes_ogs.tif
102
RTVSPost2010PropOp54
 70
     1
102
RTVSPost2010Prop55
280
     0
102
RTVSPost2010PropOp55
 70
     1
102
RTVSPost2010Prop56
140
1.0
102
RTVSPost2010PropOp56
 70
     1
102
RTVSPost2010Prop57
140
1.0
102
RTVSPost2010PropOp57
 70
     1
102
RTVSPropertyOp0
 70
     1
102
RTVSPropertyOp1
 70
     1
102
RTVSPropertyOp2
 70
     1
102
RTVSPropertyOp3
 70
     1
102
RTVSPropertyOp4
 70
     1
102
RTVSPropertyOp5
 70
     1
102
RTVSPropertyOp6
 70
     1
102
RTVSPropertyOp7
 70
     1
102
RTVSPropertyOp8
 70
     1
102
RTVSPropertyOp9
 70
     1
102
RTVSPropertyOp10
 70
     1
102
RTVSPropertyOp11
 70
     1
102
RTVSPropertyOp12
 70
     1
102
RTVSPropertyOp13
 70
     1
102
RTVSPropertyOp14
 70
     1
102
RTVSPropertyOp15
 70
     1
102
RTVSPropertyOp16
 70
     1
102
RTVSPropertyOp17
 70
     1
102
RTVSPropertyOp18
 70
     1
102
RTVSPropertyOp19
 70
     1
102
RTVSPropertyOp20
 70
     1
102
RTVSPropertyOp21
 70
     1
102
RTVSPropertyOp22
 70
     1
102
RTVSPropertyOp23
 70
     1
102
RTVSPropertyOp24
 70
     1
102
RTVSPropertyOp25
 70
     1
102
RTVSPropertyOp26
 70
     1
102
RTVSPropertyOp27
 70
     1
102
RTVSPropertyOp28
 70
     1
102
RTVSPropertyOp29
 70
     1
102
RTVSPropertyOp30
 70
     1
102
RTVSPropertyOp31
 70
     1
102
RTVSPropertyOp32
 70
     1
102
RTVSPropertyOp33
 70
     1
102
RTVSPropertyOp34
 70
     1
102
RTVSPropertyOp35
 70
     1
102
RTVSPropertyOp36
 70
     1
102
RTVSPropertyOp37
 70
     1
102
RTVSPropertyOp38
 70
     1
102
RTVSPropertyOp39
 70
     1
102
RTVSPropertyOp40
 70
     1
102
RTVSPropertyOp41
 70
     1
102
RTVSPropertyOp42
 70
     1
102
RTVSPropertyOp43
 70
     1
102
RTVSPropertyOp44
 70
     1
102
RTVSPropertyOp45
 70
     1
102
RTVSPropertyOp46
 70
     1
102
RTVSPropertyOp47
 70
     1
102
RTVSPropertyOp48
 70
     1
102
RTVSPropertyOp49
 70
     1
102
RTVSPropertyOp50
 70
     1
102
RTVSPropertyOp51
 70
     0
102
RTVSPropertyOp52
 70
     0
102
RTVSPropertyOp53
 70
     1
102
RTVSPropertyOp54
 70
     1
102
RTVSPropertyOp55
 70
     1
102
RTVSPropertyOp56
 70
     1
102
RTVSPropertyOp57
 70
     1
102
RTVSPropertyOp58
 70
     1
102
RTVSPropertyOp59
 70
     1
102
RTVSPropertyOp60
 70
     1
102
RTVSPropertyOp61
 70
     1
102
RTVSPropertyOp62
 70
     1
  0
XRECORD
  5
9661
102
{ACAD_REACTORS
330
9660
102
}
330
9660
100
AcDbXrecord
280
     1
102
RTVSPost2010Prop28
280
     0
102
RTVSPost2010PropOp28
 70
     1
102
RTVSPost2010Prop29
280
     1
102
RTVSPost2010PropOp29
 70
     1
102
RTVSPost2010Prop30
280
     1
102
RTVSPost2010PropOp30
 70
     1
102
RTVSPost2010Prop31
280
     0
102
RTVSPost2010PropOp31
 70
     1
102
RTVSPost2010Prop32
280
     0
102
RTVSPost2010PropOp32
 70
     1
102
RTVSPost2010Prop33
280
     0
102
RTVSPost2010PropOp33
 70
     1
102
RTVSPost2010Prop34
280
     0
102
RTVSPost2010PropOp34
 70
     1
102
RTVSPost2010Prop35
280
     0
102
RTVSPost2010PropOp35
 70
     1
102
RTVSPost2010Prop36
280
     0
102
RTVSPost2010PropOp36
 70
     1
102
RTVSPost2010Prop37
 90
       50
102
RTVSPost2010PropOp37
 70
     1
102
RTVSPost2010Prop38
140
0.0
102
RTVSPost2010PropOp38
 70
     1
102
RTVSPost2010Prop39
140
1.0
102
RTVSPost2010PropOp39
 70
     1
102
RTVSPost2010Prop40
 90
        0
102
RTVSPost2010PropOp40
 70
     1
102
RTVSPost2010Prop41ColorIndex
 90
       18
102
RTVSPost2010Prop41ColorRGB
 90
        0
102
RTVSPost2010PropOp41
 70
     1
102
RTVSPost2010Prop42
 90
       50
102
RTVSPost2010PropOp42
 70
     1
102
RTVSPost2010Prop43
 90
        3
102
RTVSPost2010PropOp43
 70
     1
102
RTVSPost2010Prop44ColorIndex
 90
        5
102
RTVSPost2010Prop44ColorRGB
 90
      255
102
RTVSPost2010PropOp44
 70
     1
102
RTVSPost2010Prop45
280
     0
102
RTVSPost2010PropOp45
 70
     1
102
RTVSPost2010Prop46
 90
       50
102
RTVSPost2010PropOp46
 70
     1
102
RTVSPost2010Prop47
 90
       50
102
RTVSPost2010PropOp47
 70
     1
102
RTVSPost2010Prop48
 90
       50
102
RTVSPost2010PropOp48
 70
     1
102
RTVSPost2010Prop49
280
     0
102
RTVSPost2010PropOp49
 70
     1
102
RTVSPost2010Prop50
 90
       50
102
RTVSPost2010PropOp50
 70
     1
102
RTVSPost2010Prop51ColorIndex
 90
      256
102
RTVSPost2010Prop51ColorRGB
 90
-16777216
102
RTVSPost2010PropOp51
 70
     0
102
RTVSPost2010Prop52
140
1.0
102
RTVSPost2010PropOp52
 70
     0
102
RTVSPost2010Prop53
 90
        2
102
RTVSPost2010PropOp53
 70
     1
102
RTVSPost2010Prop54
  1
strokes_ogs.tif
102
RTVSPost2010PropOp54
 70
     1
102
RTVSPost2010Prop55
280
     0
102
RTVSPost2010PropOp55
 70
     1
102
RTVSPost2010Prop56
140
1.0
102
RTVSPost2010PropOp56
 70
     1
102
RTVSPost2010Prop57
140
1.0
102
RTVSPost2010PropOp57
 70
     1
102
RTVSPropertyOp0
 70
     1
102
RTVSPropertyOp1
 70
     1
102
RTVSPropertyOp2
 70
     1
102
RTVSPropertyOp3
 70
     1
102
RTVSPropertyOp4
 70
     1
102
RTVSPropertyOp5
 70
     1
102
RTVSPropertyOp6
 70
     1
102
RTVSPropertyOp7
 70
     1
102
RTVSPropertyOp8
 70
     1
102
RTVSPropertyOp9
 70
     1
102
RTVSPropertyOp10
 70
     1
102
RTVSPropertyOp11
 70
     1
102
RTVSPropertyOp12
 70
     1
102
RTVSPropertyOp13
 70
     1
102
RTVSPropertyOp14
 70
     1
102
RTVSPropertyOp15
 70
     1
102
RTVSPropertyOp16
 70
     1
102
RTVSPropertyOp17
 70
     1
102
RTVSPropertyOp18
 70
     1
102
RTVSPropertyOp19
 70
     1
102
RTVSPropertyOp20
 70
     1
102
RTVSPropertyOp21
 70
     1
102
RTVSPropertyOp22
 70
     1
102
RTVSPropertyOp23
 70
     1
102
RTVSPropertyOp24
 70
     1
102
RTVSPropertyOp25
 70
     1
102
RTVSPropertyOp26
 70
     1
102
RTVSPropertyOp27
 70
     1
102
RTVSPropertyOp28
 70
     1
102
RTVSPropertyOp29
 70
     1
102
RTVSPropertyOp30
 70
     1
102
RTVSPropertyOp31
 70
     1
102
RTVSPropertyOp32
 70
     1
102
RTVSPropertyOp33
 70
     1
102
RTVSPropertyOp34
 70
     1
102
RTVSPropertyOp35
 70
     1
102
RTVSPropertyOp36
 70
     1
102
RTVSPropertyOp37
 70
     1
102
RTVSPropertyOp38
 70
     1
102
RTVSPropertyOp39
 70
     1
102
RTVSPropertyOp40
 70
     1
102
RTVSPropertyOp41
 70
     1
102
RTVSPropertyOp42
 70
     1
102
RTVSPropertyOp43
 70
     1
102
RTVSPropertyOp44
 70
     1
102
RTVSPropertyOp45
 70
     1
102
RTVSPropertyOp46
 70
     1
102
RTVSPropertyOp47
 70
     1
102
RTVSPropertyOp48
 70
     1
102
RTVSPropertyOp49
 70
     1
102
RTVSPropertyOp50
 70
     1
102
RTVSPropertyOp51
 70
     0
102
RTVSPropertyOp52
 70
     0
102
RTVSPropertyOp53
 70
     1
102
RTVSPropertyOp54
 70
     1
102
RTVSPropertyOp55
 70
     1
102
RTVSPropertyOp56
 70
     1
102
RTVSPropertyOp57
 70
     1
102
RTVSPropertyOp58
 70
     1
102
RTVSPropertyOp59
 70
     1
102
RTVSPropertyOp60
 70
     1
102
RTVSPropertyOp61
 70
     1
102
RTVSPropertyOp62
 70
     1
  0
XRECORD
  5
9653
102
{ACAD_REACTORS
330
9652
102
}
330
9652
100
AcDbXrecord
280
     1
102
RTVSPost2010Prop28
280
     0
102
RTVSPost2010PropOp28
 70
     1
102
RTVSPost2010Prop29
280
     1
102
RTVSPost2010PropOp29
 70
     1
102
RTVSPost2010Prop30
280
     1
102
RTVSPost2010PropOp30
 70
     1
102
RTVSPost2010Prop31
280
     0
102
RTVSPost2010PropOp31
 70
     1
102
RTVSPost2010Prop32
280
     0
102
RTVSPost2010PropOp32
 70
     1
102
RTVSPost2010Prop33
280
     0
102
RTVSPost2010PropOp33
 70
     1
102
RTVSPost2010Prop34
280
     0
102
RTVSPost2010PropOp34
 70
     1
102
RTVSPost2010Prop35
280
     0
102
RTVSPost2010PropOp35
 70
     1
102
RTVSPost2010Prop36
280
     0
102
RTVSPost2010PropOp36
 70
     1
102
RTVSPost2010Prop37
 90
       50
102
RTVSPost2010PropOp37
 70
     1
102
RTVSPost2010Prop38
140
0.0
102
RTVSPost2010PropOp38
 70
     1
102
RTVSPost2010Prop39
140
1.0
102
RTVSPost2010PropOp39
 70
     1
102
RTVSPost2010Prop40
 90
        0
102
RTVSPost2010PropOp40
 70
     1
102
RTVSPost2010Prop41ColorIndex
 90
       18
102
RTVSPost2010Prop41ColorRGB
 90
        0
102
RTVSPost2010PropOp41
 70
     1
102
RTVSPost2010Prop42
 90
       50
102
RTVSPost2010PropOp42
 70
     1
102
RTVSPost2010Prop43
 90
        3
102
RTVSPost2010PropOp43
 70
     1
102
RTVSPost2010Prop44ColorIndex
 90
        5
102
RTVSPost2010Prop44ColorRGB
 90
      255
102
RTVSPost2010PropOp44
 70
     1
102
RTVSPost2010Prop45
280
     0
102
RTVSPost2010PropOp45
 70
     1
102
RTVSPost2010Prop46
 90
       50
102
RTVSPost2010PropOp46
 70
     1
102
RTVSPost2010Prop47
 90
       50
102
RTVSPost2010PropOp47
 70
     1
102
RTVSPost2010Prop48
 90
       50
102
RTVSPost2010PropOp48
 70
     1
102
RTVSPost2010Prop49
280
     0
102
RTVSPost2010PropOp49
 70
     1
102
RTVSPost2010Prop50
 90
       50
102
RTVSPost2010PropOp50
 70
     1
102
RTVSPost2010Prop51ColorIndex
 90
      256
102
RTVSPost2010Prop51ColorRGB
 90
-16777216
102
RTVSPost2010PropOp51
 70
     0
102
RTVSPost2010Prop52
140
1.0
102
RTVSPost2010PropOp52
 70
     0
102
RTVSPost2010Prop53
 90
        2
102
RTVSPost2010PropOp53
 70
     1
102
RTVSPost2010Prop54
  1
strokes_ogs.tif
102
RTVSPost2010PropOp54
 70
     1
102
RTVSPost2010Prop55
280
     0
102
RTVSPost2010PropOp55
 70
     1
102
RTVSPost2010Prop56
140
1.0
102
RTVSPost2010PropOp56
 70
     1
102
RTVSPost2010Prop57
140
1.0
102
RTVSPost2010PropOp57
 70
     1
102
RTVSPropertyOp0
 70
     1
102
RTVSPropertyOp1
 70
     1
102
RTVSPropertyOp2
 70
     1
102
RTVSPropertyOp3
 70
     1
102
RTVSPropertyOp4
 70
     1
102
RTVSPropertyOp5
 70
     1
102
RTVSPropertyOp6
 70
     1
102
RTVSPropertyOp7
 70
     1
102
RTVSPropertyOp8
 70
     1
102
RTVSPropertyOp9
 70
     1
102
RTVSPropertyOp10
 70
     1
102
RTVSPropertyOp11
 70
     1
102
RTVSPropertyOp12
 70
     1
102
RTVSPropertyOp13
 70
     1
102
RTVSPropertyOp14
 70
     1
102
RTVSPropertyOp15
 70
     1
102
RTVSPropertyOp16
 70
     1
102
RTVSPropertyOp17
 70
     1
102
RTVSPropertyOp18
 70
     1
102
RTVSPropertyOp19
 70
     1
102
RTVSPropertyOp20
 70
     1
102
RTVSPropertyOp21
 70
     1
102
RTVSPropertyOp22
 70
     1
102
RTVSPropertyOp23
 70
     1
102
RTVSPropertyOp24
 70
     1
102
RTVSPropertyOp25
 70
     1
102
RTVSPropertyOp26
 70
     1
102
RTVSPropertyOp27
 70
     1
102
RTVSPropertyOp28
 70
     1
102
RTVSPropertyOp29
 70
     1
102
RTVSPropertyOp30
 70
     1
102
RTVSPropertyOp31
 70
     1
102
RTVSPropertyOp32
 70
     1
102
RTVSPropertyOp33
 70
     1
102
RTVSPropertyOp34
 70
     1
102
RTVSPropertyOp35
 70
     1
102
RTVSPropertyOp36
 70
     1
102
RTVSPropertyOp37
 70
     1
102
RTVSPropertyOp38
 70
     1
102
RTVSPropertyOp39
 70
     1
102
RTVSPropertyOp40
 70
     1
102
RTVSPropertyOp41
 70
     1
102
RTVSPropertyOp42
 70
     1
102
RTVSPropertyOp43
 70
     1
102
RTVSPropertyOp44
 70
     1
102
RTVSPropertyOp45
 70
     1
102
RTVSPropertyOp46
 70
     1
102
RTVSPropertyOp47
 70
     1
102
RTVSPropertyOp48
 70
     1
102
RTVSPropertyOp49
 70
     1
102
RTVSPropertyOp50
 70
     1
102
RTVSPropertyOp51
 70
     0
102
RTVSPropertyOp52
 70
     0
102
RTVSPropertyOp53
 70
     1
102
RTVSPropertyOp54
 70
     1
102
RTVSPropertyOp55
 70
     1
102
RTVSPropertyOp56
 70
     1
102
RTVSPropertyOp57
 70
     1
102
RTVSPropertyOp58
 70
     1
102
RTVSPropertyOp59
 70
     1
102
RTVSPropertyOp60
 70
     1
102
RTVSPropertyOp61
 70
     1
102
RTVSPropertyOp62
 70
     1
  0
XRECORD
  5
9657
102
{ACAD_REACTORS
330
9656
102
}
330
9656
100
AcDbXrecord
280
     1
102
RTVSPost2010Prop28
280
     0
102
RTVSPost2010PropOp28
 70
     1
102
RTVSPost2010Prop29
280
     1
102
RTVSPost2010PropOp29
 70
     1
102
RTVSPost2010Prop30
280
     1
102
RTVSPost2010PropOp30
 70
     1
102
RTVSPost2010Prop31
280
     0
102
RTVSPost2010PropOp31
 70
     1
102
RTVSPost2010Prop32
280
     0
102
RTVSPost2010PropOp32
 70
     1
102
RTVSPost2010Prop33
280
     0
102
RTVSPost2010PropOp33
 70
     1
102
RTVSPost2010Prop34
280
     0
102
RTVSPost2010PropOp34
 70
     1
102
RTVSPost2010Prop35
280
     0
102
RTVSPost2010PropOp35
 70
     1
102
RTVSPost2010Prop36
280
     0
102
RTVSPost2010PropOp36
 70
     1
102
RTVSPost2010Prop37
 90
       50
102
RTVSPost2010PropOp37
 70
     1
102
RTVSPost2010Prop38
140
0.0
102
RTVSPost2010PropOp38
 70
     1
102
RTVSPost2010Prop39
140
1.0
102
RTVSPost2010PropOp39
 70
     1
102
RTVSPost2010Prop40
 90
        0
102
RTVSPost2010PropOp40
 70
     1
102
RTVSPost2010Prop41ColorIndex
 90
       18
102
RTVSPost2010Prop41ColorRGB
 90
        0
102
RTVSPost2010PropOp41
 70
     1
102
RTVSPost2010Prop42
 90
       50
102
RTVSPost2010PropOp42
 70
     1
102
RTVSPost2010Prop43
 90
        3
102
RTVSPost2010PropOp43
 70
     1
102
RTVSPost2010Prop44ColorIndex
 90
        5
102
RTVSPost2010Prop44ColorRGB
 90
      255
102
RTVSPost2010PropOp44
 70
     1
102
RTVSPost2010Prop45
280
     0
102
RTVSPost2010PropOp45
 70
     1
102
RTVSPost2010Prop46
 90
       50
102
RTVSPost2010PropOp46
 70
     1
102
RTVSPost2010Prop47
 90
       50
102
RTVSPost2010PropOp47
 70
     1
102
RTVSPost2010Prop48
 90
       50
102
RTVSPost2010PropOp48
 70
     1
102
RTVSPost2010Prop49
280
     0
102
RTVSPost2010PropOp49
 70
     1
102
RTVSPost2010Prop50
 90
       50
102
RTVSPost2010PropOp50
 70
     1
102
RTVSPost2010Prop51ColorIndex
 90
      256
102
RTVSPost2010Prop51ColorRGB
 90
-16777216
102
RTVSPost2010PropOp51
 70
     0
102
RTVSPost2010Prop52
140
1.0
102
RTVSPost2010PropOp52
 70
     0
102
RTVSPost2010Prop53
 90
        2
102
RTVSPost2010PropOp53
 70
     1
102
RTVSPost2010Prop54
  1
strokes_ogs.tif
102
RTVSPost2010PropOp54
 70
     1
102
RTVSPost2010Prop55
280
     0
102
RTVSPost2010PropOp55
 70
     1
102
RTVSPost2010Prop56
140
1.0
102
RTVSPost2010PropOp56
 70
     1
102
RTVSPost2010Prop57
140
1.0
102
RTVSPost2010PropOp57
 70
     1
102
RTVSPropertyOp0
 70
     1
102
RTVSPropertyOp1
 70
     1
102
RTVSPropertyOp2
 70
     1
102
RTVSPropertyOp3
 70
     1
102
RTVSPropertyOp4
 70
     1
102
RTVSPropertyOp5
 70
     1
102
RTVSPropertyOp6
 70
     1
102
RTVSPropertyOp7
 70
     1
102
RTVSPropertyOp8
 70
     1
102
RTVSPropertyOp9
 70
     1
102
RTVSPropertyOp10
 70
     1
102
RTVSPropertyOp11
 70
     1
102
RTVSPropertyOp12
 70
     1
102
RTVSPropertyOp13
 70
     1
102
RTVSPropertyOp14
 70
     1
102
RTVSPropertyOp15
 70
     1
102
RTVSPropertyOp16
 70
     1
102
RTVSPropertyOp17
 70
     1
102
RTVSPropertyOp18
 70
     1
102
RTVSPropertyOp19
 70
     1
102
RTVSPropertyOp20
 70
     1
102
RTVSPropertyOp21
 70
     1
102
RTVSPropertyOp22
 70
     1
102
RTVSPropertyOp23
 70
     1
102
RTVSPropertyOp24
 70
     1
102
RTVSPropertyOp25
 70
     1
102
RTVSPropertyOp26
 70
     1
102
RTVSPropertyOp27
 70
     1
102
RTVSPropertyOp28
 70
     1
102
RTVSPropertyOp29
 70
     1
102
RTVSPropertyOp30
 70
     1
102
RTVSPropertyOp31
 70
     1
102
RTVSPropertyOp32
 70
     1
102
RTVSPropertyOp33
 70
     1
102
RTVSPropertyOp34
 70
     1
102
RTVSPropertyOp35
 70
     1
102
RTVSPropertyOp36
 70
     1
102
RTVSPropertyOp37
 70
     1
102
RTVSPropertyOp38
 70
     1
102
RTVSPropertyOp39
 70
     1
102
RTVSPropertyOp40
 70
     1
102
RTVSPropertyOp41
 70
     1
102
RTVSPropertyOp42
 70
     1
102
RTVSPropertyOp43
 70
     1
102
RTVSPropertyOp44
 70
     1
102
RTVSPropertyOp45
 70
     1
102
RTVSPropertyOp46
 70
     1
102
RTVSPropertyOp47
 70
     1
102
RTVSPropertyOp48
 70
     1
102
RTVSPropertyOp49
 70
     1
102
RTVSPropertyOp50
 70
     1
102
RTVSPropertyOp51
 70
     0
102
RTVSPropertyOp52
 70
     0
102
RTVSPropertyOp53
 70
     1
102
RTVSPropertyOp54
 70
     1
102
RTVSPropertyOp55
 70
     1
102
RTVSPropertyOp56
 70
     1
102
RTVSPropertyOp57
 70
     1
102
RTVSPropertyOp58
 70
     1
102
RTVSPropertyOp59
 70
     1
102
RTVSPropertyOp60
 70
     1
102
RTVSPropertyOp61
 70
     1
102
RTVSPropertyOp62
 70
     1
  0
XRECORD
  5
9671
102
{ACAD_REACTORS
330
9670
102
}
330
9670
100
AcDbXrecord
280
     1
102
RTVSPost2010Prop28
280
     0
102
RTVSPost2010PropOp28
 70
     1
102
RTVSPost2010Prop29
280
     1
102
RTVSPost2010PropOp29
 70
     1
102
RTVSPost2010Prop30
280
     1
102
RTVSPost2010PropOp30
 70
     1
102
RTVSPost2010Prop31
280
     0
102
RTVSPost2010PropOp31
 70
     1
102
RTVSPost2010Prop32
280
     0
102
RTVSPost2010PropOp32
 70
     1
102
RTVSPost2010Prop33
280
     0
102
RTVSPost2010PropOp33
 70
     1
102
RTVSPost2010Prop34
280
     0
102
RTVSPost2010PropOp34
 70
     1
102
RTVSPost2010Prop35
280
     0
102
RTVSPost2010PropOp35
 70
     1
102
RTVSPost2010Prop36
280
     0
102
RTVSPost2010PropOp36
 70
     1
102
RTVSPost2010Prop37
 90
       50
102
RTVSPost2010PropOp37
 70
     0
102
RTVSPost2010Prop38
140
0.0
102
RTVSPost2010PropOp38
 70
     0
102
RTVSPost2010Prop39
140
1.0
102
RTVSPost2010PropOp39
 70
     0
102
RTVSPost2010Prop40
 90
        0
102
RTVSPost2010PropOp40
 70
     0
102
RTVSPost2010Prop41ColorIndex
 90
       18
102
RTVSPost2010Prop41ColorRGB
 90
        0
102
RTVSPost2010PropOp41
 70
     0
102
RTVSPost2010Prop42
 90
       50
102
RTVSPost2010PropOp42
 70
     0
102
RTVSPost2010Prop43
 90
        3
102
RTVSPost2010PropOp43
 70
     0
102
RTVSPost2010Prop44ColorIndex
 90
        5
102
RTVSPost2010Prop44ColorRGB
 90
      255
102
RTVSPost2010PropOp44
 70
     0
102
RTVSPost2010Prop45
280
     0
102
RTVSPost2010PropOp45
 70
     1
102
RTVSPost2010Prop46
 90
       50
102
RTVSPost2010PropOp46
 70
     0
102
RTVSPost2010Prop47
 90
       50
102
RTVSPost2010PropOp47
 70
     0
102
RTVSPost2010Prop48
 90
       50
102
RTVSPost2010PropOp48
 70
     0
102
RTVSPost2010Prop49
280
     0
102
RTVSPost2010PropOp49
 70
     1
102
RTVSPost2010Prop50
 90
       50
102
RTVSPost2010PropOp50
 70
     0
102
RTVSPost2010Prop51ColorIndex
 90
      256
102
RTVSPost2010Prop51ColorRGB
 90
-16777216
102
RTVSPost2010PropOp51
 70
     0
102
RTVSPost2010Prop52
140
1.0
102
RTVSPost2010PropOp52
 70
     0
102
RTVSPost2010Prop53
 90
        2
102
RTVSPost2010PropOp53
 70
     0
102
RTVSPost2010Prop54
  1
strokes_ogs.tif
102
RTVSPost2010PropOp54
 70
     0
102
RTVSPost2010Prop55
280
     0
102
RTVSPost2010PropOp55
 70
     1
102
RTVSPost2010Prop56
140
1.0
102
RTVSPost2010PropOp56
 70
     0
102
RTVSPost2010Prop57
140
1.0
102
RTVSPost2010PropOp57
 70
     0
102
RTVSPropertyOp0
 70
     0
102
RTVSPropertyOp1
 70
     0
102
RTVSPropertyOp2
 70
     0
102
RTVSPropertyOp3
 70
     0
102
RTVSPropertyOp4
 70
     0
102
RTVSPropertyOp5
 70
     0
102
RTVSPropertyOp6
 70
     0
102
RTVSPropertyOp7
 70
     0
102
RTVSPropertyOp8
 70
     0
102
RTVSPropertyOp9
 70
     0
102
RTVSPropertyOp10
 70
     0
102
RTVSPropertyOp11
 70
     0
102
RTVSPropertyOp12
 70
     0
102
RTVSPropertyOp13
 70
     0
102
RTVSPropertyOp14
 70
     2
102
RTVSPropertyOp15
 70
     0
102
RTVSPropertyOp16
 70
     0
102
RTVSPropertyOp17
 70
     0
102
RTVSPropertyOp18
 70
     0
102
RTVSPropertyOp19
 70
     0
102
RTVSPropertyOp20
 70
     0
102
RTVSPropertyOp21
 70
     0
102
RTVSPropertyOp22
 70
     0
102
RTVSPropertyOp23
 70
     0
102
RTVSPropertyOp24
 70
     0
102
RTVSPropertyOp25
 70
     0
102
RTVSPropertyOp26
 70
     0
102
RTVSPropertyOp27
 70
     0
102
RTVSPropertyOp28
 70
     1
102
RTVSPropertyOp29
 70
     1
102
RTVSPropertyOp30
 70
     1
102
RTVSPropertyOp31
 70
     1
102
RTVSPropertyOp32
 70
     1
102
RTVSPropertyOp33
 70
     1
102
RTVSPropertyOp34
 70
     1
102
RTVSPropertyOp35
 70
     1
102
RTVSPropertyOp36
 70
     1
102
RTVSPropertyOp37
 70
     0
102
RTVSPropertyOp38
 70
     0
102
RTVSPropertyOp39
 70
     0
102
RTVSPropertyOp40
 70
     0
102
RTVSPropertyOp41
 70
     0
102
RTVSPropertyOp42
 70
     0
102
RTVSPropertyOp43
 70
     0
102
RTVSPropertyOp44
 70
     0
102
RTVSPropertyOp45
 70
     1
102
RTVSPropertyOp46
 70
     0
102
RTVSPropertyOp47
 70
     0
102
RTVSPropertyOp48
 70
     0
102
RTVSPropertyOp49
 70
     1
102
RTVSPropertyOp50
 70
     0
102
RTVSPropertyOp51
 70
     0
102
RTVSPropertyOp52
 70
     0
102
RTVSPropertyOp53
 70
     0
102
RTVSPropertyOp54
 70
     0
102
RTVSPropertyOp55
 70
     1
102
RTVSPropertyOp56
 70
     0
102
RTVSPropertyOp57
 70
     0
102
RTVSPropertyOp58
 70
     0
102
RTVSPropertyOp59
 70
     0
102
RTVSPropertyOp60
 70
     0
102
RTVSPropertyOp61
 70
     0
102
RTVSPropertyOp62
 70
     0
  0
XRECORD
  5
965F
102
{ACAD_REACTORS
330
965E
102
}
330
965E
100
AcDbXrecord
280
     1
102
RTVSPost2010Prop28
280
     0
102
RTVSPost2010PropOp28
 70
     1
102
RTVSPost2010Prop29
280
     1
102
RTVSPost2010PropOp29
 70
     1
102
RTVSPost2010Prop30
280
     1
102
RTVSPost2010PropOp30
 70
     1
102
RTVSPost2010Prop31
280
     0
102
RTVSPost2010PropOp31
 70
     1
102
RTVSPost2010Prop32
280
     0
102
RTVSPost2010PropOp32
 70
     1
102
RTVSPost2010Prop33
280
     0
102
RTVSPost2010PropOp33
 70
     1
102
RTVSPost2010Prop34
280
     0
102
RTVSPost2010PropOp34
 70
     1
102
RTVSPost2010Prop35
280
     0
102
RTVSPost2010PropOp35
 70
     1
102
RTVSPost2010Prop36
280
     0
102
RTVSPost2010PropOp36
 70
     1
102
RTVSPost2010Prop37
 90
       50
102
RTVSPost2010PropOp37
 70
     1
102
RTVSPost2010Prop38
140
0.0
102
RTVSPost2010PropOp38
 70
     1
102
RTVSPost2010Prop39
140
1.0
102
RTVSPost2010PropOp39
 70
     1
102
RTVSPost2010Prop40
 90
        0
102
RTVSPost2010PropOp40
 70
     1
102
RTVSPost2010Prop41ColorIndex
 90
       18
102
RTVSPost2010Prop41ColorRGB
 90
        0
102
RTVSPost2010PropOp41
 70
     1
102
RTVSPost2010Prop42
 90
       50
102
RTVSPost2010PropOp42
 70
     1
102
RTVSPost2010Prop43
 90
        3
102
RTVSPost2010PropOp43
 70
     1
102
RTVSPost2010Prop44ColorIndex
 90
        5
102
RTVSPost2010Prop44ColorRGB
 90
      255
102
RTVSPost2010PropOp44
 70
     1
102
RTVSPost2010Prop45
280
     0
102
RTVSPost2010PropOp45
 70
     1
102
RTVSPost2010Prop46
 90
       50
102
RTVSPost2010PropOp46
 70
     1
102
RTVSPost2010Prop47
 90
       50
102
RTVSPost2010PropOp47
 70
     1
102
RTVSPost2010Prop48
 90
       50
102
RTVSPost2010PropOp48
 70
     1
102
RTVSPost2010Prop49
280
     0
102
RTVSPost2010PropOp49
 70
     1
102
RTVSPost2010Prop50
 90
       50
102
RTVSPost2010PropOp50
 70
     1
102
RTVSPost2010Prop51ColorIndex
 90
      256
102
RTVSPost2010Prop51ColorRGB
 90
-16777216
102
RTVSPost2010PropOp51
 70
     0
102
RTVSPost2010Prop52
140
1.0
102
RTVSPost2010PropOp52
 70
     0
102
RTVSPost2010Prop53
 90
        2
102
RTVSPost2010PropOp53
 70
     1
102
RTVSPost2010Prop54
  1
strokes_ogs.tif
102
RTVSPost2010PropOp54
 70
     1
102
RTVSPost2010Prop55
280
     0
102
RTVSPost2010PropOp55
 70
     1
102
RTVSPost2010Prop56
140
1.0
102
RTVSPost2010PropOp56
 70
     1
102
RTVSPost2010Prop57
140
1.0
102
RTVSPost2010PropOp57
 70
     1
102
RTVSPropertyOp0
 70
     1
102
RTVSPropertyOp1
 70
     1
102
RTVSPropertyOp2
 70
     1
102
RTVSPropertyOp3
 70
     1
102
RTVSPropertyOp4
 70
     1
102
RTVSPropertyOp5
 70
     1
102
RTVSPropertyOp6
 70
     1
102
RTVSPropertyOp7
 70
     1
102
RTVSPropertyOp8
 70
     1
102
RTVSPropertyOp9
 70
     1
102
RTVSPropertyOp10
 70
     1
102
RTVSPropertyOp11
 70
     1
102
RTVSPropertyOp12
 70
     1
102
RTVSPropertyOp13
 70
     1
102
RTVSPropertyOp14
 70
     1
102
RTVSPropertyOp15
 70
     1
102
RTVSPropertyOp16
 70
     1
102
RTVSPropertyOp17
 70
     1
102
RTVSPropertyOp18
 70
     1
102
RTVSPropertyOp19
 70
     1
102
RTVSPropertyOp20
 70
     1
102
RTVSPropertyOp21
 70
     1
102
RTVSPropertyOp22
 70
     1
102
RTVSPropertyOp23
 70
     1
102
RTVSPropertyOp24
 70
     1
102
RTVSPropertyOp25
 70
     1
102
RTVSPropertyOp26
 70
     1
102
RTVSPropertyOp27
 70
     1
102
RTVSPropertyOp28
 70
     1
102
RTVSPropertyOp29
 70
     1
102
RTVSPropertyOp30
 70
     1
102
RTVSPropertyOp31
 70
     1
102
RTVSPropertyOp32
 70
     1
102
RTVSPropertyOp33
 70
     1
102
RTVSPropertyOp34
 70
     1
102
RTVSPropertyOp35
 70
     1
102
RTVSPropertyOp36
 70
     1
102
RTVSPropertyOp37
 70
     1
102
RTVSPropertyOp38
 70
     1
102
RTVSPropertyOp39
 70
     1
102
RTVSPropertyOp40
 70
     1
102
RTVSPropertyOp41
 70
     1
102
RTVSPropertyOp42
 70
     1
102
RTVSPropertyOp43
 70
     1
102
RTVSPropertyOp44
 70
     1
102
RTVSPropertyOp45
 70
     1
102
RTVSPropertyOp46
 70
     1
102
RTVSPropertyOp47
 70
     1
102
RTVSPropertyOp48
 70
     1
102
RTVSPropertyOp49
 70
     1
102
RTVSPropertyOp50
 70
     1
102
RTVSPropertyOp51
 70
     0
102
RTVSPropertyOp52
 70
     0
102
RTVSPropertyOp53
 70
     1
102
RTVSPropertyOp54
 70
     1
102
RTVSPropertyOp55
 70
     1
102
RTVSPropertyOp56
 70
     1
102
RTVSPropertyOp57
 70
     1
102
RTVSPropertyOp58
 70
     1
102
RTVSPropertyOp59
 70
     1
102
RTVSPropertyOp60
 70
     1
102
RTVSPropertyOp61
 70
     1
102
RTVSPropertyOp62
 70
     1
  0
XRECORD
  5
9643
102
{ACAD_REACTORS
330
9642
102
}
330
9642
100
AcDbXrecord
280
     1
102
RTVSPost2010Prop28
280
     0
102
RTVSPost2010PropOp28
 70
     1
102
RTVSPost2010Prop29
280
     1
102
RTVSPost2010PropOp29
 70
     1
102
RTVSPost2010Prop30
280
     1
102
RTVSPost2010PropOp30
 70
     1
102
RTVSPost2010Prop31
280
     0
102
RTVSPost2010PropOp31
 70
     1
102
RTVSPost2010Prop32
280
     0
102
RTVSPost2010PropOp32
 70
     1
102
RTVSPost2010Prop33
280
     0
102
RTVSPost2010PropOp33
 70
     1
102
RTVSPost2010Prop34
280
     0
102
RTVSPost2010PropOp34
 70
     1
102
RTVSPost2010Prop35
280
     0
102
RTVSPost2010PropOp35
 70
     1
102
RTVSPost2010Prop36
280
     0
102
RTVSPost2010PropOp36
 70
     1
102
RTVSPost2010Prop37
 90
       50
102
RTVSPost2010PropOp37
 70
     1
102
RTVSPost2010Prop38
140
0.0
102
RTVSPost2010PropOp38
 70
     1
102
RTVSPost2010Prop39
140
1.0
102
RTVSPost2010PropOp39
 70
     1
102
RTVSPost2010Prop40
 90
        0
102
RTVSPost2010PropOp40
 70
     1
102
RTVSPost2010Prop41ColorIndex
 90
       18
102
RTVSPost2010Prop41ColorRGB
 90
        0
102
RTVSPost2010PropOp41
 70
     1
102
RTVSPost2010Prop42
 90
       50
102
RTVSPost2010PropOp42
 70
     1
102
RTVSPost2010Prop43
 90
        3
102
RTVSPost2010PropOp43
 70
     1
102
RTVSPost2010Prop44ColorIndex
 90
        5
102
RTVSPost2010Prop44ColorRGB
 90
      255
102
RTVSPost2010PropOp44
 70
     1
102
RTVSPost2010Prop45
280
     0
102
RTVSPost2010PropOp45
 70
     1
102
RTVSPost2010Prop46
 90
       50
102
RTVSPost2010PropOp46
 70
     1
102
RTVSPost2010Prop47
 90
       50
102
RTVSPost2010PropOp47
 70
     1
102
RTVSPost2010Prop48
 90
       50
102
RTVSPost2010PropOp48
 70
     1
102
RTVSPost2010Prop49
280
     0
102
RTVSPost2010PropOp49
 70
     1
102
RTVSPost2010Prop50
 90
       50
102
RTVSPost2010PropOp50
 70
     1
102
RTVSPost2010Prop51ColorIndex
 90
      256
102
RTVSPost2010Prop51ColorRGB
 90
-16777216
102
RTVSPost2010PropOp51
 70
     0
102
RTVSPost2010Prop52
140
1.0
102
RTVSPost2010PropOp52
 70
     0
102
RTVSPost2010Prop53
 90
        2
102
RTVSPost2010PropOp53
 70
     1
102
RTVSPost2010Prop54
  1
strokes_ogs.tif
102
RTVSPost2010PropOp54
 70
     1
102
RTVSPost2010Prop55
280
     0
102
RTVSPost2010PropOp55
 70
     1
102
RTVSPost2010Prop56
140
1.0
102
RTVSPost2010PropOp56
 70
     1
102
RTVSPost2010Prop57
140
1.0
102
RTVSPost2010PropOp57
 70
     1
102
RTVSPropertyOp0
 70
     1
102
RTVSPropertyOp1
 70
     1
102
RTVSPropertyOp2
 70
     1
102
RTVSPropertyOp3
 70
     1
102
RTVSPropertyOp4
 70
     1
102
RTVSPropertyOp5
 70
     1
102
RTVSPropertyOp6
 70
     1
102
RTVSPropertyOp7
 70
     1
102
RTVSPropertyOp8
 70
     1
102
RTVSPropertyOp9
 70
     1
102
RTVSPropertyOp10
 70
     1
102
RTVSPropertyOp11
 70
     1
102
RTVSPropertyOp12
 70
     1
102
RTVSPropertyOp13
 70
     1
102
RTVSPropertyOp14
 70
     1
102
RTVSPropertyOp15
 70
     1
102
RTVSPropertyOp16
 70
     1
102
RTVSPropertyOp17
 70
     1
102
RTVSPropertyOp18
 70
     1
102
RTVSPropertyOp19
 70
     1
102
RTVSPropertyOp20
 70
     1
102
RTVSPropertyOp21
 70
     1
102
RTVSPropertyOp22
 70
     1
102
RTVSPropertyOp23
 70
     1
102
RTVSPropertyOp24
 70
     1
102
RTVSPropertyOp25
 70
     1
102
RTVSPropertyOp26
 70
     1
102
RTVSPropertyOp27
 70
     1
102
RTVSPropertyOp28
 70
     1
102
RTVSPropertyOp29
 70
     1
102
RTVSPropertyOp30
 70
     1
102
RTVSPropertyOp31
 70
     1
102
RTVSPropertyOp32
 70
     1
102
RTVSPropertyOp33
 70
     1
102
RTVSPropertyOp34
 70
     1
102
RTVSPropertyOp35
 70
     1
102
RTVSPropertyOp36
 70
     1
102
RTVSPropertyOp37
 70
     1
102
RTVSPropertyOp38
 70
     1
102
RTVSPropertyOp39
 70
     1
102
RTVSPropertyOp40
 70
     1
102
RTVSPropertyOp41
 70
     1
102
RTVSPropertyOp42
 70
     1
102
RTVSPropertyOp43
 70
     1
102
RTVSPropertyOp44
 70
     1
102
RTVSPropertyOp45
 70
     1
102
RTVSPropertyOp46
 70
     1
102
RTVSPropertyOp47
 70
     1
102
RTVSPropertyOp48
 70
     1
102
RTVSPropertyOp49
 70
     1
102
RTVSPropertyOp50
 70
     1
102
RTVSPropertyOp51
 70
     0
102
RTVSPropertyOp52
 70
     0
102
RTVSPropertyOp53
 70
     1
102
RTVSPropertyOp54
 70
     1
102
RTVSPropertyOp55
 70
     1
102
RTVSPropertyOp56
 70
     1
102
RTVSPropertyOp57
 70
     1
102
RTVSPropertyOp58
 70
     1
102
RTVSPropertyOp59
 70
     1
102
RTVSPropertyOp60
 70
     1
102
RTVSPropertyOp61
 70
     1
102
RTVSPropertyOp62
 70
     1
  0
XRECORD
  5
9645
102
{ACAD_REACTORS
330
9644
102
}
330
9644
100
AcDbXrecord
280
     1
102
RTVSPost2010Prop28
280
     0
102
RTVSPost2010PropOp28
 70
     1
102
RTVSPost2010Prop29
280
     1
102
RTVSPost2010PropOp29
 70
     1
102
RTVSPost2010Prop30
280
     1
102
RTVSPost2010PropOp30
 70
     1
102
RTVSPost2010Prop31
280
     0
102
RTVSPost2010PropOp31
 70
     1
102
RTVSPost2010Prop32
280
     0
102
RTVSPost2010PropOp32
 70
     1
102
RTVSPost2010Prop33
280
     0
102
RTVSPost2010PropOp33
 70
     1
102
RTVSPost2010Prop34
280
     0
102
RTVSPost2010PropOp34
 70
     1
102
RTVSPost2010Prop35
280
     0
102
RTVSPost2010PropOp35
 70
     1
102
RTVSPost2010Prop36
280
     0
102
RTVSPost2010PropOp36
 70
     1
102
RTVSPost2010Prop37
 90
       50
102
RTVSPost2010PropOp37
 70
     1
102
RTVSPost2010Prop38
140
0.0
102
RTVSPost2010PropOp38
 70
     1
102
RTVSPost2010Prop39
140
1.0
102
RTVSPost2010PropOp39
 70
     1
102
RTVSPost2010Prop40
 90
        0
102
RTVSPost2010PropOp40
 70
     1
102
RTVSPost2010Prop41ColorIndex
 90
       18
102
RTVSPost2010Prop41ColorRGB
 90
        0
102
RTVSPost2010PropOp41
 70
     1
102
RTVSPost2010Prop42
 90
       50
102
RTVSPost2010PropOp42
 70
     1
102
RTVSPost2010Prop43
 90
        3
102
RTVSPost2010PropOp43
 70
     1
102
RTVSPost2010Prop44ColorIndex
 90
        5
102
RTVSPost2010Prop44ColorRGB
 90
      255
102
RTVSPost2010PropOp44
 70
     1
102
RTVSPost2010Prop45
280
     0
102
RTVSPost2010PropOp45
 70
     1
102
RTVSPost2010Prop46
 90
       50
102
RTVSPost2010PropOp46
 70
     1
102
RTVSPost2010Prop47
 90
       50
102
RTVSPost2010PropOp47
 70
     1
102
RTVSPost2010Prop48
 90
       50
102
RTVSPost2010PropOp48
 70
     1
102
RTVSPost2010Prop49
280
     0
102
RTVSPost2010PropOp49
 70
     1
102
RTVSPost2010Prop50
 90
       50
102
RTVSPost2010PropOp50
 70
     1
102
RTVSPost2010Prop51ColorIndex
 90
      256
102
RTVSPost2010Prop51ColorRGB
 90
-16777216
102
RTVSPost2010PropOp51
 70
     0
102
RTVSPost2010Prop52
140
1.0
102
RTVSPost2010PropOp52
 70
     0
102
RTVSPost2010Prop53
 90
        2
102
RTVSPost2010PropOp53
 70
     1
102
RTVSPost2010Prop54
  1
strokes_ogs.tif
102
RTVSPost2010PropOp54
 70
     1
102
RTVSPost2010Prop55
280
     0
102
RTVSPost2010PropOp55
 70
     1
102
RTVSPost2010Prop56
140
1.0
102
RTVSPost2010PropOp56
 70
     1
102
RTVSPost2010Prop57
140
1.0
102
RTVSPost2010PropOp57
 70
     1
102
RTVSPropertyOp0
 70
     1
102
RTVSPropertyOp1
 70
     1
102
RTVSPropertyOp2
 70
     1
102
RTVSPropertyOp3
 70
     1
102
RTVSPropertyOp4
 70
     1
102
RTVSPropertyOp5
 70
     1
102
RTVSPropertyOp6
 70
     1
102
RTVSPropertyOp7
 70
     1
102
RTVSPropertyOp8
 70
     1
102
RTVSPropertyOp9
 70
     1
102
RTVSPropertyOp10
 70
     1
102
RTVSPropertyOp11
 70
     1
102
RTVSPropertyOp12
 70
     1
102
RTVSPropertyOp13
 70
     1
102
RTVSPropertyOp14
 70
     1
102
RTVSPropertyOp15
 70
     1
102
RTVSPropertyOp16
 70
     1
102
RTVSPropertyOp17
 70
     1
102
RTVSPropertyOp18
 70
     1
102
RTVSPropertyOp19
 70
     1
102
RTVSPropertyOp20
 70
     1
102
RTVSPropertyOp21
 70
     1
102
RTVSPropertyOp22
 70
     1
102
RTVSPropertyOp23
 70
     1
102
RTVSPropertyOp24
 70
     1
102
RTVSPropertyOp25
 70
     1
102
RTVSPropertyOp26
 70
     1
102
RTVSPropertyOp27
 70
     1
102
RTVSPropertyOp28
 70
     1
102
RTVSPropertyOp29
 70
     1
102
RTVSPropertyOp30
 70
     1
102
RTVSPropertyOp31
 70
     1
102
RTVSPropertyOp32
 70
     1
102
RTVSPropertyOp33
 70
     1
102
RTVSPropertyOp34
 70
     1
102
RTVSPropertyOp35
 70
     1
102
RTVSPropertyOp36
 70
     1
102
RTVSPropertyOp37
 70
     1
102
RTVSPropertyOp38
 70
     1
102
RTVSPropertyOp39
 70
     1
102
RTVSPropertyOp40
 70
     1
102
RTVSPropertyOp41
 70
     1
102
RTVSPropertyOp42
 70
     1
102
RTVSPropertyOp43
 70
     1
102
RTVSPropertyOp44
 70
     1
102
RTVSPropertyOp45
 70
     1
102
RTVSPropertyOp46
 70
     1
102
RTVSPropertyOp47
 70
     1
102
RTVSPropertyOp48
 70
     1
102
RTVSPropertyOp49
 70
     1
102
RTVSPropertyOp50
 70
     1
102
RTVSPropertyOp51
 70
     0
102
RTVSPropertyOp52
 70
     0
102
RTVSPropertyOp53
 70
     1
102
RTVSPropertyOp54
 70
     1
102
RTVSPropertyOp55
 70
     1
102
RTVSPropertyOp56
 70
     1
102
RTVSPropertyOp57
 70
     1
102
RTVSPropertyOp58
 70
     1
102
RTVSPropertyOp59
 70
     1
102
RTVSPropertyOp60
 70
     1
102
RTVSPropertyOp61
 70
     1
102
RTVSPropertyOp62
 70
     1
  0
XRECORD
  5
9647
102
{ACAD_REACTORS
330
9646
102
}
330
9646
100
AcDbXrecord
280
     1
102
RTVSPost2010Prop28
280
     0
102
RTVSPost2010PropOp28
 70
     1
102
RTVSPost2010Prop29
280
     1
102
RTVSPost2010PropOp29
 70
     1
102
RTVSPost2010Prop30
280
     1
102
RTVSPost2010PropOp30
 70
     1
102
RTVSPost2010Prop31
280
     0
102
RTVSPost2010PropOp31
 70
     1
102
RTVSPost2010Prop32
280
     0
102
RTVSPost2010PropOp32
 70
     1
102
RTVSPost2010Prop33
280
     0
102
RTVSPost2010PropOp33
 70
     1
102
RTVSPost2010Prop34
280
     0
102
RTVSPost2010PropOp34
 70
     1
102
RTVSPost2010Prop35
280
     0
102
RTVSPost2010PropOp35
 70
     1
102
RTVSPost2010Prop36
280
     0
102
RTVSPost2010PropOp36
 70
     1
102
RTVSPost2010Prop37
 90
       50
102
RTVSPost2010PropOp37
 70
     1
102
RTVSPost2010Prop38
140
0.0
102
RTVSPost2010PropOp38
 70
     1
102
RTVSPost2010Prop39
140
1.0
102
RTVSPost2010PropOp39
 70
     1
102
RTVSPost2010Prop40
 90
        0
102
RTVSPost2010PropOp40
 70
     1
102
RTVSPost2010Prop41ColorIndex
 90
       18
102
RTVSPost2010Prop41ColorRGB
 90
        0
102
RTVSPost2010PropOp41
 70
     1
102
RTVSPost2010Prop42
 90
       50
102
RTVSPost2010PropOp42
 70
     1
102
RTVSPost2010Prop43
 90
        3
102
RTVSPost2010PropOp43
 70
     1
102
RTVSPost2010Prop44ColorIndex
 90
        5
102
RTVSPost2010Prop44ColorRGB
 90
      255
102
RTVSPost2010PropOp44
 70
     1
102
RTVSPost2010Prop45
280
     0
102
RTVSPost2010PropOp45
 70
     1
102
RTVSPost2010Prop46
 90
       50
102
RTVSPost2010PropOp46
 70
     1
102
RTVSPost2010Prop47
 90
       50
102
RTVSPost2010PropOp47
 70
     1
102
RTVSPost2010Prop48
 90
       50
102
RTVSPost2010PropOp48
 70
     1
102
RTVSPost2010Prop49
280
     0
102
RTVSPost2010PropOp49
 70
     1
102
RTVSPost2010Prop50
 90
       50
102
RTVSPost2010PropOp50
 70
     1
102
RTVSPost2010Prop51ColorIndex
 90
      256
102
RTVSPost2010Prop51ColorRGB
 90
-16777216
102
RTVSPost2010PropOp51
 70
     0
102
RTVSPost2010Prop52
140
1.0
102
RTVSPost2010PropOp52
 70
     0
102
RTVSPost2010Prop53
 90
        2
102
RTVSPost2010PropOp53
 70
     1
102
RTVSPost2010Prop54
  1
strokes_ogs.tif
102
RTVSPost2010PropOp54
 70
     1
102
RTVSPost2010Prop55
280
     0
102
RTVSPost2010PropOp55
 70
     1
102
RTVSPost2010Prop56
140
1.0
102
RTVSPost2010PropOp56
 70
     1
102
RTVSPost2010Prop57
140
1.0
102
RTVSPost2010PropOp57
 70
     1
102
RTVSPropertyOp0
 70
     1
102
RTVSPropertyOp1
 70
     1
102
RTVSPropertyOp2
 70
     1
102
RTVSPropertyOp3
 70
     1
102
RTVSPropertyOp4
 70
     1
102
RTVSPropertyOp5
 70
     1
102
RTVSPropertyOp6
 70
     1
102
RTVSPropertyOp7
 70
     1
102
RTVSPropertyOp8
 70
     1
102
RTVSPropertyOp9
 70
     1
102
RTVSPropertyOp10
 70
     1
102
RTVSPropertyOp11
 70
     1
102
RTVSPropertyOp12
 70
     1
102
RTVSPropertyOp13
 70
     1
102
RTVSPropertyOp14
 70
     1
102
RTVSPropertyOp15
 70
     1
102
RTVSPropertyOp16
 70
     1
102
RTVSPropertyOp17
 70
     1
102
RTVSPropertyOp18
 70
     1
102
RTVSPropertyOp19
 70
     1
102
RTVSPropertyOp20
 70
     1
102
RTVSPropertyOp21
 70
     1
102
RTVSPropertyOp22
 70
     1
102
RTVSPropertyOp23
 70
     1
102
RTVSPropertyOp24
 70
     1
102
RTVSPropertyOp25
 70
     1
102
RTVSPropertyOp26
 70
     1
102
RTVSPropertyOp27
 70
     1
102
RTVSPropertyOp28
 70
     1
102
RTVSPropertyOp29
 70
     1
102
RTVSPropertyOp30
 70
     1
102
RTVSPropertyOp31
 70
     1
102
RTVSPropertyOp32
 70
     1
102
RTVSPropertyOp33
 70
     1
102
RTVSPropertyOp34
 70
     1
102
RTVSPropertyOp35
 70
     1
102
RTVSPropertyOp36
 70
     1
102
RTVSPropertyOp37
 70
     1
102
RTVSPropertyOp38
 70
     1
102
RTVSPropertyOp39
 70
     1
102
RTVSPropertyOp40
 70
     1
102
RTVSPropertyOp41
 70
     1
102
RTVSPropertyOp42
 70
     1
102
RTVSPropertyOp43
 70
     1
102
RTVSPropertyOp44
 70
     1
102
RTVSPropertyOp45
 70
     1
102
RTVSPropertyOp46
 70
     1
102
RTVSPropertyOp47
 70
     1
102
RTVSPropertyOp48
 70
     1
102
RTVSPropertyOp49
 70
     1
102
RTVSPropertyOp50
 70
     1
102
RTVSPropertyOp51
 70
     0
102
RTVSPropertyOp52
 70
     0
102
RTVSPropertyOp53
 70
     1
102
RTVSPropertyOp54
 70
     1
102
RTVSPropertyOp55
 70
     1
102
RTVSPropertyOp56
 70
     1
102
RTVSPropertyOp57
 70
     1
102
RTVSPropertyOp58
 70
     1
102
RTVSPropertyOp59
 70
     1
102
RTVSPropertyOp60
 70
     1
102
RTVSPropertyOp61
 70
     1
102
RTVSPropertyOp62
 70
     1
  0
XRECORD
  5
9649
102
{ACAD_REACTORS
330
9648
102
}
330
9648
100
AcDbXrecord
280
     1
102
RTVSPost2010Prop28
280
     0
102
RTVSPost2010PropOp28
 70
     1
102
RTVSPost2010Prop29
280
     1
102
RTVSPost2010PropOp29
 70
     1
102
RTVSPost2010Prop30
280
     1
102
RTVSPost2010PropOp30
 70
     1
102
RTVSPost2010Prop31
280
     0
102
RTVSPost2010PropOp31
 70
     1
102
RTVSPost2010Prop32
280
     0
102
RTVSPost2010PropOp32
 70
     1
102
RTVSPost2010Prop33
280
     0
102
RTVSPost2010PropOp33
 70
     1
102
RTVSPost2010Prop34
280
     0
102
RTVSPost2010PropOp34
 70
     1
102
RTVSPost2010Prop35
280
     0
102
RTVSPost2010PropOp35
 70
     1
102
RTVSPost2010Prop36
280
     0
102
RTVSPost2010PropOp36
 70
     1
102
RTVSPost2010Prop37
 90
       50
102
RTVSPost2010PropOp37
 70
     1
102
RTVSPost2010Prop38
140
0.0
102
RTVSPost2010PropOp38
 70
     1
102
RTVSPost2010Prop39
140
1.0
102
RTVSPost2010PropOp39
 70
     1
102
RTVSPost2010Prop40
 90
        0
102
RTVSPost2010PropOp40
 70
     1
102
RTVSPost2010Prop41ColorIndex
 90
       18
102
RTVSPost2010Prop41ColorRGB
 90
        0
102
RTVSPost2010PropOp41
 70
     1
102
RTVSPost2010Prop42
 90
       50
102
RTVSPost2010PropOp42
 70
     1
102
RTVSPost2010Prop43
 90
        3
102
RTVSPost2010PropOp43
 70
     1
102
RTVSPost2010Prop44ColorIndex
 90
        5
102
RTVSPost2010Prop44ColorRGB
 90
      255
102
RTVSPost2010PropOp44
 70
     1
102
RTVSPost2010Prop45
280
     0
102
RTVSPost2010PropOp45
 70
     1
102
RTVSPost2010Prop46
 90
       50
102
RTVSPost2010PropOp46
 70
     1
102
RTVSPost2010Prop47
 90
       50
102
RTVSPost2010PropOp47
 70
     1
102
RTVSPost2010Prop48
 90
       50
102
RTVSPost2010PropOp48
 70
     1
102
RTVSPost2010Prop49
280
     0
102
RTVSPost2010PropOp49
 70
     1
102
RTVSPost2010Prop50
 90
       50
102
RTVSPost2010PropOp50
 70
     1
102
RTVSPost2010Prop51ColorIndex
 90
      256
102
RTVSPost2010Prop51ColorRGB
 90
-16777216
102
RTVSPost2010PropOp51
 70
     0
102
RTVSPost2010Prop52
140
1.0
102
RTVSPost2010PropOp52
 70
     0
102
RTVSPost2010Prop53
 90
        2
102
RTVSPost2010PropOp53
 70
     1
102
RTVSPost2010Prop54
  1
strokes_ogs.tif
102
RTVSPost2010PropOp54
 70
     1
102
RTVSPost2010Prop55
280
     0
102
RTVSPost2010PropOp55
 70
     1
102
RTVSPost2010Prop56
140
1.0
102
RTVSPost2010PropOp56
 70
     1
102
RTVSPost2010Prop57
140
1.0
102
RTVSPost2010PropOp57
 70
     1
102
RTVSPropertyOp0
 70
     1
102
RTVSPropertyOp1
 70
     1
102
RTVSPropertyOp2
 70
     1
102
RTVSPropertyOp3
 70
     1
102
RTVSPropertyOp4
 70
     1
102
RTVSPropertyOp5
 70
     1
102
RTVSPropertyOp6
 70
     1
102
RTVSPropertyOp7
 70
     1
102
RTVSPropertyOp8
 70
     1
102
RTVSPropertyOp9
 70
     1
102
RTVSPropertyOp10
 70
     1
102
RTVSPropertyOp11
 70
     1
102
RTVSPropertyOp12
 70
     1
102
RTVSPropertyOp13
 70
     1
102
RTVSPropertyOp14
 70
     1
102
RTVSPropertyOp15
 70
     1
102
RTVSPropertyOp16
 70
     1
102
RTVSPropertyOp17
 70
     1
102
RTVSPropertyOp18
 70
     1
102
RTVSPropertyOp19
 70
     1
102
RTVSPropertyOp20
 70
     1
102
RTVSPropertyOp21
 70
     1
102
RTVSPropertyOp22
 70
     1
102
RTVSPropertyOp23
 70
     1
102
RTVSPropertyOp24
 70
     1
102
RTVSPropertyOp25
 70
     1
102
RTVSPropertyOp26
 70
     1
102
RTVSPropertyOp27
 70
     1
102
RTVSPropertyOp28
 70
     1
102
RTVSPropertyOp29
 70
     1
102
RTVSPropertyOp30
 70
     1
102
RTVSPropertyOp31
 70
     1
102
RTVSPropertyOp32
 70
     1
102
RTVSPropertyOp33
 70
     1
102
RTVSPropertyOp34
 70
     1
102
RTVSPropertyOp35
 70
     1
102
RTVSPropertyOp36
 70
     1
102
RTVSPropertyOp37
 70
     1
102
RTVSPropertyOp38
 70
     1
102
RTVSPropertyOp39
 70
     1
102
RTVSPropertyOp40
 70
     1
102
RTVSPropertyOp41
 70
     1
102
RTVSPropertyOp42
 70
     1
102
RTVSPropertyOp43
 70
     1
102
RTVSPropertyOp44
 70
     1
102
RTVSPropertyOp45
 70
     1
102
RTVSPropertyOp46
 70
     1
102
RTVSPropertyOp47
 70
     1
102
RTVSPropertyOp48
 70
     1
102
RTVSPropertyOp49
 70
     1
102
RTVSPropertyOp50
 70
     1
102
RTVSPropertyOp51
 70
     0
102
RTVSPropertyOp52
 70
     0
102
RTVSPropertyOp53
 70
     1
102
RTVSPropertyOp54
 70
     1
102
RTVSPropertyOp55
 70
     1
102
RTVSPropertyOp56
 70
     1
102
RTVSPropertyOp57
 70
     1
102
RTVSPropertyOp58
 70
     1
102
RTVSPropertyOp59
 70
     1
102
RTVSPropertyOp60
 70
     1
102
RTVSPropertyOp61
 70
     1
102
RTVSPropertyOp62
 70
     1
  0
XRECORD
  5
9651
102
{ACAD_REACTORS
330
9650
102
}
330
9650
100
AcDbXrecord
280
     1
102
RTVSPost2010Prop28
280
     0
102
RTVSPost2010PropOp28
 70
     1
102
RTVSPost2010Prop29
280
     1
102
RTVSPost2010PropOp29
 70
     1
102
RTVSPost2010Prop30
280
     1
102
RTVSPost2010PropOp30
 70
     1
102
RTVSPost2010Prop31
280
     0
102
RTVSPost2010PropOp31
 70
     1
102
RTVSPost2010Prop32
280
     0
102
RTVSPost2010PropOp32
 70
     1
102
RTVSPost2010Prop33
280
     0
102
RTVSPost2010PropOp33
 70
     1
102
RTVSPost2010Prop34
280
     0
102
RTVSPost2010PropOp34
 70
     1
102
RTVSPost2010Prop35
280
     0
102
RTVSPost2010PropOp35
 70
     1
102
RTVSPost2010Prop36
280
     0
102
RTVSPost2010PropOp36
 70
     1
102
RTVSPost2010Prop37
 90
       50
102
RTVSPost2010PropOp37
 70
     1
102
RTVSPost2010Prop38
140
0.0
102
RTVSPost2010PropOp38
 70
     1
102
RTVSPost2010Prop39
140
1.0
102
RTVSPost2010PropOp39
 70
     1
102
RTVSPost2010Prop40
 90
        0
102
RTVSPost2010PropOp40
 70
     1
102
RTVSPost2010Prop41ColorIndex
 90
       18
102
RTVSPost2010Prop41ColorRGB
 90
        0
102
RTVSPost2010PropOp41
 70
     1
102
RTVSPost2010Prop42
 90
       50
102
RTVSPost2010PropOp42
 70
     1
102
RTVSPost2010Prop43
 90
        3
102
RTVSPost2010PropOp43
 70
     1
102
RTVSPost2010Prop44ColorIndex
 90
        5
102
RTVSPost2010Prop44ColorRGB
 90
      255
102
RTVSPost2010PropOp44
 70
     1
102
RTVSPost2010Prop45
280
     0
102
RTVSPost2010PropOp45
 70
     1
102
RTVSPost2010Prop46
 90
       50
102
RTVSPost2010PropOp46
 70
     1
102
RTVSPost2010Prop47
 90
       50
102
RTVSPost2010PropOp47
 70
     1
102
RTVSPost2010Prop48
 90
       50
102
RTVSPost2010PropOp48
 70
     1
102
RTVSPost2010Prop49
280
     0
102
RTVSPost2010PropOp49
 70
     1
102
RTVSPost2010Prop50
 90
       50
102
RTVSPost2010PropOp50
 70
     1
102
RTVSPost2010Prop51ColorIndex
 90
      256
102
RTVSPost2010Prop51ColorRGB
 90
-16777216
102
RTVSPost2010PropOp51
 70
     0
102
RTVSPost2010Prop52
140
1.0
102
RTVSPost2010PropOp52
 70
     0
102
RTVSPost2010Prop53
 90
        2
102
RTVSPost2010PropOp53
 70
     1
102
RTVSPost2010Prop54
  1
strokes_ogs.tif
102
RTVSPost2010PropOp54
 70
     1
102
RTVSPost2010Prop55
280
     0
102
RTVSPost2010PropOp55
 70
     1
102
RTVSPost2010Prop56
140
1.0
102
RTVSPost2010PropOp56
 70
     1
102
RTVSPost2010Prop57
140
1.0
102
RTVSPost2010PropOp57
 70
     1
102
RTVSPropertyOp0
 70
     1
102
RTVSPropertyOp1
 70
     1
102
RTVSPropertyOp2
 70
     1
102
RTVSPropertyOp3
 70
     1
102
RTVSPropertyOp4
 70
     1
102
RTVSPropertyOp5
 70
     1
102
RTVSPropertyOp6
 70
     1
102
RTVSPropertyOp7
 70
     1
102
RTVSPropertyOp8
 70
     1
102
RTVSPropertyOp9
 70
     1
102
RTVSPropertyOp10
 70
     1
102
RTVSPropertyOp11
 70
     1
102
RTVSPropertyOp12
 70
     1
102
RTVSPropertyOp13
 70
     1
102
RTVSPropertyOp14
 70
     1
102
RTVSPropertyOp15
 70
     1
102
RTVSPropertyOp16
 70
     1
102
RTVSPropertyOp17
 70
     1
102
RTVSPropertyOp18
 70
     1
102
RTVSPropertyOp19
 70
     1
102
RTVSPropertyOp20
 70
     1
102
RTVSPropertyOp21
 70
     1
102
RTVSPropertyOp22
 70
     1
102
RTVSPropertyOp23
 70
     1
102
RTVSPropertyOp24
 70
     1
102
RTVSPropertyOp25
 70
     1
102
RTVSPropertyOp26
 70
     1
102
RTVSPropertyOp27
 70
     1
102
RTVSPropertyOp28
 70
     1
102
RTVSPropertyOp29
 70
     1
102
RTVSPropertyOp30
 70
     1
102
RTVSPropertyOp31
 70
     1
102
RTVSPropertyOp32
 70
     1
102
RTVSPropertyOp33
 70
     1
102
RTVSPropertyOp34
 70
     1
102
RTVSPropertyOp35
 70
     1
102
RTVSPropertyOp36
 70
     1
102
RTVSPropertyOp37
 70
     1
102
RTVSPropertyOp38
 70
     1
102
RTVSPropertyOp39
 70
     1
102
RTVSPropertyOp40
 70
     1
102
RTVSPropertyOp41
 70
     1
102
RTVSPropertyOp42
 70
     1
102
RTVSPropertyOp43
 70
     1
102
RTVSPropertyOp44
 70
     1
102
RTVSPropertyOp45
 70
     1
102
RTVSPropertyOp46
 70
     1
102
RTVSPropertyOp47
 70
     1
102
RTVSPropertyOp48
 70
     1
102
RTVSPropertyOp49
 70
     1
102
RTVSPropertyOp50
 70
     1
102
RTVSPropertyOp51
 70
     0
102
RTVSPropertyOp52
 70
     0
102
RTVSPropertyOp53
 70
     1
102
RTVSPropertyOp54
 70
     1
102
RTVSPropertyOp55
 70
     1
102
RTVSPropertyOp56
 70
     1
102
RTVSPropertyOp57
 70
     1
102
RTVSPropertyOp58
 70
     1
102
RTVSPropertyOp59
 70
     1
102
RTVSPropertyOp60
 70
     1
102
RTVSPropertyOp61
 70
     1
102
RTVSPropertyOp62
 70
     1
  0
XRECORD
  5
966D
102
{ACAD_REACTORS
330
966C
102
}
330
966C
100
AcDbXrecord
280
     1
102
RTVSPost2010Prop28
280
     0
102
RTVSPost2010PropOp28
 70
     1
102
RTVSPost2010Prop29
280
     1
102
RTVSPost2010PropOp29
 70
     1
102
RTVSPost2010Prop30
280
     1
102
RTVSPost2010PropOp30
 70
     1
102
RTVSPost2010Prop31
280
     0
102
RTVSPost2010PropOp31
 70
     1
102
RTVSPost2010Prop32
280
     0
102
RTVSPost2010PropOp32
 70
     1
102
RTVSPost2010Prop33
280
     0
102
RTVSPost2010PropOp33
 70
     1
102
RTVSPost2010Prop34
280
     0
102
RTVSPost2010PropOp34
 70
     1
102
RTVSPost2010Prop35
280
     0
102
RTVSPost2010PropOp35
 70
     1
102
RTVSPost2010Prop36
280
     0
102
RTVSPost2010PropOp36
 70
     1
102
RTVSPost2010Prop37
 90
       50
102
RTVSPost2010PropOp37
 70
     0
102
RTVSPost2010Prop38
140
0.0
102
RTVSPost2010PropOp38
 70
     0
102
RTVSPost2010Prop39
140
1.0
102
RTVSPost2010PropOp39
 70
     0
102
RTVSPost2010Prop40
 90
        0
102
RTVSPost2010PropOp40
 70
     0
102
RTVSPost2010Prop41ColorIndex
 90
       18
102
RTVSPost2010Prop41ColorRGB
 90
        0
102
RTVSPost2010PropOp41
 70
     0
102
RTVSPost2010Prop42
 90
       50
102
RTVSPost2010PropOp42
 70
     0
102
RTVSPost2010Prop43
 90
        3
102
RTVSPost2010PropOp43
 70
     0
102
RTVSPost2010Prop44ColorIndex
 90
        5
102
RTVSPost2010Prop44ColorRGB
 90
      255
102
RTVSPost2010PropOp44
 70
     0
102
RTVSPost2010Prop45
280
     0
102
RTVSPost2010PropOp45
 70
     1
102
RTVSPost2010Prop46
 90
       50
102
RTVSPost2010PropOp46
 70
     0
102
RTVSPost2010Prop47
 90
       50
102
RTVSPost2010PropOp47
 70
     0
102
RTVSPost2010Prop48
 90
       50
102
RTVSPost2010PropOp48
 70
     0
102
RTVSPost2010Prop49
280
     0
102
RTVSPost2010PropOp49
 70
     1
102
RTVSPost2010Prop50
 90
       50
102
RTVSPost2010PropOp50
 70
     0
102
RTVSPost2010Prop51ColorIndex
 90
      256
102
RTVSPost2010Prop51ColorRGB
 90
-16777216
102
RTVSPost2010PropOp51
 70
     0
102
RTVSPost2010Prop52
140
1.0
102
RTVSPost2010PropOp52
 70
     0
102
RTVSPost2010Prop53
 90
        2
102
RTVSPost2010PropOp53
 70
     0
102
RTVSPost2010Prop54
  1
strokes_ogs.tif
102
RTVSPost2010PropOp54
 70
     0
102
RTVSPost2010Prop55
280
     0
102
RTVSPost2010PropOp55
 70
     1
102
RTVSPost2010Prop56
140
1.0
102
RTVSPost2010PropOp56
 70
     0
102
RTVSPost2010Prop57
140
1.0
102
RTVSPost2010PropOp57
 70
     0
102
RTVSPropertyOp0
 70
     0
102
RTVSPropertyOp1
 70
     0
102
RTVSPropertyOp2
 70
     0
102
RTVSPropertyOp3
 70
     0
102
RTVSPropertyOp4
 70
     0
102
RTVSPropertyOp5
 70
     0
102
RTVSPropertyOp6
 70
     0
102
RTVSPropertyOp7
 70
     0
102
RTVSPropertyOp8
 70
     0
102
RTVSPropertyOp9
 70
     0
102
RTVSPropertyOp10
 70
     0
102
RTVSPropertyOp11
 70
     0
102
RTVSPropertyOp12
 70
     0
102
RTVSPropertyOp13
 70
     0
102
RTVSPropertyOp14
 70
     2
102
RTVSPropertyOp15
 70
     0
102
RTVSPropertyOp16
 70
     0
102
RTVSPropertyOp17
 70
     0
102
RTVSPropertyOp18
 70
     0
102
RTVSPropertyOp19
 70
     0
102
RTVSPropertyOp20
 70
     0
102
RTVSPropertyOp21
 70
     0
102
RTVSPropertyOp22
 70
     0
102
RTVSPropertyOp23
 70
     0
102
RTVSPropertyOp24
 70
     0
102
RTVSPropertyOp25
 70
     0
102
RTVSPropertyOp26
 70
     0
102
RTVSPropertyOp27
 70
     0
102
RTVSPropertyOp28
 70
     1
102
RTVSPropertyOp29
 70
     1
102
RTVSPropertyOp30
 70
     1
102
RTVSPropertyOp31
 70
     1
102
RTVSPropertyOp32
 70
     1
102
RTVSPropertyOp33
 70
     1
102
RTVSPropertyOp34
 70
     1
102
RTVSPropertyOp35
 70
     1
102
RTVSPropertyOp36
 70
     1
102
RTVSPropertyOp37
 70
     0
102
RTVSPropertyOp38
 70
     0
102
RTVSPropertyOp39
 70
     0
102
RTVSPropertyOp40
 70
     0
102
RTVSPropertyOp41
 70
     0
102
RTVSPropertyOp42
 70
     0
102
RTVSPropertyOp43
 70
     0
102
RTVSPropertyOp44
 70
     0
102
RTVSPropertyOp45
 70
     1
102
RTVSPropertyOp46
 70
     0
102
RTVSPropertyOp47
 70
     0
102
RTVSPropertyOp48
 70
     0
102
RTVSPropertyOp49
 70
     1
102
RTVSPropertyOp50
 70
     0
102
RTVSPropertyOp51
 70
     0
102
RTVSPropertyOp52
 70
     0
102
RTVSPropertyOp53
 70
     0
102
RTVSPropertyOp54
 70
     0
102
RTVSPropertyOp55
 70
     1
102
RTVSPropertyOp56
 70
     0
102
RTVSPropertyOp57
 70
     0
102
RTVSPropertyOp58
 70
     0
102
RTVSPropertyOp59
 70
     0
102
RTVSPropertyOp60
 70
     0
102
RTVSPropertyOp61
 70
     0
102
RTVSPropertyOp62
 70
     0
  0
XRECORD
  5
965D
102
{ACAD_REACTORS
330
965C
102
}
330
965C
100
AcDbXrecord
280
     1
102
RTVSPost2010Prop28
280
     0
102
RTVSPost2010PropOp28
 70
     1
102
RTVSPost2010Prop29
280
     1
102
RTVSPost2010PropOp29
 70
     1
102
RTVSPost2010Prop30
280
     1
102
RTVSPost2010PropOp30
 70
     1
102
RTVSPost2010Prop31
280
     0
102
RTVSPost2010PropOp31
 70
     1
102
RTVSPost2010Prop32
280
     0
102
RTVSPost2010PropOp32
 70
     1
102
RTVSPost2010Prop33
280
     0
102
RTVSPost2010PropOp33
 70
     1
102
RTVSPost2010Prop34
280
     0
102
RTVSPost2010PropOp34
 70
     1
102
RTVSPost2010Prop35
280
     0
102
RTVSPost2010PropOp35
 70
     1
102
RTVSPost2010Prop36
280
     0
102
RTVSPost2010PropOp36
 70
     1
102
RTVSPost2010Prop37
 90
       50
102
RTVSPost2010PropOp37
 70
     1
102
RTVSPost2010Prop38
140
0.0
102
RTVSPost2010PropOp38
 70
     1
102
RTVSPost2010Prop39
140
1.0
102
RTVSPost2010PropOp39
 70
     1
102
RTVSPost2010Prop40
 90
        0
102
RTVSPost2010PropOp40
 70
     1
102
RTVSPost2010Prop41ColorIndex
 90
       18
102
RTVSPost2010Prop41ColorRGB
 90
        0
102
RTVSPost2010PropOp41
 70
     1
102
RTVSPost2010Prop42
 90
       50
102
RTVSPost2010PropOp42
 70
     1
102
RTVSPost2010Prop43
 90
        3
102
RTVSPost2010PropOp43
 70
     1
102
RTVSPost2010Prop44ColorIndex
 90
        5
102
RTVSPost2010Prop44ColorRGB
 90
      255
102
RTVSPost2010PropOp44
 70
     1
102
RTVSPost2010Prop45
280
     0
102
RTVSPost2010PropOp45
 70
     1
102
RTVSPost2010Prop46
 90
       50
102
RTVSPost2010PropOp46
 70
     1
102
RTVSPost2010Prop47
 90
       50
102
RTVSPost2010PropOp47
 70
     1
102
RTVSPost2010Prop48
 90
       50
102
RTVSPost2010PropOp48
 70
     1
102
RTVSPost2010Prop49
280
     0
102
RTVSPost2010PropOp49
 70
     1
102
RTVSPost2010Prop50
 90
       50
102
RTVSPost2010PropOp50
 70
     1
102
RTVSPost2010Prop51ColorIndex
 90
      256
102
RTVSPost2010Prop51ColorRGB
 90
-16777216
102
RTVSPost2010PropOp51
 70
     0
102
RTVSPost2010Prop52
140
1.0
102
RTVSPost2010PropOp52
 70
     0
102
RTVSPost2010Prop53
 90
        2
102
RTVSPost2010PropOp53
 70
     1
102
RTVSPost2010Prop54
  1
strokes_ogs.tif
102
RTVSPost2010PropOp54
 70
     1
102
RTVSPost2010Prop55
280
     0
102
RTVSPost2010PropOp55
 70
     1
102
RTVSPost2010Prop56
140
1.0
102
RTVSPost2010PropOp56
 70
     1
102
RTVSPost2010Prop57
140
1.0
102
RTVSPost2010PropOp57
 70
     1
102
RTVSPropertyOp0
 70
     1
102
RTVSPropertyOp1
 70
     1
102
RTVSPropertyOp2
 70
     1
102
RTVSPropertyOp3
 70
     1
102
RTVSPropertyOp4
 70
     1
102
RTVSPropertyOp5
 70
     1
102
RTVSPropertyOp6
 70
     1
102
RTVSPropertyOp7
 70
     1
102
RTVSPropertyOp8
 70
     1
102
RTVSPropertyOp9
 70
     1
102
RTVSPropertyOp10
 70
     1
102
RTVSPropertyOp11
 70
     1
102
RTVSPropertyOp12
 70
     1
102
RTVSPropertyOp13
 70
     1
102
RTVSPropertyOp14
 70
     1
102
RTVSPropertyOp15
 70
     1
102
RTVSPropertyOp16
 70
     1
102
RTVSPropertyOp17
 70
     1
102
RTVSPropertyOp18
 70
     1
102
RTVSPropertyOp19
 70
     1
102
RTVSPropertyOp20
 70
     1
102
RTVSPropertyOp21
 70
     1
102
RTVSPropertyOp22
 70
     1
102
RTVSPropertyOp23
 70
     1
102
RTVSPropertyOp24
 70
     1
102
RTVSPropertyOp25
 70
     1
102
RTVSPropertyOp26
 70
     1
102
RTVSPropertyOp27
 70
     1
102
RTVSPropertyOp28
 70
     1
102
RTVSPropertyOp29
 70
     1
102
RTVSPropertyOp30
 70
     1
102
RTVSPropertyOp31
 70
     1
102
RTVSPropertyOp32
 70
     1
102
RTVSPropertyOp33
 70
     1
102
RTVSPropertyOp34
 70
     1
102
RTVSPropertyOp35
 70
     1
102
RTVSPropertyOp36
 70
     1
102
RTVSPropertyOp37
 70
     1
102
RTVSPropertyOp38
 70
     1
102
RTVSPropertyOp39
 70
     1
102
RTVSPropertyOp40
 70
     1
102
RTVSPropertyOp41
 70
     1
102
RTVSPropertyOp42
 70
     1
102
RTVSPropertyOp43
 70
     1
102
RTVSPropertyOp44
 70
     1
102
RTVSPropertyOp45
 70
     1
102
RTVSPropertyOp46
 70
     1
102
RTVSPropertyOp47
 70
     1
102
RTVSPropertyOp48
 70
     1
102
RTVSPropertyOp49
 70
     1
102
RTVSPropertyOp50
 70
     1
102
RTVSPropertyOp51
 70
     0
102
RTVSPropertyOp52
 70
     0
102
RTVSPropertyOp53
 70
     1
102
RTVSPropertyOp54
 70
     1
102
RTVSPropertyOp55
 70
     1
102
RTVSPropertyOp56
 70
     1
102
RTVSPropertyOp57
 70
     1
102
RTVSPropertyOp58
 70
     1
102
RTVSPropertyOp59
 70
     1
102
RTVSPropertyOp60
 70
     1
102
RTVSPropertyOp61
 70
     1
102
RTVSPropertyOp62
 70
     1
  0
XRECORD
  5
966F
102
{ACAD_REACTORS
330
966E
102
}
330
966E
100
AcDbXrecord
280
     1
102
RTVSPost2010Prop28
280
     0
102
RTVSPost2010PropOp28
 70
     1
102
RTVSPost2010Prop29
280
     1
102
RTVSPost2010PropOp29
 70
     1
102
RTVSPost2010Prop30
280
     1
102
RTVSPost2010PropOp30
 70
     1
102
RTVSPost2010Prop31
280
     0
102
RTVSPost2010PropOp31
 70
     1
102
RTVSPost2010Prop32
280
     0
102
RTVSPost2010PropOp32
 70
     1
102
RTVSPost2010Prop33
280
     0
102
RTVSPost2010PropOp33
 70
     1
102
RTVSPost2010Prop34
280
     0
102
RTVSPost2010PropOp34
 70
     1
102
RTVSPost2010Prop35
280
     0
102
RTVSPost2010PropOp35
 70
     1
102
RTVSPost2010Prop36
280
     0
102
RTVSPost2010PropOp36
 70
     1
102
RTVSPost2010Prop37
 90
       50
102
RTVSPost2010PropOp37
 70
     0
102
RTVSPost2010Prop38
140
0.0
102
RTVSPost2010PropOp38
 70
     0
102
RTVSPost2010Prop39
140
1.0
102
RTVSPost2010PropOp39
 70
     0
102
RTVSPost2010Prop40
 90
        0
102
RTVSPost2010PropOp40
 70
     0
102
RTVSPost2010Prop41ColorIndex
 90
       18
102
RTVSPost2010Prop41ColorRGB
 90
        0
102
RTVSPost2010PropOp41
 70
     0
102
RTVSPost2010Prop42
 90
       50
102
RTVSPost2010PropOp42
 70
     0
102
RTVSPost2010Prop43
 90
        3
102
RTVSPost2010PropOp43
 70
     0
102
RTVSPost2010Prop44ColorIndex
 90
        5
102
RTVSPost2010Prop44ColorRGB
 90
      255
102
RTVSPost2010PropOp44
 70
     0
102
RTVSPost2010Prop45
280
     0
102
RTVSPost2010PropOp45
 70
     1
102
RTVSPost2010Prop46
 90
       50
102
RTVSPost2010PropOp46
 70
     0
102
RTVSPost2010Prop47
 90
       50
102
RTVSPost2010PropOp47
 70
     0
102
RTVSPost2010Prop48
 90
       50
102
RTVSPost2010PropOp48
 70
     0
102
RTVSPost2010Prop49
280
     0
102
RTVSPost2010PropOp49
 70
     1
102
RTVSPost2010Prop50
 90
       50
102
RTVSPost2010PropOp50
 70
     0
102
RTVSPost2010Prop51ColorIndex
 90
      256
102
RTVSPost2010Prop51ColorRGB
 90
-16777216
102
RTVSPost2010PropOp51
 70
     0
102
RTVSPost2010Prop52
140
1.0
102
RTVSPost2010PropOp52
 70
     0
102
RTVSPost2010Prop53
 90
        2
102
RTVSPost2010PropOp53
 70
     0
102
RTVSPost2010Prop54
  1
strokes_ogs.tif
102
RTVSPost2010PropOp54
 70
     0
102
RTVSPost2010Prop55
280
     0
102
RTVSPost2010PropOp55
 70
     1
102
RTVSPost2010Prop56
140
1.0
102
RTVSPost2010PropOp56
 70
     0
102
RTVSPost2010Prop57
140
1.0
102
RTVSPost2010PropOp57
 70
     0
102
RTVSPropertyOp0
 70
     0
102
RTVSPropertyOp1
 70
     0
102
RTVSPropertyOp2
 70
     0
102
RTVSPropertyOp3
 70
     0
102
RTVSPropertyOp4
 70
     0
102
RTVSPropertyOp5
 70
     0
102
RTVSPropertyOp6
 70
     0
102
RTVSPropertyOp7
 70
     0
102
RTVSPropertyOp8
 70
     0
102
RTVSPropertyOp9
 70
     0
102
RTVSPropertyOp10
 70
     0
102
RTVSPropertyOp11
 70
     0
102
RTVSPropertyOp12
 70
     0
102
RTVSPropertyOp13
 70
     0
102
RTVSPropertyOp14
 70
     2
102
RTVSPropertyOp15
 70
     0
102
RTVSPropertyOp16
 70
     0
102
RTVSPropertyOp17
 70
     0
102
RTVSPropertyOp18
 70
     0
102
RTVSPropertyOp19
 70
     0
102
RTVSPropertyOp20
 70
     0
102
RTVSPropertyOp21
 70
     0
102
RTVSPropertyOp22
 70
     0
102
RTVSPropertyOp23
 70
     0
102
RTVSPropertyOp24
 70
     0
102
RTVSPropertyOp25
 70
     0
102
RTVSPropertyOp26
 70
     0
102
RTVSPropertyOp27
 70
     0
102
RTVSPropertyOp28
 70
     1
102
RTVSPropertyOp29
 70
     1
102
RTVSPropertyOp30
 70
     1
102
RTVSPropertyOp31
 70
     1
102
RTVSPropertyOp32
 70
     1
102
RTVSPropertyOp33
 70
     1
102
RTVSPropertyOp34
 70
     1
102
RTVSPropertyOp35
 70
     1
102
RTVSPropertyOp36
 70
     1
102
RTVSPropertyOp37
 70
     0
102
RTVSPropertyOp38
 70
     0
102
RTVSPropertyOp39
 70
     0
102
RTVSPropertyOp40
 70
     0
102
RTVSPropertyOp41
 70
     0
102
RTVSPropertyOp42
 70
     0
102
RTVSPropertyOp43
 70
     0
102
RTVSPropertyOp44
 70
     0
102
RTVSPropertyOp45
 70
     1
102
RTVSPropertyOp46
 70
     0
102
RTVSPropertyOp47
 70
     0
102
RTVSPropertyOp48
 70
     0
102
RTVSPropertyOp49
 70
     1
102
RTVSPropertyOp50
 70
     0
102
RTVSPropertyOp51
 70
     0
102
RTVSPropertyOp52
 70
     0
102
RTVSPropertyOp53
 70
     0
102
RTVSPropertyOp54
 70
     0
102
RTVSPropertyOp55
 70
     1
102
RTVSPropertyOp56
 70
     0
102
RTVSPropertyOp57
 70
     0
102
RTVSPropertyOp58
 70
     0
102
RTVSPropertyOp59
 70
     0
102
RTVSPropertyOp60
 70
     0
102
RTVSPropertyOp61
 70
     0
102
RTVSPropertyOp62
 70
     0
  0
XRECORD
  5
9655
102
{ACAD_REACTORS
330
9654
102
}
330
9654
100
AcDbXrecord
280
     1
102
RTVSPost2010Prop28
280
     0
102
RTVSPost2010PropOp28
 70
     1
102
RTVSPost2010Prop29
280
     1
102
RTVSPost2010PropOp29
 70
     1
102
RTVSPost2010Prop30
280
     1
102
RTVSPost2010PropOp30
 70
     1
102
RTVSPost2010Prop31
280
     0
102
RTVSPost2010PropOp31
 70
     1
102
RTVSPost2010Prop32
280
     0
102
RTVSPost2010PropOp32
 70
     1
102
RTVSPost2010Prop33
280
     0
102
RTVSPost2010PropOp33
 70
     1
102
RTVSPost2010Prop34
280
     0
102
RTVSPost2010PropOp34
 70
     1
102
RTVSPost2010Prop35
280
     0
102
RTVSPost2010PropOp35
 70
     1
102
RTVSPost2010Prop36
280
     0
102
RTVSPost2010PropOp36
 70
     1
102
RTVSPost2010Prop37
 90
       50
102
RTVSPost2010PropOp37
 70
     1
102
RTVSPost2010Prop38
140
0.0
102
RTVSPost2010PropOp38
 70
     1
102
RTVSPost2010Prop39
140
1.0
102
RTVSPost2010PropOp39
 70
     1
102
RTVSPost2010Prop40
 90
        0
102
RTVSPost2010PropOp40
 70
     1
102
RTVSPost2010Prop41ColorIndex
 90
       18
102
RTVSPost2010Prop41ColorRGB
 90
        0
102
RTVSPost2010PropOp41
 70
     1
102
RTVSPost2010Prop42
 90
       50
102
RTVSPost2010PropOp42
 70
     1
102
RTVSPost2010Prop43
 90
        3
102
RTVSPost2010PropOp43
 70
     1
102
RTVSPost2010Prop44ColorIndex
 90
        5
102
RTVSPost2010Prop44ColorRGB
 90
      255
102
RTVSPost2010PropOp44
 70
     1
102
RTVSPost2010Prop45
280
     0
102
RTVSPost2010PropOp45
 70
     1
102
RTVSPost2010Prop46
 90
       50
102
RTVSPost2010PropOp46
 70
     1
102
RTVSPost2010Prop47
 90
       50
102
RTVSPost2010PropOp47
 70
     1
102
RTVSPost2010Prop48
 90
       50
102
RTVSPost2010PropOp48
 70
     1
102
RTVSPost2010Prop49
280
     0
102
RTVSPost2010PropOp49
 70
     1
102
RTVSPost2010Prop50
 90
       50
102
RTVSPost2010PropOp50
 70
     1
102
RTVSPost2010Prop51ColorIndex
 90
      256
102
RTVSPost2010Prop51ColorRGB
 90
-16777216
102
RTVSPost2010PropOp51
 70
     0
102
RTVSPost2010Prop52
140
1.0
102
RTVSPost2010PropOp52
 70
     0
102
RTVSPost2010Prop53
 90
        2
102
RTVSPost2010PropOp53
 70
     1
102
RTVSPost2010Prop54
  1
strokes_ogs.tif
102
RTVSPost2010PropOp54
 70
     1
102
RTVSPost2010Prop55
280
     0
102
RTVSPost2010PropOp55
 70
     1
102
RTVSPost2010Prop56
140
1.0
102
RTVSPost2010PropOp56
 70
     1
102
RTVSPost2010Prop57
140
1.0
102
RTVSPost2010PropOp57
 70
     1
102
RTVSPropertyOp0
 70
     1
102
RTVSPropertyOp1
 70
     1
102
RTVSPropertyOp2
 70
     1
102
RTVSPropertyOp3
 70
     1
102
RTVSPropertyOp4
 70
     1
102
RTVSPropertyOp5
 70
     1
102
RTVSPropertyOp6
 70
     1
102
RTVSPropertyOp7
 70
     1
102
RTVSPropertyOp8
 70
     1
102
RTVSPropertyOp9
 70
     1
102
RTVSPropertyOp10
 70
     1
102
RTVSPropertyOp11
 70
     1
102
RTVSPropertyOp12
 70
     1
102
RTVSPropertyOp13
 70
     1
102
RTVSPropertyOp14
 70
     1
102
RTVSPropertyOp15
 70
     1
102
RTVSPropertyOp16
 70
     1
102
RTVSPropertyOp17
 70
     1
102
RTVSPropertyOp18
 70
     1
102
RTVSPropertyOp19
 70
     1
102
RTVSPropertyOp20
 70
     1
102
RTVSPropertyOp21
 70
     1
102
RTVSPropertyOp22
 70
     1
102
RTVSPropertyOp23
 70
     1
102
RTVSPropertyOp24
 70
     1
102
RTVSPropertyOp25
 70
     1
102
RTVSPropertyOp26
 70
     1
102
RTVSPropertyOp27
 70
     1
102
RTVSPropertyOp28
 70
     1
102
RTVSPropertyOp29
 70
     1
102
RTVSPropertyOp30
 70
     1
102
RTVSPropertyOp31
 70
     1
102
RTVSPropertyOp32
 70
     1
102
RTVSPropertyOp33
 70
     1
102
RTVSPropertyOp34
 70
     1
102
RTVSPropertyOp35
 70
     1
102
RTVSPropertyOp36
 70
     1
102
RTVSPropertyOp37
 70
     1
102
RTVSPropertyOp38
 70
     1
102
RTVSPropertyOp39
 70
     1
102
RTVSPropertyOp40
 70
     1
102
RTVSPropertyOp41
 70
     1
102
RTVSPropertyOp42
 70
     1
102
RTVSPropertyOp43
 70
     1
102
RTVSPropertyOp44
 70
     1
102
RTVSPropertyOp45
 70
     1
102
RTVSPropertyOp46
 70
     1
102
RTVSPropertyOp47
 70
     1
102
RTVSPropertyOp48
 70
     1
102
RTVSPropertyOp49
 70
     1
102
RTVSPropertyOp50
 70
     1
102
RTVSPropertyOp51
 70
     0
102
RTVSPropertyOp52
 70
     0
102
RTVSPropertyOp53
 70
     1
102
RTVSPropertyOp54
 70
     1
102
RTVSPropertyOp55
 70
     1
102
RTVSPropertyOp56
 70
     1
102
RTVSPropertyOp57
 70
     1
102
RTVSPropertyOp58
 70
     1
102
RTVSPropertyOp59
 70
     1
102
RTVSPropertyOp60
 70
     1
102
RTVSPropertyOp61
 70
     1
102
RTVSPropertyOp62
 70
     1
  0
XRECORD
  5
966B
102
{ACAD_REACTORS
330
966A
102
}
330
966A
100
AcDbXrecord
280
     1
102
RTVSPost2010Prop28
280
     0
102
RTVSPost2010PropOp28
 70
     1
102
RTVSPost2010Prop29
280
     1
102
RTVSPost2010PropOp29
 70
     1
102
RTVSPost2010Prop30
280
     1
102
RTVSPost2010PropOp30
 70
     1
102
RTVSPost2010Prop31
280
     0
102
RTVSPost2010PropOp31
 70
     1
102
RTVSPost2010Prop32
280
     0
102
RTVSPost2010PropOp32
 70
     1
102
RTVSPost2010Prop33
280
     0
102
RTVSPost2010PropOp33
 70
     1
102
RTVSPost2010Prop34
280
     0
102
RTVSPost2010PropOp34
 70
     1
102
RTVSPost2010Prop35
280
     0
102
RTVSPost2010PropOp35
 70
     1
102
RTVSPost2010Prop36
280
     0
102
RTVSPost2010PropOp36
 70
     1
102
RTVSPost2010Prop37
 90
       50
102
RTVSPost2010PropOp37
 70
     1
102
RTVSPost2010Prop38
140
0.0
102
RTVSPost2010PropOp38
 70
     1
102
RTVSPost2010Prop39
140
1.0
102
RTVSPost2010PropOp39
 70
     1
102
RTVSPost2010Prop40
 90
        0
102
RTVSPost2010PropOp40
 70
     1
102
RTVSPost2010Prop41ColorIndex
 90
       18
102
RTVSPost2010Prop41ColorRGB
 90
        0
102
RTVSPost2010PropOp41
 70
     1
102
RTVSPost2010Prop42
 90
       50
102
RTVSPost2010PropOp42
 70
     1
102
RTVSPost2010Prop43
 90
        3
102
RTVSPost2010PropOp43
 70
     1
102
RTVSPost2010Prop44ColorIndex
 90
        5
102
RTVSPost2010Prop44ColorRGB
 90
      255
102
RTVSPost2010PropOp44
 70
     1
102
RTVSPost2010Prop45
280
     0
102
RTVSPost2010PropOp45
 70
     1
102
RTVSPost2010Prop46
 90
       50
102
RTVSPost2010PropOp46
 70
     1
102
RTVSPost2010Prop47
 90
       50
102
RTVSPost2010PropOp47
 70
     1
102
RTVSPost2010Prop48
 90
       50
102
RTVSPost2010PropOp48
 70
     1
102
RTVSPost2010Prop49
280
     0
102
RTVSPost2010PropOp49
 70
     1
102
RTVSPost2010Prop50
 90
       50
102
RTVSPost2010PropOp50
 70
     1
102
RTVSPost2010Prop51ColorIndex
 90
      256
102
RTVSPost2010Prop51ColorRGB
 90
-16777216
102
RTVSPost2010PropOp51
 70
     0
102
RTVSPost2010Prop52
140
1.0
102
RTVSPost2010PropOp52
 70
     0
102
RTVSPost2010Prop53
 90
        2
102
RTVSPost2010PropOp53
 70
     1
102
RTVSPost2010Prop54
  1
strokes_ogs.tif
102
RTVSPost2010PropOp54
 70
     1
102
RTVSPost2010Prop55
280
     0
102
RTVSPost2010PropOp55
 70
     1
102
RTVSPost2010Prop56
140
1.0
102
RTVSPost2010PropOp56
 70
     1
102
RTVSPost2010Prop57
140
1.0
102
RTVSPost2010PropOp57
 70
     1
102
RTVSPropertyOp0
 70
     1
102
RTVSPropertyOp1
 70
     1
102
RTVSPropertyOp2
 70
     1
102
RTVSPropertyOp3
 70
     1
102
RTVSPropertyOp4
 70
     1
102
RTVSPropertyOp5
 70
     1
102
RTVSPropertyOp6
 70
     1
102
RTVSPropertyOp7
 70
     1
102
RTVSPropertyOp8
 70
     1
102
RTVSPropertyOp9
 70
     1
102
RTVSPropertyOp10
 70
     1
102
RTVSPropertyOp11
 70
     1
102
RTVSPropertyOp12
 70
     1
102
RTVSPropertyOp13
 70
     1
102
RTVSPropertyOp14
 70
     1
102
RTVSPropertyOp15
 70
     1
102
RTVSPropertyOp16
 70
     1
102
RTVSPropertyOp17
 70
     1
102
RTVSPropertyOp18
 70
     1
102
RTVSPropertyOp19
 70
     1
102
RTVSPropertyOp20
 70
     1
102
RTVSPropertyOp21
 70
     1
102
RTVSPropertyOp22
 70
     1
102
RTVSPropertyOp23
 70
     1
102
RTVSPropertyOp24
 70
     1
102
RTVSPropertyOp25
 70
     1
102
RTVSPropertyOp26
 70
     1
102
RTVSPropertyOp27
 70
     1
102
RTVSPropertyOp28
 70
     1
102
RTVSPropertyOp29
 70
     1
102
RTVSPropertyOp30
 70
     1
102
RTVSPropertyOp31
 70
     1
102
RTVSPropertyOp32
 70
     1
102
RTVSPropertyOp33
 70
     1
102
RTVSPropertyOp34
 70
     1
102
RTVSPropertyOp35
 70
     1
102
RTVSPropertyOp36
 70
     1
102
RTVSPropertyOp37
 70
     1
102
RTVSPropertyOp38
 70
     1
102
RTVSPropertyOp39
 70
     1
102
RTVSPropertyOp40
 70
     1
102
RTVSPropertyOp41
 70
     1
102
RTVSPropertyOp42
 70
     1
102
RTVSPropertyOp43
 70
     1
102
RTVSPropertyOp44
 70
     1
102
RTVSPropertyOp45
 70
     1
102
RTVSPropertyOp46
 70
     1
102
RTVSPropertyOp47
 70
     1
102
RTVSPropertyOp48
 70
     1
102
RTVSPropertyOp49
 70
     1
102
RTVSPropertyOp50
 70
     1
102
RTVSPropertyOp51
 70
     0
102
RTVSPropertyOp52
 70
     0
102
RTVSPropertyOp53
 70
     1
102
RTVSPropertyOp54
 70
     1
102
RTVSPropertyOp55
 70
     1
102
RTVSPropertyOp56
 70
     1
102
RTVSPropertyOp57
 70
     1
102
RTVSPropertyOp58
 70
     1
102
RTVSPropertyOp59
 70
     1
102
RTVSPropertyOp60
 70
     1
102
RTVSPropertyOp61
 70
     1
102
RTVSPropertyOp62
 70
     1
  0
XRECORD
  5
9669
102
{ACAD_REACTORS
330
9668
102
}
330
9668
100
AcDbXrecord
280
     1
102
RTVSPost2010Prop28
280
     0
102
RTVSPost2010PropOp28
 70
     1
102
RTVSPost2010Prop29
280
     1
102
RTVSPost2010PropOp29
 70
     1
102
RTVSPost2010Prop30
280
     1
102
RTVSPost2010PropOp30
 70
     1
102
RTVSPost2010Prop31
280
     0
102
RTVSPost2010PropOp31
 70
     1
102
RTVSPost2010Prop32
280
     0
102
RTVSPost2010PropOp32
 70
     1
102
RTVSPost2010Prop33
280
     0
102
RTVSPost2010PropOp33
 70
     1
102
RTVSPost2010Prop34
280
     0
102
RTVSPost2010PropOp34
 70
     1
102
RTVSPost2010Prop35
280
     0
102
RTVSPost2010PropOp35
 70
     1
102
RTVSPost2010Prop36
280
     0
102
RTVSPost2010PropOp36
 70
     1
102
RTVSPost2010Prop37
 90
       50
102
RTVSPost2010PropOp37
 70
     1
102
RTVSPost2010Prop38
140
0.0
102
RTVSPost2010PropOp38
 70
     1
102
RTVSPost2010Prop39
140
1.0
102
RTVSPost2010PropOp39
 70
     1
102
RTVSPost2010Prop40
 90
        0
102
RTVSPost2010PropOp40
 70
     1
102
RTVSPost2010Prop41ColorIndex
 90
       18
102
RTVSPost2010Prop41ColorRGB
 90
        0
102
RTVSPost2010PropOp41
 70
     1
102
RTVSPost2010Prop42
 90
       50
102
RTVSPost2010PropOp42
 70
     1
102
RTVSPost2010Prop43
 90
        3
102
RTVSPost2010PropOp43
 70
     1
102
RTVSPost2010Prop44ColorIndex
 90
        5
102
RTVSPost2010Prop44ColorRGB
 90
      255
102
RTVSPost2010PropOp44
 70
     1
102
RTVSPost2010Prop45
280
     0
102
RTVSPost2010PropOp45
 70
     1
102
RTVSPost2010Prop46
 90
       50
102
RTVSPost2010PropOp46
 70
     1
102
RTVSPost2010Prop47
 90
       50
102
RTVSPost2010PropOp47
 70
     1
102
RTVSPost2010Prop48
 90
       50
102
RTVSPost2010PropOp48
 70
     1
102
RTVSPost2010Prop49
280
     0
102
RTVSPost2010PropOp49
 70
     1
102
RTVSPost2010Prop50
 90
       50
102
RTVSPost2010PropOp50
 70
     1
102
RTVSPost2010Prop51ColorIndex
 90
      256
102
RTVSPost2010Prop51ColorRGB
 90
-16777216
102
RTVSPost2010PropOp51
 70
     0
102
RTVSPost2010Prop52
140
1.0
102
RTVSPost2010PropOp52
 70
     0
102
RTVSPost2010Prop53
 90
        2
102
RTVSPost2010PropOp53
 70
     1
102
RTVSPost2010Prop54
  1
strokes_ogs.tif
102
RTVSPost2010PropOp54
 70
     1
102
RTVSPost2010Prop55
280
     0
102
RTVSPost2010PropOp55
 70
     1
102
RTVSPost2010Prop56
140
1.0
102
RTVSPost2010PropOp56
 70
     1
102
RTVSPost2010Prop57
140
1.0
102
RTVSPost2010PropOp57
 70
     1
102
RTVSPropertyOp0
 70
     1
102
RTVSPropertyOp1
 70
     1
102
RTVSPropertyOp2
 70
     1
102
RTVSPropertyOp3
 70
     1
102
RTVSPropertyOp4
 70
     1
102
RTVSPropertyOp5
 70
     1
102
RTVSPropertyOp6
 70
     1
102
RTVSPropertyOp7
 70
     1
102
RTVSPropertyOp8
 70
     1
102
RTVSPropertyOp9
 70
     1
102
RTVSPropertyOp10
 70
     1
102
RTVSPropertyOp11
 70
     1
102
RTVSPropertyOp12
 70
     1
102
RTVSPropertyOp13
 70
     1
102
RTVSPropertyOp14
 70
     1
102
RTVSPropertyOp15
 70
     1
102
RTVSPropertyOp16
 70
     1
102
RTVSPropertyOp17
 70
     1
102
RTVSPropertyOp18
 70
     1
102
RTVSPropertyOp19
 70
     1
102
RTVSPropertyOp20
 70
     1
102
RTVSPropertyOp21
 70
     1
102
RTVSPropertyOp22
 70
     1
102
RTVSPropertyOp23
 70
     1
102
RTVSPropertyOp24
 70
     1
102
RTVSPropertyOp25
 70
     1
102
RTVSPropertyOp26
 70
     1
102
RTVSPropertyOp27
 70
     1
102
RTVSPropertyOp28
 70
     1
102
RTVSPropertyOp29
 70
     1
102
RTVSPropertyOp30
 70
     1
102
RTVSPropertyOp31
 70
     1
102
RTVSPropertyOp32
 70
     1
102
RTVSPropertyOp33
 70
     1
102
RTVSPropertyOp34
 70
     1
102
RTVSPropertyOp35
 70
     1
102
RTVSPropertyOp36
 70
     1
102
RTVSPropertyOp37
 70
     1
102
RTVSPropertyOp38
 70
     1
102
RTVSPropertyOp39
 70
     1
102
RTVSPropertyOp40
 70
     1
102
RTVSPropertyOp41
 70
     1
102
RTVSPropertyOp42
 70
     1
102
RTVSPropertyOp43
 70
     1
102
RTVSPropertyOp44
 70
     1
102
RTVSPropertyOp45
 70
     1
102
RTVSPropertyOp46
 70
     1
102
RTVSPropertyOp47
 70
     1
102
RTVSPropertyOp48
 70
     1
102
RTVSPropertyOp49
 70
     1
102
RTVSPropertyOp50
 70
     1
102
RTVSPropertyOp51
 70
     0
102
RTVSPropertyOp52
 70
     0
102
RTVSPropertyOp53
 70
     1
102
RTVSPropertyOp54
 70
     1
102
RTVSPropertyOp55
 70
     1
102
RTVSPropertyOp56
 70
     1
102
RTVSPropertyOp57
 70
     1
102
RTVSPropertyOp58
 70
     1
102
RTVSPropertyOp59
 70
     1
102
RTVSPropertyOp60
 70
     1
102
RTVSPropertyOp61
 70
     1
102
RTVSPropertyOp62
 70
     1
  0
XRECORD
  5
9663
102
{ACAD_REACTORS
330
9662
102
}
330
9662
100
AcDbXrecord
280
     1
102
RTVSPost2010Prop28
280
     0
102
RTVSPost2010PropOp28
 70
     1
102
RTVSPost2010Prop29
280
     1
102
RTVSPost2010PropOp29
 70
     1
102
RTVSPost2010Prop30
280
     1
102
RTVSPost2010PropOp30
 70
     1
102
RTVSPost2010Prop31
280
     0
102
RTVSPost2010PropOp31
 70
     1
102
RTVSPost2010Prop32
280
     0
102
RTVSPost2010PropOp32
 70
     1
102
RTVSPost2010Prop33
280
     0
102
RTVSPost2010PropOp33
 70
     1
102
RTVSPost2010Prop34
280
     0
102
RTVSPost2010PropOp34
 70
     1
102
RTVSPost2010Prop35
280
     0
102
RTVSPost2010PropOp35
 70
     1
102
RTVSPost2010Prop36
280
     0
102
RTVSPost2010PropOp36
 70
     1
102
RTVSPost2010Prop37
 90
       50
102
RTVSPost2010PropOp37
 70
     1
102
RTVSPost2010Prop38
140
0.0
102
RTVSPost2010PropOp38
 70
     1
102
RTVSPost2010Prop39
140
1.0
102
RTVSPost2010PropOp39
 70
     1
102
RTVSPost2010Prop40
 90
        0
102
RTVSPost2010PropOp40
 70
     1
102
RTVSPost2010Prop41ColorIndex
 90
       18
102
RTVSPost2010Prop41ColorRGB
 90
        0
102
RTVSPost2010PropOp41
 70
     1
102
RTVSPost2010Prop42
 90
       50
102
RTVSPost2010PropOp42
 70
     1
102
RTVSPost2010Prop43
 90
        3
102
RTVSPost2010PropOp43
 70
     1
102
RTVSPost2010Prop44ColorIndex
 90
        5
102
RTVSPost2010Prop44ColorRGB
 90
      255
102
RTVSPost2010PropOp44
 70
     1
102
RTVSPost2010Prop45
280
     0
102
RTVSPost2010PropOp45
 70
     1
102
RTVSPost2010Prop46
 90
       50
102
RTVSPost2010PropOp46
 70
     1
102
RTVSPost2010Prop47
 90
       50
102
RTVSPost2010PropOp47
 70
     1
102
RTVSPost2010Prop48
 90
       50
102
RTVSPost2010PropOp48
 70
     1
102
RTVSPost2010Prop49
280
     0
102
RTVSPost2010PropOp49
 70
     1
102
RTVSPost2010Prop50
 90
       50
102
RTVSPost2010PropOp50
 70
     1
102
RTVSPost2010Prop51ColorIndex
 90
      256
102
RTVSPost2010Prop51ColorRGB
 90
-16777216
102
RTVSPost2010PropOp51
 70
     0
102
RTVSPost2010Prop52
140
1.0
102
RTVSPost2010PropOp52
 70
     0
102
RTVSPost2010Prop53
 90
        2
102
RTVSPost2010PropOp53
 70
     1
102
RTVSPost2010Prop54
  1
strokes_ogs.tif
102
RTVSPost2010PropOp54
 70
     1
102
RTVSPost2010Prop55
280
     0
102
RTVSPost2010PropOp55
 70
     1
102
RTVSPost2010Prop56
140
1.0
102
RTVSPost2010PropOp56
 70
     1
102
RTVSPost2010Prop57
140
1.0
102
RTVSPost2010PropOp57
 70
     1
102
RTVSPropertyOp0
 70
     1
102
RTVSPropertyOp1
 70
     1
102
RTVSPropertyOp2
 70
     1
102
RTVSPropertyOp3
 70
     1
102
RTVSPropertyOp4
 70
     1
102
RTVSPropertyOp5
 70
     1
102
RTVSPropertyOp6
 70
     1
102
RTVSPropertyOp7
 70
     1
102
RTVSPropertyOp8
 70
     1
102
RTVSPropertyOp9
 70
     1
102
RTVSPropertyOp10
 70
     1
102
RTVSPropertyOp11
 70
     1
102
RTVSPropertyOp12
 70
     1
102
RTVSPropertyOp13
 70
     1
102
RTVSPropertyOp14
 70
     1
102
RTVSPropertyOp15
 70
     1
102
RTVSPropertyOp16
 70
     1
102
RTVSPropertyOp17
 70
     1
102
RTVSPropertyOp18
 70
     1
102
RTVSPropertyOp19
 70
     1
102
RTVSPropertyOp20
 70
     1
102
RTVSPropertyOp21
 70
     1
102
RTVSPropertyOp22
 70
     1
102
RTVSPropertyOp23
 70
     1
102
RTVSPropertyOp24
 70
     1
102
RTVSPropertyOp25
 70
     1
102
RTVSPropertyOp26
 70
     1
102
RTVSPropertyOp27
 70
     1
102
RTVSPropertyOp28
 70
     1
102
RTVSPropertyOp29
 70
     1
102
RTVSPropertyOp30
 70
     1
102
RTVSPropertyOp31
 70
     1
102
RTVSPropertyOp32
 70
     1
102
RTVSPropertyOp33
 70
     1
102
RTVSPropertyOp34
 70
     1
102
RTVSPropertyOp35
 70
     1
102
RTVSPropertyOp36
 70
     1
102
RTVSPropertyOp37
 70
     1
102
RTVSPropertyOp38
 70
     1
102
RTVSPropertyOp39
 70
     1
102
RTVSPropertyOp40
 70
     1
102
RTVSPropertyOp41
 70
     1
102
RTVSPropertyOp42
 70
     1
102
RTVSPropertyOp43
 70
     1
102
RTVSPropertyOp44
 70
     1
102
RTVSPropertyOp45
 70
     1
102
RTVSPropertyOp46
 70
     1
102
RTVSPropertyOp47
 70
     1
102
RTVSPropertyOp48
 70
     1
102
RTVSPropertyOp49
 70
     1
102
RTVSPropertyOp50
 70
     1
102
RTVSPropertyOp51
 70
     0
102
RTVSPropertyOp52
 70
     0
102
RTVSPropertyOp53
 70
     1
102
RTVSPropertyOp54
 70
     1
102
RTVSPropertyOp55
 70
     1
102
RTVSPropertyOp56
 70
     1
102
RTVSPropertyOp57
 70
     1
102
RTVSPropertyOp58
 70
     1
102
RTVSPropertyOp59
 70
     1
102
RTVSPropertyOp60
 70
     1
102
RTVSPropertyOp61
 70
     1
102
RTVSPropertyOp62
 70
     1
  0
XRECORD
  5
9665
102
{ACAD_REACTORS
330
9664
102
}
330
9664
100
AcDbXrecord
280
     1
102
RTVSPost2010Prop28
280
     0
102
RTVSPost2010PropOp28
 70
     1
102
RTVSPost2010Prop29
280
     1
102
RTVSPost2010PropOp29
 70
     1
102
RTVSPost2010Prop30
280
     1
102
RTVSPost2010PropOp30
 70
     1
102
RTVSPost2010Prop31
280
     0
102
RTVSPost2010PropOp31
 70
     1
102
RTVSPost2010Prop32
280
     0
102
RTVSPost2010PropOp32
 70
     1
102
RTVSPost2010Prop33
280
     0
102
RTVSPost2010PropOp33
 70
     1
102
RTVSPost2010Prop34
280
     0
102
RTVSPost2010PropOp34
 70
     1
102
RTVSPost2010Prop35
280
     0
102
RTVSPost2010PropOp35
 70
     1
102
RTVSPost2010Prop36
280
     0
102
RTVSPost2010PropOp36
 70
     1
102
RTVSPost2010Prop37
 90
       50
102
RTVSPost2010PropOp37
 70
     1
102
RTVSPost2010Prop38
140
0.0
102
RTVSPost2010PropOp38
 70
     1
102
RTVSPost2010Prop39
140
1.0
102
RTVSPost2010PropOp39
 70
     1
102
RTVSPost2010Prop40
 90
        0
102
RTVSPost2010PropOp40
 70
     1
102
RTVSPost2010Prop41ColorIndex
 90
       18
102
RTVSPost2010Prop41ColorRGB
 90
        0
102
RTVSPost2010PropOp41
 70
     1
102
RTVSPost2010Prop42
 90
       50
102
RTVSPost2010PropOp42
 70
     1
102
RTVSPost2010Prop43
 90
        3
102
RTVSPost2010PropOp43
 70
     1
102
RTVSPost2010Prop44ColorIndex
 90
        5
102
RTVSPost2010Prop44ColorRGB
 90
      255
102
RTVSPost2010PropOp44
 70
     1
102
RTVSPost2010Prop45
280
     0
102
RTVSPost2010PropOp45
 70
     1
102
RTVSPost2010Prop46
 90
       50
102
RTVSPost2010PropOp46
 70
     1
102
RTVSPost2010Prop47
 90
       50
102
RTVSPost2010PropOp47
 70
     1
102
RTVSPost2010Prop48
 90
       50
102
RTVSPost2010PropOp48
 70
     1
102
RTVSPost2010Prop49
280
     0
102
RTVSPost2010PropOp49
 70
     1
102
RTVSPost2010Prop50
 90
       50
102
RTVSPost2010PropOp50
 70
     1
102
RTVSPost2010Prop51ColorIndex
 90
      256
102
RTVSPost2010Prop51ColorRGB
 90
-16777216
102
RTVSPost2010PropOp51
 70
     0
102
RTVSPost2010Prop52
140
1.0
102
RTVSPost2010PropOp52
 70
     0
102
RTVSPost2010Prop53
 90
        2
102
RTVSPost2010PropOp53
 70
     1
102
RTVSPost2010Prop54
  1
strokes_ogs.tif
102
RTVSPost2010PropOp54
 70
     1
102
RTVSPost2010Prop55
280
     0
102
RTVSPost2010PropOp55
 70
     1
102
RTVSPost2010Prop56
140
1.0
102
RTVSPost2010PropOp56
 70
     1
102
RTVSPost2010Prop57
140
1.0
102
RTVSPost2010PropOp57
 70
     1
102
RTVSPropertyOp0
 70
     1
102
RTVSPropertyOp1
 70
     1
102
RTVSPropertyOp2
 70
     1
102
RTVSPropertyOp3
 70
     1
102
RTVSPropertyOp4
 70
     1
102
RTVSPropertyOp5
 70
     1
102
RTVSPropertyOp6
 70
     1
102
RTVSPropertyOp7
 70
     1
102
RTVSPropertyOp8
 70
     1
102
RTVSPropertyOp9
 70
     1
102
RTVSPropertyOp10
 70
     1
102
RTVSPropertyOp11
 70
     1
102
RTVSPropertyOp12
 70
     1
102
RTVSPropertyOp13
 70
     1
102
RTVSPropertyOp14
 70
     1
102
RTVSPropertyOp15
 70
     1
102
RTVSPropertyOp16
 70
     1
102
RTVSPropertyOp17
 70
     1
102
RTVSPropertyOp18
 70
     1
102
RTVSPropertyOp19
 70
     1
102
RTVSPropertyOp20
 70
     1
102
RTVSPropertyOp21
 70
     1
102
RTVSPropertyOp22
 70
     1
102
RTVSPropertyOp23
 70
     1
102
RTVSPropertyOp24
 70
     1
102
RTVSPropertyOp25
 70
     1
102
RTVSPropertyOp26
 70
     1
102
RTVSPropertyOp27
 70
     1
102
RTVSPropertyOp28
 70
     1
102
RTVSPropertyOp29
 70
     1
102
RTVSPropertyOp30
 70
     1
102
RTVSPropertyOp31
 70
     1
102
RTVSPropertyOp32
 70
     1
102
RTVSPropertyOp33
 70
     1
102
RTVSPropertyOp34
 70
     1
102
RTVSPropertyOp35
 70
     1
102
RTVSPropertyOp36
 70
     1
102
RTVSPropertyOp37
 70
     1
102
RTVSPropertyOp38
 70
     1
102
RTVSPropertyOp39
 70
     1
102
RTVSPropertyOp40
 70
     1
102
RTVSPropertyOp41
 70
     1
102
RTVSPropertyOp42
 70
     1
102
RTVSPropertyOp43
 70
     1
102
RTVSPropertyOp44
 70
     1
102
RTVSPropertyOp45
 70
     1
102
RTVSPropertyOp46
 70
     1
102
RTVSPropertyOp47
 70
     1
102
RTVSPropertyOp48
 70
     1
102
RTVSPropertyOp49
 70
     1
102
RTVSPropertyOp50
 70
     1
102
RTVSPropertyOp51
 70
     0
102
RTVSPropertyOp52
 70
     0
102
RTVSPropertyOp53
 70
     1
102
RTVSPropertyOp54
 70
     1
102
RTVSPropertyOp55
 70
     1
102
RTVSPropertyOp56
 70
     1
102
RTVSPropertyOp57
 70
     1
102
RTVSPropertyOp58
 70
     1
102
RTVSPropertyOp59
 70
     1
102
RTVSPropertyOp60
 70
     1
102
RTVSPropertyOp61
 70
     1
102
RTVSPropertyOp62
 70
     1
  0
XRECORD
  5
965B
102
{ACAD_REACTORS
330
965A
102
}
330
965A
100
AcDbXrecord
280
     1
102
RTVSPost2010Prop28
280
     0
102
RTVSPost2010PropOp28
 70
     1
102
RTVSPost2010Prop29
280
     1
102
RTVSPost2010PropOp29
 70
     1
102
RTVSPost2010Prop30
280
     1
102
RTVSPost2010PropOp30
 70
     1
102
RTVSPost2010Prop31
280
     0
102
RTVSPost2010PropOp31
 70
     1
102
RTVSPost2010Prop32
280
     0
102
RTVSPost2010PropOp32
 70
     1
102
RTVSPost2010Prop33
280
     0
102
RTVSPost2010PropOp33
 70
     1
102
RTVSPost2010Prop34
280
     0
102
RTVSPost2010PropOp34
 70
     1
102
RTVSPost2010Prop35
280
     0
102
RTVSPost2010PropOp35
 70
     1
102
RTVSPost2010Prop36
280
     0
102
RTVSPost2010PropOp36
 70
     1
102
RTVSPost2010Prop37
 90
       50
102
RTVSPost2010PropOp37
 70
     1
102
RTVSPost2010Prop38
140
0.0
102
RTVSPost2010PropOp38
 70
     1
102
RTVSPost2010Prop39
140
1.0
102
RTVSPost2010PropOp39
 70
     1
102
RTVSPost2010Prop40
 90
        0
102
RTVSPost2010PropOp40
 70
     1
102
RTVSPost2010Prop41ColorIndex
 90
       18
102
RTVSPost2010Prop41ColorRGB
 90
        0
102
RTVSPost2010PropOp41
 70
     1
102
RTVSPost2010Prop42
 90
       50
102
RTVSPost2010PropOp42
 70
     1
102
RTVSPost2010Prop43
 90
        3
102
RTVSPost2010PropOp43
 70
     1
102
RTVSPost2010Prop44ColorIndex
 90
        5
102
RTVSPost2010Prop44ColorRGB
 90
      255
102
RTVSPost2010PropOp44
 70
     1
102
RTVSPost2010Prop45
280
     0
102
RTVSPost2010PropOp45
 70
     1
102
RTVSPost2010Prop46
 90
       50
102
RTVSPost2010PropOp46
 70
     1
102
RTVSPost2010Prop47
 90
       50
102
RTVSPost2010PropOp47
 70
     1
102
RTVSPost2010Prop48
 90
       50
102
RTVSPost2010PropOp48
 70
     1
102
RTVSPost2010Prop49
280
     0
102
RTVSPost2010PropOp49
 70
     1
102
RTVSPost2010Prop50
 90
       50
102
RTVSPost2010PropOp50
 70
     1
102
RTVSPost2010Prop51ColorIndex
 90
      256
102
RTVSPost2010Prop51ColorRGB
 90
-16777216
102
RTVSPost2010PropOp51
 70
     0
102
RTVSPost2010Prop52
140
1.0
102
RTVSPost2010PropOp52
 70
     0
102
RTVSPost2010Prop53
 90
        2
102
RTVSPost2010PropOp53
 70
     1
102
RTVSPost2010Prop54
  1
strokes_ogs.tif
102
RTVSPost2010PropOp54
 70
     1
102
RTVSPost2010Prop55
280
     0
102
RTVSPost2010PropOp55
 70
     1
102
RTVSPost2010Prop56
140
1.0
102
RTVSPost2010PropOp56
 70
     1
102
RTVSPost2010Prop57
140
1.0
102
RTVSPost2010PropOp57
 70
     1
102
RTVSPropertyOp0
 70
     1
102
RTVSPropertyOp1
 70
     1
102
RTVSPropertyOp2
 70
     1
102
RTVSPropertyOp3
 70
     1
102
RTVSPropertyOp4
 70
     1
102
RTVSPropertyOp5
 70
     1
102
RTVSPropertyOp6
 70
     1
102
RTVSPropertyOp7
 70
     1
102
RTVSPropertyOp8
 70
     1
102
RTVSPropertyOp9
 70
     1
102
RTVSPropertyOp10
 70
     1
102
RTVSPropertyOp11
 70
     1
102
RTVSPropertyOp12
 70
     1
102
RTVSPropertyOp13
 70
     1
102
RTVSPropertyOp14
 70
     1
102
RTVSPropertyOp15
 70
     1
102
RTVSPropertyOp16
 70
     1
102
RTVSPropertyOp17
 70
     1
102
RTVSPropertyOp18
 70
     1
102
RTVSPropertyOp19
 70
     1
102
RTVSPropertyOp20
 70
     1
102
RTVSPropertyOp21
 70
     1
102
RTVSPropertyOp22
 70
     1
102
RTVSPropertyOp23
 70
     1
102
RTVSPropertyOp24
 70
     1
102
RTVSPropertyOp25
 70
     1
102
RTVSPropertyOp26
 70
     1
102
RTVSPropertyOp27
 70
     1
102
RTVSPropertyOp28
 70
     1
102
RTVSPropertyOp29
 70
     1
102
RTVSPropertyOp30
 70
     1
102
RTVSPropertyOp31
 70
     1
102
RTVSPropertyOp32
 70
     1
102
RTVSPropertyOp33
 70
     1
102
RTVSPropertyOp34
 70
     1
102
RTVSPropertyOp35
 70
     1
102
RTVSPropertyOp36
 70
     1
102
RTVSPropertyOp37
 70
     1
102
RTVSPropertyOp38
 70
     1
102
RTVSPropertyOp39
 70
     1
102
RTVSPropertyOp40
 70
     1
102
RTVSPropertyOp41
 70
     1
102
RTVSPropertyOp42
 70
     1
102
RTVSPropertyOp43
 70
     1
102
RTVSPropertyOp44
 70
     1
102
RTVSPropertyOp45
 70
     1
102
RTVSPropertyOp46
 70
     1
102
RTVSPropertyOp47
 70
     1
102
RTVSPropertyOp48
 70
     1
102
RTVSPropertyOp49
 70
     1
102
RTVSPropertyOp50
 70
     1
102
RTVSPropertyOp51
 70
     0
102
RTVSPropertyOp52
 70
     0
102
RTVSPropertyOp53
 70
     1
102
RTVSPropertyOp54
 70
     1
102
RTVSPropertyOp55
 70
     1
102
RTVSPropertyOp56
 70
     1
102
RTVSPropertyOp57
 70
     1
102
RTVSPropertyOp58
 70
     1
102
RTVSPropertyOp59
 70
     1
102
RTVSPropertyOp60
 70
     1
102
RTVSPropertyOp61
 70
     1
102
RTVSPropertyOp62
 70
     1
  0
XRECORD
  5
964F
102
{ACAD_REACTORS
330
964E
102
}
330
964E
100
AcDbXrecord
280
     1
102
RTVSPost2010Prop28
280
     0
102
RTVSPost2010PropOp28
 70
     1
102
RTVSPost2010Prop29
280
     1
102
RTVSPost2010PropOp29
 70
     1
102
RTVSPost2010Prop30
280
     1
102
RTVSPost2010PropOp30
 70
     1
102
RTVSPost2010Prop31
280
     0
102
RTVSPost2010PropOp31
 70
     1
102
RTVSPost2010Prop32
280
     0
102
RTVSPost2010PropOp32
 70
     1
102
RTVSPost2010Prop33
280
     0
102
RTVSPost2010PropOp33
 70
     1
102
RTVSPost2010Prop34
280
     0
102
RTVSPost2010PropOp34
 70
     1
102
RTVSPost2010Prop35
280
     0
102
RTVSPost2010PropOp35
 70
     1
102
RTVSPost2010Prop36
280
     0
102
RTVSPost2010PropOp36
 70
     1
102
RTVSPost2010Prop37
 90
       50
102
RTVSPost2010PropOp37
 70
     1
102
RTVSPost2010Prop38
140
0.0
102
RTVSPost2010PropOp38
 70
     1
102
RTVSPost2010Prop39
140
1.0
102
RTVSPost2010PropOp39
 70
     1
102
RTVSPost2010Prop40
 90
        0
102
RTVSPost2010PropOp40
 70
     1
102
RTVSPost2010Prop41ColorIndex
 90
       18
102
RTVSPost2010Prop41ColorRGB
 90
        0
102
RTVSPost2010PropOp41
 70
     1
102
RTVSPost2010Prop42
 90
       50
102
RTVSPost2010PropOp42
 70
     1
102
RTVSPost2010Prop43
 90
        3
102
RTVSPost2010PropOp43
 70
     1
102
RTVSPost2010Prop44ColorIndex
 90
        5
102
RTVSPost2010Prop44ColorRGB
 90
      255
102
RTVSPost2010PropOp44
 70
     1
102
RTVSPost2010Prop45
280
     0
102
RTVSPost2010PropOp45
 70
     1
102
RTVSPost2010Prop46
 90
       50
102
RTVSPost2010PropOp46
 70
     1
102
RTVSPost2010Prop47
 90
       50
102
RTVSPost2010PropOp47
 70
     1
102
RTVSPost2010Prop48
 90
       50
102
RTVSPost2010PropOp48
 70
     1
102
RTVSPost2010Prop49
280
     0
102
RTVSPost2010PropOp49
 70
     1
102
RTVSPost2010Prop50
 90
       50
102
RTVSPost2010PropOp50
 70
     1
102
RTVSPost2010Prop51ColorIndex
 90
      256
102
RTVSPost2010Prop51ColorRGB
 90
-16777216
102
RTVSPost2010PropOp51
 70
     0
102
RTVSPost2010Prop52
140
1.0
102
RTVSPost2010PropOp52
 70
     0
102
RTVSPost2010Prop53
 90
        2
102
RTVSPost2010PropOp53
 70
     1
102
RTVSPost2010Prop54
  1
strokes_ogs.tif
102
RTVSPost2010PropOp54
 70
     1
102
RTVSPost2010Prop55
280
     0
102
RTVSPost2010PropOp55
 70
     1
102
RTVSPost2010Prop56
140
1.0
102
RTVSPost2010PropOp56
 70
     1
102
RTVSPost2010Prop57
140
1.0
102
RTVSPost2010PropOp57
 70
     1
102
RTVSPropertyOp0
 70
     1
102
RTVSPropertyOp1
 70
     1
102
RTVSPropertyOp2
 70
     1
102
RTVSPropertyOp3
 70
     1
102
RTVSPropertyOp4
 70
     1
102
RTVSPropertyOp5
 70
     1
102
RTVSPropertyOp6
 70
     1
102
RTVSPropertyOp7
 70
     1
102
RTVSPropertyOp8
 70
     1
102
RTVSPropertyOp9
 70
     1
102
RTVSPropertyOp10
 70
     1
102
RTVSPropertyOp11
 70
     1
102
RTVSPropertyOp12
 70
     1
102
RTVSPropertyOp13
 70
     1
102
RTVSPropertyOp14
 70
     1
102
RTVSPropertyOp15
 70
     1
102
RTVSPropertyOp16
 70
     1
102
RTVSPropertyOp17
 70
     1
102
RTVSPropertyOp18
 70
     1
102
RTVSPropertyOp19
 70
     1
102
RTVSPropertyOp20
 70
     1
102
RTVSPropertyOp21
 70
     1
102
RTVSPropertyOp22
 70
     1
102
RTVSPropertyOp23
 70
     1
102
RTVSPropertyOp24
 70
     1
102
RTVSPropertyOp25
 70
     1
102
RTVSPropertyOp26
 70
     1
102
RTVSPropertyOp27
 70
     1
102
RTVSPropertyOp28
 70
     1
102
RTVSPropertyOp29
 70
     1
102
RTVSPropertyOp30
 70
     1
102
RTVSPropertyOp31
 70
     1
102
RTVSPropertyOp32
 70
     1
102
RTVSPropertyOp33
 70
     1
102
RTVSPropertyOp34
 70
     1
102
RTVSPropertyOp35
 70
     1
102
RTVSPropertyOp36
 70
     1
102
RTVSPropertyOp37
 70
     1
102
RTVSPropertyOp38
 70
     1
102
RTVSPropertyOp39
 70
     1
102
RTVSPropertyOp40
 70
     1
102
RTVSPropertyOp41
 70
     1
102
RTVSPropertyOp42
 70
     1
102
RTVSPropertyOp43
 70
     1
102
RTVSPropertyOp44
 70
     1
102
RTVSPropertyOp45
 70
     1
102
RTVSPropertyOp46
 70
     1
102
RTVSPropertyOp47
 70
     1
102
RTVSPropertyOp48
 70
     1
102
RTVSPropertyOp49
 70
     1
102
RTVSPropertyOp50
 70
     1
102
RTVSPropertyOp51
 70
     0
102
RTVSPropertyOp52
 70
     0
102
RTVSPropertyOp53
 70
     1
102
RTVSPropertyOp54
 70
     1
102
RTVSPropertyOp55
 70
     1
102
RTVSPropertyOp56
 70
     1
102
RTVSPropertyOp57
 70
     1
102
RTVSPropertyOp58
 70
     1
102
RTVSPropertyOp59
 70
     1
102
RTVSPropertyOp60
 70
     1
102
RTVSPropertyOp61
 70
     1
102
RTVSPropertyOp62
 70
     1
  0
XRECORD
  5
9667
102
{ACAD_REACTORS
330
9666
102
}
330
9666
100
AcDbXrecord
280
     1
102
RTVSPost2010Prop28
280
     0
102
RTVSPost2010PropOp28
 70
     1
102
RTVSPost2010Prop29
280
     1
102
RTVSPost2010PropOp29
 70
     1
102
RTVSPost2010Prop30
280
     1
102
RTVSPost2010PropOp30
 70
     1
102
RTVSPost2010Prop31
280
     0
102
RTVSPost2010PropOp31
 70
     1
102
RTVSPost2010Prop32
280
     0
102
RTVSPost2010PropOp32
 70
     1
102
RTVSPost2010Prop33
280
     0
102
RTVSPost2010PropOp33
 70
     1
102
RTVSPost2010Prop34
280
     0
102
RTVSPost2010PropOp34
 70
     1
102
RTVSPost2010Prop35
280
     0
102
RTVSPost2010PropOp35
 70
     1
102
RTVSPost2010Prop36
280
     0
102
RTVSPost2010PropOp36
 70
     1
102
RTVSPost2010Prop37
 90
       50
102
RTVSPost2010PropOp37
 70
     1
102
RTVSPost2010Prop38
140
0.0
102
RTVSPost2010PropOp38
 70
     1
102
RTVSPost2010Prop39
140
1.0
102
RTVSPost2010PropOp39
 70
     1
102
RTVSPost2010Prop40
 90
        0
102
RTVSPost2010PropOp40
 70
     1
102
RTVSPost2010Prop41ColorIndex
 90
       18
102
RTVSPost2010Prop41ColorRGB
 90
        0
102
RTVSPost2010PropOp41
 70
     1
102
RTVSPost2010Prop42
 90
       50
102
RTVSPost2010PropOp42
 70
     1
102
RTVSPost2010Prop43
 90
        3
102
RTVSPost2010PropOp43
 70
     1
102
RTVSPost2010Prop44ColorIndex
 90
        5
102
RTVSPost2010Prop44ColorRGB
 90
      255
102
RTVSPost2010PropOp44
 70
     1
102
RTVSPost2010Prop45
280
     0
102
RTVSPost2010PropOp45
 70
     1
102
RTVSPost2010Prop46
 90
       50
102
RTVSPost2010PropOp46
 70
     1
102
RTVSPost2010Prop47
 90
       50
102
RTVSPost2010PropOp47
 70
     1
102
RTVSPost2010Prop48
 90
       50
102
RTVSPost2010PropOp48
 70
     1
102
RTVSPost2010Prop49
280
     0
102
RTVSPost2010PropOp49
 70
     1
102
RTVSPost2010Prop50
 90
       50
102
RTVSPost2010PropOp50
 70
     1
102
RTVSPost2010Prop51ColorIndex
 90
      256
102
RTVSPost2010Prop51ColorRGB
 90
-16777216
102
RTVSPost2010PropOp51
 70
     0
102
RTVSPost2010Prop52
140
1.0
102
RTVSPost2010PropOp52
 70
     0
102
RTVSPost2010Prop53
 90
        2
102
RTVSPost2010PropOp53
 70
     1
102
RTVSPost2010Prop54
  1
strokes_ogs.tif
102
RTVSPost2010PropOp54
 70
     1
102
RTVSPost2010Prop55
280
     0
102
RTVSPost2010PropOp55
 70
     1
102
RTVSPost2010Prop56
140
1.0
102
RTVSPost2010PropOp56
 70
     1
102
RTVSPost2010Prop57
140
1.0
102
RTVSPost2010PropOp57
 70
     1
102
RTVSPropertyOp0
 70
     1
102
RTVSPropertyOp1
 70
     1
102
RTVSPropertyOp2
 70
     1
102
RTVSPropertyOp3
 70
     1
102
RTVSPropertyOp4
 70
     1
102
RTVSPropertyOp5
 70
     1
102
RTVSPropertyOp6
 70
     1
102
RTVSPropertyOp7
 70
     1
102
RTVSPropertyOp8
 70
     1
102
RTVSPropertyOp9
 70
     1
102
RTVSPropertyOp10
 70
     1
102
RTVSPropertyOp11
 70
     1
102
RTVSPropertyOp12
 70
     1
102
RTVSPropertyOp13
 70
     1
102
RTVSPropertyOp14
 70
     1
102
RTVSPropertyOp15
 70
     1
102
RTVSPropertyOp16
 70
     1
102
RTVSPropertyOp17
 70
     1
102
RTVSPropertyOp18
 70
     1
102
RTVSPropertyOp19
 70
     1
102
RTVSPropertyOp20
 70
     1
102
RTVSPropertyOp21
 70
     1
102
RTVSPropertyOp22
 70
     1
102
RTVSPropertyOp23
 70
     1
102
RTVSPropertyOp24
 70
     1
102
RTVSPropertyOp25
 70
     1
102
RTVSPropertyOp26
 70
     1
102
RTVSPropertyOp27
 70
     1
102
RTVSPropertyOp28
 70
     1
102
RTVSPropertyOp29
 70
     1
102
RTVSPropertyOp30
 70
     1
102
RTVSPropertyOp31
 70
     1
102
RTVSPropertyOp32
 70
     1
102
RTVSPropertyOp33
 70
     1
102
RTVSPropertyOp34
 70
     1
102
RTVSPropertyOp35
 70
     1
102
RTVSPropertyOp36
 70
     1
102
RTVSPropertyOp37
 70
     1
102
RTVSPropertyOp38
 70
     1
102
RTVSPropertyOp39
 70
     1
102
RTVSPropertyOp40
 70
     1
102
RTVSPropertyOp41
 70
     1
102
RTVSPropertyOp42
 70
     1
102
RTVSPropertyOp43
 70
     1
102
RTVSPropertyOp44
 70
     1
102
RTVSPropertyOp45
 70
     1
102
RTVSPropertyOp46
 70
     1
102
RTVSPropertyOp47
 70
     1
102
RTVSPropertyOp48
 70
     1
102
RTVSPropertyOp49
 70
     1
102
RTVSPropertyOp50
 70
     1
102
RTVSPropertyOp51
 70
     0
102
RTVSPropertyOp52
 70
     0
102
RTVSPropertyOp53
 70
     1
102
RTVSPropertyOp54
 70
     1
102
RTVSPropertyOp55
 70
     1
102
RTVSPropertyOp56
 70
     1
102
RTVSPropertyOp57
 70
     1
102
RTVSPropertyOp58
 70
     1
102
RTVSPropertyOp59
 70
     1
102
RTVSPropertyOp60
 70
     1
102
RTVSPropertyOp61
 70
     1
102
RTVSPropertyOp62
 70
     1
  0
ENDSEC
  0
EOF
