  0
SECTION
  2
HEADER
  9
$ACADVER
  1
AC1015
  9
$ACADMAINTVER
 70
    20
  9
$DWGCODEPAGE
  3
ANSI_932
  9
$INSBASE
 10
0.0
 20
0.0
 30
0.0
  9
$EXTMIN
 10
10.0
 20
9.999999999999998
 30
0.0
  9
$EXTMAX
 10
318.9577029999999
 20
283.0
 30
0.0
  9
$LIMMIN
 10
0.0
 20
0.0
  9
$LIMMAX
 10
495.0
 20
341.25
  9
$ORTHOMODE
 70
     1
  9
$REGENMODE
 70
     1
  9
$FILLMODE
 70
     1
  9
$QTEXTMODE
 70
     0
  9
$MIRRTEXT
 70
     1
  9
$LTSCALE
 40
20.0
  9
$ATTMODE
 70
     1
  9
$TEXTSIZE
 40
5.0
  9
$TRACEWID
 40
1.0
  9
$TEXTSTYLE
  7
STANDARD
  9
$CLAYER
  8
0
  9
$CELTYPE
  6
BYLAYER
  9
$CECOLOR
 62
   256
  9
$CELTSCALE
 40
1.0
  9
$DISPSILH
 70
     0
  9
$DIMSCALE
 40
1.0
  9
$DIMASZ
 40
3.0
  9
$DIMEXO
 40
1.0
  9
$DIMDLI
 40
10.0
  9
$DIMRND
 40
0.0
  9
$DIMDLE
 40
0.0
  9
$DIMEXE
 40
1.0
  9
$DIMTP
 40
0.0
  9
$DIMTM
 40
0.0
  9
$DIMTXT
 40
3.0
  9
$DIMCEN
 40
0.0
  9
$DIMTSZ
 40
0.0
  9
$DIMTOL
 70
     0
  9
$DIMLIM
 70
     0
  9
$DIMTIH
 70
     0
  9
$DIMTOH
 70
     0
  9
$DIMSE1
 70
     0
  9
$DIMSE2
 70
     0
  9
$DIMTAD
 70
     3
  9
$DIMZIN
 70
     8
  9
$DIMBLK
  1

  9
$DIMASO
 70
     1
  9
$DIMSHO
 70
     1
  9
$DIMPOST
  1

  9
$DIMAPOST
  1

  9
$DIMALT
 70
     0
  9
$DIMALTD
 70
     2
  9
$DIMALTF
 40
25.4
  9
$DIMLFAC
 40
1.0
  9
$DIMTOFL
 70
     1
  9
$DIMTVP
 40
0.0
  9
$DIMTIX
 70
     0
  9
$DIMSOXD
 70
     0
  9
$DIMSAH
 70
     1
  9
$DIMBLK1
  1

  9
$DIMBLK2
  1

  9
$DIMSTYLE
  2
STANDARD
  9
$DIMCLRD
 70
     0
  9
$DIMCLRE
 70
     0
  9
$DIMCLRT
 70
     0
  9
$DIMTFAC
 40
1.0
  9
$DIMGAP
 40
1.0
  9
$DIMJUST
 70
     0
  9
$DIMSD1
 70
     0
  9
$DIMSD2
 70
     0
  9
$DIMTOLJ
 70
     1
  9
$DIMTZIN
 70
     0
  9
$DIMALTZ
 70
     0
  9
$DIMALTTZ
 70
     0
  9
$DIMUPT
 70
     0
  9
$DIMDEC
 70
     4
  9
$DIMTDEC
 70
     4
  9
$DIMALTU
 70
     2
  9
$DIMALTTD
 70
     2
  9
$DIMTXSTY
  7
STANDARD
  9
$DIMAUNIT
 70
     0
  9
$DIMADEC
 70
     0
  9
$DIMALTRND
 40
0.0
  9
$DIMAZIN
 70
     0
  9
$DIMDSEP
 70
    46
  9
$DIMATFIT
 70
     3
  9
$DIMFRAC
 70
     0
  9
$DIMLDRBLK
  1

  9
$DIMLUNIT
 70
     2
  9
$DIMLWD
 70
    -2
  9
$DIMLWE
 70
    -2
  9
$DIMTMOVE
 70
     0
  9
$LUNITS
 70
     2
  9
$LUPREC
 70
     4
  9
$SKETCHINC
 40
1.0
  9
$FILLETRAD
 40
0.5
  9
$AUNITS
 70
     0
  9
$AUPREC
 70
     2
  9
$MENU
  1
.
  9
$ELEVATION
 40
0.0
  9
$PELEVATION
 40
0.0
  9
$THICKNESS
 40
0.0
  9
$LIMCHECK
 70
     0
  9
$CHAMFERA
 40
10.0
  9
$CHAMFERB
 40
10.0
  9
$CHAMFERC
 40
0.0
  9
$CHAMFERD
 40
0.0
  9
$SKPOLY
 70
     0
  9
$TDCREATE
 40
2451233.432133218
  9
$TDUCREATE
 40
2451233.057133218
  9
$TDUPDATE
 40
2457192.661916157
  9
$TDUUPDATE
 40
2457192.286916157
  9
$TDINDWG
 40
0.0000113657
  9
$TDUSRTIMER
 40
0.0000110532
  9
$USRTIMER
 70
     1
  9
$ANGBASE
 50
0.0
  9
$ANGDIR
 70
     0
  9
$PDMODE
 70
     0
  9
$PDSIZE
 40
0.0
  9
$PLINEWID
 40
0.0
  9
$SPLFRAME
 70
     0
  9
$SPLINETYPE
 70
     6
  9
$SPLINESEGS
 70
     8
  9
$HANDSEED
  5
B2A0
  9
$SURFTAB1
 70
     6
  9
$SURFTAB2
 70
     6
  9
$SURFTYPE
 70
     6
  9
$SURFU
 70
     6
  9
$SURFV
 70
     6
  9
$UCSBASE
  2

  9
$UCSNAME
  2

  9
$UCSORG
 10
0.0
 20
0.0
 30
0.0
  9
$UCSXDIR
 10
1.0
 20
0.0
 30
0.0
  9
$UCSYDIR
 10
0.0
 20
1.0
 30
0.0
  9
$UCSORTHOREF
  2

  9
$UCSORTHOVIEW
 70
     0
  9
$UCSORGTOP
 10
0.0
 20
0.0
 30
0.0
  9
$UCSORGBOTTOM
 10
0.0
 20
0.0
 30
0.0
  9
$UCSORGLEFT
 10
0.0
 20
0.0
 30
0.0
  9
$UCSORGRIGHT
 10
0.0
 20
0.0
 30
0.0
  9
$UCSORGFRONT
 10
0.0
 20
0.0
 30
0.0
  9
$UCSORGBACK
 10
0.0
 20
0.0
 30
0.0
  9
$PUCSBASE
  2

  9
$PUCSNAME
  2

  9
$PUCSORG
 10
0.0
 20
0.0
 30
0.0
  9
$PUCSXDIR
 10
1.0
 20
0.0
 30
0.0
  9
$PUCSYDIR
 10
0.0
 20
1.0
 30
0.0
  9
$PUCSORTHOREF
  2

  9
$PUCSORTHOVIEW
 70
     0
  9
$PUCSORGTOP
 10
0.0
 20
0.0
 30
0.0
  9
$PUCSORGBOTTOM
 10
0.0
 20
0.0
 30
0.0
  9
$PUCSORGLEFT
 10
0.0
 20
0.0
 30
0.0
  9
$PUCSORGRIGHT
 10
0.0
 20
0.0
 30
0.0
  9
$PUCSORGFRONT
 10
0.0
 20
0.0
 30
0.0
  9
$PUCSORGBACK
 10
0.0
 20
0.0
 30
0.0
  9
$USERI1
 70
     0
  9
$USERI2
 70
     0
  9
$USERI3
 70
     0
  9
$USERI4
 70
     0
  9
$USERI5
 70
     0
  9
$USERR1
 40
0.0
  9
$USERR2
 40
0.0
  9
$USERR3
 40
0.0
  9
$USERR4
 40
0.0
  9
$USERR5
 40
0.0
  9
$WORLDVIEW
 70
     1
  9
$SHADEDGE
 70
     3
  9
$SHADEDIF
 70
    70
  9
$TILEMODE
 70
     1
  9
$MAXACTVP
 70
    16
  9
$PINSBASE
 10
0.0
 20
0.0
 30
0.0
  9
$PLIMCHECK
 70
     0
  9
$PEXTMIN
 10
1.000000000000000E+20
 20
1.000000000000000E+20
 30
1.000000000000000E+20
  9
$PEXTMAX
 10
-1.000000000000000E+20
 20
-1.000000000000000E+20
 30
-1.000000000000000E+20
  9
$PLIMMIN
 10
0.0
 20
0.0
  9
$PLIMMAX
 10
420.0
 20
297.0
  9
$UNITMODE
 70
     0
  9
$VISRETAIN
 70
     0
  9
$PLINEGEN
 70
     0
  9
$PSLTSCALE
 70
     0
  9
$TREEDEPTH
 70
  3020
  9
$CMLSTYLE
  2
STANDARD
  9
$CMLJUST
 70
     0
  9
$CMLSCALE
 40
1.0
  9
$PROXYGRAPHICS
 70
     1
  9
$MEASUREMENT
 70
     0
  9
$CELWEIGHT
370
    -1
  9
$ENDCAPS
280
     0
  9
$JOINSTYLE
280
     0
  9
$LWDISPLAY
290
     0
  9
$INSUNITS
 70
     0
  9
$HYPERLINKBASE
  1

  9
$STYLESHEET
  1

  9
$XEDIT
290
     1
  9
$CEPSNTYPE
380
     0
  9
$PSTYLEMODE
290
     1
  9
$FINGERPRINTGUID
  2
{7B1CF67D-C548-42FC-97C5-2E1847F3F693}
  9
$VERSIONGUID
  2
{C33BD110-7CB7-4222-8960-FFA2EEDA05A7}
  9
$EXTNAMES
290
     1
  9
$PSVPSCALE
 40
0.0
  9
$OLESTARTUP
290
     0
  0
ENDSEC
  0
SECTION
  2
CLASSES
  0
CLASS
  1
ACDBDICTIONARYWDFLT
  2
AcDbDictionaryWithDefault
  3
ObjectDBX Classes
 90
        0
280
     0
281
     0
  0
CLASS
  1
ACDBPLACEHOLDER
  2
AcDbPlaceHolder
  3
ObjectDBX Classes
 90
        0
280
     0
281
     0
  0
CLASS
  1
LAYOUT
  2
AcDbLayout
  3
ObjectDBX Classes
 90
        0
280
     0
281
     0
  0
CLASS
  1
DICTIONARYVAR
  2
AcDbDictionaryVar
  3
ObjectDBX Classes
 90
        0
280
     0
281
     0
  0
CLASS
  1
MATERIAL
  2
AcDbMaterial
  3
ObjectDBX Classes
 90
     1153
280
     0
281
     0
  0
CLASS
  1
VISUALSTYLE
  2
AcDbVisualStyle
  3
ObjectDBX Classes
 90
     4095
280
     0
281
     0
  0
CLASS
  1
TABLESTYLE
  2
AcDbTableStyle
  3
ObjectDBX Classes
 90
     4095
280
     0
281
     0
  0
CLASS
  1
SCALE
  2
AcDbScale
  3
ObjectDBX Classes
 90
     1153
280
     0
281
     0
  0
CLASS
  1
MLEADERSTYLE
  2
AcDbMLeaderStyle
  3
ACDB_MLEADERSTYLE_CLASS
 90
     4095
280
     0
281
     0
  0
CLASS
  1
ACDBSECTIONVIEWSTYLE
  2
AcDbSectionViewStyle
  3
ObjectDBX Classes
 90
     1025
280
     0
281
     0
  0
CLASS
  1
ACDBDETAILVIEWSTYLE
  2
AcDbDetailViewStyle
  3
ObjectDBX Classes
 90
     1025
280
     0
281
     0
  0
CLASS
  1
CELLSTYLEMAP
  2
AcDbCellStyleMap
  3
ObjectDBX Classes
 90
     1152
280
     0
281
     0
  0
ENDSEC
  0
SECTION
  2
TABLES
  0
TABLE
  2
VPORT
  5
AF5C
330
0
100
AcDbSymbolTable
 70
     1
  0
VPORT
  5
B1E9
330
AF5C
100
AcDbSymbolTableRecord
100
AcDbViewportTableRecord
  2
*ACTIVE
 70
     0
 10
0.0
 20
0.0
 11
1.0
 21
1.0
 12
247.1879776999393
 22
146.5032871281474
 13
0.0
 23
0.0
 14
10.0
 24
10.0
 15
10.0
 25
10.0
 16
0.0
 26
0.0
 36
1.0
 17
0.0
 27
0.0
 37
0.0
 40
276.0859908048735
 41
1.899603698811096
 42
50.0
 43
0.0
 44
0.0
 50
0.0
 51
0.0
 71
     0
 72
   100
 73
     1
 74
     0
 75
     0
 76
     0
 77
     0
 78
     0
281
     0
 65
     1
110
0.0
120
0.0
130
0.0
111
1.0
121
0.0
131
0.0
112
0.0
122
1.0
132
0.0
 79
     0
146
0.0
1001
ACAD_NAV_VCDISPLAY
1070
     3
  0
ENDTAB
  0
TABLE
  2
LTYPE
  5
AF59
330
0
100
AcDbSymbolTable
 70
     4
  0
LTYPE
  5
AF67
330
AF59
100
AcDbSymbolTableRecord
100
AcDbLinetypeTableRecord
  2
BYBLOCK
 70
     0
  3

 72
    65
 73
     0
 40
0.0
  0
LTYPE
  5
AF68
330
AF59
100
AcDbSymbolTableRecord
100
AcDbLinetypeTableRecord
  2
BYLAYER
 70
     0
  3

 72
    65
 73
     0
 40
0.0
  0
LTYPE
  5
AF69
330
AF59
100
AcDbSymbolTableRecord
100
AcDbLinetypeTableRecord
  2
CONTINUOUS
 70
     0
  3
Solid line
 72
    65
 73
     0
 40
0.0
  0
LTYPE
  5
AF77
330
AF59
100
AcDbSymbolTableRecord
100
AcDbLinetypeTableRecord
  2
DASHED
 70
     0
  3
__ __ __ __ __ __ __ __ __ __ __ __ __ __ __ __
 72
    65
 73
     2
 40
0.75
 49
0.5
 74
     0
 49
-0.25
 74
     0
  0
LTYPE
  5
AF78
330
AF59
100
AcDbSymbolTableRecord
100
AcDbLinetypeTableRecord
  2
CENTER
 70
     0
  3
____ _ ____ _ ____ _ ____ _ ____ _ ____ _ ____ 
 72
    65
 73
     4
 40
2.0
 49
1.25
 74
     0
 49
-0.25
 74
     0
 49
0.25
 74
     0
 49
-0.25
 74
     0
  0
LTYPE
  5
AF79
330
AF59
100
AcDbSymbolTableRecord
100
AcDbLinetypeTableRecord
  2
PHANTOM
 70
     0
  3
______  __  __  ______  __  __  ______  __  __ 
 72
    65
 73
     6
 40
2.5
 49
1.25
 74
     0
 49
-0.25
 74
     0
 49
0.25
 74
     0
 49
-0.25
 74
     0
 49
0.25
 74
     0
 49
-0.25
 74
     0
  0
ENDTAB
  0
TABLE
  2
LAYER
  5
AF56
330
0
100
AcDbSymbolTable
 70
     8
  0
LAYER
  5
AF64
102
{ACAD_XDICTIONARY
360
B244
102
}
330
AF56
100
AcDbSymbolTableRecord
100
AcDbLayerTableRecord
  2
0
 70
     0
 62
     7
  6
CONTINUOUS
370
    -3
390
B1F2
  0
LAYER
  5
AF7A
102
{ACAD_XDICTIONARY
360
B246
102
}
330
AF56
100
AcDbSymbolTableRecord
100
AcDbLayerTableRecord
  2
4
 70
     0
 62
     1
  6
CENTER
370
    -3
390
B1F2
  0
LAYER
  5
AF7B
102
{ACAD_XDICTIONARY
360
B248
102
}
330
AF56
100
AcDbSymbolTableRecord
100
AcDbLayerTableRecord
  2
5
 70
     0
 62
     6
  6
PHANTOM
370
    -3
390
B1F2
  0
LAYER
  5
AF7C
102
{ACAD_XDICTIONARY
360
B24A
102
}
330
AF56
100
AcDbSymbolTableRecord
100
AcDbLayerTableRecord
  2
1
 70
     0
 62
     7
  6
CONTINUOUS
370
    -3
390
B1F2
  0
LAYER
  5
AF7D
102
{ACAD_XDICTIONARY
360
B24C
102
}
330
AF56
100
AcDbSymbolTableRecord
100
AcDbLayerTableRecord
  2
2
 70
     0
 62
     4
  6
CONTINUOUS
370
    -3
390
B1F2
  0
LAYER
  5
AF7E
102
{ACAD_XDICTIONARY
360
B24E
102
}
330
AF56
100
AcDbSymbolTableRecord
100
AcDbLayerTableRecord
  2
3
 70
     0
 62
     2
  6
DASHED
370
    -3
390
B1F2
  0
LAYER
  5
AF7F
102
{ACAD_XDICTIONARY
360
B250
102
}
330
AF56
100
AcDbSymbolTableRecord
100
AcDbLayerTableRecord
  2
6
 70
     0
 62
     5
  6
CONTINUOUS
370
    -3
390
B1F2
  0
LAYER
  5
AF80
102
{ACAD_XDICTIONARY
360
B252
102
}
330
AF56
100
AcDbSymbolTableRecord
100
AcDbLayerTableRecord
  2
7
 70
     0
 62
     3
  6
CONTINUOUS
370
    -3
390
B1F2
  0
ENDTAB
  0
TABLE
  2
STYLE
  5
AF57
330
0
100
AcDbSymbolTable
 70
     1
  0
STYLE
  5
AF65
330
AF57
100
AcDbSymbolTableRecord
100
AcDbTextStyleTableRecord
  2
STANDARD
 70
     0
 40
0.0
 41
1.0
 50
0.0
 71
     0
 42
5.0
  3
txt
  4

  0
ENDTAB
  0
TABLE
  2
VIEW
  5
AF5A
330
0
100
AcDbSymbolTable
 70
     0
  0
ENDTAB
  0
TABLE
  2
UCS
  5
AF5B
330
0
100
AcDbSymbolTable
 70
     0
  0
ENDTAB
  0
TABLE
  2
APPID
  5
AF5D
330
0
100
AcDbSymbolTable
 70
     3
  0
APPID
  5
AF66
330
AF5D
100
AcDbSymbolTableRecord
100
AcDbRegAppTableRecord
  2
ACAD
 70
     0
  0
APPID
  5
B25E
330
AF5D
100
AcDbSymbolTableRecord
100
AcDbRegAppTableRecord
  2
ACAD_NAV_VCDISPLAY
 70
     0
  0
APPID
  5
B297
330
AF5D
100
AcDbSymbolTableRecord
100
AcDbRegAppTableRecord
  2
ACAD_MLEADERVER
 70
     0
  0
ENDTAB
  0
TABLE
  2
DIMSTYLE
  5
AF5E
330
0
100
AcDbSymbolTable
 70
     1
100
AcDbDimStyleTable
 71
     0
  0
DIMSTYLE
105
AF82
330
AF5E
100
AcDbSymbolTableRecord
100
AcDbDimStyleTableRecord
  2
STANDARD
 70
     0
 41
3.0
 42
1.0
 43
10.0
 44
1.0
 73
     0
 74
     0
 77
     3
 78
     8
140
3.0
141
0.0
147
1.0
172
     1
173
     1
284
     8
285
     8
286
     8
340
AF65
  0
ENDTAB
  0
TABLE
  2
BLOCK_RECORD
  5
AF55
330
0
100
AcDbSymbolTable
 70
     0
  0
BLOCK_RECORD
  5
AF72
102
{ACAD_XDICTIONARY
360
B1EC
102
}
330
AF55
100
AcDbSymbolTableRecord
100
AcDbBlockTableRecord
  2
*MODEL_SPACE
340
B240
  0
BLOCK_RECORD
  5
AF6E
102
{ACAD_XDICTIONARY
360
B1EA
102
}
330
AF55
100
AcDbSymbolTableRecord
100
AcDbBlockTableRecord
  2
*PAPER_SPACE
340
B241
  0
ENDTAB
  0
ENDSEC
  0
SECTION
  2
BLOCKS
  0
BLOCK
  5
AF73
330
AF72
100
AcDbEntity
  8
0
100
AcDbBlockBegin
  2
*MODEL_SPACE
 70
     0
 10
0.0
 20
0.0
 30
0.0
  3
*MODEL_SPACE
  1

  0
ENDBLK
  5
AF74
330
AF72
100
AcDbEntity
  8
0
100
AcDbBlockEnd
  0
BLOCK
  5
AF6F
330
AF6E
100
AcDbEntity
 67
     1
  8
0
100
AcDbBlockBegin
  2
*PAPER_SPACE
 70
     0
 10
0.0
 20
0.0
 30
0.0
  3
*PAPER_SPACE
  1

  0
ENDBLK
  5
AF70
330
AF6E
100
AcDbEntity
 67
     1
  8
0
100
AcDbBlockEnd
  0
ENDSEC
  0
SECTION
  2
ENTITIES
  0
TEXT
  5
AF8A
330
AF72
100
AcDbEntity
  8
7
  6
Continuous
100
AcDbText
 10
10.0
 20
18.0
 30
0.0
 40
3.0
  1
TYPE No.TM-231-1
100
AcDbText
  0
TEXT
  5
AF8B
330
AF72
100
AcDbEntity
  8
7
  6
Continuous
100
AcDbText
 10
10.0
 20
26.0
 30
0.0
 40
3.0
  1
CODE No.6016
100
AcDbText
  0
TEXT
  5
AF8C
330
AF72
100
AcDbEntity
  8
1
  6
Continuous
100
AcDbText
 10
10.0
 20
10.0
 30
0.0
 40
1.399999999999999
  1
LAYER
100
AcDbText
  0
TEXT
  5
AF8D
330
AF72
100
AcDbEntity
  8
1
  6
Continuous
100
AcDbText
 10
17.97951099999998
 20
10.04873699999998
 30
0.0
 40
1.399999999999999
  1
1
100
AcDbText
  0
TEXT
  5
AF8E
330
AF72
100
AcDbEntity
  8
7
  6
Continuous
100
AcDbText
 10
29.97951099999999
 20
10.04873699999998
 30
0.0
 40
1.399999999999999
  1
7
100
AcDbText
  0
TEXT
  5
AF8F
330
AF72
100
AcDbEntity
  8
4
  6
CENTER
100
AcDbText
 10
23.97951099999999
 20
10.04873699999998
 30
0.0
 40
1.399999999999999
  1
4
100
AcDbText
  0
TEXT
  5
AF90
330
AF72
100
AcDbEntity
  8
3
  6
DASHED
100
AcDbText
 10
21.979511
 20
10.04873699999998
 30
0.0
 40
1.399999999999999
  1
3
100
AcDbText
  0
TEXT
  5
AF91
330
AF72
100
AcDbEntity
  8
2
  6
Continuous
100
AcDbText
 10
19.97951099999999
 20
10.04873699999998
 30
0.0
 40
1.399999999999999
  1
2
100
AcDbText
  0
TEXT
  5
AF92
330
AF72
100
AcDbEntity
  8
6
  6
Continuous
100
AcDbText
 10
27.979511
 20
10.04873699999998
 30
0.0
 40
1.399999999999999
  1
6
100
AcDbText
  0
TEXT
  5
AF93
330
AF72
100
AcDbEntity
  8
5
  6
PHANTOM
100
AcDbText
 10
25.97951099999999
 20
10.04873699999998
 30
0.0
 40
1.399999999999999
  1
5
100
AcDbText
  0
LINE
  5
AF94
330
AF72
100
AcDbEntity
  8
1
  6
Continuous
100
AcDbLine
 10
269.478852
 20
131.0
 30
0.0
 11
69.478852
 21
131.0
 31
0.0
  0
LINE
  5
AF95
330
AF72
100
AcDbEntity
  8
1
  6
Continuous
100
AcDbLine
 10
69.478852
 20
131.0
 30
0.0
 11
69.478852
 21
129.728427
 31
0.0
  0
ARC
  5
AF96
330
AF72
100
AcDbEntity
  8
1
  6
Continuous
100
AcDbCircle
 10
70.478852
 20
129.728427
 30
0.0
 40
1.0
100
AcDbArc
 50
180.0
 51
225.0
  0
LINE
  5
AF97
330
AF72
100
AcDbEntity
  8
1
  6
Continuous
100
AcDbLine
 10
69.771745
 20
129.0213199999998
 30
0.0
 11
70.78595899999998
 21
128.0071069999999
 31
0.0
  0
ARC
  5
AF98
330
AF72
100
AcDbEntity
  8
1
  6
Continuous
100
AcDbCircle
 10
70.078852
 20
127.2999999999999
 30
0.0
 40
1.0
100
AcDbArc
 50
270.0
 51
323.130102
  0
LINE
  5
AF99
330
AF72
100
AcDbEntity
  8
1
  6
Continuous
100
AcDbLine
 10
69.478852
 20
126.2999999999999
 30
0.0
 11
69.478852
 21
115.7
 31
0.0
  0
LINE
  5
AF9A
330
AF72
100
AcDbEntity
  8
1
  6
Continuous
100
AcDbLine
 10
69.478852
 20
115.7
 30
0.0
 11
70.87885199999998
 21
115.7
 31
0.0
  0
LINE
  5
AF9B
330
AF72
100
AcDbEntity
  8
1
  6
Continuous
100
AcDbLine
 10
70.87885199999998
 20
126.2999999999999
 30
0.0
 11
69.478852
 21
126.2999999999999
 31
0.0
  0
ARC
  5
AF9C
330
AF72
100
AcDbEntity
  8
1
  6
Continuous
100
AcDbCircle
 10
70.078852
 20
114.7
 30
0.0
 40
1.0
100
AcDbArc
 50
315.0
 51
8.626927
  0
LINE
  5
AF9D
330
AF72
100
AcDbEntity
  8
1
  6
Continuous
100
AcDbLine
 10
70.78595899999998
 20
113.9928929999999
 30
0.0
 11
69.771745
 21
112.97868
 31
0.0
  0
ARC
  5
AF9E
330
AF72
100
AcDbEntity
  8
1
  6
Continuous
100
AcDbCircle
 10
70.478852
 20
112.271573
 30
0.0
 40
1.0
100
AcDbArc
 50
135.0
 51
180.0
  0
LINE
  5
AF9F
330
AF72
100
AcDbEntity
  8
1
  6
Continuous
100
AcDbLine
 10
69.478852
 20
112.271573
 30
0.0
 11
69.478852
 21
111.0
 31
0.0
  0
LINE
  5
AFA0
330
AF72
100
AcDbEntity
  8
1
  6
Continuous
100
AcDbLine
 10
69.478852
 20
111.0
 30
0.0
 11
269.478852
 21
111.0
 31
0.0
  0
LINE
  5
AFA1
330
AF72
100
AcDbEntity
  8
1
  6
Continuous
100
AcDbLine
 10
269.478852
 20
111.0
 30
0.0
 11
269.478852
 21
112.271573
 31
0.0
  0
ARC
  5
AFA2
330
AF72
100
AcDbEntity
  8
1
  6
Continuous
100
AcDbCircle
 10
268.478852
 20
112.271573
 30
0.0
 40
1.0
100
AcDbArc
 50
0.0
 51
45.0
  0
LINE
  5
AFA3
330
AF72
100
AcDbEntity
  8
1
  6
Continuous
100
AcDbLine
 10
269.1859589999999
 20
112.97868
 30
0.0
 11
268.1717449999999
 21
113.9928929999999
 31
0.0
  0
ARC
  5
AFA4
330
AF72
100
AcDbEntity
  8
1
  6
Continuous
100
AcDbCircle
 10
268.878852
 20
114.7
 30
0.0
 40
1.0
100
AcDbArc
 50
90.0
 51
225.0
  0
LINE
  5
AFA5
330
AF72
100
AcDbEntity
  8
1
  6
Continuous
100
AcDbLine
 10
269.478852
 20
115.7
 30
0.0
 11
268.0788519999999
 21
115.7
 31
0.0
  0
LINE
  5
AFA6
330
AF72
100
AcDbEntity
  8
1
  6
Continuous
100
AcDbLine
 10
268.0788519999999
 20
115.7
 30
0.0
 11
268.0788519999999
 21
126.2999999999999
 31
0.0
  0
LINE
  5
AFA7
330
AF72
100
AcDbEntity
  8
1
  6
Continuous
100
AcDbLine
 10
268.0788519999999
 20
126.2999999999999
 30
0.0
 11
269.478852
 21
126.2999999999999
 31
0.0
  0
LINE
  5
AFA8
330
AF72
100
AcDbEntity
  8
1
  6
Continuous
100
AcDbLine
 10
269.478852
 20
126.2999999999999
 30
0.0
 11
269.478852
 21
115.7
 31
0.0
  0
ARC
  5
AFA9
330
AF72
100
AcDbEntity
  8
1
  6
Continuous
100
AcDbCircle
 10
268.878852
 20
127.2999999999999
 30
0.0
 40
1.0
100
AcDbArc
 50
135.0
 51
270.0
  0
LINE
  5
AFAA
330
AF72
100
AcDbEntity
  8
1
  6
Continuous
100
AcDbLine
 10
268.1717449999999
 20
128.0071069999999
 30
0.0
 11
269.1859589999999
 21
129.0213199999998
 31
0.0
  0
ARC
  5
AFAB
330
AF72
100
AcDbEntity
  8
1
  6
Continuous
100
AcDbCircle
 10
268.478852
 20
129.728427
 30
0.0
 40
1.0
100
AcDbArc
 50
315.0
 51
0.0
  0
LINE
  5
AFAC
330
AF72
100
AcDbEntity
  8
1
  6
Continuous
100
AcDbLine
 10
269.478852
 20
129.728427
 30
0.0
 11
269.478852
 21
131.0
 31
0.0
  0
LINE
  5
AFAD
330
AF72
100
AcDbEntity
  8
4
  6
CENTER
100
AcDbLine
 10
64.478852
 20
121.0
 30
0.0
 11
274.478852
 21
121.0
 31
0.0
  0
LINE
  5
AFAE
330
AF72
100
AcDbEntity
  8
1
  6
Continuous
100
AcDbLine
 10
269.478852
 20
112.4779619999999
 30
0.0
 11
69.478852
 21
112.4779619999999
 31
0.0
  0
LINE
  5
AFAF
330
AF72
100
AcDbEntity
  8
1
  6
Continuous
100
AcDbLine
 10
70.120401
 20
113.327335
 30
0.0
 11
268.8373029999999
 21
113.327335
 31
0.0
  0
LINE
  5
AFB0
330
AF72
100
AcDbEntity
  8
1
  6
Continuous
100
AcDbLine
 10
268.8373029999999
 20
128.672665
 30
0.0
 11
70.120401
 21
128.672665
 31
0.0
  0
LINE
  5
AFB1
330
AF72
100
AcDbEntity
  8
1
  6
Continuous
100
AcDbLine
 10
69.478852
 20
129.5220379999999
 30
0.0
 11
269.478852
 21
129.5220379999999
 31
0.0
  0
LINE
  5
AFB2
330
AF72
100
AcDbEntity
  8
1
  6
Continuous
100
AcDbLine
 10
170.8788519999998
 20
127.15
 30
0.0
 11
70.87885199999998
 21
127.15
 31
0.0
  0
LINE
  5
AFB3
330
AF72
100
AcDbEntity
  8
1
  6
Continuous
100
AcDbLine
 10
70.87885199999998
 20
127.15
 30
0.0
 11
70.87885199999998
 21
114.85
 31
0.0
  0
LINE
  5
AFB4
330
AF72
100
AcDbEntity
  8
1
  6
Continuous
100
AcDbLine
 10
70.87885199999998
 20
114.85
 30
0.0
 11
170.8788519999998
 21
114.85
 31
0.0
  0
LINE
  5
AFB5
330
AF72
100
AcDbEntity
  8
1
  6
Continuous
100
AcDbLine
 10
170.8788519999998
 20
114.85
 30
0.0
 11
170.8788519999998
 21
127.15
 31
0.0
  0
LINE
  5
AFB6
330
AF72
100
AcDbEntity
  8
1
  6
Continuous
100
AcDbLine
 10
85.678852
 20
127.6795
 30
0.0
 11
85.678852
 21
128.1795
 31
0.0
  0
LINE
  5
AFB7
330
AF72
100
AcDbEntity
  8
1
  6
Continuous
100
AcDbLine
 10
77.67885200000002
 20
127.6795
 30
0.0
 11
85.678852
 21
127.6795
 31
0.0
  0
LINE
  5
AFB8
330
AF72
100
AcDbEntity
  8
1
  6
Continuous
100
AcDbLine
 10
77.67885200000002
 20
128.1795
 30
0.0
 11
85.678852
 21
128.1795
 31
0.0
  0
ARC
  5
AFB9
330
AF72
100
AcDbEntity
  8
1
  6
Continuous
100
AcDbCircle
 10
86.678852
 20
114.3205
 30
0.0
 40
1.0
100
AcDbArc
 50
0.0
 51
31.97167800000001
  0
LINE
  5
AFBA
330
AF72
100
AcDbEntity
  8
1
  6
Continuous
100
AcDbLine
 10
85.678852
 20
114.3205
 30
0.0
 11
85.678852
 21
113.8204999999999
 31
0.0
  0
LINE
  5
AFBB
330
AF72
100
AcDbEntity
  8
1
  6
Continuous
100
AcDbLine
 10
77.67885200000002
 20
114.3205
 30
0.0
 11
85.678852
 21
114.3205
 31
0.0
  0
LINE
  5
AFBC
330
AF72
100
AcDbEntity
  8
1
  6
Continuous
100
AcDbLine
 10
77.67885200000002
 20
113.8204999999999
 30
0.0
 11
85.678852
 21
113.8204999999999
 31
0.0
  0
LINE
  5
AFBD
330
AF72
100
AcDbEntity
  8
1
  6
Continuous
100
AcDbLine
 10
77.67885200000002
 20
128.1795
 30
0.0
 11
77.67885200000002
 21
127.15
 31
0.0
  0
ARC
  5
AFBE
330
AF72
100
AcDbEntity
  8
1
  6
Continuous
100
AcDbCircle
 10
86.678852
 20
127.6795
 30
0.0
 40
1.0
100
AcDbArc
 50
180.0
 51
211.9716779999999
  0
ARC
  5
AFBF
330
AF72
100
AcDbEntity
  8
1
  6
Continuous
100
AcDbCircle
 10
96.678852
 20
127.6795
 30
0.0
 40
1.0
100
AcDbArc
 50
180.0
 51
211.9716779999999
  0
LINE
  5
AFC0
330
AF72
100
AcDbEntity
  8
1
  6
Continuous
100
AcDbLine
 10
95.678852
 20
127.6795
 30
0.0
 11
95.678852
 21
128.1795
 31
0.0
  0
LINE
  5
AFC1
330
AF72
100
AcDbEntity
  8
1
  6
Continuous
100
AcDbLine
 10
87.678852
 20
127.6795
 30
0.0
 11
95.678852
 21
127.6795
 31
0.0
  0
LINE
  5
AFC2
330
AF72
100
AcDbEntity
  8
1
  6
Continuous
100
AcDbLine
 10
87.678852
 20
128.1795
 30
0.0
 11
95.678852
 21
128.1795
 31
0.0
  0
LINE
  5
AFC3
330
AF72
100
AcDbEntity
  8
1
  6
Continuous
100
AcDbLine
 10
95.678852
 20
114.3205
 30
0.0
 11
95.678852
 21
113.8204999999999
 31
0.0
  0
LINE
  5
AFC4
330
AF72
100
AcDbEntity
  8
1
  6
Continuous
100
AcDbLine
 10
87.678852
 20
114.3205
 30
0.0
 11
95.678852
 21
114.3205
 31
0.0
  0
LINE
  5
AFC5
330
AF72
100
AcDbEntity
  8
1
  6
Continuous
100
AcDbLine
 10
87.678852
 20
113.8204999999999
 30
0.0
 11
95.678852
 21
113.8204999999999
 31
0.0
  0
LINE
  5
AFC6
330
AF72
100
AcDbEntity
  8
1
  6
Continuous
100
AcDbLine
 10
87.678852
 20
128.1795
 30
0.0
 11
87.678852
 21
127.6795
 31
0.0
  0
LINE
  5
AFC7
330
AF72
100
AcDbEntity
  8
1
  6
Continuous
100
AcDbLine
 10
87.678852
 20
113.8204999999999
 30
0.0
 11
87.678852
 21
114.3205
 31
0.0
  0
ARC
  5
AFC8
330
AF72
100
AcDbEntity
  8
1
  6
Continuous
100
AcDbCircle
 10
96.678852
 20
114.3205
 30
0.0
 40
1.0
100
AcDbArc
 50
0.0
 51
31.97167800000001
  0
ARC
  5
AFC9
330
AF72
100
AcDbEntity
  8
1
  6
Continuous
100
AcDbCircle
 10
106.678852
 20
127.6795
 30
0.0
 40
1.0
100
AcDbArc
 50
180.0
 51
211.9716779999999
  0
LINE
  5
AFCA
330
AF72
100
AcDbEntity
  8
1
  6
Continuous
100
AcDbLine
 10
105.678852
 20
127.6795
 30
0.0
 11
105.678852
 21
128.1795
 31
0.0
  0
LINE
  5
AFCB
330
AF72
100
AcDbEntity
  8
1
  6
Continuous
100
AcDbLine
 10
97.67885200000002
 20
127.6795
 30
0.0
 11
105.678852
 21
127.6795
 31
0.0
  0
LINE
  5
AFCC
330
AF72
100
AcDbEntity
  8
1
  6
Continuous
100
AcDbLine
 10
97.67885200000002
 20
128.1795
 30
0.0
 11
105.678852
 21
128.1795
 31
0.0
  0
LINE
  5
AFCD
330
AF72
100
AcDbEntity
  8
1
  6
Continuous
100
AcDbLine
 10
105.678852
 20
114.3205
 30
0.0
 11
105.678852
 21
113.8204999999999
 31
0.0
  0
LINE
  5
AFCE
330
AF72
100
AcDbEntity
  8
1
  6
Continuous
100
AcDbLine
 10
97.67885200000002
 20
114.3205
 30
0.0
 11
105.678852
 21
114.3205
 31
0.0
  0
LINE
  5
AFCF
330
AF72
100
AcDbEntity
  8
1
  6
Continuous
100
AcDbLine
 10
97.67885200000002
 20
113.8204999999999
 30
0.0
 11
105.678852
 21
113.8204999999999
 31
0.0
  0
LINE
  5
AFD0
330
AF72
100
AcDbEntity
  8
1
  6
Continuous
100
AcDbLine
 10
97.67885200000002
 20
128.1795
 30
0.0
 11
97.67885200000002
 21
127.6795
 31
0.0
  0
LINE
  5
AFD1
330
AF72
100
AcDbEntity
  8
1
  6
Continuous
100
AcDbLine
 10
97.67885200000002
 20
113.8204999999999
 30
0.0
 11
97.67885200000002
 21
114.3205
 31
0.0
  0
ARC
  5
AFD2
330
AF72
100
AcDbEntity
  8
1
  6
Continuous
100
AcDbCircle
 10
106.678852
 20
114.3205
 30
0.0
 40
1.0
100
AcDbArc
 50
0.0
 51
31.97167800000001
  0
ARC
  5
AFD3
330
AF72
100
AcDbEntity
  8
1
  6
Continuous
100
AcDbCircle
 10
116.678852
 20
127.6795
 30
0.0
 40
1.0
100
AcDbArc
 50
180.0
 51
211.9716779999999
  0
LINE
  5
AFD4
330
AF72
100
AcDbEntity
  8
1
  6
Continuous
100
AcDbLine
 10
115.678852
 20
127.6795
 30
0.0
 11
115.678852
 21
128.1795
 31
0.0
  0
LINE
  5
AFD5
330
AF72
100
AcDbEntity
  8
1
  6
Continuous
100
AcDbLine
 10
107.678852
 20
127.6795
 30
0.0
 11
115.678852
 21
127.6795
 31
0.0
  0
LINE
  5
AFD6
330
AF72
100
AcDbEntity
  8
1
  6
Continuous
100
AcDbLine
 10
107.678852
 20
128.1795
 30
0.0
 11
115.678852
 21
128.1795
 31
0.0
  0
LINE
  5
AFD7
330
AF72
100
AcDbEntity
  8
1
  6
Continuous
100
AcDbLine
 10
115.678852
 20
114.3205
 30
0.0
 11
115.678852
 21
113.8204999999999
 31
0.0
  0
LINE
  5
AFD8
330
AF72
100
AcDbEntity
  8
1
  6
Continuous
100
AcDbLine
 10
107.678852
 20
114.3205
 30
0.0
 11
115.678852
 21
114.3205
 31
0.0
  0
LINE
  5
AFD9
330
AF72
100
AcDbEntity
  8
1
  6
Continuous
100
AcDbLine
 10
107.678852
 20
113.8204999999999
 30
0.0
 11
115.678852
 21
113.8204999999999
 31
0.0
  0
LINE
  5
AFDA
330
AF72
100
AcDbEntity
  8
1
  6
Continuous
100
AcDbLine
 10
107.678852
 20
128.1795
 30
0.0
 11
107.678852
 21
127.6795
 31
0.0
  0
LINE
  5
AFDB
330
AF72
100
AcDbEntity
  8
1
  6
Continuous
100
AcDbLine
 10
107.678852
 20
113.8204999999999
 30
0.0
 11
107.678852
 21
114.3205
 31
0.0
  0
ARC
  5
AFDC
330
AF72
100
AcDbEntity
  8
1
  6
Continuous
100
AcDbCircle
 10
116.678852
 20
114.3205
 30
0.0
 40
1.0
100
AcDbArc
 50
0.0
 51
31.97167800000001
  0
LINE
  5
AFDD
330
AF72
100
AcDbEntity
  8
1
  6
Continuous
100
AcDbLine
 10
125.678852
 20
127.6795
 30
0.0
 11
125.678852
 21
128.1795
 31
0.0
  0
LINE
  5
AFDE
330
AF72
100
AcDbEntity
  8
1
  6
Continuous
100
AcDbLine
 10
117.678852
 20
127.6795
 30
0.0
 11
125.678852
 21
127.6795
 31
0.0
  0
LINE
  5
AFDF
330
AF72
100
AcDbEntity
  8
1
  6
Continuous
100
AcDbLine
 10
117.678852
 20
128.1795
 30
0.0
 11
125.678852
 21
128.1795
 31
0.0
  0
LINE
  5
AFE0
330
AF72
100
AcDbEntity
  8
1
  6
Continuous
100
AcDbLine
 10
125.678852
 20
114.3205
 30
0.0
 11
125.678852
 21
113.8204999999999
 31
0.0
  0
LINE
  5
AFE1
330
AF72
100
AcDbEntity
  8
1
  6
Continuous
100
AcDbLine
 10
117.678852
 20
114.3205
 30
0.0
 11
125.678852
 21
114.3205
 31
0.0
  0
LINE
  5
AFE2
330
AF72
100
AcDbEntity
  8
1
  6
Continuous
100
AcDbLine
 10
117.678852
 20
113.8204999999999
 30
0.0
 11
125.678852
 21
113.8204999999999
 31
0.0
  0
LINE
  5
AFE3
330
AF72
100
AcDbEntity
  8
1
  6
Continuous
100
AcDbLine
 10
117.678852
 20
128.1795
 30
0.0
 11
117.678852
 21
127.6795
 31
0.0
  0
LINE
  5
AFE4
330
AF72
100
AcDbEntity
  8
1
  6
Continuous
100
AcDbLine
 10
117.678852
 20
113.8204999999999
 30
0.0
 11
117.678852
 21
114.3205
 31
0.0
  0
ARC
  5
AFE5
330
AF72
100
AcDbEntity
  8
1
  6
Continuous
100
AcDbCircle
 10
126.678852
 20
114.3205
 30
0.0
 40
1.0
100
AcDbArc
 50
0.0
 51
31.97167800000001
  0
LINE
  5
AFE6
330
AF72
100
AcDbEntity
  8
1
  6
Continuous
100
AcDbLine
 10
135.678852
 20
127.6795
 30
0.0
 11
135.678852
 21
128.1795
 31
0.0
  0
LINE
  5
AFE7
330
AF72
100
AcDbEntity
  8
1
  6
Continuous
100
AcDbLine
 10
127.6788519999999
 20
127.6795
 30
0.0
 11
135.678852
 21
127.6795
 31
0.0
  0
LINE
  5
AFE8
330
AF72
100
AcDbEntity
  8
1
  6
Continuous
100
AcDbLine
 10
127.6788519999999
 20
128.1795
 30
0.0
 11
135.678852
 21
128.1795
 31
0.0
  0
LINE
  5
AFE9
330
AF72
100
AcDbEntity
  8
1
  6
Continuous
100
AcDbLine
 10
135.678852
 20
114.3205
 30
0.0
 11
135.678852
 21
113.8204999999999
 31
0.0
  0
LINE
  5
AFEA
330
AF72
100
AcDbEntity
  8
1
  6
Continuous
100
AcDbLine
 10
127.6788519999999
 20
114.3205
 30
0.0
 11
135.678852
 21
114.3205
 31
0.0
  0
LINE
  5
AFEB
330
AF72
100
AcDbEntity
  8
1
  6
Continuous
100
AcDbLine
 10
127.6788519999999
 20
113.8204999999999
 30
0.0
 11
135.678852
 21
113.8204999999999
 31
0.0
  0
LINE
  5
AFEC
330
AF72
100
AcDbEntity
  8
1
  6
Continuous
100
AcDbLine
 10
127.6788519999999
 20
128.1795
 30
0.0
 11
127.6788519999999
 21
127.6795
 31
0.0
  0
ARC
  5
AFED
330
AF72
100
AcDbEntity
  8
1
  6
Continuous
100
AcDbCircle
 10
126.678852
 20
127.6795
 30
0.0
 40
1.0
100
AcDbArc
 50
180.0
 51
211.9716779999999
  0
LINE
  5
AFEE
330
AF72
100
AcDbEntity
  8
1
  6
Continuous
100
AcDbLine
 10
127.6788519999999
 20
113.8204999999999
 30
0.0
 11
127.6788519999999
 21
114.3205
 31
0.0
  0
ARC
  5
AFEF
330
AF72
100
AcDbEntity
  8
1
  6
Continuous
100
AcDbCircle
 10
146.678852
 20
127.6795
 30
0.0
 40
1.0
100
AcDbArc
 50
180.0
 51
211.9716779999999
  0
LINE
  5
AFF0
330
AF72
100
AcDbEntity
  8
1
  6
Continuous
100
AcDbLine
 10
145.678852
 20
127.6795
 30
0.0
 11
145.678852
 21
128.1795
 31
0.0
  0
LINE
  5
AFF1
330
AF72
100
AcDbEntity
  8
1
  6
Continuous
100
AcDbLine
 10
137.678852
 20
127.6795
 30
0.0
 11
145.678852
 21
127.6795
 31
0.0
  0
LINE
  5
AFF2
330
AF72
100
AcDbEntity
  8
1
  6
Continuous
100
AcDbLine
 10
137.678852
 20
128.1795
 30
0.0
 11
145.678852
 21
128.1795
 31
0.0
  0
LINE
  5
AFF3
330
AF72
100
AcDbEntity
  8
1
  6
Continuous
100
AcDbLine
 10
145.678852
 20
114.3205
 30
0.0
 11
145.678852
 21
113.8204999999999
 31
0.0
  0
LINE
  5
AFF4
330
AF72
100
AcDbEntity
  8
1
  6
Continuous
100
AcDbLine
 10
137.678852
 20
114.3205
 30
0.0
 11
145.678852
 21
114.3205
 31
0.0
  0
LINE
  5
AFF5
330
AF72
100
AcDbEntity
  8
1
  6
Continuous
100
AcDbLine
 10
137.678852
 20
113.8204999999999
 30
0.0
 11
145.678852
 21
113.8204999999999
 31
0.0
  0
LINE
  5
AFF6
330
AF72
100
AcDbEntity
  8
1
  6
Continuous
100
AcDbLine
 10
137.678852
 20
128.1795
 30
0.0
 11
137.678852
 21
127.6795
 31
0.0
  0
ARC
  5
AFF7
330
AF72
100
AcDbEntity
  8
1
  6
Continuous
100
AcDbCircle
 10
136.678852
 20
127.6795
 30
0.0
 40
1.0
100
AcDbArc
 50
180.0
 51
211.9716779999999
  0
LINE
  5
AFF8
330
AF72
100
AcDbEntity
  8
1
  6
Continuous
100
AcDbLine
 10
137.678852
 20
113.8204999999999
 30
0.0
 11
137.678852
 21
114.3205
 31
0.0
  0
ARC
  5
AFF9
330
AF72
100
AcDbEntity
  8
1
  6
Continuous
100
AcDbCircle
 10
146.678852
 20
114.3205
 30
0.0
 40
1.0
100
AcDbArc
 50
0.0
 51
31.97167800000001
  0
ARC
  5
AFFA
330
AF72
100
AcDbEntity
  8
1
  6
Continuous
100
AcDbCircle
 10
136.678852
 20
114.3205
 30
0.0
 40
1.0
100
AcDbArc
 50
0.0
 51
31.97167800000001
  0
ARC
  5
AFFB
330
AF72
100
AcDbEntity
  8
1
  6
Continuous
100
AcDbCircle
 10
156.678852
 20
127.6795
 30
0.0
 40
1.0
100
AcDbArc
 50
180.0
 51
211.9716779999999
  0
LINE
  5
AFFC
330
AF72
100
AcDbEntity
  8
1
  6
Continuous
100
AcDbLine
 10
155.678852
 20
127.6795
 30
0.0
 11
155.678852
 21
128.1795
 31
0.0
  0
LINE
  5
AFFD
330
AF72
100
AcDbEntity
  8
1
  6
Continuous
100
AcDbLine
 10
147.678852
 20
127.6795
 30
0.0
 11
155.678852
 21
127.6795
 31
0.0
  0
LINE
  5
AFFE
330
AF72
100
AcDbEntity
  8
1
  6
Continuous
100
AcDbLine
 10
147.678852
 20
128.1795
 30
0.0
 11
155.678852
 21
128.1795
 31
0.0
  0
LINE
  5
AFFF
330
AF72
100
AcDbEntity
  8
1
  6
Continuous
100
AcDbLine
 10
155.678852
 20
114.3205
 30
0.0
 11
155.678852
 21
113.8204999999999
 31
0.0
  0
LINE
  5
B000
330
AF72
100
AcDbEntity
  8
1
  6
Continuous
100
AcDbLine
 10
147.678852
 20
114.3205
 30
0.0
 11
155.678852
 21
114.3205
 31
0.0
  0
LINE
  5
B001
330
AF72
100
AcDbEntity
  8
1
  6
Continuous
100
AcDbLine
 10
147.678852
 20
113.8204999999999
 30
0.0
 11
155.678852
 21
113.8204999999999
 31
0.0
  0
LINE
  5
B002
330
AF72
100
AcDbEntity
  8
1
  6
Continuous
100
AcDbLine
 10
147.678852
 20
128.1795
 30
0.0
 11
147.678852
 21
127.6795
 31
0.0
  0
LINE
  5
B003
330
AF72
100
AcDbEntity
  8
1
  6
Continuous
100
AcDbLine
 10
147.678852
 20
113.8204999999999
 30
0.0
 11
147.678852
 21
114.3205
 31
0.0
  0
ARC
  5
B004
330
AF72
100
AcDbEntity
  8
1
  6
Continuous
100
AcDbCircle
 10
156.678852
 20
114.3205
 30
0.0
 40
1.0
100
AcDbArc
 50
0.0
 51
31.97167800000001
  0
ARC
  5
B005
330
AF72
100
AcDbEntity
  8
1
  6
Continuous
100
AcDbCircle
 10
166.678852
 20
127.6795
 30
0.0
 40
1.0
100
AcDbArc
 50
180.0
 51
211.9716779999999
  0
LINE
  5
B006
330
AF72
100
AcDbEntity
  8
1
  6
Continuous
100
AcDbLine
 10
165.678852
 20
127.6795
 30
0.0
 11
165.678852
 21
128.1795
 31
0.0
  0
LINE
  5
B007
330
AF72
100
AcDbEntity
  8
1
  6
Continuous
100
AcDbLine
 10
157.678852
 20
127.6795
 30
0.0
 11
165.678852
 21
127.6795
 31
0.0
  0
LINE
  5
B008
330
AF72
100
AcDbEntity
  8
1
  6
Continuous
100
AcDbLine
 10
157.678852
 20
128.1795
 30
0.0
 11
165.678852
 21
128.1795
 31
0.0
  0
LINE
  5
B009
330
AF72
100
AcDbEntity
  8
1
  6
Continuous
100
AcDbLine
 10
165.678852
 20
114.3205
 30
0.0
 11
165.678852
 21
113.8204999999999
 31
0.0
  0
LINE
  5
B00A
330
AF72
100
AcDbEntity
  8
1
  6
Continuous
100
AcDbLine
 10
157.678852
 20
114.3205
 30
0.0
 11
165.678852
 21
114.3205
 31
0.0
  0
LINE
  5
B00B
330
AF72
100
AcDbEntity
  8
1
  6
Continuous
100
AcDbLine
 10
157.678852
 20
113.8204999999999
 30
0.0
 11
165.678852
 21
113.8204999999999
 31
0.0
  0
LINE
  5
B00C
330
AF72
100
AcDbEntity
  8
1
  6
Continuous
100
AcDbLine
 10
157.678852
 20
128.1795
 30
0.0
 11
157.678852
 21
127.6795
 31
0.0
  0
LINE
  5
B00D
330
AF72
100
AcDbEntity
  8
1
  6
Continuous
100
AcDbLine
 10
157.678852
 20
113.8204999999999
 30
0.0
 11
157.678852
 21
114.3205
 31
0.0
  0
ARC
  5
B00E
330
AF72
100
AcDbEntity
  8
1
  6
Continuous
100
AcDbCircle
 10
166.678852
 20
114.3205
 30
0.0
 40
1.0
100
AcDbArc
 50
0.0
 51
31.97167800000001
  0
ARC
  5
B00F
330
AF72
100
AcDbEntity
  8
1
  6
Continuous
100
AcDbCircle
 10
176.678852
 20
127.6795
 30
0.0
 40
1.0
100
AcDbArc
 50
180.0
 51
0.0
  0
LINE
  5
B010
330
AF72
100
AcDbEntity
  8
1
  6
Continuous
100
AcDbLine
 10
175.678852
 20
127.6795
 30
0.0
 11
175.678852
 21
128.1795
 31
0.0
  0
LINE
  5
B011
330
AF72
100
AcDbEntity
  8
1
  6
Continuous
100
AcDbLine
 10
167.678852
 20
127.6795
 30
0.0
 11
175.678852
 21
127.6795
 31
0.0
  0
LINE
  5
B012
330
AF72
100
AcDbEntity
  8
1
  6
Continuous
100
AcDbLine
 10
167.678852
 20
128.1795
 30
0.0
 11
175.678852
 21
128.1795
 31
0.0
  0
LINE
  5
B013
330
AF72
100
AcDbEntity
  8
1
  6
Continuous
100
AcDbLine
 10
175.678852
 20
114.3205
 30
0.0
 11
175.678852
 21
113.8204999999999
 31
0.0
  0
LINE
  5
B014
330
AF72
100
AcDbEntity
  8
1
  6
Continuous
100
AcDbLine
 10
167.678852
 20
114.3205
 30
0.0
 11
175.678852
 21
114.3205
 31
0.0
  0
LINE
  5
B015
330
AF72
100
AcDbEntity
  8
1
  6
Continuous
100
AcDbLine
 10
167.678852
 20
113.8204999999999
 30
0.0
 11
175.678852
 21
113.8204999999999
 31
0.0
  0
LINE
  5
B016
330
AF72
100
AcDbEntity
  8
1
  6
Continuous
100
AcDbLine
 10
167.678852
 20
128.1795
 30
0.0
 11
167.678852
 21
127.6795
 31
0.0
  0
LINE
  5
B017
330
AF72
100
AcDbEntity
  8
1
  6
Continuous
100
AcDbLine
 10
167.678852
 20
113.8204999999999
 30
0.0
 11
167.678852
 21
114.3205
 31
0.0
  0
ARC
  5
B018
330
AF72
100
AcDbEntity
  8
1
  6
Continuous
100
AcDbCircle
 10
176.678852
 20
114.3205
 30
0.0
 40
1.0
100
AcDbArc
 50
0.0
 51
180.0
  0
ARC
  5
B019
330
AF72
100
AcDbEntity
  8
1
  6
Continuous
100
AcDbCircle
 10
186.678852
 20
127.6795
 30
0.0
 40
1.0
100
AcDbArc
 50
180.0
 51
0.0
  0
LINE
  5
B01A
330
AF72
100
AcDbEntity
  8
1
  6
Continuous
100
AcDbLine
 10
185.678852
 20
127.6795
 30
0.0
 11
185.678852
 21
128.1795
 31
0.0
  0
LINE
  5
B01B
330
AF72
100
AcDbEntity
  8
1
  6
Continuous
100
AcDbLine
 10
177.678852
 20
127.6795
 30
0.0
 11
185.678852
 21
127.6795
 31
0.0
  0
LINE
  5
B01C
330
AF72
100
AcDbEntity
  8
1
  6
Continuous
100
AcDbLine
 10
177.678852
 20
128.1795
 30
0.0
 11
185.678852
 21
128.1795
 31
0.0
  0
LINE
  5
B01D
330
AF72
100
AcDbEntity
  8
1
  6
Continuous
100
AcDbLine
 10
185.678852
 20
114.3205
 30
0.0
 11
185.678852
 21
113.8204999999999
 31
0.0
  0
LINE
  5
B01E
330
AF72
100
AcDbEntity
  8
1
  6
Continuous
100
AcDbLine
 10
177.678852
 20
114.3205
 30
0.0
 11
185.678852
 21
114.3205
 31
0.0
  0
LINE
  5
B01F
330
AF72
100
AcDbEntity
  8
1
  6
Continuous
100
AcDbLine
 10
177.678852
 20
113.8204999999999
 30
0.0
 11
185.678852
 21
113.8204999999999
 31
0.0
  0
LINE
  5
B020
330
AF72
100
AcDbEntity
  8
1
  6
Continuous
100
AcDbLine
 10
177.678852
 20
128.1795
 30
0.0
 11
177.678852
 21
127.6795
 31
0.0
  0
LINE
  5
B021
330
AF72
100
AcDbEntity
  8
1
  6
Continuous
100
AcDbLine
 10
177.678852
 20
113.8204999999999
 30
0.0
 11
177.678852
 21
114.3205
 31
0.0
  0
LINE
  5
B022
330
AF72
100
AcDbEntity
  8
1
  6
Continuous
100
AcDbLine
 10
195.678852
 20
127.6795
 30
0.0
 11
195.678852
 21
128.1795
 31
0.0
  0
LINE
  5
B023
330
AF72
100
AcDbEntity
  8
1
  6
Continuous
100
AcDbLine
 10
187.678852
 20
127.6795
 30
0.0
 11
195.678852
 21
127.6795
 31
0.0
  0
LINE
  5
B024
330
AF72
100
AcDbEntity
  8
1
  6
Continuous
100
AcDbLine
 10
187.678852
 20
128.1795
 30
0.0
 11
195.678852
 21
128.1795
 31
0.0
  0
LINE
  5
B025
330
AF72
100
AcDbEntity
  8
1
  6
Continuous
100
AcDbLine
 10
195.678852
 20
114.3205
 30
0.0
 11
195.678852
 21
113.8204999999999
 31
0.0
  0
LINE
  5
B026
330
AF72
100
AcDbEntity
  8
1
  6
Continuous
100
AcDbLine
 10
187.678852
 20
114.3205
 30
0.0
 11
195.678852
 21
114.3205
 31
0.0
  0
LINE
  5
B027
330
AF72
100
AcDbEntity
  8
1
  6
Continuous
100
AcDbLine
 10
187.678852
 20
113.8204999999999
 30
0.0
 11
195.678852
 21
113.8204999999999
 31
0.0
  0
LINE
  5
B028
330
AF72
100
AcDbEntity
  8
1
  6
Continuous
100
AcDbLine
 10
187.678852
 20
128.1795
 30
0.0
 11
187.678852
 21
127.6795
 31
0.0
  0
LINE
  5
B029
330
AF72
100
AcDbEntity
  8
1
  6
Continuous
100
AcDbLine
 10
187.678852
 20
113.8204999999999
 30
0.0
 11
187.678852
 21
114.3205
 31
0.0
  0
ARC
  5
B02A
330
AF72
100
AcDbEntity
  8
1
  6
Continuous
100
AcDbCircle
 10
186.678852
 20
114.3205
 30
0.0
 40
1.0
100
AcDbArc
 50
0.0
 51
180.0
  0
ARC
  5
B02B
330
AF72
100
AcDbEntity
  8
1
  6
Continuous
100
AcDbCircle
 10
206.678852
 20
127.6795
 30
0.0
 40
1.0
100
AcDbArc
 50
180.0
 51
0.0
  0
LINE
  5
B02C
330
AF72
100
AcDbEntity
  8
1
  6
Continuous
100
AcDbLine
 10
205.678852
 20
127.6795
 30
0.0
 11
205.678852
 21
128.1795
 31
0.0
  0
LINE
  5
B02D
330
AF72
100
AcDbEntity
  8
1
  6
Continuous
100
AcDbLine
 10
197.678852
 20
127.6795
 30
0.0
 11
205.678852
 21
127.6795
 31
0.0
  0
LINE
  5
B02E
330
AF72
100
AcDbEntity
  8
1
  6
Continuous
100
AcDbLine
 10
197.678852
 20
128.1795
 30
0.0
 11
205.678852
 21
128.1795
 31
0.0
  0
LINE
  5
B02F
330
AF72
100
AcDbEntity
  8
1
  6
Continuous
100
AcDbLine
 10
205.678852
 20
114.3205
 30
0.0
 11
205.678852
 21
113.8204999999999
 31
0.0
  0
LINE
  5
B030
330
AF72
100
AcDbEntity
  8
1
  6
Continuous
100
AcDbLine
 10
197.678852
 20
114.3205
 30
0.0
 11
205.678852
 21
114.3205
 31
0.0
  0
LINE
  5
B031
330
AF72
100
AcDbEntity
  8
1
  6
Continuous
100
AcDbLine
 10
197.678852
 20
113.8204999999999
 30
0.0
 11
205.678852
 21
113.8204999999999
 31
0.0
  0
LINE
  5
B032
330
AF72
100
AcDbEntity
  8
1
  6
Continuous
100
AcDbLine
 10
197.678852
 20
128.1795
 30
0.0
 11
197.678852
 21
127.6795
 31
0.0
  0
ARC
  5
B033
330
AF72
100
AcDbEntity
  8
1
  6
Continuous
100
AcDbCircle
 10
196.678852
 20
127.6795
 30
0.0
 40
1.0
100
AcDbArc
 50
180.0
 51
0.0
  0
LINE
  5
B034
330
AF72
100
AcDbEntity
  8
1
  6
Continuous
100
AcDbLine
 10
197.678852
 20
113.8204999999999
 30
0.0
 11
197.678852
 21
114.3205
 31
0.0
  0
ARC
  5
B035
330
AF72
100
AcDbEntity
  8
1
  6
Continuous
100
AcDbCircle
 10
206.678852
 20
114.3205
 30
0.0
 40
1.0
100
AcDbArc
 50
0.0
 51
180.0
  0
ARC
  5
B036
330
AF72
100
AcDbEntity
  8
1
  6
Continuous
100
AcDbCircle
 10
196.678852
 20
114.3205
 30
0.0
 40
1.0
100
AcDbArc
 50
0.0
 51
180.0
  0
LINE
  5
B037
330
AF72
100
AcDbEntity
  8
1
  6
Continuous
100
AcDbLine
 10
207.678852
 20
127.6795
 30
0.0
 11
207.678852
 21
128.1795
 31
0.0
  0
LINE
  5
B038
330
AF72
100
AcDbEntity
  8
1
  6
Continuous
100
AcDbLine
 10
207.678852
 20
127.6795
 30
0.0
 11
215.678852
 21
127.6795
 31
0.0
  0
LINE
  5
B039
330
AF72
100
AcDbEntity
  8
1
  6
Continuous
100
AcDbLine
 10
207.678852
 20
128.1795
 30
0.0
 11
215.678852
 21
128.1795
 31
0.0
  0
LINE
  5
B03A
330
AF72
100
AcDbEntity
  8
1
  6
Continuous
100
AcDbLine
 10
207.678852
 20
114.3205
 30
0.0
 11
207.678852
 21
113.8204999999999
 31
0.0
  0
LINE
  5
B03B
330
AF72
100
AcDbEntity
  8
1
  6
Continuous
100
AcDbLine
 10
207.678852
 20
114.3205
 30
0.0
 11
215.678852
 21
114.3205
 31
0.0
  0
LINE
  5
B03C
330
AF72
100
AcDbEntity
  8
1
  6
Continuous
100
AcDbLine
 10
207.678852
 20
113.8204999999999
 30
0.0
 11
215.678852
 21
113.8204999999999
 31
0.0
  0
LINE
  5
B03D
330
AF72
100
AcDbEntity
  8
1
  6
Continuous
100
AcDbLine
 10
215.678852
 20
128.1795
 30
0.0
 11
215.678852
 21
113.8204999999999
 31
0.0
  0
LINE
  5
B03E
330
AF72
100
AcDbEntity
  8
1
  6
Continuous
100
AcDbLine
 10
77.67885200000002
 20
114.85
 30
0.0
 11
77.67885200000002
 21
113.8204999999999
 31
0.0
  0
LINE
  5
B03F
330
AF72
100
AcDbEntity
  8
1
  6
Continuous
100
AcDbLine
 10
170.8788519999998
 20
125.78
 30
0.0
 11
215.678852
 21
125.78
 31
0.0
  0
LINE
  5
B040
330
AF72
100
AcDbEntity
  8
1
  6
Continuous
100
AcDbLine
 10
170.8788519999998
 20
124.5999999999998
 30
0.0
 11
215.678852
 21
124.5999999999998
 31
0.0
  0
LINE
  5
B041
330
AF72
100
AcDbEntity
  8
1
  6
Continuous
100
AcDbLine
 10
170.8788519999998
 20
117.4
 30
0.0
 11
215.678852
 21
117.4
 31
0.0
  0
LINE
  5
B042
330
AF72
100
AcDbEntity
  8
1
  6
Continuous
100
AcDbLine
 10
170.8788519999998
 20
116.22
 30
0.0
 11
215.678852
 21
116.22
 31
0.0
  0
LINE
  5
B043
330
AF72
100
AcDbEntity
  8
4
  6
CENTER
100
AcDbLine
 10
89.47885199999998
 20
123.3784559999999
 30
0.0
 11
89.47885199999998
 21
118.9305499999999
 31
0.0
  0
CIRCLE
  5
B044
330
AF72
100
AcDbEntity
  8
2
  6
Continuous
100
AcDbCircle
 10
90.878852
 20
121.0
 30
0.0
 40
1.5
  0
LINE
  5
B045
330
AF72
100
AcDbEntity
  8
4
  6
CENTER
100
AcDbLine
 10
90.878852
 20
125.2156339999999
 30
0.0
 11
90.878852
 21
116.706597
 31
0.0
  0
LINE
  5
B046
330
AF72
100
AcDbEntity
  8
4
  6
CENTER
100
AcDbLine
 10
104.4788519999999
 20
123.76523
 30
0.0
 11
104.4788519999999
 21
118.3503889999998
 31
0.0
  0
CIRCLE
  5
B047
330
AF72
100
AcDbEntity
  8
2
  6
Continuous
100
AcDbCircle
 10
150.8788519999999
 20
121.0
 30
0.0
 40
1.5
  0
LINE
  5
B048
330
AF72
100
AcDbEntity
  8
4
  6
CENTER
100
AcDbLine
 10
150.8788519999999
 20
125.263981
 30
0.0
 11
150.8788519999999
 21
116.899985
 31
0.0
  0
LINE
  5
B049
330
AF72
100
AcDbEntity
  8
4
  6
CENTER
100
AcDbLine
 10
189.4788519999999
 20
123.668537
 30
0.0
 11
189.4788519999999
 21
118.398735
 31
0.0
  0
LINE
  5
B04A
330
AF72
100
AcDbEntity
  8
4
  6
CENTER
100
AcDbLine
 10
234.4788519999999
 20
123.861924
 30
0.0
 11
234.4788519999999
 21
118.398735
 31
0.0
  0
LINE
  5
B04B
330
AF72
100
AcDbEntity
  8
1
  6
Continuous
100
AcDbLine
 10
234.178852
 20
119.4
 30
0.0
 11
234.7788519999999
 21
119.4
 31
0.0
  0
LINE
  5
B04C
330
AF72
100
AcDbEntity
  8
1
  6
Continuous
100
AcDbLine
 10
234.7788519999999
 20
122.5999999999998
 30
0.0
 11
234.178852
 21
122.5999999999998
 31
0.0
  0
ARC
  5
B04D
330
AF72
100
AcDbEntity
  8
1
  6
Continuous
100
AcDbCircle
 10
234.178852
 20
121.0
 30
0.0
 40
1.6
100
AcDbArc
 50
90.0
 51
270.0
  0
ARC
  5
B04E
330
AF72
100
AcDbEntity
  8
1
  6
Continuous
100
AcDbCircle
 10
234.7788519999999
 20
121.0
 30
0.0
 40
1.6
100
AcDbArc
 50
270.0
 51
90.0
  0
LINE
  5
B04F
330
AF72
100
AcDbEntity
  8
4
  6
CENTER
100
AcDbLine
 10
249.4788519999999
 20
123.910271
 30
0.0
 11
249.4788519999999
 21
117.866921
 31
0.0
  0
LINE
  5
B050
330
AF72
100
AcDbEntity
  8
1
  6
Continuous
100
AcDbLine
 10
249.178852
 20
119.4
 30
0.0
 11
249.7788519999998
 21
119.4
 31
0.0
  0
LINE
  5
B051
330
AF72
100
AcDbEntity
  8
1
  6
Continuous
100
AcDbLine
 10
249.7788519999998
 20
122.5999999999998
 30
0.0
 11
249.178852
 21
122.5999999999998
 31
0.0
  0
ARC
  5
B052
330
AF72
100
AcDbEntity
  8
1
  6
Continuous
100
AcDbCircle
 10
249.178852
 20
121.0
 30
0.0
 40
1.6
100
AcDbArc
 50
90.0
 51
270.0
  0
ARC
  5
B053
330
AF72
100
AcDbEntity
  8
1
  6
Continuous
100
AcDbCircle
 10
249.7788519999998
 20
121.0
 30
0.0
 40
1.6
100
AcDbArc
 50
270.0
 51
90.0
  0
ARC
  5
B054
330
AF72
100
AcDbEntity
  8
1
  6
Continuous
100
AcDbCircle
 10
96.678852
 20
127.6795
 30
0.0
 40
1.0
100
AcDbArc
 50
328.028322
 51
0.0
  0
ARC
  5
B055
330
AF72
100
AcDbEntity
  8
1
  6
Continuous
100
AcDbCircle
 10
86.678852
 20
127.6795
 30
0.0
 40
1.0
100
AcDbArc
 50
328.028322
 51
0.0
  0
ARC
  5
B056
330
AF72
100
AcDbEntity
  8
1
  6
Continuous
100
AcDbCircle
 10
106.678852
 20
127.6795
 30
0.0
 40
1.0
100
AcDbArc
 50
328.028322
 51
0.0
  0
ARC
  5
B057
330
AF72
100
AcDbEntity
  8
1
  6
Continuous
100
AcDbCircle
 10
116.678852
 20
127.6795
 30
0.0
 40
1.0
100
AcDbArc
 50
328.028322
 51
0.0
  0
ARC
  5
B058
330
AF72
100
AcDbEntity
  8
1
  6
Continuous
100
AcDbCircle
 10
116.678852
 20
114.3205
 30
0.0
 40
1.0
100
AcDbArc
 50
148.028322
 51
180.0
  0
ARC
  5
B059
330
AF72
100
AcDbEntity
  8
1
  6
Continuous
100
AcDbCircle
 10
106.678852
 20
114.3205
 30
0.0
 40
1.0
100
AcDbArc
 50
148.028322
 51
180.0
  0
ARC
  5
B05A
330
AF72
100
AcDbEntity
  8
1
  6
Continuous
100
AcDbCircle
 10
96.678852
 20
114.3205
 30
0.0
 40
1.0
100
AcDbArc
 50
148.028322
 51
180.0
  0
ARC
  5
B05B
330
AF72
100
AcDbEntity
  8
1
  6
Continuous
100
AcDbCircle
 10
86.678852
 20
114.3205
 30
0.0
 40
1.0
100
AcDbArc
 50
148.028322
 51
180.0
  0
ARC
  5
B05C
330
AF72
100
AcDbEntity
  8
1
  6
Continuous
100
AcDbCircle
 10
70.078852
 20
114.7
 30
0.0
 40
1.0
100
AcDbArc
 50
36.869898
 51
90.0
  0
ARC
  5
B05D
330
AF72
100
AcDbEntity
  8
1
  6
Continuous
100
AcDbCircle
 10
70.078852
 20
127.2999999999999
 30
0.0
 40
1.0
100
AcDbArc
 50
351.3730729999999
 51
45.0
  0
LINE
  5
B05E
330
AF72
100
AcDbEntity
  8
1
  6
Continuous
100
AcDbLine
 10
25.0
 20
127.081989
 30
0.0
 11
25.0
 21
114.918011
 31
0.0
  0
LINE
  5
B05F
330
AF72
100
AcDbEntity
  8
1
  6
Continuous
100
AcDbLine
 10
33.0
 20
125.6410399999999
 30
0.0
 11
33.0
 21
116.35896
 31
0.0
  0
LINE
  5
B060
330
AF72
100
AcDbEntity
  8
1
  6
Continuous
100
AcDbLine
 10
26.4
 20
127.081989
 30
0.0
 11
26.4
 21
126.2999999999999
 31
0.0
  0
ARC
  5
B061
330
AF72
100
AcDbEntity
  8
1
  6
Continuous
100
AcDbCircle
 10
29.5
 20
128.0124999999999
 30
0.0
 40
1.587499999999999
100
AcDbArc
 50
0.343152
 51
195.7716379999999
  0
ARC
  5
B062
330
AF72
100
AcDbEntity
  8
1
  6
Continuous
100
AcDbCircle
 10
29.5
 20
128.0124999999999
 30
0.0
 40
2.987499999999998
100
AcDbArc
 50
30.350252
 51
132.8834129999999
  0
ARC
  5
B063
330
AF72
100
AcDbEntity
  8
1
  6
Continuous
100
AcDbCircle
 10
81.678852
 20
128.0124999999999
 30
0.0
 40
1.587499999999999
100
AcDbArc
 50
327.090948
 51
347.8914909999998
  0
ARC
  5
B064
330
AF72
100
AcDbEntity
  8
1
  6
Continuous
100
AcDbCircle
 10
81.678852
 20
128.0124999999999
 30
0.0
 40
1.587499999999999
100
AcDbArc
 50
155.4270199999999
 51
173.9614919999999
  0
ARC
  5
B065
330
AF72
100
AcDbEntity
  8
1
  6
Continuous
100
AcDbCircle
 10
81.678852
 20
128.0124999999999
 30
0.0
 40
1.587499999999999
100
AcDbArc
 50
6.038508
 51
24.57297999999999
  0
ARC
  5
B066
330
AF72
100
AcDbEntity
  8
1
  6
Continuous
100
AcDbCircle
 10
81.678852
 20
128.0124999999999
 30
0.0
 40
1.587499999999999
100
AcDbArc
 50
192.1085089999999
 51
212.9090519999999
  0
ARC
  5
B067
330
AF72
100
AcDbEntity
  8
1
  6
Continuous
100
AcDbCircle
 10
91.678852
 20
128.0124999999999
 30
0.0
 40
1.587499999999999
100
AcDbArc
 50
192.1085089999999
 51
212.9090519999999
  0
ARC
  5
B068
330
AF72
100
AcDbEntity
  8
1
  6
Continuous
100
AcDbCircle
 10
91.678852
 20
128.0124999999999
 30
0.0
 40
1.587499999999999
100
AcDbArc
 50
155.4270199999999
 51
173.9614919999999
  0
ARC
  5
B069
330
AF72
100
AcDbEntity
  8
1
  6
Continuous
100
AcDbCircle
 10
91.678852
 20
128.0124999999999
 30
0.0
 40
1.587499999999999
100
AcDbArc
 50
6.038508
 51
24.57297999999999
  0
ARC
  5
B06A
330
AF72
100
AcDbEntity
  8
1
  6
Continuous
100
AcDbCircle
 10
91.678852
 20
128.0124999999999
 30
0.0
 40
1.587499999999999
100
AcDbArc
 50
327.090948
 51
347.8914909999998
  0
ARC
  5
B06B
330
AF72
100
AcDbEntity
  8
1
  6
Continuous
100
AcDbCircle
 10
111.678852
 20
128.0124999999999
 30
0.0
 40
1.587499999999999
100
AcDbArc
 50
327.090948
 51
347.8914909999998
  0
ARC
  5
B06C
330
AF72
100
AcDbEntity
  8
1
  6
Continuous
100
AcDbCircle
 10
111.678852
 20
128.0124999999999
 30
0.0
 40
1.587499999999999
100
AcDbArc
 50
6.038508
 51
24.57297999999999
  0
ARC
  5
B06D
330
AF72
100
AcDbEntity
  8
1
  6
Continuous
100
AcDbCircle
 10
111.678852
 20
128.0124999999999
 30
0.0
 40
1.587499999999999
100
AcDbArc
 50
155.4270199999999
 51
173.9614919999999
  0
ARC
  5
B06E
330
AF72
100
AcDbEntity
  8
1
  6
Continuous
100
AcDbCircle
 10
111.678852
 20
128.0124999999999
 30
0.0
 40
1.587499999999999
100
AcDbArc
 50
192.1085089999999
 51
212.9090519999999
  0
ARC
  5
B06F
330
AF72
100
AcDbEntity
  8
1
  6
Continuous
100
AcDbCircle
 10
101.6788519999999
 20
128.0124999999999
 30
0.0
 40
1.587499999999999
100
AcDbArc
 50
192.1085089999999
 51
212.9090519999999
  0
ARC
  5
B070
330
AF72
100
AcDbEntity
  8
1
  6
Continuous
100
AcDbCircle
 10
101.6788519999999
 20
128.0124999999999
 30
0.0
 40
1.587499999999999
100
AcDbArc
 50
155.4270199999999
 51
173.9614919999999
  0
ARC
  5
B071
330
AF72
100
AcDbEntity
  8
1
  6
Continuous
100
AcDbCircle
 10
101.6788519999999
 20
128.0124999999999
 30
0.0
 40
1.587499999999999
100
AcDbArc
 50
6.038508
 51
24.57297999999999
  0
ARC
  5
B072
330
AF72
100
AcDbEntity
  8
1
  6
Continuous
100
AcDbCircle
 10
101.6788519999999
 20
128.0124999999999
 30
0.0
 40
1.587499999999999
100
AcDbArc
 50
327.090948
 51
347.8914909999998
  0
ARC
  5
B073
330
AF72
100
AcDbEntity
  8
1
  6
Continuous
100
AcDbCircle
 10
131.678852
 20
128.0124999999999
 30
0.0
 40
1.587499999999999
100
AcDbArc
 50
192.1085089999999
 51
212.9090519999999
  0
ARC
  5
B074
330
AF72
100
AcDbEntity
  8
1
  6
Continuous
100
AcDbCircle
 10
131.678852
 20
128.0124999999999
 30
0.0
 40
1.587499999999999
100
AcDbArc
 50
155.4270199999999
 51
173.9614919999999
  0
ARC
  5
B075
330
AF72
100
AcDbEntity
  8
1
  6
Continuous
100
AcDbCircle
 10
131.678852
 20
128.0124999999999
 30
0.0
 40
1.587499999999999
100
AcDbArc
 50
6.038508
 51
24.57297999999999
  0
ARC
  5
B076
330
AF72
100
AcDbEntity
  8
1
  6
Continuous
100
AcDbCircle
 10
131.678852
 20
128.0124999999999
 30
0.0
 40
1.587499999999999
100
AcDbArc
 50
327.090948
 51
347.8914909999998
  0
ARC
  5
B077
330
AF72
100
AcDbEntity
  8
1
  6
Continuous
100
AcDbCircle
 10
121.678852
 20
128.0124999999999
 30
0.0
 40
1.587499999999999
100
AcDbArc
 50
327.090948
 51
347.8914909999998
  0
ARC
  5
B078
330
AF72
100
AcDbEntity
  8
1
  6
Continuous
100
AcDbCircle
 10
121.678852
 20
128.0124999999999
 30
0.0
 40
1.587499999999999
100
AcDbArc
 50
6.038508
 51
24.57297999999999
  0
ARC
  5
B079
330
AF72
100
AcDbEntity
  8
1
  6
Continuous
100
AcDbCircle
 10
121.678852
 20
128.0124999999999
 30
0.0
 40
1.587499999999999
100
AcDbArc
 50
155.4270199999999
 51
173.9614919999999
  0
ARC
  5
B07A
330
AF72
100
AcDbEntity
  8
1
  6
Continuous
100
AcDbCircle
 10
121.678852
 20
128.0124999999999
 30
0.0
 40
1.587499999999999
100
AcDbArc
 50
192.1085089999999
 51
212.9090519999999
  0
ARC
  5
B07B
330
AF72
100
AcDbEntity
  8
1
  6
Continuous
100
AcDbCircle
 10
141.678852
 20
128.0124999999999
 30
0.0
 40
1.587499999999999
100
AcDbArc
 50
192.1085089999999
 51
212.9090519999999
  0
ARC
  5
B07C
330
AF72
100
AcDbEntity
  8
1
  6
Continuous
100
AcDbCircle
 10
141.678852
 20
128.0124999999999
 30
0.0
 40
1.587499999999999
100
AcDbArc
 50
155.4270199999999
 51
173.9614919999999
  0
ARC
  5
B07D
330
AF72
100
AcDbEntity
  8
1
  6
Continuous
100
AcDbCircle
 10
141.678852
 20
128.0124999999999
 30
0.0
 40
1.587499999999999
100
AcDbArc
 50
6.038508
 51
24.57297999999999
  0
ARC
  5
B07E
330
AF72
100
AcDbEntity
  8
1
  6
Continuous
100
AcDbCircle
 10
141.678852
 20
128.0124999999999
 30
0.0
 40
1.587499999999999
100
AcDbArc
 50
327.090948
 51
347.8914909999998
  0
ARC
  5
B07F
330
AF72
100
AcDbEntity
  8
1
  6
Continuous
100
AcDbCircle
 10
151.678852
 20
128.0124999999999
 30
0.0
 40
1.587499999999999
100
AcDbArc
 50
192.1085089999999
 51
212.9090519999999
  0
ARC
  5
B080
330
AF72
100
AcDbEntity
  8
1
  6
Continuous
100
AcDbCircle
 10
151.678852
 20
128.0124999999999
 30
0.0
 40
1.587499999999999
100
AcDbArc
 50
155.4270199999999
 51
173.9614919999999
  0
ARC
  5
B081
330
AF72
100
AcDbEntity
  8
1
  6
Continuous
100
AcDbCircle
 10
151.678852
 20
128.0124999999999
 30
0.0
 40
1.587499999999999
100
AcDbArc
 50
6.038508
 51
24.57297999999999
  0
ARC
  5
B082
330
AF72
100
AcDbEntity
  8
1
  6
Continuous
100
AcDbCircle
 10
151.678852
 20
128.0124999999999
 30
0.0
 40
1.587499999999999
100
AcDbArc
 50
327.090948
 51
347.8914909999998
  0
ARC
  5
B083
330
AF72
100
AcDbEntity
  8
1
  6
Continuous
100
AcDbCircle
 10
161.678852
 20
128.0124999999999
 30
0.0
 40
1.587499999999999
100
AcDbArc
 50
327.090948
 51
347.8914909999998
  0
ARC
  5
B084
330
AF72
100
AcDbEntity
  8
1
  6
Continuous
100
AcDbCircle
 10
161.678852
 20
128.0124999999999
 30
0.0
 40
1.587499999999999
100
AcDbArc
 50
6.038508
 51
24.57297999999999
  0
ARC
  5
B085
330
AF72
100
AcDbEntity
  8
1
  6
Continuous
100
AcDbCircle
 10
161.678852
 20
128.0124999999999
 30
0.0
 40
1.587499999999999
100
AcDbArc
 50
155.4270199999999
 51
173.9614919999999
  0
ARC
  5
B086
330
AF72
100
AcDbEntity
  8
1
  6
Continuous
100
AcDbCircle
 10
161.678852
 20
128.0124999999999
 30
0.0
 40
1.587499999999999
100
AcDbArc
 50
192.1085089999999
 51
212.9090519999999
  0
ARC
  5
B087
330
AF72
100
AcDbEntity
  8
1
  6
Continuous
100
AcDbCircle
 10
211.678852
 20
128.0124999999999
 30
0.0
 40
1.587499999999999
100
AcDbArc
 50
155.4270199999999
 51
173.9614919999999
  0
ARC
  5
B088
330
AF72
100
AcDbEntity
  8
1
  6
Continuous
100
AcDbCircle
 10
211.678852
 20
128.0124999999999
 30
0.0
 40
1.587499999999999
100
AcDbArc
 50
6.038508
 51
24.57297999999999
  0
ARC
  5
B089
330
AF72
100
AcDbEntity
  8
1
  6
Continuous
100
AcDbCircle
 10
211.678852
 20
128.0124999999999
 30
0.0
 40
1.587499999999999
100
AcDbArc
 50
192.1085089999999
 51
347.8914909999998
  0
ARC
  5
B08A
330
AF72
100
AcDbEntity
  8
1
  6
Continuous
100
AcDbCircle
 10
201.6788519999999
 20
128.0124999999999
 30
0.0
 40
1.587499999999999
100
AcDbArc
 50
192.1085089999999
 51
347.8914909999998
  0
ARC
  5
B08B
330
AF72
100
AcDbEntity
  8
1
  6
Continuous
100
AcDbCircle
 10
201.6788519999999
 20
128.0124999999999
 30
0.0
 40
1.587499999999999
100
AcDbArc
 50
6.038508
 51
24.57297999999999
  0
ARC
  5
B08C
330
AF72
100
AcDbEntity
  8
1
  6
Continuous
100
AcDbCircle
 10
201.6788519999999
 20
128.0124999999999
 30
0.0
 40
1.587499999999999
100
AcDbArc
 50
155.4270199999999
 51
173.9614919999999
  0
ARC
  5
B08D
330
AF72
100
AcDbEntity
  8
1
  6
Continuous
100
AcDbCircle
 10
191.678852
 20
128.0124999999999
 30
0.0
 40
1.587499999999999
100
AcDbArc
 50
192.1085089999999
 51
347.8914909999998
  0
ARC
  5
B08E
330
AF72
100
AcDbEntity
  8
1
  6
Continuous
100
AcDbCircle
 10
191.678852
 20
128.0124999999999
 30
0.0
 40
1.587499999999999
100
AcDbArc
 50
6.038508
 51
24.57297999999999
  0
ARC
  5
B08F
330
AF72
100
AcDbEntity
  8
1
  6
Continuous
100
AcDbCircle
 10
191.678852
 20
128.0124999999999
 30
0.0
 40
1.587499999999999
100
AcDbArc
 50
155.4270199999999
 51
173.9614919999999
  0
ARC
  5
B090
330
AF72
100
AcDbEntity
  8
1
  6
Continuous
100
AcDbCircle
 10
181.678852
 20
128.0124999999999
 30
0.0
 40
1.587499999999999
100
AcDbArc
 50
192.1085089999999
 51
347.8914909999998
  0
ARC
  5
B091
330
AF72
100
AcDbEntity
  8
1
  6
Continuous
100
AcDbCircle
 10
181.678852
 20
128.0124999999999
 30
0.0
 40
1.587499999999999
100
AcDbArc
 50
6.038508
 51
24.57297999999999
  0
ARC
  5
B092
330
AF72
100
AcDbEntity
  8
1
  6
Continuous
100
AcDbCircle
 10
181.678852
 20
128.0124999999999
 30
0.0
 40
1.587499999999999
100
AcDbArc
 50
155.4270199999999
 51
173.9614919999999
  0
ARC
  5
B093
330
AF72
100
AcDbEntity
  8
1
  6
Continuous
100
AcDbCircle
 10
171.678852
 20
128.0124999999999
 30
0.0
 40
1.587499999999999
100
AcDbArc
 50
192.1085089999999
 51
212.9090519999999
  0
ARC
  5
B094
330
AF72
100
AcDbEntity
  8
1
  6
Continuous
100
AcDbCircle
 10
171.678852
 20
128.0124999999999
 30
0.0
 40
1.587499999999999
100
AcDbArc
 50
155.4270199999999
 51
173.9614919999999
  0
ARC
  5
B095
330
AF72
100
AcDbEntity
  8
1
  6
Continuous
100
AcDbCircle
 10
171.678852
 20
128.0124999999999
 30
0.0
 40
1.587499999999999
100
AcDbArc
 50
6.038508
 51
24.57297999999999
  0
ARC
  5
B096
330
AF72
100
AcDbEntity
  8
1
  6
Continuous
100
AcDbCircle
 10
171.678852
 20
128.0124999999999
 30
0.0
 40
1.587499999999999
100
AcDbArc
 50
239.7391859999999
 51
347.8914909999998
  0
ARC
  5
B097
330
AF72
100
AcDbEntity
  8
1
  6
Continuous
100
AcDbCircle
 10
211.678852
 20
113.9874999999999
 30
0.0
 40
1.587499999999999
100
AcDbArc
 50
12.108509
 51
167.891491
  0
ARC
  5
B098
330
AF72
100
AcDbEntity
  8
1
  6
Continuous
100
AcDbCircle
 10
201.6788519999999
 20
113.9874999999999
 30
0.0
 40
1.587499999999999
100
AcDbArc
 50
12.108509
 51
167.891491
  0
ARC
  5
B099
330
AF72
100
AcDbEntity
  8
1
  6
Continuous
100
AcDbCircle
 10
191.678852
 20
113.9874999999999
 30
0.0
 40
1.587499999999999
100
AcDbArc
 50
12.108509
 51
167.891491
  0
ARC
  5
B09A
330
AF72
100
AcDbEntity
  8
1
  6
Continuous
100
AcDbCircle
 10
181.678852
 20
113.9874999999999
 30
0.0
 40
1.587499999999999
100
AcDbArc
 50
12.108509
 51
167.891491
  0
ARC
  5
B09B
330
AF72
100
AcDbEntity
  8
1
  6
Continuous
100
AcDbCircle
 10
171.678852
 20
113.9874999999999
 30
0.0
 40
1.587499999999999
100
AcDbArc
 50
12.108509
 51
120.2608139999999
  0
ARC
  5
B09C
330
AF72
100
AcDbEntity
  8
1
  6
Continuous
100
AcDbCircle
 10
171.678852
 20
113.9874999999999
 30
0.0
 40
1.587499999999999
100
AcDbArc
 50
186.038508
 51
204.57298
  0
ARC
  5
B09D
330
AF72
100
AcDbEntity
  8
1
  6
Continuous
100
AcDbCircle
 10
171.678852
 20
113.9874999999999
 30
0.0
 40
1.587499999999999
100
AcDbArc
 50
147.0909479999999
 51
167.891491
  0
ARC
  5
B09E
330
AF72
100
AcDbEntity
  8
1
  6
Continuous
100
AcDbCircle
 10
171.678852
 20
113.9874999999999
 30
0.0
 40
1.587499999999999
100
AcDbArc
 50
335.4270200000001
 51
353.9614919999999
  0
ARC
  5
B09F
330
AF72
100
AcDbEntity
  8
1
  6
Continuous
100
AcDbCircle
 10
181.678852
 20
113.9874999999999
 30
0.0
 40
1.587499999999999
100
AcDbArc
 50
186.038508
 51
204.57298
  0
ARC
  5
B0A0
330
AF72
100
AcDbEntity
  8
1
  6
Continuous
100
AcDbCircle
 10
181.678852
 20
113.9874999999999
 30
0.0
 40
1.587499999999999
100
AcDbArc
 50
335.4270200000001
 51
353.9614919999999
  0
ARC
  5
B0A1
330
AF72
100
AcDbEntity
  8
1
  6
Continuous
100
AcDbCircle
 10
191.678852
 20
113.9874999999999
 30
0.0
 40
1.587499999999999
100
AcDbArc
 50
186.038508
 51
204.57298
  0
ARC
  5
B0A2
330
AF72
100
AcDbEntity
  8
1
  6
Continuous
100
AcDbCircle
 10
191.678852
 20
113.9874999999999
 30
0.0
 40
1.587499999999999
100
AcDbArc
 50
335.4270200000001
 51
353.9614919999999
  0
ARC
  5
B0A3
330
AF72
100
AcDbEntity
  8
1
  6
Continuous
100
AcDbCircle
 10
201.6788519999999
 20
113.9874999999999
 30
0.0
 40
1.587499999999999
100
AcDbArc
 50
186.038508
 51
204.57298
  0
ARC
  5
B0A4
330
AF72
100
AcDbEntity
  8
1
  6
Continuous
100
AcDbCircle
 10
201.6788519999999
 20
113.9874999999999
 30
0.0
 40
1.587499999999999
100
AcDbArc
 50
335.4270200000001
 51
353.9614919999999
  0
ARC
  5
B0A5
330
AF72
100
AcDbEntity
  8
1
  6
Continuous
100
AcDbCircle
 10
211.678852
 20
113.9874999999999
 30
0.0
 40
1.587499999999999
100
AcDbArc
 50
335.4270200000001
 51
353.9614919999999
  0
ARC
  5
B0A6
330
AF72
100
AcDbEntity
  8
1
  6
Continuous
100
AcDbCircle
 10
211.678852
 20
113.9874999999999
 30
0.0
 40
1.587499999999999
100
AcDbArc
 50
186.038508
 51
204.57298
  0
ARC
  5
B0A7
330
AF72
100
AcDbEntity
  8
1
  6
Continuous
100
AcDbCircle
 10
166.678852
 20
127.6795
 30
0.0
 40
1.0
100
AcDbArc
 50
328.028322
 51
0.0
  0
ARC
  5
B0A8
330
AF72
100
AcDbEntity
  8
1
  6
Continuous
100
AcDbCircle
 10
166.678852
 20
114.3205
 30
0.0
 40
1.0
100
AcDbArc
 50
148.028322
 51
180.0
  0
ARC
  5
B0A9
330
AF72
100
AcDbEntity
  8
1
  6
Continuous
100
AcDbCircle
 10
156.678852
 20
127.6795
 30
0.0
 40
1.0
100
AcDbArc
 50
328.028322
 51
0.0
  0
ARC
  5
B0AA
330
AF72
100
AcDbEntity
  8
1
  6
Continuous
100
AcDbCircle
 10
146.678852
 20
127.6795
 30
0.0
 40
1.0
100
AcDbArc
 50
328.028322
 51
0.0
  0
ARC
  5
B0AB
330
AF72
100
AcDbEntity
  8
1
  6
Continuous
100
AcDbCircle
 10
136.678852
 20
127.6795
 30
0.0
 40
1.0
100
AcDbArc
 50
328.028322
 51
0.0
  0
ARC
  5
B0AC
330
AF72
100
AcDbEntity
  8
1
  6
Continuous
100
AcDbCircle
 10
126.678852
 20
127.6795
 30
0.0
 40
1.0
100
AcDbArc
 50
328.028322
 51
0.0
  0
ARC
  5
B0AD
330
AF72
100
AcDbEntity
  8
1
  6
Continuous
100
AcDbCircle
 10
126.678852
 20
114.3205
 30
0.0
 40
1.0
100
AcDbArc
 50
148.028322
 51
180.0
  0
ARC
  5
B0AE
330
AF72
100
AcDbEntity
  8
1
  6
Continuous
100
AcDbCircle
 10
136.678852
 20
114.3205
 30
0.0
 40
1.0
100
AcDbArc
 50
148.028322
 51
180.0
  0
ARC
  5
B0AF
330
AF72
100
AcDbEntity
  8
1
  6
Continuous
100
AcDbCircle
 10
146.678852
 20
114.3205
 30
0.0
 40
1.0
100
AcDbArc
 50
148.028322
 51
180.0
  0
ARC
  5
B0B0
330
AF72
100
AcDbEntity
  8
1
  6
Continuous
100
AcDbCircle
 10
156.678852
 20
114.3205
 30
0.0
 40
1.0
100
AcDbArc
 50
148.028322
 51
180.0
  0
ARC
  5
B0B1
330
AF72
100
AcDbEntity
  8
1
  6
Continuous
100
AcDbCircle
 10
161.678852
 20
113.9874999999999
 30
0.0
 40
1.587499999999999
100
AcDbArc
 50
147.0909479999999
 51
167.891491
  0
ARC
  5
B0B2
330
AF72
100
AcDbEntity
  8
1
  6
Continuous
100
AcDbCircle
 10
161.678852
 20
113.9874999999999
 30
0.0
 40
1.587499999999999
100
AcDbArc
 50
186.038508
 51
204.57298
  0
ARC
  5
B0B3
330
AF72
100
AcDbEntity
  8
1
  6
Continuous
100
AcDbCircle
 10
161.678852
 20
113.9874999999999
 30
0.0
 40
1.587499999999999
100
AcDbArc
 50
335.4270200000001
 51
353.9614919999999
  0
ARC
  5
B0B4
330
AF72
100
AcDbEntity
  8
1
  6
Continuous
100
AcDbCircle
 10
161.678852
 20
113.9874999999999
 30
0.0
 40
1.587499999999999
100
AcDbArc
 50
12.108509
 51
32.909052
  0
ARC
  5
B0B5
330
AF72
100
AcDbEntity
  8
1
  6
Continuous
100
AcDbCircle
 10
151.678852
 20
113.9874999999999
 30
0.0
 40
1.587499999999999
100
AcDbArc
 50
12.108509
 51
32.909052
  0
ARC
  5
B0B6
330
AF72
100
AcDbEntity
  8
1
  6
Continuous
100
AcDbCircle
 10
151.678852
 20
113.9874999999999
 30
0.0
 40
1.587499999999999
100
AcDbArc
 50
335.4270200000001
 51
353.9614919999999
  0
ARC
  5
B0B7
330
AF72
100
AcDbEntity
  8
1
  6
Continuous
100
AcDbCircle
 10
151.678852
 20
113.9874999999999
 30
0.0
 40
1.587499999999999
100
AcDbArc
 50
186.038508
 51
204.57298
  0
ARC
  5
B0B8
330
AF72
100
AcDbEntity
  8
1
  6
Continuous
100
AcDbCircle
 10
151.678852
 20
113.9874999999999
 30
0.0
 40
1.587499999999999
100
AcDbArc
 50
147.0909479999999
 51
167.891491
  0
ARC
  5
B0B9
330
AF72
100
AcDbEntity
  8
1
  6
Continuous
100
AcDbCircle
 10
141.678852
 20
113.9874999999999
 30
0.0
 40
1.587499999999999
100
AcDbArc
 50
12.108509
 51
32.909052
  0
ARC
  5
B0BA
330
AF72
100
AcDbEntity
  8
1
  6
Continuous
100
AcDbCircle
 10
141.678852
 20
113.9874999999999
 30
0.0
 40
1.587499999999999
100
AcDbArc
 50
335.4270200000001
 51
353.9614919999999
  0
ARC
  5
B0BB
330
AF72
100
AcDbEntity
  8
1
  6
Continuous
100
AcDbCircle
 10
141.678852
 20
113.9874999999999
 30
0.0
 40
1.587499999999999
100
AcDbArc
 50
186.038508
 51
204.57298
  0
ARC
  5
B0BC
330
AF72
100
AcDbEntity
  8
1
  6
Continuous
100
AcDbCircle
 10
141.678852
 20
113.9874999999999
 30
0.0
 40
1.587499999999999
100
AcDbArc
 50
147.0909479999999
 51
167.891491
  0
ARC
  5
B0BD
330
AF72
100
AcDbEntity
  8
1
  6
Continuous
100
AcDbCircle
 10
131.678852
 20
113.9874999999999
 30
0.0
 40
1.587499999999999
100
AcDbArc
 50
12.108509
 51
32.909052
  0
ARC
  5
B0BE
330
AF72
100
AcDbEntity
  8
1
  6
Continuous
100
AcDbCircle
 10
131.678852
 20
113.9874999999999
 30
0.0
 40
1.587499999999999
100
AcDbArc
 50
335.4270200000001
 51
353.9614919999999
  0
ARC
  5
B0BF
330
AF72
100
AcDbEntity
  8
1
  6
Continuous
100
AcDbCircle
 10
131.678852
 20
113.9874999999999
 30
0.0
 40
1.587499999999999
100
AcDbArc
 50
186.038508
 51
204.57298
  0
ARC
  5
B0C0
330
AF72
100
AcDbEntity
  8
1
  6
Continuous
100
AcDbCircle
 10
131.678852
 20
113.9874999999999
 30
0.0
 40
1.587499999999999
100
AcDbArc
 50
147.0909479999999
 51
167.891491
  0
ARC
  5
B0C1
330
AF72
100
AcDbEntity
  8
1
  6
Continuous
100
AcDbCircle
 10
121.678852
 20
113.9874999999999
 30
0.0
 40
1.587499999999999
100
AcDbArc
 50
147.0909479999999
 51
167.891491
  0
ARC
  5
B0C2
330
AF72
100
AcDbEntity
  8
1
  6
Continuous
100
AcDbCircle
 10
121.678852
 20
113.9874999999999
 30
0.0
 40
1.587499999999999
100
AcDbArc
 50
186.038508
 51
204.57298
  0
ARC
  5
B0C3
330
AF72
100
AcDbEntity
  8
1
  6
Continuous
100
AcDbCircle
 10
121.678852
 20
113.9874999999999
 30
0.0
 40
1.587499999999999
100
AcDbArc
 50
335.4270200000001
 51
353.9614919999999
  0
ARC
  5
B0C4
330
AF72
100
AcDbEntity
  8
1
  6
Continuous
100
AcDbCircle
 10
121.678852
 20
113.9874999999999
 30
0.0
 40
1.587499999999999
100
AcDbArc
 50
12.108509
 51
32.909052
  0
ARC
  5
B0C5
330
AF72
100
AcDbEntity
  8
1
  6
Continuous
100
AcDbCircle
 10
81.678852
 20
113.9874999999999
 30
0.0
 40
1.587499999999999
100
AcDbArc
 50
147.0909479999999
 51
167.891491
  0
ARC
  5
B0C6
330
AF72
100
AcDbEntity
  8
1
  6
Continuous
100
AcDbCircle
 10
81.678852
 20
113.9874999999999
 30
0.0
 40
1.587499999999999
100
AcDbArc
 50
186.038508
 51
204.57298
  0
ARC
  5
B0C7
330
AF72
100
AcDbEntity
  8
1
  6
Continuous
100
AcDbCircle
 10
81.678852
 20
113.9874999999999
 30
0.0
 40
1.587499999999999
100
AcDbArc
 50
335.4270200000001
 51
353.9614919999999
  0
ARC
  5
B0C8
330
AF72
100
AcDbEntity
  8
1
  6
Continuous
100
AcDbCircle
 10
81.678852
 20
113.9874999999999
 30
0.0
 40
1.587499999999999
100
AcDbArc
 50
12.108509
 51
32.909052
  0
ARC
  5
B0C9
330
AF72
100
AcDbEntity
  8
1
  6
Continuous
100
AcDbCircle
 10
91.678852
 20
113.9874999999999
 30
0.0
 40
1.587499999999999
100
AcDbArc
 50
12.108509
 51
32.909052
  0
ARC
  5
B0CA
330
AF72
100
AcDbEntity
  8
1
  6
Continuous
100
AcDbCircle
 10
91.678852
 20
113.9874999999999
 30
0.0
 40
1.587499999999999
100
AcDbArc
 50
335.4270200000001
 51
353.9614919999999
  0
ARC
  5
B0CB
330
AF72
100
AcDbEntity
  8
1
  6
Continuous
100
AcDbCircle
 10
91.678852
 20
113.9874999999999
 30
0.0
 40
1.587499999999999
100
AcDbArc
 50
186.038508
 51
204.57298
  0
ARC
  5
B0CC
330
AF72
100
AcDbEntity
  8
1
  6
Continuous
100
AcDbCircle
 10
91.678852
 20
113.9874999999999
 30
0.0
 40
1.587499999999999
100
AcDbArc
 50
147.0909479999999
 51
167.891491
  0
ARC
  5
B0CD
330
AF72
100
AcDbEntity
  8
1
  6
Continuous
100
AcDbCircle
 10
101.6788519999999
 20
113.9874999999999
 30
0.0
 40
1.587499999999999
100
AcDbArc
 50
12.108509
 51
32.909052
  0
ARC
  5
B0CE
330
AF72
100
AcDbEntity
  8
1
  6
Continuous
100
AcDbCircle
 10
101.6788519999999
 20
113.9874999999999
 30
0.0
 40
1.587499999999999
100
AcDbArc
 50
335.4270200000001
 51
353.9614919999999
  0
ARC
  5
B0CF
330
AF72
100
AcDbEntity
  8
1
  6
Continuous
100
AcDbCircle
 10
101.6788519999999
 20
113.9874999999999
 30
0.0
 40
1.587499999999999
100
AcDbArc
 50
186.038508
 51
204.57298
  0
ARC
  5
B0D0
330
AF72
100
AcDbEntity
  8
1
  6
Continuous
100
AcDbCircle
 10
101.6788519999999
 20
113.9874999999999
 30
0.0
 40
1.587499999999999
100
AcDbArc
 50
147.0909479999999
 51
167.891491
  0
ARC
  5
B0D1
330
AF72
100
AcDbEntity
  8
1
  6
Continuous
100
AcDbCircle
 10
111.678852
 20
113.9874999999999
 30
0.0
 40
1.587499999999999
100
AcDbArc
 50
147.0909479999999
 51
167.891491
  0
ARC
  5
B0D2
330
AF72
100
AcDbEntity
  8
1
  6
Continuous
100
AcDbCircle
 10
111.678852
 20
113.9874999999999
 30
0.0
 40
1.587499999999999
100
AcDbArc
 50
186.038508
 51
204.57298
  0
ARC
  5
B0D3
330
AF72
100
AcDbEntity
  8
1
  6
Continuous
100
AcDbCircle
 10
111.678852
 20
113.9874999999999
 30
0.0
 40
1.587499999999999
100
AcDbArc
 50
335.4270200000001
 51
353.9614919999999
  0
ARC
  5
B0D4
330
AF72
100
AcDbEntity
  8
1
  6
Continuous
100
AcDbCircle
 10
111.678852
 20
113.9874999999999
 30
0.0
 40
1.587499999999999
100
AcDbArc
 50
12.108509
 51
32.909052
  0
LINE
  5
B0D5
330
AF72
100
AcDbEntity
  8
1
  6
Continuous
100
AcDbLine
 10
26.559746
 20
127.448359
 30
0.0
 11
28.41969199999999
 21
129.175725
 31
0.0
  0
LINE
  5
B0D6
330
AF72
100
AcDbEntity
  8
1
  6
Continuous
100
AcDbLine
 10
25.607033
 20
128.474195
 30
0.0
 11
27.46698
 21
130.2015609999999
 31
0.0
  0
ARC
  5
B0D7
330
AF72
100
AcDbEntity
  8
1
  6
Continuous
100
AcDbCircle
 10
26.89999999999999
 20
127.081989
 30
0.0
 40
0.5
100
AcDbArc
 50
132.8834129999999
 51
180.0
  0
ARC
  5
B0D8
330
AF72
100
AcDbEntity
  8
1
  6
Continuous
100
AcDbCircle
 10
26.89999999999999
 20
127.081989
 30
0.0
 40
1.9
100
AcDbArc
 50
132.8834129999999
 51
180.0
  0
LINE
  5
B0D9
330
AF72
100
AcDbEntity
  8
4
  6
CENTER
100
AcDbLine
 10
20.0
 20
121.0
 30
0.0
 11
38.0
 21
121.0
 31
0.0
  0
ARC
  5
B0DA
330
AF72
100
AcDbEntity
  8
1
  6
Continuous
100
AcDbCircle
 10
31.49104
 20
125.6410399999999
 30
0.0
 40
1.50896
100
AcDbArc
 50
0.0
 51
130.0162919999999
  0
LINE
  5
B0DB
330
AF72
100
AcDbEntity
  8
1
  6
Continuous
100
AcDbLine
 10
30.943724
 20
128.672665
 30
0.0
 11
32.078071
 21
129.5220379999999
 31
0.0
  0
LINE
  5
B0DC
330
AF72
100
AcDbEntity
  8
1
  6
Continuous
100
AcDbLine
 10
27.73607199999998
 20
126.2999999999999
 30
0.0
 11
28.36098699999999
 21
126.906695
 31
0.0
  0
LINE
  5
B0DD
330
AF72
100
AcDbEntity
  8
1
  6
Continuous
100
AcDbLine
 10
30.943724
 20
113.327335
 30
0.0
 11
32.078071
 21
112.4779619999999
 31
0.0
  0
ARC
  5
B0DE
330
AF72
100
AcDbEntity
  8
1
  6
Continuous
100
AcDbCircle
 10
31.49104
 20
116.35896
 30
0.0
 40
1.50896
100
AcDbArc
 50
229.983708
 51
0.0
  0
ARC
  5
B0DF
330
AF72
100
AcDbEntity
  8
1
  6
Continuous
100
AcDbCircle
 10
29.5
 20
113.9874999999999
 30
0.0
 40
2.987499999999998
100
AcDbArc
 50
227.116587
 51
329.6497479999998
  0
LINE
  5
B0E0
330
AF72
100
AcDbEntity
  8
1
  6
Continuous
100
AcDbLine
 10
27.73607199999998
 20
115.7
 30
0.0
 11
28.36098699999999
 21
115.093305
 31
0.0
  0
ARC
  5
B0E1
330
AF72
100
AcDbEntity
  8
1
  6
Continuous
100
AcDbCircle
 10
26.89999999999999
 20
114.918011
 30
0.0
 40
1.9
100
AcDbArc
 50
180.0
 51
227.116587
  0
ARC
  5
B0E2
330
AF72
100
AcDbEntity
  8
1
  6
Continuous
100
AcDbCircle
 10
26.89999999999999
 20
114.918011
 30
0.0
 40
0.5
100
AcDbArc
 50
180.0
 51
227.116587
  0
LINE
  5
B0E3
330
AF72
100
AcDbEntity
  8
1
  6
Continuous
100
AcDbLine
 10
25.607033
 20
113.525805
 30
0.0
 11
27.46698
 21
111.7984389999999
 31
0.0
  0
LINE
  5
B0E4
330
AF72
100
AcDbEntity
  8
1
  6
Continuous
100
AcDbLine
 10
26.559746
 20
114.5516409999999
 30
0.0
 11
28.41969199999999
 21
112.824275
 31
0.0
  0
ARC
  5
B0E5
330
AF72
100
AcDbEntity
  8
1
  6
Continuous
100
AcDbCircle
 10
29.5
 20
113.9874999999999
 30
0.0
 40
1.587499999999999
100
AcDbArc
 50
18.435313
 51
145.449896
  0
LINE
  5
B0E6
330
AF72
100
AcDbEntity
  8
1
  6
Continuous
100
AcDbLine
 10
26.89999999999999
 20
126.9950149999999
 30
0.0
 11
26.89999999999999
 21
126.2999999999999
 31
0.0
  0
LINE
  5
B0E7
330
AF72
100
AcDbEntity
  8
1
  6
Continuous
100
AcDbLine
 10
27.4
 20
127.0
 30
0.0
 11
27.4
 21
126.2999999999999
 31
0.0
  0
LINE
  5
B0E8
330
AF72
100
AcDbEntity
  8
1
  6
Continuous
100
AcDbLine
 10
32.20000000000001
 20
128.1795
 30
0.0
 11
32.20000000000001
 21
127.6795
 31
0.0
  0
LINE
  5
B0E9
330
AF72
100
AcDbEntity
  8
1
  6
Continuous
100
AcDbLine
 10
27.4
 20
127.0
 30
0.0
 11
32.20000000000001
 21
127.6795
 31
0.0
  0
LINE
  5
B0EA
330
AF72
100
AcDbEntity
  8
1
  6
Continuous
100
AcDbLine
 10
27.32991699999999
 20
127.490079
 30
0.0
 11
32.20000000000001
 21
128.1795
 31
0.0
  0
ARC
  5
B0EB
330
AF72
100
AcDbEntity
  8
1
  6
Continuous
100
AcDbCircle
 10
27.4
 20
126.9950149999999
 30
0.0
 40
0.5
100
AcDbArc
 50
98.05739500000001
 51
180.0
  0
ARC
  5
B0EC
330
AF72
100
AcDbEntity
  8
1
  6
Continuous
100
AcDbCircle
 10
29.5
 20
128.0124999999999
 30
0.0
 40
1.587499999999999
100
AcDbArc
 50
214.550104
 51
341.5646869999999
  0
LINE
  5
B0ED
330
AF72
100
AcDbEntity
  8
1
  6
Continuous
100
AcDbLine
 10
27.32991699999999
 20
114.5099209999999
 30
0.0
 11
32.20000000000001
 21
113.8204999999999
 31
0.0
  0
LINE
  5
B0EE
330
AF72
100
AcDbEntity
  8
1
  6
Continuous
100
AcDbLine
 10
27.4
 20
115.0
 30
0.0
 11
32.20000000000001
 21
114.3205
 31
0.0
  0
LINE
  5
B0EF
330
AF72
100
AcDbEntity
  8
1
  6
Continuous
100
AcDbLine
 10
32.20000000000001
 20
113.8204999999999
 30
0.0
 11
32.20000000000001
 21
114.3205
 31
0.0
  0
LINE
  5
B0F0
330
AF72
100
AcDbEntity
  8
1
  6
Continuous
100
AcDbLine
 10
27.4
 20
115.0
 30
0.0
 11
27.4
 21
115.7
 31
0.0
  0
ARC
  5
B0F1
330
AF72
100
AcDbEntity
  8
1
  6
Continuous
100
AcDbCircle
 10
27.4
 20
115.004985
 30
0.0
 40
0.5
100
AcDbArc
 50
180.0
 51
261.9426049999999
  0
LINE
  5
B0F2
330
AF72
100
AcDbEntity
  8
1
  6
Continuous
100
AcDbLine
 10
26.89999999999999
 20
115.004985
 30
0.0
 11
26.89999999999999
 21
115.7
 31
0.0
  0
ARC
  5
B0F3
330
AF72
100
AcDbEntity
  8
1
  6
Continuous
100
AcDbCircle
 10
29.5
 20
113.9874999999999
 30
0.0
 40
1.587499999999999
100
AcDbArc
 50
164.228362
 51
359.656848
  0
LINE
  5
B0F4
330
AF72
100
AcDbEntity
  8
1
  6
Continuous
100
AcDbLine
 10
69.478852
 20
201.0
 30
0.0
 11
69.478852
 21
193.921929
 31
0.0
  0
LINE
  5
B0F5
330
AF72
100
AcDbEntity
  8
1
  6
Continuous
100
AcDbLine
 10
269.478852
 20
201.0
 30
0.0
 11
269.478852
 21
193.921929
 31
0.0
  0
LINE
  5
B0F6
330
AF72
100
AcDbEntity
  8
1
  6
Continuous
100
AcDbLine
 10
269.478852
 20
201.0
 30
0.0
 11
69.478852
 21
201.0
 31
0.0
  0
LINE
  5
B0F7
330
AF72
100
AcDbEntity
  8
1
  6
Continuous
100
AcDbLine
 10
170.8788519999998
 20
193.0
 30
0.0
 11
70.87885199999998
 21
193.0
 31
0.0
  0
LINE
  5
B0F8
330
AF72
100
AcDbEntity
  8
1
  6
Continuous
100
AcDbLine
 10
69.478852
 20
193.921929
 30
0.0
 11
269.478852
 21
193.921929
 31
0.0
  0
LINE
  5
B0F9
330
AF72
100
AcDbEntity
  8
1
  6
Continuous
100
AcDbLine
 10
170.8788519999998
 20
193.0
 30
0.0
 11
170.8788519999998
 21
193.8
 31
0.0
  0
LINE
  5
B0FA
330
AF72
100
AcDbEntity
  8
1
  6
Continuous
100
AcDbLine
 10
70.87885199999998
 20
193.921929
 30
0.0
 11
70.87885199999998
 21
193.0
 31
0.0
  0
LINE
  5
B0FB
330
AF72
100
AcDbEntity
  8
4
  6
CENTER
100
AcDbLine
 10
90.878852
 20
196.421929
 30
0.0
 11
90.878852
 21
190.5
 31
0.0
  0
LINE
  5
B0FC
330
AF72
100
AcDbEntity
  8
4
  6
CENTER
100
AcDbLine
 10
150.8788519999999
 20
196.421929
 30
0.0
 11
150.8788519999999
 21
190.5
 31
0.0
  0
LINE
  5
B0FD
330
AF72
100
AcDbEntity
  8
4
  6
CENTER
100
AcDbLine
 10
249.4788519999999
 20
203.5
 30
0.0
 11
249.4788519999999
 21
198.5
 31
0.0
  0
LINE
  5
B0FE
330
AF72
100
AcDbEntity
  8
4
  6
CENTER
100
AcDbLine
 10
234.4788519999999
 20
203.5
 30
0.0
 11
234.4788519999999
 21
198.5
 31
0.0
  0
LINE
  5
B0FF
330
AF72
100
AcDbEntity
  8
4
  6
CENTER
100
AcDbLine
 10
189.4788519999999
 20
203.5
 30
0.0
 11
189.4788519999999
 21
198.5
 31
0.0
  0
LINE
  5
B100
330
AF72
100
AcDbEntity
  8
4
  6
CENTER
100
AcDbLine
 10
104.4788519999999
 20
203.5
 30
0.0
 11
104.4788519999999
 21
198.5
 31
0.0
  0
LINE
  5
B101
330
AF72
100
AcDbEntity
  8
4
  6
CENTER
100
AcDbLine
 10
89.47885199999998
 20
203.5
 30
0.0
 11
89.47885199999998
 21
198.5
 31
0.0
  0
LINE
  5
B102
330
AF72
100
AcDbEntity
  8
3
  6
DASHED
100
AcDbLine
 10
170.8788519999998
 20
198.5
 30
0.0
 11
70.87885199999998
 21
198.5
 31
0.0
  0
LINE
  5
B103
330
AF72
100
AcDbEntity
  8
3
  6
DASHED
100
AcDbLine
 10
170.8788519999998
 20
193.8
 30
0.0
 11
170.8788519999998
 21
198.5
 31
0.0
  0
LINE
  5
B104
330
AF72
100
AcDbEntity
  8
3
  6
DASHED
100
AcDbLine
 10
70.87885199999998
 20
198.5
 30
0.0
 11
70.87885199999998
 21
193.921929
 31
0.0
  0
LINE
  5
B105
330
AF72
100
AcDbEntity
  8
4
  6
CENTER
100
AcDbLine
 10
64.478852
 20
273.0
 30
0.0
 11
274.478852
 21
273.0
 31
0.0
  0
LINE
  5
B106
330
AF72
100
AcDbEntity
  8
1
  6
Continuous
100
AcDbLine
 10
69.478852
 20
283.0
 30
0.0
 11
269.478852
 21
283.0
 31
0.0
  0
LINE
  5
B107
330
AF72
100
AcDbEntity
  8
1
  6
Continuous
100
AcDbLine
 10
269.478852
 20
263.0
 30
0.0
 11
69.478852
 21
263.0
 31
0.0
  0
LINE
  5
B108
330
AF72
100
AcDbEntity
  8
1
  6
Continuous
100
AcDbLine
 10
70.87885199999998
 20
279.1499999999999
 30
0.0
 11
71.06753799999999
 21
279.1499999999999
 31
0.0
  0
LINE
  5
B109
330
AF72
100
AcDbEntity
  8
3
  6
DASHED
100
AcDbLine
 10
170.8788519999998
 20
266.85
 30
0.0
 11
71.06753799999999
 21
266.85
 31
0.0
  0
LINE
  5
B10A
330
AF72
100
AcDbEntity
  8
3
  6
DASHED
100
AcDbLine
 10
70.87885199999998
 20
267.3
 30
0.0
 11
70.87885199999998
 21
278.6999999999998
 31
0.0
  0
LINE
  5
B10B
330
AF72
100
AcDbEntity
  8
1
  6
Continuous
100
AcDbLine
 10
69.478852
 20
281.728427
 30
0.0
 11
69.478852
 21
283.0
 31
0.0
  0
ARC
  5
B10C
330
AF72
100
AcDbEntity
  8
1
  6
Continuous
100
AcDbCircle
 10
70.478852
 20
281.728427
 30
0.0
 40
1.0
100
AcDbArc
 50
180.0
 51
225.0
  0
LINE
  5
B10D
330
AF72
100
AcDbEntity
  8
1
  6
Continuous
100
AcDbLine
 10
70.78595899999998
 20
280.0071069999999
 30
0.0
 11
69.771745
 21
281.02132
 31
0.0
  0
ARC
  5
B10E
330
AF72
100
AcDbEntity
  8
1
  6
Continuous
100
AcDbCircle
 10
70.078852
 20
279.3
 30
0.0
 40
1.0
100
AcDbArc
 50
270.0
 51
45.0
  0
LINE
  5
B10F
330
AF72
100
AcDbEntity
  8
1
  6
Continuous
100
AcDbLine
 10
70.078852
 20
267.7
 30
0.0
 11
69.478852
 21
267.7
 31
0.0
  0
LINE
  5
B110
330
AF72
100
AcDbEntity
  8
1
  6
Continuous
100
AcDbLine
 10
69.478852
 20
278.3
 30
0.0
 11
70.078852
 21
278.3
 31
0.0
  0
LINE
  5
B111
330
AF72
100
AcDbEntity
  8
1
  6
Continuous
100
AcDbLine
 10
69.478852
 20
267.7
 30
0.0
 11
69.478852
 21
278.3
 31
0.0
  0
LINE
  5
B112
330
AF72
100
AcDbEntity
  8
4
  6
CENTER
100
AcDbLine
 10
90.878852
 20
268.7843659999999
 30
0.0
 11
90.878852
 21
277.2934029999999
 31
0.0
  0
CIRCLE
  5
B113
330
AF72
100
AcDbEntity
  8
1
  6
Continuous
100
AcDbCircle
 10
89.47885199999998
 20
273.0
 30
0.0
 40
1.6
  0
LINE
  5
B114
330
AF72
100
AcDbEntity
  8
4
  6
CENTER
100
AcDbLine
 10
89.47885199999998
 20
270.6215439999999
 30
0.0
 11
89.47885199999998
 21
275.06945
 31
0.0
  0
ARC
  5
B115
330
AF72
100
AcDbEntity
  8
1
  6
Continuous
100
AcDbCircle
 10
70.078852
 20
266.6999999999998
 30
0.0
 40
1.0
100
AcDbArc
 50
315.0
 51
90.0
  0
LINE
  5
B116
330
AF72
100
AcDbEntity
  8
1
  6
Continuous
100
AcDbLine
 10
69.771745
 20
264.97868
 30
0.0
 11
70.78595899999998
 21
265.9928929999999
 31
0.0
  0
ARC
  5
B117
330
AF72
100
AcDbEntity
  8
1
  6
Continuous
100
AcDbCircle
 10
70.478852
 20
264.2715729999998
 30
0.0
 40
1.0
100
AcDbArc
 50
135.0
 51
180.0
  0
LINE
  5
B118
330
AF72
100
AcDbEntity
  8
1
  6
Continuous
100
AcDbLine
 10
69.478852
 20
263.0
 30
0.0
 11
69.478852
 21
264.2715729999998
 31
0.0
  0
ARC
  5
B119
330
AF72
100
AcDbEntity
  8
1
  6
Continuous
100
AcDbCircle
 10
104.778852
 20
273.0
 30
0.0
 40
1.6
100
AcDbArc
 50
270.0
 51
90.0
  0
ARC
  5
B11A
330
AF72
100
AcDbEntity
  8
1
  6
Continuous
100
AcDbCircle
 10
104.178852
 20
273.0
 30
0.0
 40
1.6
100
AcDbArc
 50
90.0
 51
270.0
  0
LINE
  5
B11B
330
AF72
100
AcDbEntity
  8
1
  6
Continuous
100
AcDbLine
 10
104.778852
 20
271.3999999999999
 30
0.0
 11
104.178852
 21
271.3999999999999
 31
0.0
  0
LINE
  5
B11C
330
AF72
100
AcDbEntity
  8
1
  6
Continuous
100
AcDbLine
 10
104.178852
 20
274.6
 30
0.0
 11
104.778852
 21
274.6
 31
0.0
  0
LINE
  5
B11D
330
AF72
100
AcDbEntity
  8
4
  6
CENTER
100
AcDbLine
 10
104.4788519999999
 20
270.23477
 30
0.0
 11
104.4788519999999
 21
275.649611
 31
0.0
  0
LINE
  5
B11E
330
AF72
100
AcDbEntity
  8
4
  6
CENTER
100
AcDbLine
 10
150.8788519999999
 20
268.736019
 30
0.0
 11
150.8788519999999
 21
277.1000149999999
 31
0.0
  0
ARC
  5
B11F
330
AF72
100
AcDbEntity
  8
1
  6
Continuous
100
AcDbCircle
 10
189.7788519999998
 20
273.0
 30
0.0
 40
1.6
100
AcDbArc
 50
270.0
 51
90.0
  0
LINE
  5
B120
330
AF72
100
AcDbEntity
  8
3
  6
DASHED
100
AcDbLine
 10
170.8788519999998
 20
279.1499999999999
 30
0.0
 11
170.8788519999998
 21
266.85
 31
0.0
  0
ARC
  5
B121
330
AF72
100
AcDbEntity
  8
1
  6
Continuous
100
AcDbCircle
 10
189.178852
 20
273.0
 30
0.0
 40
1.6
100
AcDbArc
 50
90.0
 51
270.0
  0
LINE
  5
B122
330
AF72
100
AcDbEntity
  8
1
  6
Continuous
100
AcDbLine
 10
189.7788519999998
 20
271.3999999999999
 30
0.0
 11
189.178852
 21
271.3999999999999
 31
0.0
  0
LINE
  5
B123
330
AF72
100
AcDbEntity
  8
1
  6
Continuous
100
AcDbLine
 10
189.178852
 20
274.6
 30
0.0
 11
189.7788519999998
 21
274.6
 31
0.0
  0
LINE
  5
B124
330
AF72
100
AcDbEntity
  8
4
  6
CENTER
100
AcDbLine
 10
189.4788519999999
 20
270.3314629999999
 30
0.0
 11
189.4788519999999
 21
275.601265
 31
0.0
  0
ARC
  5
B125
330
AF72
100
AcDbEntity
  8
1
  6
Continuous
100
AcDbCircle
 10
234.7788519999999
 20
273.0
 30
0.0
 40
1.6
100
AcDbArc
 50
270.0
 51
90.0
  0
ARC
  5
B126
330
AF72
100
AcDbEntity
  8
1
  6
Continuous
100
AcDbCircle
 10
234.178852
 20
273.0
 30
0.0
 40
1.6
100
AcDbArc
 50
90.0
 51
270.0
  0
LINE
  5
B127
330
AF72
100
AcDbEntity
  8
1
  6
Continuous
100
AcDbLine
 10
234.7788519999999
 20
271.3999999999999
 30
0.0
 11
234.178852
 21
271.3999999999999
 31
0.0
  0
LINE
  5
B128
330
AF72
100
AcDbEntity
  8
1
  6
Continuous
100
AcDbLine
 10
234.178852
 20
274.6
 30
0.0
 11
234.7788519999999
 21
274.6
 31
0.0
  0
LINE
  5
B129
330
AF72
100
AcDbEntity
  8
4
  6
CENTER
100
AcDbLine
 10
234.4788519999999
 20
270.1380759999998
 30
0.0
 11
234.4788519999999
 21
275.601265
 31
0.0
  0
ARC
  5
B12A
330
AF72
100
AcDbEntity
  8
1
  6
Continuous
100
AcDbCircle
 10
249.7788519999998
 20
273.0
 30
0.0
 40
1.6
100
AcDbArc
 50
270.0
 51
90.0
  0
ARC
  5
B12B
330
AF72
100
AcDbEntity
  8
1
  6
Continuous
100
AcDbCircle
 10
249.178852
 20
273.0
 30
0.0
 40
1.6
100
AcDbArc
 50
90.0
 51
270.0
  0
LINE
  5
B12C
330
AF72
100
AcDbEntity
  8
1
  6
Continuous
100
AcDbLine
 10
249.7788519999998
 20
271.3999999999999
 30
0.0
 11
249.178852
 21
271.3999999999999
 31
0.0
  0
LINE
  5
B12D
330
AF72
100
AcDbEntity
  8
1
  6
Continuous
100
AcDbLine
 10
249.178852
 20
274.6
 30
0.0
 11
249.7788519999998
 21
274.6
 31
0.0
  0
LINE
  5
B12E
330
AF72
100
AcDbEntity
  8
4
  6
CENTER
100
AcDbLine
 10
249.4788519999999
 20
270.0897289999999
 30
0.0
 11
249.4788519999999
 21
276.133079
 31
0.0
  0
ARC
  5
B12F
330
AF72
100
AcDbEntity
  8
1
  6
Continuous
100
AcDbCircle
 10
268.878852
 20
266.6999999999998
 30
0.0
 40
1.0
100
AcDbArc
 50
90.0
 51
225.0
  0
LINE
  5
B130
330
AF72
100
AcDbEntity
  8
1
  6
Continuous
100
AcDbLine
 10
269.478852
 20
267.7
 30
0.0
 11
269.478852
 21
278.3
 31
0.0
  0
LINE
  5
B131
330
AF72
100
AcDbEntity
  8
1
  6
Continuous
100
AcDbLine
 10
268.878852
 20
267.7
 30
0.0
 11
269.478852
 21
267.7
 31
0.0
  0
LINE
  5
B132
330
AF72
100
AcDbEntity
  8
1
  6
Continuous
100
AcDbLine
 10
269.478852
 20
278.3
 30
0.0
 11
268.878852
 21
278.3
 31
0.0
  0
ARC
  5
B133
330
AF72
100
AcDbEntity
  8
1
  6
Continuous
100
AcDbCircle
 10
268.878852
 20
279.3
 30
0.0
 40
1.0
100
AcDbArc
 50
135.0
 51
270.0
  0
LINE
  5
B134
330
AF72
100
AcDbEntity
  8
1
  6
Continuous
100
AcDbLine
 10
269.1859589999999
 20
281.02132
 30
0.0
 11
268.1717449999999
 21
280.0071069999999
 31
0.0
  0
ARC
  5
B135
330
AF72
100
AcDbEntity
  8
1
  6
Continuous
100
AcDbCircle
 10
268.478852
 20
281.728427
 30
0.0
 40
1.0
100
AcDbArc
 50
315.0
 51
0.0
  0
LINE
  5
B136
330
AF72
100
AcDbEntity
  8
1
  6
Continuous
100
AcDbLine
 10
269.478852
 20
283.0
 30
0.0
 11
269.478852
 21
281.728427
 31
0.0
  0
LINE
  5
B137
330
AF72
100
AcDbEntity
  8
1
  6
Continuous
100
AcDbLine
 10
269.478852
 20
264.2715729999998
 30
0.0
 11
269.478852
 21
263.0
 31
0.0
  0
ARC
  5
B138
330
AF72
100
AcDbEntity
  8
1
  6
Continuous
100
AcDbCircle
 10
268.478852
 20
264.2715729999998
 30
0.0
 40
1.0
100
AcDbArc
 50
0.0
 51
45.0
  0
LINE
  5
B139
330
AF72
100
AcDbEntity
  8
1
  6
Continuous
100
AcDbLine
 10
268.1717449999999
 20
265.9928929999999
 30
0.0
 11
269.1859589999999
 21
264.97868
 31
0.0
  0
LINE
  5
B13A
330
AF72
100
AcDbEntity
  8
1
  6
Continuous
100
AcDbLine
 10
70.87885199999998
 20
278.6999999999998
 30
0.0
 11
70.87885199999998
 21
279.1499999999999
 31
0.0
  0
LINE
  5
B13B
330
AF72
100
AcDbEntity
  8
3
  6
DASHED
100
AcDbLine
 10
71.06753799999999
 20
279.1499999999999
 30
0.0
 11
170.8788519999998
 21
279.1499999999999
 31
0.0
  0
LINE
  5
B13C
330
AF72
100
AcDbEntity
  8
1
  6
Continuous
100
AcDbLine
 10
70.87885199999998
 20
267.3
 30
0.0
 11
70.87885199999998
 21
266.85
 31
0.0
  0
LINE
  5
B13D
330
AF72
100
AcDbEntity
  8
1
  6
Continuous
100
AcDbLine
 10
70.87885199999998
 20
266.85
 30
0.0
 11
71.06753799999999
 21
266.85
 31
0.0
  0
LINE
  5
B13E
330
AF72
100
AcDbEntity
  8
1
  6
Continuous
100
AcDbLine
 10
215.678852
 20
193.921929
 30
0.0
 11
215.678852
 21
193.8
 31
0.0
  0
LINE
  5
B13F
330
AF72
100
AcDbEntity
  8
1
  6
Continuous
100
AcDbLine
 10
215.678852
 20
193.8
 30
0.0
 11
207.678852
 21
193.8
 31
0.0
  0
LINE
  5
B140
330
AF72
100
AcDbEntity
  8
1
  6
Continuous
100
AcDbLine
 10
207.678852
 20
193.8
 30
0.0
 11
207.678852
 21
193.921929
 31
0.0
  0
LINE
  5
B141
330
AF72
100
AcDbEntity
  8
1
  6
Continuous
100
AcDbLine
 10
205.678852
 20
193.8
 30
0.0
 11
197.678852
 21
193.8
 31
0.0
  0
LINE
  5
B142
330
AF72
100
AcDbEntity
  8
1
  6
Continuous
100
AcDbLine
 10
205.678852
 20
193.921929
 30
0.0
 11
205.678852
 21
193.8
 31
0.0
  0
LINE
  5
B143
330
AF72
100
AcDbEntity
  8
1
  6
Continuous
100
AcDbLine
 10
197.678852
 20
193.8
 30
0.0
 11
197.678852
 21
193.921929
 31
0.0
  0
LINE
  5
B144
330
AF72
100
AcDbEntity
  8
1
  6
Continuous
100
AcDbLine
 10
187.678852
 20
193.8
 30
0.0
 11
187.678852
 21
193.921929
 31
0.0
  0
LINE
  5
B145
330
AF72
100
AcDbEntity
  8
1
  6
Continuous
100
AcDbLine
 10
195.678852
 20
193.921929
 30
0.0
 11
195.678852
 21
193.8
 31
0.0
  0
LINE
  5
B146
330
AF72
100
AcDbEntity
  8
1
  6
Continuous
100
AcDbLine
 10
195.678852
 20
193.8
 30
0.0
 11
187.678852
 21
193.8
 31
0.0
  0
LINE
  5
B147
330
AF72
100
AcDbEntity
  8
1
  6
Continuous
100
AcDbLine
 10
185.678852
 20
193.8
 30
0.0
 11
177.678852
 21
193.8
 31
0.0
  0
LINE
  5
B148
330
AF72
100
AcDbEntity
  8
1
  6
Continuous
100
AcDbLine
 10
177.678852
 20
193.8
 30
0.0
 11
177.678852
 21
193.921929
 31
0.0
  0
LINE
  5
B149
330
AF72
100
AcDbEntity
  8
1
  6
Continuous
100
AcDbLine
 10
185.678852
 20
193.921929
 30
0.0
 11
185.678852
 21
193.8
 31
0.0
  0
LINE
  5
B14A
330
AF72
100
AcDbEntity
  8
1
  6
Continuous
100
AcDbLine
 10
175.678852
 20
193.921929
 30
0.0
 11
175.678852
 21
193.8
 31
0.0
  0
LINE
  5
B14B
330
AF72
100
AcDbEntity
  8
1
  6
Continuous
100
AcDbLine
 10
167.678852
 20
193.8
 30
0.0
 11
167.678852
 21
193.921929
 31
0.0
  0
LINE
  5
B14C
330
AF72
100
AcDbEntity
  8
1
  6
Continuous
100
AcDbLine
 10
175.678852
 20
193.8
 30
0.0
 11
167.678852
 21
193.8
 31
0.0
  0
LINE
  5
B14D
330
AF72
100
AcDbEntity
  8
1
  6
Continuous
100
AcDbLine
 10
165.678852
 20
193.8
 30
0.0
 11
157.678852
 21
193.8
 31
0.0
  0
LINE
  5
B14E
330
AF72
100
AcDbEntity
  8
1
  6
Continuous
100
AcDbLine
 10
157.678852
 20
193.8
 30
0.0
 11
157.678852
 21
193.921929
 31
0.0
  0
LINE
  5
B14F
330
AF72
100
AcDbEntity
  8
1
  6
Continuous
100
AcDbLine
 10
165.678852
 20
193.921929
 30
0.0
 11
165.678852
 21
193.8
 31
0.0
  0
LINE
  5
B150
330
AF72
100
AcDbEntity
  8
1
  6
Continuous
100
AcDbLine
 10
155.678852
 20
193.8
 30
0.0
 11
147.678852
 21
193.8
 31
0.0
  0
LINE
  5
B151
330
AF72
100
AcDbEntity
  8
1
  6
Continuous
100
AcDbLine
 10
147.678852
 20
193.8
 30
0.0
 11
147.678852
 21
193.921929
 31
0.0
  0
LINE
  5
B152
330
AF72
100
AcDbEntity
  8
1
  6
Continuous
100
AcDbLine
 10
155.678852
 20
193.921929
 30
0.0
 11
155.678852
 21
193.8
 31
0.0
  0
LINE
  5
B153
330
AF72
100
AcDbEntity
  8
1
  6
Continuous
100
AcDbLine
 10
145.678852
 20
193.921929
 30
0.0
 11
145.678852
 21
193.8
 31
0.0
  0
LINE
  5
B154
330
AF72
100
AcDbEntity
  8
1
  6
Continuous
100
AcDbLine
 10
137.678852
 20
193.8
 30
0.0
 11
137.678852
 21
193.921929
 31
0.0
  0
LINE
  5
B155
330
AF72
100
AcDbEntity
  8
1
  6
Continuous
100
AcDbLine
 10
145.678852
 20
193.8
 30
0.0
 11
137.678852
 21
193.8
 31
0.0
  0
LINE
  5
B156
330
AF72
100
AcDbEntity
  8
1
  6
Continuous
100
AcDbLine
 10
135.678852
 20
193.8
 30
0.0
 11
127.6788519999999
 21
193.8
 31
0.0
  0
LINE
  5
B157
330
AF72
100
AcDbEntity
  8
1
  6
Continuous
100
AcDbLine
 10
127.6788519999999
 20
193.8
 30
0.0
 11
127.6788519999999
 21
193.921929
 31
0.0
  0
LINE
  5
B158
330
AF72
100
AcDbEntity
  8
1
  6
Continuous
100
AcDbLine
 10
135.678852
 20
193.921929
 30
0.0
 11
135.678852
 21
193.8
 31
0.0
  0
LINE
  5
B159
330
AF72
100
AcDbEntity
  8
1
  6
Continuous
100
AcDbLine
 10
125.678852
 20
193.921929
 30
0.0
 11
125.678852
 21
193.8
 31
0.0
  0
LINE
  5
B15A
330
AF72
100
AcDbEntity
  8
1
  6
Continuous
100
AcDbLine
 10
117.678852
 20
193.8
 30
0.0
 11
117.678852
 21
193.921929
 31
0.0
  0
LINE
  5
B15B
330
AF72
100
AcDbEntity
  8
1
  6
Continuous
100
AcDbLine
 10
125.678852
 20
193.8
 30
0.0
 11
117.678852
 21
193.8
 31
0.0
  0
LINE
  5
B15C
330
AF72
100
AcDbEntity
  8
1
  6
Continuous
100
AcDbLine
 10
115.678852
 20
193.8
 30
0.0
 11
107.678852
 21
193.8
 31
0.0
  0
LINE
  5
B15D
330
AF72
100
AcDbEntity
  8
1
  6
Continuous
100
AcDbLine
 10
107.678852
 20
193.8
 30
0.0
 11
107.678852
 21
193.921929
 31
0.0
  0
LINE
  5
B15E
330
AF72
100
AcDbEntity
  8
1
  6
Continuous
100
AcDbLine
 10
115.678852
 20
193.921929
 30
0.0
 11
115.678852
 21
193.8
 31
0.0
  0
LINE
  5
B15F
330
AF72
100
AcDbEntity
  8
1
  6
Continuous
100
AcDbLine
 10
105.678852
 20
193.8
 30
0.0
 11
97.67885200000002
 21
193.8
 31
0.0
  0
LINE
  5
B160
330
AF72
100
AcDbEntity
  8
1
  6
Continuous
100
AcDbLine
 10
97.67885200000002
 20
193.8
 30
0.0
 11
97.67885200000002
 21
193.921929
 31
0.0
  0
LINE
  5
B161
330
AF72
100
AcDbEntity
  8
1
  6
Continuous
100
AcDbLine
 10
105.678852
 20
193.921929
 30
0.0
 11
105.678852
 21
193.8
 31
0.0
  0
LINE
  5
B162
330
AF72
100
AcDbEntity
  8
1
  6
Continuous
100
AcDbLine
 10
95.678852
 20
193.921929
 30
0.0
 11
95.678852
 21
193.8
 31
0.0
  0
LINE
  5
B163
330
AF72
100
AcDbEntity
  8
1
  6
Continuous
100
AcDbLine
 10
87.678852
 20
193.8
 30
0.0
 11
87.678852
 21
193.921929
 31
0.0
  0
LINE
  5
B164
330
AF72
100
AcDbEntity
  8
1
  6
Continuous
100
AcDbLine
 10
95.678852
 20
193.8
 30
0.0
 11
87.678852
 21
193.8
 31
0.0
  0
LINE
  5
B165
330
AF72
100
AcDbEntity
  8
1
  6
Continuous
100
AcDbLine
 10
85.678852
 20
193.8
 30
0.0
 11
77.67885200000002
 21
193.8
 31
0.0
  0
LINE
  5
B166
330
AF72
100
AcDbEntity
  8
1
  6
Continuous
100
AcDbLine
 10
77.67885200000002
 20
193.8
 30
0.0
 11
77.67885200000002
 21
193.921929
 31
0.0
  0
LINE
  5
B167
330
AF72
100
AcDbEntity
  8
1
  6
Continuous
100
AcDbLine
 10
85.678852
 20
193.921929
 30
0.0
 11
85.678852
 21
193.8
 31
0.0
  0
LINE
  5
B168
330
AF72
100
AcDbEntity
  8
1
  6
Continuous
100
AcDbLine
 10
69.478852
 20
48.078071
 30
0.0
 11
269.478852
 21
48.078071
 31
0.0
  0
LINE
  5
B169
330
AF72
100
AcDbEntity
  8
1
  6
Continuous
100
AcDbLine
 10
269.478852
 20
41.0
 30
0.0
 11
69.478852
 21
41.0
 31
0.0
  0
LINE
  5
B16A
330
AF72
100
AcDbEntity
  8
3
  6
DASHED
100
AcDbLine
 10
170.8788519999998
 20
43.5
 30
0.0
 11
70.87885199999998
 21
43.5
 31
0.0
  0
LINE
  5
B16B
330
AF72
100
AcDbEntity
  8
1
  6
Continuous
100
AcDbLine
 10
170.8788519999998
 20
49.0
 30
0.0
 11
70.87885199999998
 21
49.0
 31
0.0
  0
LINE
  5
B16C
330
AF72
100
AcDbEntity
  8
3
  6
DASHED
100
AcDbLine
 10
70.87885199999998
 20
43.5
 30
0.0
 11
70.87885199999998
 21
48.078071
 31
0.0
  0
LINE
  5
B16D
330
AF72
100
AcDbEntity
  8
1
  6
Continuous
100
AcDbLine
 10
69.478852
 20
41.0
 30
0.0
 11
69.478852
 21
48.078071
 31
0.0
  0
LINE
  5
B16E
330
AF72
100
AcDbEntity
  8
1
  6
Continuous
100
AcDbLine
 10
85.678852
 20
48.2
 30
0.0
 11
77.67885200000002
 21
48.2
 31
0.0
  0
LINE
  5
B16F
330
AF72
100
AcDbEntity
  8
1
  6
Continuous
100
AcDbLine
 10
77.67885200000002
 20
48.2
 30
0.0
 11
77.67885200000002
 21
48.078071
 31
0.0
  0
LINE
  5
B170
330
AF72
100
AcDbEntity
  8
1
  6
Continuous
100
AcDbLine
 10
70.87885199999998
 20
48.078071
 30
0.0
 11
70.87885199999998
 21
49.0
 31
0.0
  0
LINE
  5
B171
330
AF72
100
AcDbEntity
  8
1
  6
Continuous
100
AcDbLine
 10
85.678852
 20
48.078071
 30
0.0
 11
85.678852
 21
48.2
 31
0.0
  0
LINE
  5
B172
330
AF72
100
AcDbEntity
  8
1
  6
Continuous
100
AcDbLine
 10
95.678852
 20
48.2
 30
0.0
 11
87.678852
 21
48.2
 31
0.0
  0
LINE
  5
B173
330
AF72
100
AcDbEntity
  8
1
  6
Continuous
100
AcDbLine
 10
87.678852
 20
48.2
 30
0.0
 11
87.678852
 21
48.078071
 31
0.0
  0
LINE
  5
B174
330
AF72
100
AcDbEntity
  8
1
  6
Continuous
100
AcDbLine
 10
95.678852
 20
48.078071
 30
0.0
 11
95.678852
 21
48.2
 31
0.0
  0
LINE
  5
B175
330
AF72
100
AcDbEntity
  8
4
  6
CENTER
100
AcDbLine
 10
90.878852
 20
45.578071
 30
0.0
 11
90.878852
 21
51.5
 31
0.0
  0
LINE
  5
B176
330
AF72
100
AcDbEntity
  8
4
  6
CENTER
100
AcDbLine
 10
89.47885199999998
 20
38.5
 30
0.0
 11
89.47885199999998
 21
43.5
 31
0.0
  0
LINE
  5
B177
330
AF72
100
AcDbEntity
  8
1
  6
Continuous
100
AcDbLine
 10
115.678852
 20
48.2
 30
0.0
 11
107.678852
 21
48.2
 31
0.0
  0
LINE
  5
B178
330
AF72
100
AcDbEntity
  8
1
  6
Continuous
100
AcDbLine
 10
105.678852
 20
48.078071
 30
0.0
 11
105.678852
 21
48.2
 31
0.0
  0
LINE
  5
B179
330
AF72
100
AcDbEntity
  8
1
  6
Continuous
100
AcDbLine
 10
97.67885200000002
 20
48.2
 30
0.0
 11
97.67885200000002
 21
48.078071
 31
0.0
  0
LINE
  5
B17A
330
AF72
100
AcDbEntity
  8
1
  6
Continuous
100
AcDbLine
 10
105.678852
 20
48.2
 30
0.0
 11
97.67885200000002
 21
48.2
 31
0.0
  0
LINE
  5
B17B
330
AF72
100
AcDbEntity
  8
1
  6
Continuous
100
AcDbLine
 10
107.678852
 20
48.2
 30
0.0
 11
107.678852
 21
48.078071
 31
0.0
  0
LINE
  5
B17C
330
AF72
100
AcDbEntity
  8
1
  6
Continuous
100
AcDbLine
 10
115.678852
 20
48.078071
 30
0.0
 11
115.678852
 21
48.2
 31
0.0
  0
LINE
  5
B17D
330
AF72
100
AcDbEntity
  8
1
  6
Continuous
100
AcDbLine
 10
125.678852
 20
48.2
 30
0.0
 11
117.678852
 21
48.2
 31
0.0
  0
LINE
  5
B17E
330
AF72
100
AcDbEntity
  8
1
  6
Continuous
100
AcDbLine
 10
117.678852
 20
48.2
 30
0.0
 11
117.678852
 21
48.078071
 31
0.0
  0
LINE
  5
B17F
330
AF72
100
AcDbEntity
  8
1
  6
Continuous
100
AcDbLine
 10
125.678852
 20
48.078071
 30
0.0
 11
125.678852
 21
48.2
 31
0.0
  0
LINE
  5
B180
330
AF72
100
AcDbEntity
  8
4
  6
CENTER
100
AcDbLine
 10
104.4788519999999
 20
38.5
 30
0.0
 11
104.4788519999999
 21
43.5
 31
0.0
  0
LINE
  5
B181
330
AF72
100
AcDbEntity
  8
1
  6
Continuous
100
AcDbLine
 10
195.678852
 20
48.2
 30
0.0
 11
187.678852
 21
48.2
 31
0.0
  0
LINE
  5
B182
330
AF72
100
AcDbEntity
  8
1
  6
Continuous
100
AcDbLine
 10
165.678852
 20
48.2
 30
0.0
 11
157.678852
 21
48.2
 31
0.0
  0
LINE
  5
B183
330
AF72
100
AcDbEntity
  8
1
  6
Continuous
100
AcDbLine
 10
145.678852
 20
48.2
 30
0.0
 11
137.678852
 21
48.2
 31
0.0
  0
LINE
  5
B184
330
AF72
100
AcDbEntity
  8
1
  6
Continuous
100
AcDbLine
 10
135.678852
 20
48.078071
 30
0.0
 11
135.678852
 21
48.2
 31
0.0
  0
LINE
  5
B185
330
AF72
100
AcDbEntity
  8
1
  6
Continuous
100
AcDbLine
 10
127.6788519999999
 20
48.2
 30
0.0
 11
127.6788519999999
 21
48.078071
 31
0.0
  0
LINE
  5
B186
330
AF72
100
AcDbEntity
  8
1
  6
Continuous
100
AcDbLine
 10
135.678852
 20
48.2
 30
0.0
 11
127.6788519999999
 21
48.2
 31
0.0
  0
LINE
  5
B187
330
AF72
100
AcDbEntity
  8
1
  6
Continuous
100
AcDbLine
 10
137.678852
 20
48.2
 30
0.0
 11
137.678852
 21
48.078071
 31
0.0
  0
LINE
  5
B188
330
AF72
100
AcDbEntity
  8
1
  6
Continuous
100
AcDbLine
 10
145.678852
 20
48.078071
 30
0.0
 11
145.678852
 21
48.2
 31
0.0
  0
LINE
  5
B189
330
AF72
100
AcDbEntity
  8
1
  6
Continuous
100
AcDbLine
 10
155.678852
 20
48.078071
 30
0.0
 11
155.678852
 21
48.2
 31
0.0
  0
LINE
  5
B18A
330
AF72
100
AcDbEntity
  8
1
  6
Continuous
100
AcDbLine
 10
147.678852
 20
48.2
 30
0.0
 11
147.678852
 21
48.078071
 31
0.0
  0
LINE
  5
B18B
330
AF72
100
AcDbEntity
  8
1
  6
Continuous
100
AcDbLine
 10
155.678852
 20
48.2
 30
0.0
 11
147.678852
 21
48.2
 31
0.0
  0
LINE
  5
B18C
330
AF72
100
AcDbEntity
  8
1
  6
Continuous
100
AcDbLine
 10
157.678852
 20
48.2
 30
0.0
 11
157.678852
 21
48.078071
 31
0.0
  0
LINE
  5
B18D
330
AF72
100
AcDbEntity
  8
4
  6
CENTER
100
AcDbLine
 10
150.8788519999999
 20
45.578071
 30
0.0
 11
150.8788519999999
 21
51.5
 31
0.0
  0
LINE
  5
B18E
330
AF72
100
AcDbEntity
  8
3
  6
DASHED
100
AcDbLine
 10
170.8788519999998
 20
48.2
 30
0.0
 11
170.8788519999998
 21
43.5
 31
0.0
  0
LINE
  5
B18F
330
AF72
100
AcDbEntity
  8
1
  6
Continuous
100
AcDbLine
 10
175.678852
 20
48.2
 30
0.0
 11
167.678852
 21
48.2
 31
0.0
  0
LINE
  5
B190
330
AF72
100
AcDbEntity
  8
1
  6
Continuous
100
AcDbLine
 10
165.678852
 20
48.078071
 30
0.0
 11
165.678852
 21
48.2
 31
0.0
  0
LINE
  5
B191
330
AF72
100
AcDbEntity
  8
1
  6
Continuous
100
AcDbLine
 10
170.8788519999998
 20
49.0
 30
0.0
 11
170.8788519999998
 21
48.2
 31
0.0
  0
LINE
  5
B192
330
AF72
100
AcDbEntity
  8
1
  6
Continuous
100
AcDbLine
 10
167.678852
 20
48.2
 30
0.0
 11
167.678852
 21
48.078071
 31
0.0
  0
LINE
  5
B193
330
AF72
100
AcDbEntity
  8
1
  6
Continuous
100
AcDbLine
 10
175.678852
 20
48.078071
 30
0.0
 11
175.678852
 21
48.2
 31
0.0
  0
LINE
  5
B194
330
AF72
100
AcDbEntity
  8
1
  6
Continuous
100
AcDbLine
 10
185.678852
 20
48.078071
 30
0.0
 11
185.678852
 21
48.2
 31
0.0
  0
LINE
  5
B195
330
AF72
100
AcDbEntity
  8
1
  6
Continuous
100
AcDbLine
 10
177.678852
 20
48.2
 30
0.0
 11
177.678852
 21
48.078071
 31
0.0
  0
LINE
  5
B196
330
AF72
100
AcDbEntity
  8
1
  6
Continuous
100
AcDbLine
 10
185.678852
 20
48.2
 30
0.0
 11
177.678852
 21
48.2
 31
0.0
  0
LINE
  5
B197
330
AF72
100
AcDbEntity
  8
1
  6
Continuous
100
AcDbLine
 10
187.678852
 20
48.2
 30
0.0
 11
187.678852
 21
48.078071
 31
0.0
  0
LINE
  5
B198
330
AF72
100
AcDbEntity
  8
4
  6
CENTER
100
AcDbLine
 10
189.4788519999999
 20
38.5
 30
0.0
 11
189.4788519999999
 21
43.5
 31
0.0
  0
LINE
  5
B199
330
AF72
100
AcDbEntity
  8
1
  6
Continuous
100
AcDbLine
 10
195.678852
 20
48.078071
 30
0.0
 11
195.678852
 21
48.2
 31
0.0
  0
LINE
  5
B19A
330
AF72
100
AcDbEntity
  8
1
  6
Continuous
100
AcDbLine
 10
197.678852
 20
48.2
 30
0.0
 11
197.678852
 21
48.078071
 31
0.0
  0
LINE
  5
B19B
330
AF72
100
AcDbEntity
  8
1
  6
Continuous
100
AcDbLine
 10
205.678852
 20
48.078071
 30
0.0
 11
205.678852
 21
48.2
 31
0.0
  0
LINE
  5
B19C
330
AF72
100
AcDbEntity
  8
1
  6
Continuous
100
AcDbLine
 10
205.678852
 20
48.2
 30
0.0
 11
197.678852
 21
48.2
 31
0.0
  0
LINE
  5
B19D
330
AF72
100
AcDbEntity
  8
1
  6
Continuous
100
AcDbLine
 10
215.678852
 20
48.2
 30
0.0
 11
207.678852
 21
48.2
 31
0.0
  0
LINE
  5
B19E
330
AF72
100
AcDbEntity
  8
1
  6
Continuous
100
AcDbLine
 10
215.678852
 20
48.078071
 30
0.0
 11
215.678852
 21
48.2
 31
0.0
  0
LINE
  5
B19F
330
AF72
100
AcDbEntity
  8
1
  6
Continuous
100
AcDbLine
 10
207.678852
 20
48.2
 30
0.0
 11
207.678852
 21
48.078071
 31
0.0
  0
LINE
  5
B1A0
330
AF72
100
AcDbEntity
  8
4
  6
CENTER
100
AcDbLine
 10
234.4788519999999
 20
38.5
 30
0.0
 11
234.4788519999999
 21
43.5
 31
0.0
  0
LINE
  5
B1A1
330
AF72
100
AcDbEntity
  8
4
  6
CENTER
100
AcDbLine
 10
249.4788519999999
 20
38.5
 30
0.0
 11
249.4788519999999
 21
43.5
 31
0.0
  0
LINE
  5
B1A2
330
AF72
100
AcDbEntity
  8
1
  6
Continuous
100
AcDbLine
 10
269.478852
 20
41.0
 30
0.0
 11
269.478852
 21
48.078071
 31
0.0
  0
LINE
  5
B1A3
330
AF72
100
AcDbEntity
  8
1
  6
Continuous
100
AcDbLine
 10
25.5
 20
115.7
 30
0.0
 11
31.0
 21
115.7
 31
0.0
  0
LINE
  5
B1A4
330
AF72
100
AcDbEntity
  8
1
  6
Continuous
100
AcDbLine
 10
31.0
 20
126.2999999999999
 30
0.0
 11
25.5
 21
126.2999999999999
 31
0.0
  0
LINE
  5
B1A5
330
AF72
100
AcDbEntity
  8
1
  6
Continuous
100
AcDbLine
 10
32.0
 20
125.2999999999999
 30
0.0
 11
32.0
 21
116.7
 31
0.0
  0
ARC
  5
B1A6
330
AF72
100
AcDbEntity
  8
1
  6
Continuous
100
AcDbCircle
 10
31.0
 20
125.2999999999999
 30
0.0
 40
1.0
100
AcDbArc
 50
0.0
 51
90.0
  0
ARC
  5
B1A7
330
AF72
100
AcDbEntity
  8
1
  6
Continuous
100
AcDbCircle
 10
31.0
 20
116.7
 30
0.0
 40
1.0
100
AcDbArc
 50
270.0
 51
0.0
  0
LINE
  5
B1A8
330
AF72
100
AcDbEntity
  8
1
  6
Continuous
100
AcDbLine
 10
26.4
 20
115.7
 30
0.0
 11
26.4
 21
114.918011
 31
0.0
  0
ARC
  5
B1A9
330
AF72
100
AcDbEntity
  8
1
  6
Continuous
100
AcDbCircle
 10
25.5
 20
126.8
 30
0.0
 40
0.5
100
AcDbArc
 50
180.0
 51
270.0
  0
ARC
  5
B1AA
330
AF72
100
AcDbEntity
  8
1
  6
Continuous
100
AcDbCircle
 10
25.5
 20
115.2
 30
0.0
 40
0.5
100
AcDbArc
 50
90.0
 51
180.0
  0
ARC
  5
B1AB
330
AF72
100
AcDbEntity
  8
1
  6
Continuous
100
AcDbCircle
 10
307.9577029999999
 20
116.7
 30
0.0
 40
1.0
100
AcDbArc
 50
180.0
 51
270.0
  0
ARC
  5
B1AC
330
AF72
100
AcDbEntity
  8
1
  6
Continuous
100
AcDbCircle
 10
307.9577029999999
 20
125.2999999999999
 30
0.0
 40
1.0
100
AcDbArc
 50
90.0
 51
180.0
  0
LINE
  5
B1AD
330
AF72
100
AcDbEntity
  8
1
  6
Continuous
100
AcDbLine
 10
311.557703
 20
115.0
 30
0.0
 11
306.7577029999998
 21
114.3205
 31
0.0
  0
LINE
  5
B1AE
330
AF72
100
AcDbEntity
  8
1
  6
Continuous
100
AcDbLine
 10
311.627786
 20
114.5099209999999
 30
0.0
 11
306.7577029999998
 21
113.8204999999999
 31
0.0
  0
LINE
  5
B1AF
330
AF72
100
AcDbEntity
  8
1
  6
Continuous
100
AcDbLine
 10
311.627786
 20
127.490079
 30
0.0
 11
306.7577029999998
 21
128.1795
 31
0.0
  0
LINE
  5
B1B0
330
AF72
100
AcDbEntity
  8
1
  6
Continuous
100
AcDbLine
 10
311.557703
 20
127.0
 30
0.0
 11
306.7577029999998
 21
127.6795
 31
0.0
  0
ARC
  5
B1B1
330
AF72
100
AcDbEntity
  8
1
  6
Continuous
100
AcDbCircle
 10
309.4577029999999
 20
113.9874999999999
 30
0.0
 40
2.987499999999998
100
AcDbArc
 50
210.350252
 51
312.8834129999999
  0
ARC
  5
B1B2
330
AF72
100
AcDbEntity
  8
1
  6
Continuous
100
AcDbCircle
 10
307.4666629999999
 20
116.35896
 30
0.0
 40
1.50896
100
AcDbArc
 50
180.0
 51
310.0162919999998
  0
LINE
  5
B1B3
330
AF72
100
AcDbEntity
  8
1
  6
Continuous
100
AcDbLine
 10
308.013979
 20
113.327335
 30
0.0
 11
306.8796319999999
 21
112.4779619999999
 31
0.0
  0
LINE
  5
B1B4
330
AF72
100
AcDbEntity
  8
1
  6
Continuous
100
AcDbLine
 10
308.013979
 20
128.672665
 30
0.0
 11
306.8796319999999
 21
129.5220379999999
 31
0.0
  0
ARC
  5
B1B5
330
AF72
100
AcDbEntity
  8
1
  6
Continuous
100
AcDbCircle
 10
307.4666629999999
 20
125.6410399999999
 30
0.0
 40
1.50896
100
AcDbArc
 50
49.983708
 51
180.0
  0
LINE
  5
B1B6
330
AF72
100
AcDbEntity
  8
4
  6
CENTER
100
AcDbLine
 10
318.9577029999999
 20
121.0
 30
0.0
 11
300.9577029999999
 21
121.0
 31
0.0
  0
ARC
  5
B1B7
330
AF72
100
AcDbEntity
  8
1
  6
Continuous
100
AcDbCircle
 10
309.4577029999999
 20
128.0124999999999
 30
0.0
 40
2.987499999999998
100
AcDbArc
 50
47.116587
 51
149.6497479999999
  0
LINE
  5
B1B8
330
AF72
100
AcDbEntity
  8
1
  6
Continuous
100
AcDbLine
 10
313.9577029999998
 20
127.081989
 30
0.0
 11
313.9577029999998
 21
114.918011
 31
0.0
  0
ARC
  5
B1B9
330
AF72
100
AcDbEntity
  8
1
  6
Continuous
100
AcDbCircle
 10
313.4577029999999
 20
115.2
 30
0.0
 40
0.5
100
AcDbArc
 50
0.0
 51
90.0
  0
LINE
  5
B1BA
330
AF72
100
AcDbEntity
  8
1
  6
Continuous
100
AcDbLine
 10
313.4577029999999
 20
115.7
 30
0.0
 11
307.9577029999999
 21
115.7
 31
0.0
  0
ARC
  5
B1BB
330
AF72
100
AcDbEntity
  8
1
  6
Continuous
100
AcDbCircle
 10
313.4577029999999
 20
126.8
 30
0.0
 40
0.5
100
AcDbArc
 50
270.0
 51
0.0
  0
LINE
  5
B1BC
330
AF72
100
AcDbEntity
  8
1
  6
Continuous
100
AcDbLine
 10
307.9577029999999
 20
126.2999999999999
 30
0.0
 11
313.4577029999999
 21
126.2999999999999
 31
0.0
  0
LINE
  5
B1BD
330
AF72
100
AcDbEntity
  8
1
  6
Continuous
100
AcDbLine
 10
312.557703
 20
115.7
 30
0.0
 11
312.557703
 21
114.918011
 31
0.0
  0
LINE
  5
B1BE
330
AF72
100
AcDbEntity
  8
1
  6
Continuous
100
AcDbLine
 10
312.557703
 20
127.081989
 30
0.0
 11
312.557703
 21
126.2999999999999
 31
0.0
  0
LINE
  5
B1BF
330
AF72
100
AcDbEntity
  8
1
  6
Continuous
100
AcDbLine
 10
311.2216309999999
 20
115.7
 30
0.0
 11
310.5967169999999
 21
115.093305
 31
0.0
  0
LINE
  5
B1C0
330
AF72
100
AcDbEntity
  8
1
  6
Continuous
100
AcDbLine
 10
312.057703
 20
115.004985
 30
0.0
 11
312.057703
 21
115.7
 31
0.0
  0
LINE
  5
B1C1
330
AF72
100
AcDbEntity
  8
1
  6
Continuous
100
AcDbLine
 10
311.557703
 20
115.0
 30
0.0
 11
311.557703
 21
115.7
 31
0.0
  0
LINE
  5
B1C2
330
AF72
100
AcDbEntity
  8
1
  6
Continuous
100
AcDbLine
 10
312.057703
 20
126.9950149999999
 30
0.0
 11
312.057703
 21
126.2999999999999
 31
0.0
  0
LINE
  5
B1C3
330
AF72
100
AcDbEntity
  8
1
  6
Continuous
100
AcDbLine
 10
311.557703
 20
127.0
 30
0.0
 11
311.557703
 21
126.2999999999999
 31
0.0
  0
LINE
  5
B1C4
330
AF72
100
AcDbEntity
  8
1
  6
Continuous
100
AcDbLine
 10
311.2216309999999
 20
126.2999999999999
 30
0.0
 11
310.5967169999999
 21
126.906695
 31
0.0
  0
ARC
  5
B1C5
330
AF72
100
AcDbEntity
  8
1
  6
Continuous
100
AcDbCircle
 10
309.4577029999999
 20
113.9874999999999
 30
0.0
 40
1.587499999999999
100
AcDbArc
 50
180.343152
 51
15.771638
  0
ARC
  5
B1C6
330
AF72
100
AcDbEntity
  8
1
  6
Continuous
100
AcDbCircle
 10
311.557703
 20
115.004985
 30
0.0
 40
0.5
100
AcDbArc
 50
278.0573949999999
 51
0.0
  0
ARC
  5
B1C7
330
AF72
100
AcDbEntity
  8
1
  6
Continuous
100
AcDbCircle
 10
309.4577029999999
 20
128.0124999999999
 30
0.0
 40
1.587499999999999
100
AcDbArc
 50
198.4353129999999
 51
325.449896
  0
ARC
  5
B1C8
330
AF72
100
AcDbEntity
  8
1
  6
Continuous
100
AcDbCircle
 10
311.557703
 20
126.9950149999999
 30
0.0
 40
0.5
100
AcDbArc
 50
0.0
 51
81.942605
  0
ARC
  5
B1C9
330
AF72
100
AcDbEntity
  8
1
  6
Continuous
100
AcDbCircle
 10
309.4577029999999
 20
113.9874999999999
 30
0.0
 40
1.587499999999999
100
AcDbArc
 50
34.55010399999999
 51
161.5646869999999
  0
LINE
  5
B1CA
330
AF72
100
AcDbEntity
  8
1
  6
Continuous
100
AcDbLine
 10
312.397958
 20
114.5516409999999
 30
0.0
 11
310.538011
 21
112.824275
 31
0.0
  0
LINE
  5
B1CB
330
AF72
100
AcDbEntity
  8
1
  6
Continuous
100
AcDbLine
 10
313.3506699999998
 20
113.525805
 30
0.0
 11
311.490723
 21
111.7984389999999
 31
0.0
  0
ARC
  5
B1CC
330
AF72
100
AcDbEntity
  8
1
  6
Continuous
100
AcDbCircle
 10
312.057703
 20
114.918011
 30
0.0
 40
0.5
100
AcDbArc
 50
312.8834129999999
 51
0.0
  0
ARC
  5
B1CD
330
AF72
100
AcDbEntity
  8
1
  6
Continuous
100
AcDbCircle
 10
312.057703
 20
114.918011
 30
0.0
 40
1.9
100
AcDbArc
 50
312.8834129999999
 51
0.0
  0
ARC
  5
B1CE
330
AF72
100
AcDbEntity
  8
1
  6
Continuous
100
AcDbCircle
 10
312.057703
 20
127.081989
 30
0.0
 40
1.9
100
AcDbArc
 50
0.0
 51
47.116587
  0
ARC
  5
B1CF
330
AF72
100
AcDbEntity
  8
1
  6
Continuous
100
AcDbCircle
 10
312.057703
 20
127.081989
 30
0.0
 40
0.5
100
AcDbArc
 50
0.0
 51
47.116587
  0
LINE
  5
B1D0
330
AF72
100
AcDbEntity
  8
1
  6
Continuous
100
AcDbLine
 10
313.3506699999998
 20
128.474195
 30
0.0
 11
311.490723
 21
130.2015609999999
 31
0.0
  0
LINE
  5
B1D1
330
AF72
100
AcDbEntity
  8
1
  6
Continuous
100
AcDbLine
 10
312.397958
 20
127.448359
 30
0.0
 11
310.538011
 21
129.175725
 31
0.0
  0
ARC
  5
B1D2
330
AF72
100
AcDbEntity
  8
1
  6
Continuous
100
AcDbCircle
 10
309.4577029999999
 20
128.0124999999999
 30
0.0
 40
1.587499999999999
100
AcDbArc
 50
344.2283619999998
 51
179.6568479999999
  0
LINE
  5
B1D3
330
AF72
100
AcDbEntity
  8
1
  6
Continuous
100
AcDbLine
 10
306.957703
 20
125.2999999999999
 30
0.0
 11
306.957703
 21
116.7
 31
0.0
  0
LINE
  5
B1D4
330
AF72
100
AcDbEntity
  8
1
  6
Continuous
100
AcDbLine
 10
306.7577029999998
 20
113.8204999999999
 30
0.0
 11
306.7577029999998
 21
114.3205
 31
0.0
  0
LINE
  5
B1D5
330
AF72
100
AcDbEntity
  8
1
  6
Continuous
100
AcDbLine
 10
306.7577029999998
 20
128.1795
 30
0.0
 11
306.7577029999998
 21
127.6795
 31
0.0
  0
LINE
  5
B1D6
330
AF72
100
AcDbEntity
  8
1
  6
Continuous
100
AcDbLine
 10
305.9577029999999
 20
125.6410399999999
 30
0.0
 11
305.9577029999999
 21
116.35896
 31
0.0
  0
LINE
  5
B1D7
330
AF72
100
AcDbEntity
  8
5
  6
PHANTOM
100
AcDbLine
 10
170.8788519999998
 20
114.85
 30
0.0
 11
268.0788519999999
 21
114.85
 31
0.0
  0
LINE
  5
B1D8
330
AF72
100
AcDbEntity
  8
5
  6
PHANTOM
100
AcDbLine
 10
268.0788519999999
 20
127.15
 30
0.0
 11
170.8788519999998
 21
127.15
 31
0.0
  0
LINE
  5
B1D9
330
AF72
100
AcDbEntity
  8
5
  6
PHANTOM
100
AcDbLine
 10
168.078852
 20
127.15
 30
0.0
 11
168.078852
 21
114.85
 31
0.0
  0
LINE
  5
B1DA
330
AF72
100
AcDbEntity
  8
4
  6
CENTER
100
AcDbLine
 10
188.078852
 20
125.2156339999999
 30
0.0
 11
188.078852
 21
116.706597
 31
0.0
  0
CIRCLE
  5
B1DB
330
AF72
100
AcDbEntity
  8
5
  6
PHANTOM
100
AcDbCircle
 10
188.078852
 20
121.0
 30
0.0
 40
1.5
  0
LINE
  5
B1DC
330
AF72
100
AcDbEntity
  8
4
  6
CENTER
100
AcDbLine
 10
248.078852
 20
125.263981
 30
0.0
 11
248.078852
 21
116.899985
 31
0.0
  0
CIRCLE
  5
B1DD
330
AF72
100
AcDbEntity
  8
5
  6
PHANTOM
100
AcDbCircle
 10
248.078852
 20
121.0
 30
0.0
 40
1.5
  0
LINE
  5
B1DE
330
AF72
100
AcDbEntity
  8
5
  6
PHANTOM
100
AcDbLine
 10
268.0788519999999
 20
114.85
 30
0.0
 11
268.0788519999999
 21
115.7
 31
0.0
  0
LINE
  5
B1DF
330
AF72
100
AcDbEntity
  8
5
  6
PHANTOM
100
AcDbLine
 10
268.0788519999999
 20
127.15
 30
0.0
 11
268.0788519999999
 21
126.2999999999999
 31
0.0
  0
CIRCLE
  5
B1E0
330
AF72
100
AcDbEntity
  8
1
  6
Continuous
100
AcDbCircle
 10
90.878852
 20
121.0
 30
0.0
 40
1.2295
  0
CIRCLE
  5
B1E1
330
AF72
100
AcDbEntity
  8
1
  6
Continuous
100
AcDbCircle
 10
150.8788519999999
 20
121.0
 30
0.0
 40
1.2295
  0
CIRCLE
  5
B1E2
330
AF72
100
AcDbEntity
  8
5
  6
PHANTOM
100
AcDbCircle
 10
188.078852
 20
121.0
 30
0.0
 40
1.2295
  0
CIRCLE
  5
B1E3
330
AF72
100
AcDbEntity
  8
5
  6
PHANTOM
100
AcDbCircle
 10
248.078852
 20
121.0
 30
0.0
 40
1.2295
  0
ENDSEC
  0
SECTION
  2
OBJECTS
  0
DICTIONARY
  5
AF60
330
0
100
AcDbDictionary
281
     1
  3
ACAD_CIP_PREVIOUS_PRODUCT_INFO
350
B243
  3
ACAD_COLOR
350
B225
  3
ACAD_DETAILVIEWSTYLE
350
B23E
  3
ACAD_GROUP
350
AF61
  3
ACAD_LAYOUT
350
AF6D
  3
ACAD_MATERIAL
350
B1F3
  3
ACAD_MLEADERSTYLE
350
B23A
  3
ACAD_MLINESTYLE
350
AF6A
  3
ACAD_PLOTSETTINGS
350
AF6C
  3
ACAD_PLOTSTYLENAME
350
B1F1
  3
ACAD_SCALELIST
350
B228
  3
ACAD_SECTIONVIEWSTYLE
350
B23C
  3
ACAD_TABLESTYLE
350
B226
  3
ACAD_VISUALSTYLE
350
B20C
  3
ACDB_RECOMPOSE_DATA
350
B261
  3
AcDbVariableDictionary
350
B254
  3
DWGPROPS
350
B262
  0
DICTIONARY
  5
B244
330
AF64
100
AcDbDictionary
280
     1
281
     1
  3
ADSK_XREC_LAYER_RECONCILED
360
B245
  0
DICTIONARY
  5
B246
330
AF7A
100
AcDbDictionary
280
     1
281
     1
  3
ADSK_XREC_LAYER_RECONCILED
360
B247
  0
DICTIONARY
  5
B248
330
AF7B
100
AcDbDictionary
280
     1
281
     1
  3
ADSK_XREC_LAYER_RECONCILED
360
B249
  0
DICTIONARY
  5
B24A
330
AF7C
100
AcDbDictionary
280
     1
281
     1
  3
ADSK_XREC_LAYER_RECONCILED
360
B24B
  0
DICTIONARY
  5
B24C
330
AF7D
100
AcDbDictionary
280
     1
281
     1
  3
ADSK_XREC_LAYER_RECONCILED
360
B24D
  0
DICTIONARY
  5
B24E
330
AF7E
100
AcDbDictionary
280
     1
281
     1
  3
ADSK_XREC_LAYER_RECONCILED
360
B24F
  0
DICTIONARY
  5
B250
330
AF7F
100
AcDbDictionary
280
     1
281
     1
  3
ADSK_XREC_LAYER_RECONCILED
360
B251
  0
DICTIONARY
  5
B252
330
AF80
100
AcDbDictionary
280
     1
281
     1
  3
ADSK_XREC_LAYER_RECONCILED
360
B253
  0
DICTIONARY
  5
B1EC
330
AF72
100
AcDbDictionary
281
     1
  3
ACAD_LAYOUTSELFREF
350
B1ED
  0
DICTIONARY
  5
B1EA
330
AF6E
100
AcDbDictionary
281
     1
  3
ACAD_LAYOUTSELFREF
350
B1EB
  0
XRECORD
  5
B243
102
{ACAD_REACTORS
330
AF60
102
}
330
AF60
100
AcDbXrecord
280
     1
300
ACDLT
300
2014
300
ACDLT_F_S
  0
DICTIONARY
  5
B225
102
{ACAD_REACTORS
330
AF60
102
}
330
AF60
100
AcDbDictionary
281
     1
  0
DICTIONARY
  5
B23E
102
{ACAD_REACTORS
330
AF60
102
}
330
AF60
100
AcDbDictionary
281
     1
  3
Imperial24
350
B23F
  0
DICTIONARY
  5
AF61
102
{ACAD_REACTORS
330
AF60
102
}
330
AF60
100
AcDbDictionary
281
     1
  0
DICTIONARY
  5
AF6D
102
{ACAD_REACTORS
330
AF60
102
}
330
AF60
100
AcDbDictionary
281
     1
  3
Model
350
B240
  3
レイアウト1
350
B241
  0
DICTIONARY
  5
B1F3
102
{ACAD_REACTORS
330
AF60
102
}
330
AF60
100
AcDbDictionary
281
     1
  3
ByBlock
350
B1FC
  3
ByLayer
350
B1F4
  3
Global
350
B204
  0
DICTIONARY
  5
B23A
102
{ACAD_REACTORS
330
AF60
102
}
330
AF60
100
AcDbDictionary
281
     1
  3
Standard
350
B23B
  0
DICTIONARY
  5
AF6A
102
{ACAD_REACTORS
330
AF60
102
}
330
AF60
100
AcDbDictionary
281
     1
  3
STANDARD
350
AF6B
  0
DICTIONARY
  5
AF6C
102
{ACAD_REACTORS
330
AF60
102
}
330
AF60
100
AcDbDictionary
281
     1
  0
ACDBDICTIONARYWDFLT
  5
B1F1
102
{ACAD_REACTORS
330
AF60
102
}
330
AF60
100
AcDbDictionary
281
     1
  3
Normal
350
B1F2
100
AcDbDictionaryWithDefault
340
B1F2
  0
DICTIONARY
  5
B228
102
{ACAD_REACTORS
330
AF60
102
}
330
AF60
100
AcDbDictionary
281
     1
  3
A0
350
B229
  3
A1
350
B22A
  3
A2
350
B22B
  3
A3
350
B22C
  3
A4
350
B22D
  3
A5
350
B22E
  3
A6
350
B22F
  3
A7
350
B230
  3
A8
350
B231
  3
A9
350
B232
  3
B0
350
B233
  3
B1
350
B234
  3
B2
350
B235
  3
B3
350
B236
  3
B4
350
B237
  3
B5
350
B238
  3
B6
350
B239
  0
DICTIONARY
  5
B23C
102
{ACAD_REACTORS
330
AF60
102
}
330
AF60
100
AcDbDictionary
281
     1
  3
Imperial24
350
B23D
  0
DICTIONARY
  5
B226
102
{ACAD_REACTORS
330
AF60
102
}
330
AF60
100
AcDbDictionary
281
     1
  3
Standard
350
B227
  0
DICTIONARY
  5
B20C
102
{ACAD_REACTORS
330
AF60
102
}
330
AF60
100
AcDbDictionary
281
     1
  3
2dWireframe
350
B212
  3
Basic
350
B211
  3
Brighten
350
B218
  3
ColorChange
350
B21C
  3
Conceptual
350
B215
  3
Dim
350
B217
  3
EdgeColorOff
350
B224
  3
Facepattern
350
B21B
  3
Flat
350
B20D
  3
FlatWithEdges
350
B20E
  3
Gouraud
350
B20F
  3
GouraudWithEdges
350
B210
  3
Hidden
350
B214
  3
JitterOff
350
B222
  3
Linepattern
350
B21A
  3
OverhangOff
350
B223
  3
Realistic
350
B216
  3
Shaded
350
B221
  3
Shaded with edges
350
B220
  3
Shades of Gray
350
B21D
  3
Sketchy
350
B21E
  3
Thicken
350
B219
  3
Wireframe
350
B213
  3
X-Ray
350
B21F
  0
XRECORD
  5
B261
102
{ACAD_REACTORS
330
AF60
102
}
330
AF60
100
AcDbXrecord
280
     1
 90
        1
330
B227
  0
DICTIONARY
  5
B254
102
{ACAD_REACTORS
330
AF60
102
}
330
AF60
100
AcDbDictionary
281
     1
  3
CANNOSCALE
350
B259
  3
CMLEADERSTYLE
350
B256
  3
CTABLESTYLE
350
B255
  3
CVIEWDETAILSTYLE
350
B257
  3
CVIEWSECTIONSTYLE
350
B258
  3
DIMASSOC
350
B25C
  3
INDEXCTL
350
B25B
  3
SORTENTS
350
B25A
  3
XCLIPFRAME
350
B25D
  0
XRECORD
  5
B262
102
{ACAD_REACTORS
330
AF60
102
}
330
AF60
100
AcDbXrecord
280
     1
  1
DWGPROPS COOKIE
  2

  3

  4

  6

  7

  8
Yoshitsune
  9

300
=
301
=
302
=
303
=
304
=
305
=
306
=
307
=
308
=
309
=
 40
0.0000106944444444
 41
2451233.432133218
 42
2457192.661916157
  1

 90
        0
  0
XRECORD
  5
B245
102
{ACAD_REACTORS
330
B244
102
}
330
B244
100
AcDbXrecord
280
     1
290
     1
  0
XRECORD
  5
B247
102
{ACAD_REACTORS
330
B246
102
}
330
B246
100
AcDbXrecord
280
     1
290
     1
  0
XRECORD
  5
B249
102
{ACAD_REACTORS
330
B248
102
}
330
B248
100
AcDbXrecord
280
     1
290
     1
  0
XRECORD
  5
B24B
102
{ACAD_REACTORS
330
B24A
102
}
330
B24A
100
AcDbXrecord
280
     1
290
     1
  0
XRECORD
  5
B24D
102
{ACAD_REACTORS
330
B24C
102
}
330
B24C
100
AcDbXrecord
280
     1
290
     1
  0
XRECORD
  5
B24F
102
{ACAD_REACTORS
330
B24E
102
}
330
B24E
100
AcDbXrecord
280
     1
290
     1
  0
XRECORD
  5
B251
102
{ACAD_REACTORS
330
B250
102
}
330
B250
100
AcDbXrecord
280
     1
290
     1
  0
XRECORD
  5
B253
102
{ACAD_REACTORS
330
B252
102
}
330
B252
100
AcDbXrecord
280
     1
290
     1
  0
XRECORD
  5
B1ED
102
{ACAD_REACTORS
330
B1EC
102
}
330
B1EC
100
AcDbXrecord
280
     1
340
AF72
  0
XRECORD
  5
B1EB
102
{ACAD_REACTORS
330
B1EA
102
}
330
B1EA
100
AcDbXrecord
280
     1
340
AF6E
  0
ACDBDETAILVIEWSTYLE
  5
B23F
102
{ACAD_XDICTIONARY
360
B29A
102
}
102
{ACAD_REACTORS
330
B23E
102
}
330
B23E
100
AcDbModelDocViewStyle
 70
     0
  3
Imperial24
290
     0
100
AcDbDetailViewStyle
 70
     0
 71
     0
 90
        3
 71
     1
340
AF65
 40
0.24
340
0
 40
0.24
300

 40
0.36
280
     3
 71
     2
340
AF69
 90
       25
 71
     3
340
AF65
 40
0.24
 90
        1
 40
0.75
 90
        1
300
%<\AcVar ViewType \f "%tc1">% %<\AcVar ViewDetailId>%\PSCALE %<\AcVar ViewScale \f "%sn">%
 71
     4
340
AF69
 90
       25
340
AF69
 90
       25
280
     0
  0
LAYOUT
  5
B240
102
{ACAD_XDICTIONARY
360
B29C
102
}
102
{ACAD_REACTORS
330
AF6D
102
}
330
AF6D
100
AcDbPlotSettings
  1

  2
Canon LBP9100C
  4

  6

 40
0.0
 41
0.0
 42
0.0
 43
0.0
 44
0.0
 45
0.0
 46
0.0
 47
0.0
 48
0.0
 49
0.0
140
0.0
141
0.0
142
1.0
143
1.0
 70
  1712
 72
     0
 73
     0
 74
     0
  7

 75
     0
147
1.0
148
0.0
149
0.0
100
AcDbLayout
  1
Model
 70
     1
 71
     0
 10
0.0
 20
0.0
 11
12.0
 21
9.0
 12
0.0
 22
0.0
 32
0.0
 14
0.0
 24
0.0
 34
0.0
 15
0.0
 25
0.0
 35
0.0
146
0.0
 13
0.0
 23
0.0
 33
0.0
 16
1.0
 26
0.0
 36
0.0
 17
0.0
 27
1.0
 37
0.0
 76
     0
330
AF72
331
B1E9
  0
LAYOUT
  5
B241
102
{ACAD_XDICTIONARY
360
B29E
102
}
102
{ACAD_REACTORS
330
AF6D
102
}
330
AF6D
100
AcDbPlotSettings
  1

  2
Canon LBP9100C
  4

  6

 40
0.0
 41
0.0
 42
0.0
 43
0.0
 44
0.0
 45
0.0
 46
0.0
 47
0.0
 48
0.0
 49
0.0
140
0.0
141
0.0
142
1.0
143
1.0
 70
   688
 72
     0
 73
     0
 74
     5
  7

 75
    16
147
1.0
148
0.0
149
0.0
100
AcDbLayout
  1
レイアウト1
 70
     0
 71
     1
 10
0.0
 20
0.0
 11
420.0
 21
297.0
 12
0.0
 22
0.0
 32
0.0
 14
1.000000000000000E+20
 24
1.000000000000000E+20
 34
1.000000000000000E+20
 15
-1.000000000000000E+20
 25
-1.000000000000000E+20
 35
-1.000000000000000E+20
146
0.0
 13
0.0
 23
0.0
 33
0.0
 16
1.0
 26
0.0
 36
0.0
 17
0.0
 27
1.0
 37
0.0
 76
     0
330
AF6E
  0
MATERIAL
  5
B1FC
102
{ACAD_XDICTIONARY
360
B1FD
102
}
102
{ACAD_REACTORS
330
B1F3
102
}
330
B1F3
100
AcDbMaterial
  1
ByBlock
 72
     0
 43
0.0208333333333333
 43
0.0
 43
0.0
 43
0.0
 43
0.0
 43
0.0208333333333333
 43
0.0
 43
0.0
 43
0.0
 43
0.0
 43
1.0
 43
0.0
 43
0.0
 43
0.0
 43
0.0
 43
1.0
 77
     0
 47
0.0208333333333333
 47
0.0
 47
0.0
 47
0.0
 47
0.0
 47
0.0208333333333333
 47
0.0
 47
0.0
 47
0.0
 47
0.0
 47
1.0
 47
0.0
 47
0.0
 47
0.0
 47
0.0
 47
1.0
171
     0
 49
0.0208333333333333
 49
0.0
 49
0.0
 49
0.0
 49
0.0
 49
0.0208333333333333
 49
0.0
 49
0.0
 49
0.0
 49
0.0
 49
1.0
 49
0.0
 49
0.0
 49
0.0
 49
0.0
 49
1.0
175
     0
142
0.0208333333333333
142
0.0
142
0.0
142
0.0
142
0.0
142
0.0208333333333333
142
0.0
142
0.0
142
0.0
142
0.0
142
1.0
142
0.0
142
0.0
142
0.0
142
0.0
142
1.0
179
     0
144
0.0208333333333333
144
0.0
144
0.0
144
0.0
144
0.0
144
0.0208333333333333
144
0.0
144
0.0
144
0.0
144
0.0
144
1.0
144
0.0
144
0.0
144
0.0
144
0.0
144
1.0
147
0.0208333333333333
147
0.0
147
0.0
147
0.0
147
0.0
147
0.0208333333333333
147
0.0
147
0.0
147
0.0
147
0.0
147
1.0
147
0.0
147
0.0
147
0.0
147
0.0
147
1.0
  0
MATERIAL
  5
B1F4
102
{ACAD_XDICTIONARY
360
B1F5
102
}
102
{ACAD_REACTORS
330
B1F3
102
}
330
B1F3
100
AcDbMaterial
  1
ByLayer
 72
     0
 43
0.0208333333333333
 43
0.0
 43
0.0
 43
0.0
 43
0.0
 43
0.0208333333333333
 43
0.0
 43
0.0
 43
0.0
 43
0.0
 43
1.0
 43
0.0
 43
0.0
 43
0.0
 43
0.0
 43
1.0
 77
     0
 47
0.0208333333333333
 47
0.0
 47
0.0
 47
0.0
 47
0.0
 47
0.0208333333333333
 47
0.0
 47
0.0
 47
0.0
 47
0.0
 47
1.0
 47
0.0
 47
0.0
 47
0.0
 47
0.0
 47
1.0
171
     0
 49
0.0208333333333333
 49
0.0
 49
0.0
 49
0.0
 49
0.0
 49
0.0208333333333333
 49
0.0
 49
0.0
 49
0.0
 49
0.0
 49
1.0
 49
0.0
 49
0.0
 49
0.0
 49
0.0
 49
1.0
175
     0
142
0.0208333333333333
142
0.0
142
0.0
142
0.0
142
0.0
142
0.0208333333333333
142
0.0
142
0.0
142
0.0
142
0.0
142
1.0
142
0.0
142
0.0
142
0.0
142
0.0
142
1.0
179
     0
144
0.0208333333333333
144
0.0
144
0.0
144
0.0
144
0.0
144
0.0208333333333333
144
0.0
144
0.0
144
0.0
144
0.0
144
1.0
144
0.0
144
0.0
144
0.0
144
0.0
144
1.0
147
0.0208333333333333
147
0.0
147
0.0
147
0.0
147
0.0
147
0.0208333333333333
147
0.0
147
0.0
147
0.0
147
0.0
147
1.0
147
0.0
147
0.0
147
0.0
147
0.0
147
1.0
  0
MATERIAL
  5
B204
102
{ACAD_XDICTIONARY
360
B205
102
}
102
{ACAD_REACTORS
330
B1F3
102
}
330
B1F3
100
AcDbMaterial
  1
Global
 72
     0
 43
0.0208333333333333
 43
0.0
 43
0.0
 43
0.0
 43
0.0
 43
0.0208333333333333
 43
0.0
 43
0.0
 43
0.0
 43
0.0
 43
1.0
 43
0.0
 43
0.0
 43
0.0
 43
0.0
 43
1.0
 77
     0
 47
0.0208333333333333
 47
0.0
 47
0.0
 47
0.0
 47
0.0
 47
0.0208333333333333
 47
0.0
 47
0.0
 47
0.0
 47
0.0
 47
1.0
 47
0.0
 47
0.0
 47
0.0
 47
0.0
 47
1.0
171
     0
 49
0.0208333333333333
 49
0.0
 49
0.0
 49
0.0
 49
0.0
 49
0.0208333333333333
 49
0.0
 49
0.0
 49
0.0
 49
0.0
 49
1.0
 49
0.0
 49
0.0
 49
0.0
 49
0.0
 49
1.0
175
     0
142
0.0208333333333333
142
0.0
142
0.0
142
0.0
142
0.0
142
0.0208333333333333
142
0.0
142
0.0
142
0.0
142
0.0
142
1.0
142
0.0
142
0.0
142
0.0
142
0.0
142
1.0
179
     0
144
0.0208333333333333
144
0.0
144
0.0
144
0.0
144
0.0
144
0.0208333333333333
144
0.0
144
0.0
144
0.0
144
0.0
144
1.0
144
0.0
144
0.0
144
0.0
144
0.0
144
1.0
147
0.0208333333333333
147
0.0
147
0.0
147
0.0
147
0.0
147
0.0208333333333333
147
0.0
147
0.0
147
0.0
147
0.0
147
1.0
147
0.0
147
0.0
147
0.0
147
0.0
147
1.0
  0
MLEADERSTYLE
  5
B23B
102
{ACAD_REACTORS
330
B23A
102
}
330
B23A
100
AcDbMLeaderStyle
170
     2
171
     1
172
     0
 90
        2
 40
0.0
 41
0.0
173
     1
 91
-1056964608
340
AF67
 92
       -2
290
     1
 42
0.09
291
     1
 43
0.36
  3
Standard
 44
0.18
300

342
AF65
174
     1
178
     6
175
     1
176
     0
 93
-1056964608
 45
0.18
292
     0
297
     0
 46
0.18
 94
-1056964608
 47
1.0
 49
1.0
140
1.0
293
     1
141
0.0
294
     1
177
     0
142
1.0
295
     0
296
     0
143
0.125
1001
ACAD_MLEADERVER
1070
     2
  0
MLINESTYLE
  5
AF6B
102
{ACAD_REACTORS
330
AF6A
102
}
330
AF6A
100
AcDbMlineStyle
  2
STANDARD
 70
     0
  3

 62
   256
 51
90.0
 52
90.0
 71
     2
 49
0.5
 62
   256
  6
BYLAYER
 49
-0.5
 62
   256
  6
BYLAYER
  0
ACDBPLACEHOLDER
  5
B1F2
102
{ACAD_REACTORS
330
B1F1
102
}
330
B1F1
  0
SCALE
  5
B229
102
{ACAD_REACTORS
330
B228
102
}
330
B228
100
AcDbScale
 70
     0
300
1:1
140
1.0
141
1.0
290
     1
  0
SCALE
  5
B22A
102
{ACAD_REACTORS
330
B228
102
}
330
B228
100
AcDbScale
 70
     0
300
1/128" = 1'-0"
140
0.0078125
141
12.0
290
     0
  0
SCALE
  5
B22B
102
{ACAD_REACTORS
330
B228
102
}
330
B228
100
AcDbScale
 70
     0
300
1/64" = 1'-0"
140
0.015625
141
12.0
290
     0
  0
SCALE
  5
B22C
102
{ACAD_REACTORS
330
B228
102
}
330
B228
100
AcDbScale
 70
     0
300
1/32" = 1'-0"
140
0.03125
141
12.0
290
     0
  0
SCALE
  5
B22D
102
{ACAD_REACTORS
330
B228
102
}
330
B228
100
AcDbScale
 70
     0
300
1/16" = 1'-0"
140
0.0625
141
12.0
290
     0
  0
SCALE
  5
B22E
102
{ACAD_REACTORS
330
B228
102
}
330
B228
100
AcDbScale
 70
     0
300
3/32" = 1'-0"
140
0.09375
141
12.0
290
     0
  0
SCALE
  5
B22F
102
{ACAD_REACTORS
330
B228
102
}
330
B228
100
AcDbScale
 70
     0
300
1/8" = 1'-0"
140
0.125
141
12.0
290
     0
  0
SCALE
  5
B230
102
{ACAD_REACTORS
330
B228
102
}
330
B228
100
AcDbScale
 70
     0
300
3/16" = 1'-0"
140
0.1875
141
12.0
290
     0
  0
SCALE
  5
B231
102
{ACAD_REACTORS
330
B228
102
}
330
B228
100
AcDbScale
 70
     0
300
1/4" = 1'-0"
140
0.25
141
12.0
290
     0
  0
SCALE
  5
B232
102
{ACAD_REACTORS
330
B228
102
}
330
B228
100
AcDbScale
 70
     0
300
3/8" = 1'-0"
140
0.375
141
12.0
290
     0
  0
SCALE
  5
B233
102
{ACAD_REACTORS
330
B228
102
}
330
B228
100
AcDbScale
 70
     0
300
1/2" = 1'-0"
140
0.5
141
12.0
290
     0
  0
SCALE
  5
B234
102
{ACAD_REACTORS
330
B228
102
}
330
B228
100
AcDbScale
 70
     0
300
3/4" = 1'-0"
140
0.75
141
12.0
290
     0
  0
SCALE
  5
B235
102
{ACAD_REACTORS
330
B228
102
}
330
B228
100
AcDbScale
 70
     0
300
1" = 1'-0"
140
1.0
141
12.0
290
     0
  0
SCALE
  5
B236
102
{ACAD_REACTORS
330
B228
102
}
330
B228
100
AcDbScale
 70
     0
300
1-1/2" = 1'-0"
140
1.5
141
12.0
290
     0
  0
SCALE
  5
B237
102
{ACAD_REACTORS
330
B228
102
}
330
B228
100
AcDbScale
 70
     0
300
3" = 1'-0"
140
3.0
141
12.0
290
     0
  0
SCALE
  5
B238
102
{ACAD_REACTORS
330
B228
102
}
330
B228
100
AcDbScale
 70
     0
300
6" = 1'-0"
140
6.0
141
12.0
290
     0
  0
SCALE
  5
B239
102
{ACAD_REACTORS
330
B228
102
}
330
B228
100
AcDbScale
 70
     0
300
1'-0" = 1'-0"
140
12.0
141
12.0
290
     0
  0
ACDBSECTIONVIEWSTYLE
  5
B23D
102
{ACAD_XDICTIONARY
360
B298
102
}
102
{ACAD_REACTORS
330
B23C
102
}
330
B23C
100
AcDbModelDocViewStyle
 70
     0
  3
Imperial24
290
     0
100
AcDbSectionViewStyle
 70
     0
 71
     0
 90
       78
 71
     1
340
AF65
 40
0.24
340
0
340
0
 40
0.24
300
I, O, Q, S, X, Z
 40
0.48
 90
        3
 40
0.18
 90
        1
 71
     2
340
AF69
 90
       25
340
AF69
 90
       50
 40
0.24
 40
0.0
 40
0.24
 71
     3
340
AF65
 40
0.24
 90
        1
 40
0.75
 90
        1
300
%<\AcVar ViewType \f "%tc1">% %<\AcVar ViewSectionStartId>%-%<\AcVar ViewSectionEndId>%\PSCALE %<\AcVar ViewScale \f "%sn">%
 71
     4
300
ANSI31
 40
1.0
 90
        0
290
     0
290
     0
 90
        6
 40
0.0
 40
1.570796326794896
 40
0.2617993877991494
 40
1.308996938995747
 40
-0.2617993877991494
 40
1.832595714594046
  0
TABLESTYLE
  5
B227
102
{ACAD_XDICTIONARY
360
B25F
102
}
102
{ACAD_REACTORS
330
B226
102
}
330
B226
100
AcDbTableStyle
  3
Standard
 70
     0
 71
     0
 40
0.06
 41
0.06
280
     0
281
     0
  7
STANDARD
140
0.18
170
     2
 62
     0
 63
     7
283
     0
274
    -2
284
     1
 64
     0
275
    -2
285
     1
 65
     0
276
    -2
286
     1
 66
     0
277
    -2
287
     1
 67
     0
278
    -2
288
     1
 68
     0
279
    -2
289
     1
 69
     0
  7
STANDARD
140
0.25
170
     5
 62
     0
 63
     7
283
     0
274
    -2
284
     1
 64
     0
275
    -2
285
     1
 65
     0
276
    -2
286
     1
 66
     0
277
    -2
287
     1
 67
     0
278
    -2
288
     1
 68
     0
279
    -2
289
     1
 69
     0
  7
STANDARD
140
0.18
170
     5
 62
     0
 63
     7
283
     0
274
    -2
284
     1
 64
     0
275
    -2
285
     1
 65
     0
276
    -2
286
     1
 66
     0
277
    -2
287
     1
 67
     0
278
    -2
288
     1
 68
     0
279
    -2
289
     1
 69
     0
  0
VISUALSTYLE
  5
B212
102
{ACAD_XDICTIONARY
360
B270
102
}
102
{ACAD_REACTORS
330
B20C
102
}
330
B20C
100
AcDbVisualStyle
  2
2dWireframe
 70
     4
 71
     0
 72
     2
 73
     0
 90
        0
 40
-0.6
 41
-30.0
 62
     5
 63
     7
 74
     1
 91
        4
 64
     7
 65
   257
 75
     1
175
     1
 42
1.0
 92
        0
 66
   257
 43
1.0
 76
     1
 77
     6
 78
     2
 67
     7
 79
     5
170
     0
171
     0
290
     0
174
     0
 93
        1
 44
0.0
173
     0
291
     0
 45
0.0
1001
ACAD
1000
AcDbSavedByObjectVersion
1070
     0
  0
VISUALSTYLE
  5
B211
102
{ACAD_XDICTIONARY
360
B26E
102
}
102
{ACAD_REACTORS
330
B20C
102
}
330
B20C
100
AcDbVisualStyle
  2
Basic
 70
     7
 71
     1
 72
     0
 73
     1
 90
        0
 40
-0.6
 41
-30.0
 62
     5
 63
     7
 74
     0
 91
        4
 64
     7
 65
   257
 75
     1
175
     1
 42
1.0
 92
        8
 66
     7
 43
1.0
 76
     1
 77
     6
 78
     2
 67
     7
 79
     5
170
     0
171
     0
290
     0
174
     0
 93
        1
 44
0.0
173
     0
291
     1
 45
0.0
1001
ACAD
1000
AcDbSavedByObjectVersion
1070
     0
  0
VISUALSTYLE
  5
B218
102
{ACAD_XDICTIONARY
360
B27C
102
}
102
{ACAD_REACTORS
330
B20C
102
}
330
B20C
100
AcDbVisualStyle
  2
Brighten
 70
    12
 71
     2
 72
     2
 73
     0
 90
        0
 40
-0.6
 41
-30.0
 62
     5
 63
     7
 74
     1
 91
        4
 64
     7
 65
   257
 75
     1
175
     1
 42
1.0
 92
        8
 66
     7
 43
1.0
 76
     1
 77
     6
 78
     2
 67
     7
 79
     5
170
     0
171
     0
290
     0
174
     0
 93
        1
 44
50.0
173
     0
291
     1
 45
0.0
1001
ACAD
1000
AcDbSavedByObjectVersion
1070
     0
  0
VISUALSTYLE
  5
B21C
102
{ACAD_XDICTIONARY
360
B284
102
}
102
{ACAD_REACTORS
330
B20C
102
}
330
B20C
100
AcDbVisualStyle
  2
ColorChange
 70
    16
 71
     2
 72
     2
 73
     3
 90
        0
 40
-0.6
 41
-30.0
 62
     5
 63
     8
 74
     1
 91
        4
 64
     7
 65
   257
 75
     1
175
     1
 42
1.0
 92
        8
 66
     8
 43
1.0
 76
     1
 77
     6
 78
     2
 67
     7
 79
     5
170
     0
171
     0
290
     0
174
     0
 93
        1
 44
0.0
173
     0
291
     1
 45
0.0
1001
ACAD
1000
AcDbSavedByObjectVersion
1070
     0
  0
VISUALSTYLE
  5
B215
102
{ACAD_XDICTIONARY
360
B276
102
}
102
{ACAD_REACTORS
330
B20C
102
}
330
B20C
100
AcDbVisualStyle
  2
Conceptual
 70
     9
 71
     3
 72
     2
 73
     0
 90
        0
 40
-0.6
 41
-30.0
 62
     5
 63
     7
 74
     2
 91
        2
 64
     7
 65
   257
 75
     1
175
     1
 42
179.0
 92
        8
 66
     7
 43
1.0
 76
     1
 77
     6
 78
     2
 67
     7
 79
     3
170
     0
171
     0
290
     0
174
     0
 93
        1
 44
0.0
173
     0
291
     0
 45
0.0
1001
ACAD
1000
AcDbSavedByObjectVersion
1070
     0
  0
VISUALSTYLE
  5
B217
102
{ACAD_XDICTIONARY
360
B27A
102
}
102
{ACAD_REACTORS
330
B20C
102
}
330
B20C
100
AcDbVisualStyle
  2
Dim
 70
    11
 71
     2
 72
     2
 73
     0
 90
        0
 40
-0.6
 41
-30.0
 62
     5
 63
     7
 74
     1
 91
        4
 64
     7
 65
   257
 75
     1
175
     1
 42
1.0
 92
        8
 66
     7
 43
1.0
 76
     1
 77
     6
 78
     2
 67
     7
 79
     5
170
     0
171
     0
290
     0
174
     0
 93
        1
 44
-50.0
173
     0
291
     1
 45
0.0
1001
ACAD
1000
AcDbSavedByObjectVersion
1070
     0
  0
VISUALSTYLE
  5
B224
102
{ACAD_XDICTIONARY
360
B294
102
}
102
{ACAD_REACTORS
330
B20C
102
}
330
B20C
100
AcDbVisualStyle
  2
EdgeColorOff
 70
    22
 71
     2
 72
     2
 73
     0
 90
        0
 40
-0.6
 41
-30.0
 62
     5
 63
     7
 74
     1
 91
        4
 64
     7
 65
   257
 75
     1
175
     1
 42
1.0
 92
        8
 66
     7
 43
1.0
 76
     1
 77
     6
 78
     2
 67
     7
 79
     5
170
     0
171
     0
290
     0
174
     0
 93
        1
 44
0.0
173
     0
291
     1
 45
0.0
1001
ACAD
1000
AcDbSavedByObjectVersion
1070
     0
  0
VISUALSTYLE
  5
B21B
102
{ACAD_XDICTIONARY
360
B282
102
}
102
{ACAD_REACTORS
330
B20C
102
}
330
B20C
100
AcDbVisualStyle
  2
Facepattern
 70
    15
 71
     2
 72
     2
 73
     0
 90
        0
 40
-0.6
 41
-30.0
 62
     5
 63
     7
 74
     1
 91
        4
 64
     7
 65
   257
 75
     1
175
     1
 42
1.0
 92
        8
 66
     7
 43
1.0
 76
     1
 77
     6
 78
     2
 67
     7
 79
     5
170
     0
171
     0
290
     0
174
     0
 93
        1
 44
0.0
173
     0
291
     1
 45
0.0
1001
ACAD
1000
AcDbSavedByObjectVersion
1070
     0
  0
VISUALSTYLE
  5
B20D
102
{ACAD_XDICTIONARY
360
B266
102
}
102
{ACAD_REACTORS
330
B20C
102
}
330
B20C
100
AcDbVisualStyle
  2
Flat
 70
     0
 71
     2
 72
     1
 73
     1
 90
        2
 40
-0.6
 41
30.0
 62
     5
 63
     7
 74
     0
 91
        0
 64
     7
 65
   257
 75
     1
175
     1
 42
1.0
 92
        8
 66
     7
 43
1.0
 76
     1
 77
     6
 78
     2
 67
     7
 79
     5
170
     0
171
     0
290
     0
174
     0
 93
       13
 44
0.0
173
     0
291
     1
 45
0.0
1001
ACAD
1000
AcDbSavedByObjectVersion
1070
     0
  0
VISUALSTYLE
  5
B20E
102
{ACAD_XDICTIONARY
360
B268
102
}
102
{ACAD_REACTORS
330
B20C
102
}
330
B20C
100
AcDbVisualStyle
  2
FlatWithEdges
 70
     1
 71
     2
 72
     1
 73
     1
 90
        2
 40
-0.6
 41
30.0
 62
     5
 63
     7
 74
     1
 91
        0
 64
     7
 65
   257
 75
     1
175
     1
 42
1.0
 92
        0
 66
   257
 43
1.0
 76
     1
 77
     6
 78
     2
 67
     7
 79
     5
170
     0
171
     0
290
     0
174
     0
 93
       13
 44
0.0
173
     0
291
     1
 45
0.0
1001
ACAD
1000
AcDbSavedByObjectVersion
1070
     0
  0
VISUALSTYLE
  5
B20F
102
{ACAD_XDICTIONARY
360
B26A
102
}
102
{ACAD_REACTORS
330
B20C
102
}
330
B20C
100
AcDbVisualStyle
  2
Gouraud
 70
     2
 71
     2
 72
     2
 73
     1
 90
        2
 40
-0.6
 41
30.0
 62
     5
 63
     7
 74
     0
 91
        0
 64
     7
 65
   257
 75
     1
175
     1
 42
1.0
 92
        0
 66
     7
 43
1.0
 76
     1
 77
     6
 78
     2
 67
     7
 79
     5
170
     0
171
     0
290
     0
174
     0
 93
       13
 44
0.0
173
     0
291
     1
 45
0.0
1001
ACAD
1000
AcDbSavedByObjectVersion
1070
     0
  0
VISUALSTYLE
  5
B210
102
{ACAD_XDICTIONARY
360
B26C
102
}
102
{ACAD_REACTORS
330
B20C
102
}
330
B20C
100
AcDbVisualStyle
  2
GouraudWithEdges
 70
     3
 71
     2
 72
     2
 73
     1
 90
        2
 40
-0.6
 41
30.0
 62
     5
 63
     7
 74
     1
 91
        0
 64
     7
 65
   257
 75
     1
175
     1
 42
1.0
 92
        0
 66
   257
 43
1.0
 76
     1
 77
     6
 78
     2
 67
     7
 79
     5
170
     0
171
     0
290
     0
174
     0
 93
       13
 44
0.0
173
     0
291
     1
 45
0.0
1001
ACAD
1000
AcDbSavedByObjectVersion
1070
     0
  0
VISUALSTYLE
  5
B214
102
{ACAD_XDICTIONARY
360
B274
102
}
102
{ACAD_REACTORS
330
B20C
102
}
330
B20C
100
AcDbVisualStyle
  2
Hidden
 70
     6
 71
     1
 72
     2
 73
     2
 90
        0
 40
-0.6
 41
-30.0
 62
     5
 63
     7
 74
     2
 91
        2
 64
     7
 65
   257
 75
     2
175
     1
 42
40.0
 92
        0
 66
   257
 43
1.0
 76
     1
 77
     6
 78
     2
 67
     7
 79
     3
170
     0
171
     0
290
     0
174
     0
 93
        1
 44
0.0
173
     0
291
     0
 45
0.0
1001
ACAD
1000
AcDbSavedByObjectVersion
1070
     0
  0
VISUALSTYLE
  5
B222
102
{ACAD_XDICTIONARY
360
B290
102
}
102
{ACAD_REACTORS
330
B20C
102
}
330
B20C
100
AcDbVisualStyle
  2
JitterOff
 70
    20
 71
     2
 72
     2
 73
     0
 90
        0
 40
-0.6
 41
-30.0
 62
     5
 63
     7
 74
     1
 91
        4
 64
     7
 65
   257
 75
     1
175
     1
 42
1.0
 92
       10
 66
     7
 43
1.0
 76
     1
 77
     6
 78
     2
 67
     7
 79
     5
170
     0
171
     0
290
     0
174
     0
 93
        1
 44
0.0
173
     0
291
     1
 45
0.0
1001
ACAD
1000
AcDbSavedByObjectVersion
1070
     0
  0
VISUALSTYLE
  5
B21A
102
{ACAD_XDICTIONARY
360
B280
102
}
102
{ACAD_REACTORS
330
B20C
102
}
330
B20C
100
AcDbVisualStyle
  2
Linepattern
 70
    14
 71
     2
 72
     2
 73
     0
 90
        0
 40
-0.6
 41
-30.0
 62
     5
 63
     7
 74
     1
 91
        4
 64
     7
 65
   257
 75
     7
175
     7
 42
1.0
 92
        8
 66
     7
 43
1.0
 76
     1
 77
     6
 78
     2
 67
     7
 79
     5
170
     0
171
     0
290
     0
174
     0
 93
        1
 44
0.0
173
     0
291
     1
 45
0.0
1001
ACAD
1000
AcDbSavedByObjectVersion
1070
     0
  0
VISUALSTYLE
  5
B223
102
{ACAD_XDICTIONARY
360
B292
102
}
102
{ACAD_REACTORS
330
B20C
102
}
330
B20C
100
AcDbVisualStyle
  2
OverhangOff
 70
    21
 71
     2
 72
     2
 73
     0
 90
        0
 40
-0.6
 41
-30.0
 62
     5
 63
     7
 74
     1
 91
        4
 64
     7
 65
   257
 75
     1
175
     1
 42
1.0
 92
        9
 66
     7
 43
1.0
 76
     1
 77
     6
 78
     2
 67
     7
 79
     5
170
     0
171
     0
290
     0
174
     0
 93
        1
 44
0.0
173
     0
291
     1
 45
0.0
1001
ACAD
1000
AcDbSavedByObjectVersion
1070
     0
  0
VISUALSTYLE
  5
B216
102
{ACAD_XDICTIONARY
360
B278
102
}
102
{ACAD_REACTORS
330
B20C
102
}
330
B20C
100
AcDbVisualStyle
  2
Realistic
 70
     8
 71
     2
 72
     3
 73
     0
 90
        2
 40
-0.6
 41
30.0
 62
     5
 63
     7
 74
     0
 91
        0
 64
     7
 65
   257
 75
     1
175
     1
 42
1.0
 92
        8
 66
   257
 43
1.0
 76
     1
 77
     6
 78
     2
 67
     7
 79
     3
170
     0
171
     0
290
     0
174
     0
 93
       13
 44
0.0
173
     0
291
     0
 45
0.0
1001
ACAD
1000
AcDbSavedByObjectVersion
1070
     0
  0
VISUALSTYLE
  5
B221
102
{ACAD_XDICTIONARY
360
B28E
102
}
102
{ACAD_REACTORS
330
B20C
102
}
330
B20C
100
AcDbVisualStyle
  2
Shaded
 70
    27
 71
     2
 72
     2
 73
     1
 90
        2
 40
-0.6
 41
30.0
 62
     5
 63
     7
 74
     0
 91
        4
 64
     7
 65
   257
 75
     1
175
     1
 42
1.0
 92
        8
 66
   257
 43
1.0
 76
     1
 77
     6
 78
     2
 67
     8
 79
     3
170
     0
171
     0
290
     0
174
     0
 93
        5
 44
0.0
173
     0
291
     0
 45
0.0
1001
ACAD
1000
AcDbSavedByObjectVersion
1070
     0
  0
VISUALSTYLE
  5
B220
102
{ACAD_XDICTIONARY
360
B28C
102
}
102
{ACAD_REACTORS
330
B20C
102
}
330
B20C
100
AcDbVisualStyle
  2
Shaded with edges
 70
    26
 71
     2
 72
     2
 73
     1
 90
        2
 40
-0.6
 41
30.0
 62
     5
 63
     7
 74
     1
 91
       10
 64
     7
 65
   257
 75
     2
175
     1
 42
1.0
 92
        8
 66
   257
 43
1.0
 76
     1
 77
     6
 78
     2
 67
     7
 79
     3
170
     0
171
     0
290
     0
174
     0
 93
        5
 44
0.0
173
     0
291
     0
 45
0.0
1001
ACAD
1000
AcDbSavedByObjectVersion
1070
     0
  0
VISUALSTYLE
  5
B21D
102
{ACAD_XDICTIONARY
360
B286
102
}
102
{ACAD_REACTORS
330
B20C
102
}
330
B20C
100
AcDbVisualStyle
  2
Shades of Gray
 70
    23
 71
     2
 72
     2
 73
     3
 90
        0
 40
-0.6
 41
-30.0
 62
     5
 63
     7
 74
     2
 91
        2
 64
     7
 65
     7
 75
     1
175
     1
 42
40.0
 92
        8
 66
     7
 43
1.0
 76
     1
 77
     6
 78
     2
 67
     7
 79
     3
170
     0
171
     0
290
     0
174
     0
 93
        1
 44
0.0
173
     0
291
     0
 45
0.0
1001
ACAD
1000
AcDbSavedByObjectVersion
1070
     0
  0
VISUALSTYLE
  5
B21E
102
{ACAD_XDICTIONARY
360
B288
102
}
102
{ACAD_REACTORS
330
B20C
102
}
330
B20C
100
AcDbVisualStyle
  2
Sketchy
 70
    24
 71
     1
 72
     2
 73
     2
 90
        0
 40
-0.6
 41
-30.0
 62
     5
 63
     7
 74
     2
 91
        2
 64
     7
 65
     7
 75
     1
175
     1
 42
40.0
 92
       11
 66
     7
 43
1.0
 76
     1
 77
     6
 78
     2
 67
     7
 79
     6
170
     0
171
     0
290
     0
174
     0
 93
        1
 44
0.0
173
     0
291
     0
 45
0.0
1001
ACAD
1000
AcDbSavedByObjectVersion
1070
     0
  0
VISUALSTYLE
  5
B219
102
{ACAD_XDICTIONARY
360
B27E
102
}
102
{ACAD_REACTORS
330
B20C
102
}
330
B20C
100
AcDbVisualStyle
  2
Thicken
 70
    13
 71
     2
 72
     2
 73
     0
 90
        0
 40
-0.6
 41
-30.0
 62
     5
 63
     7
 74
     1
 91
        4
 64
     7
 65
   257
 75
     1
175
     1
 42
1.0
 92
       12
 66
     7
 43
1.0
 76
     1
 77
     6
 78
     2
 67
     7
 79
     5
170
     0
171
     0
290
     0
174
     0
 93
        1
 44
0.0
173
     0
291
     1
 45
0.0
1001
ACAD
1000
AcDbSavedByObjectVersion
1070
     0
  0
VISUALSTYLE
  5
B213
102
{ACAD_XDICTIONARY
360
B272
102
}
102
{ACAD_REACTORS
330
B20C
102
}
330
B20C
100
AcDbVisualStyle
  2
Wireframe
 70
     5
 71
     0
 72
     2
 73
     0
 90
        0
 40
-0.6
 41
-30.0
 62
     5
 63
     7
 74
     1
 91
        4
 64
     7
 65
   257
 75
     1
175
     1
 42
1.0
 92
        0
 66
   257
 43
1.0
 76
     1
 77
     6
 78
     2
 67
     7
 79
     3
170
     0
171
     0
290
     0
174
     0
 93
        1
 44
0.0
173
     0
291
     0
 45
0.0
1001
ACAD
1000
AcDbSavedByObjectVersion
1070
     0
  0
VISUALSTYLE
  5
B21F
102
{ACAD_XDICTIONARY
360
B28A
102
}
102
{ACAD_REACTORS
330
B20C
102
}
330
B20C
100
AcDbVisualStyle
  2
X-Ray
 70
    25
 71
     2
 72
     2
 73
     1
 90
        1
 40
0.5
 41
-30.0
 62
     5
 63
     7
 74
     1
 91
        0
 64
     7
 65
   257
 75
     1
175
     1
 42
1.0
 92
        8
 66
     7
 43
1.0
 76
     1
 77
     6
 78
     2
 67
     7
 79
     3
170
     0
171
     0
290
     0
174
     0
 93
       13
 44
0.0
173
     0
291
     0
 45
0.0
1001
ACAD
1000
AcDbSavedByObjectVersion
1070
     0
  0
DICTIONARYVAR
  5
B259
102
{ACAD_REACTORS
330
B254
102
}
330
B254
100
DictionaryVariables
280
     0
  1
1:1
  0
DICTIONARYVAR
  5
B256
102
{ACAD_REACTORS
330
B254
102
}
330
B254
100
DictionaryVariables
280
     0
  1
STANDARD
  0
DICTIONARYVAR
  5
B255
102
{ACAD_REACTORS
330
B254
102
}
330
B254
100
DictionaryVariables
280
     0
  1
STANDARD
  0
DICTIONARYVAR
  5
B257
102
{ACAD_REACTORS
330
B254
102
}
330
B254
100
DictionaryVariables
280
     0
  1
Imperial24
  0
DICTIONARYVAR
  5
B258
102
{ACAD_REACTORS
330
B254
102
}
330
B254
100
DictionaryVariables
280
     0
  1
Imperial24
  0
DICTIONARYVAR
  5
B25C
102
{ACAD_REACTORS
330
B254
102
}
330
B254
100
DictionaryVariables
280
     0
  1
1
  0
DICTIONARYVAR
  5
B25B
102
{ACAD_REACTORS
330
B254
102
}
330
B254
100
DictionaryVariables
280
     0
  1
0
  0
DICTIONARYVAR
  5
B25A
102
{ACAD_REACTORS
330
B254
102
}
330
B254
100
DictionaryVariables
280
     0
  1
127
  0
DICTIONARYVAR
  5
B25D
102
{ACAD_REACTORS
330
B254
102
}
330
B254
100
DictionaryVariables
280
     0
  1
2
  0
DICTIONARY
  5
B29A
330
B23F
100
AcDbDictionary
280
     1
281
     1
  3
ACAD_XREC_ROUNDTRIP
360
B29B
  0
DICTIONARY
  5
B29C
330
B240
100
AcDbDictionary
280
     1
281
     1
  3
ACAD_XREC_ROUNDTRIP
360
B29D
  0
DICTIONARY
  5
B29E
330
B241
100
AcDbDictionary
280
     1
281
     1
  3
ACAD_XREC_ROUNDTRIP
360
B29F
  0
DICTIONARY
  5
B1FD
330
B1FC
100
AcDbDictionary
280
     1
281
     1
  3
ACAD_XREC_ROUNDTRIP
360
B264
  3
BUMPTILE
360
B1FF
  3
DIFFUSETILE
360
B1FE
  3
OPACITYTILE
360
B202
  3
REFLECTIONTILE
360
B201
  3
REFRACTIONTILE
360
B203
  3
SPECULARTILE
360
B200
  0
DICTIONARY
  5
B1F5
330
B1F4
100
AcDbDictionary
280
     1
281
     1
  3
ACAD_XREC_ROUNDTRIP
360
B263
  3
BUMPTILE
360
B1F7
  3
DIFFUSETILE
360
B1F6
  3
OPACITYTILE
360
B1FA
  3
REFLECTIONTILE
360
B1F9
  3
REFRACTIONTILE
360
B1FB
  3
SPECULARTILE
360
B1F8
  0
DICTIONARY
  5
B205
330
B204
100
AcDbDictionary
280
     1
281
     1
  3
ACAD_XREC_ROUNDTRIP
360
B265
  3
BUMPTILE
360
B207
  3
DIFFUSETILE
360
B206
  3
OPACITYTILE
360
B20A
  3
REFLECTIONTILE
360
B209
  3
REFRACTIONTILE
360
B20B
  3
SPECULARTILE
360
B208
  0
DICTIONARY
  5
B298
330
B23D
100
AcDbDictionary
280
     1
281
     1
  3
ACAD_XREC_ROUNDTRIP
360
B299
  0
DICTIONARY
  5
B25F
330
B227
100
AcDbDictionary
280
     1
281
     1
  3
ACAD_ROUNDTRIP_2008_TABLESTYLE_CELLSTYLEMAP
360
B260
  3
ACAD_XREC_ROUNDTRIP
360
B296
  0
DICTIONARY
  5
B270
330
B212
100
AcDbDictionary
280
     1
281
     1
  3
ACAD_XREC_ROUNDTRIP
360
B271
  0
DICTIONARY
  5
B26E
330
B211
100
AcDbDictionary
280
     1
281
     1
  3
ACAD_XREC_ROUNDTRIP
360
B26F
  0
DICTIONARY
  5
B27C
330
B218
100
AcDbDictionary
280
     1
281
     1
  3
ACAD_XREC_ROUNDTRIP
360
B27D
  0
DICTIONARY
  5
B284
330
B21C
100
AcDbDictionary
280
     1
281
     1
  3
ACAD_XREC_ROUNDTRIP
360
B285
  0
DICTIONARY
  5
B276
330
B215
100
AcDbDictionary
280
     1
281
     1
  3
ACAD_XREC_ROUNDTRIP
360
B277
  0
DICTIONARY
  5
B27A
330
B217
100
AcDbDictionary
280
     1
281
     1
  3
ACAD_XREC_ROUNDTRIP
360
B27B
  0
DICTIONARY
  5
B294
330
B224
100
AcDbDictionary
280
     1
281
     1
  3
ACAD_XREC_ROUNDTRIP
360
B295
  0
DICTIONARY
  5
B282
330
B21B
100
AcDbDictionary
280
     1
281
     1
  3
ACAD_XREC_ROUNDTRIP
360
B283
  0
DICTIONARY
  5
B266
330
B20D
100
AcDbDictionary
280
     1
281
     1
  3
ACAD_XREC_ROUNDTRIP
360
B267
  0
DICTIONARY
  5
B268
330
B20E
100
AcDbDictionary
280
     1
281
     1
  3
ACAD_XREC_ROUNDTRIP
360
B269
  0
DICTIONARY
  5
B26A
330
B20F
100
AcDbDictionary
280
     1
281
     1
  3
ACAD_XREC_ROUNDTRIP
360
B26B
  0
DICTIONARY
  5
B26C
330
B210
100
AcDbDictionary
280
     1
281
     1
  3
ACAD_XREC_ROUNDTRIP
360
B26D
  0
DICTIONARY
  5
B274
330
B214
100
AcDbDictionary
280
     1
281
     1
  3
ACAD_XREC_ROUNDTRIP
360
B275
  0
DICTIONARY
  5
B290
330
B222
100
AcDbDictionary
280
     1
281
     1
  3
ACAD_XREC_ROUNDTRIP
360
B291
  0
DICTIONARY
  5
B280
330
B21A
100
AcDbDictionary
280
     1
281
     1
  3
ACAD_XREC_ROUNDTRIP
360
B281
  0
DICTIONARY
  5
B292
330
B223
100
AcDbDictionary
280
     1
281
     1
  3
ACAD_XREC_ROUNDTRIP
360
B293
  0
DICTIONARY
  5
B278
330
B216
100
AcDbDictionary
280
     1
281
     1
  3
ACAD_XREC_ROUNDTRIP
360
B279
  0
DICTIONARY
  5
B28E
330
B221
100
AcDbDictionary
280
     1
281
     1
  3
ACAD_XREC_ROUNDTRIP
360
B28F
  0
DICTIONARY
  5
B28C
330
B220
100
AcDbDictionary
280
     1
281
     1
  3
ACAD_XREC_ROUNDTRIP
360
B28D
  0
DICTIONARY
  5
B286
330
B21D
100
AcDbDictionary
280
     1
281
     1
  3
ACAD_XREC_ROUNDTRIP
360
B287
  0
DICTIONARY
  5
B288
330
B21E
100
AcDbDictionary
280
     1
281
     1
  3
ACAD_XREC_ROUNDTRIP
360
B289
  0
DICTIONARY
  5
B27E
330
B219
100
AcDbDictionary
280
     1
281
     1
  3
ACAD_XREC_ROUNDTRIP
360
B27F
  0
DICTIONARY
  5
B272
330
B213
100
AcDbDictionary
280
     1
281
     1
  3
ACAD_XREC_ROUNDTRIP
360
B273
  0
DICTIONARY
  5
B28A
330
B21F
100
AcDbDictionary
280
     1
281
     1
  3
ACAD_XREC_ROUNDTRIP
360
B28B
  0
XRECORD
  5
B29B
102
{ACAD_REACTORS
330
B29A
102
}
330
B29A
100
AcDbXrecord
280
     1
102
DISPLAYNAME
  1
Imperial24
102
FLAGS
 90
        0
  0
XRECORD
  5
B29D
102
{ACAD_REACTORS
330
B29C
102
}
330
B29C
100
AcDbXrecord
280
     1
102
SHADEPLOT
 70
     0
102
SHADEPLOTRESLEVEL
 70
     2
102
SHADEPLOTCUSTOMDPI
 70
   300
  0
XRECORD
  5
B29F
102
{ACAD_REACTORS
330
B29E
102
}
330
B29E
100
AcDbXrecord
280
     1
102
SHADEPLOT
 70
     0
102
SHADEPLOTRESLEVEL
 70
     2
102
SHADEPLOTCUSTOMDPI
 70
   300
  0
XRECORD
  5
B264
102
{ACAD_REACTORS
330
B1FD
102
}
330
B1FD
100
AcDbXrecord
280
     1
102
MATERIAL
148
0.0
149
0.0
149
0.0
 93
        0
 94
      127
282
     0
 72
     0
 77
     0
171
     0
175
     0
179
     0
273
     0
  0
XRECORD
  5
B1FF
102
{ACAD_REACTORS
330
B1FD
102
}
330
B1FD
100
AcDbXrecord
280
     1
270
     1
271
     1
  0
XRECORD
  5
B1FE
102
{ACAD_REACTORS
330
B1FD
102
}
330
B1FD
100
AcDbXrecord
280
     1
270
     1
271
     1
  0
XRECORD
  5
B202
102
{ACAD_REACTORS
330
B1FD
102
}
330
B1FD
100
AcDbXrecord
280
     1
270
     1
271
     1
  0
XRECORD
  5
B201
102
{ACAD_REACTORS
330
B1FD
102
}
330
B1FD
100
AcDbXrecord
280
     1
270
     1
271
     1
  0
XRECORD
  5
B203
102
{ACAD_REACTORS
330
B1FD
102
}
330
B1FD
100
AcDbXrecord
280
     1
270
     1
271
     1
  0
XRECORD
  5
B200
102
{ACAD_REACTORS
330
B1FD
102
}
330
B1FD
100
AcDbXrecord
280
     1
270
     1
271
     1
  0
XRECORD
  5
B263
102
{ACAD_REACTORS
330
B1F5
102
}
330
B1F5
100
AcDbXrecord
280
     1
102
MATERIAL
148
0.0
149
0.0
149
0.0
 93
        0
 94
      127
282
     0
 72
     0
 77
     0
171
     0
175
     0
179
     0
273
     0
  0
XRECORD
  5
B1F7
102
{ACAD_REACTORS
330
B1F5
102
}
330
B1F5
100
AcDbXrecord
280
     1
270
     1
271
     1
  0
XRECORD
  5
B1F6
102
{ACAD_REACTORS
330
B1F5
102
}
330
B1F5
100
AcDbXrecord
280
     1
270
     1
271
     1
  0
XRECORD
  5
B1FA
102
{ACAD_REACTORS
330
B1F5
102
}
330
B1F5
100
AcDbXrecord
280
     1
270
     1
271
     1
  0
XRECORD
  5
B1F9
102
{ACAD_REACTORS
330
B1F5
102
}
330
B1F5
100
AcDbXrecord
280
     1
270
     1
271
     1
  0
XRECORD
  5
B1FB
102
{ACAD_REACTORS
330
B1F5
102
}
330
B1F5
100
AcDbXrecord
280
     1
270
     1
271
     1
  0
XRECORD
  5
B1F8
102
{ACAD_REACTORS
330
B1F5
102
}
330
B1F5
100
AcDbXrecord
280
     1
270
     1
271
     1
  0
XRECORD
  5
B265
102
{ACAD_REACTORS
330
B205
102
}
330
B205
100
AcDbXrecord
280
     1
102
MATERIAL
148
0.0
149
0.0
149
0.0
 93
        0
 94
      127
282
     0
 72
     0
 77
     0
171
     0
175
     0
179
     0
273
     0
  0
XRECORD
  5
B207
102
{ACAD_REACTORS
330
B205
102
}
330
B205
100
AcDbXrecord
280
     1
270
     1
271
     1
  0
XRECORD
  5
B206
102
{ACAD_REACTORS
330
B205
102
}
330
B205
100
AcDbXrecord
280
     1
270
     1
271
     1
  0
XRECORD
  5
B20A
102
{ACAD_REACTORS
330
B205
102
}
330
B205
100
AcDbXrecord
280
     1
270
     1
271
     1
  0
XRECORD
  5
B209
102
{ACAD_REACTORS
330
B205
102
}
330
B205
100
AcDbXrecord
280
     1
270
     1
271
     1
  0
XRECORD
  5
B20B
102
{ACAD_REACTORS
330
B205
102
}
330
B205
100
AcDbXrecord
280
     1
270
     1
271
     1
  0
XRECORD
  5
B208
102
{ACAD_REACTORS
330
B205
102
}
330
B205
100
AcDbXrecord
280
     1
270
     1
271
     1
  0
XRECORD
  5
B299
102
{ACAD_REACTORS
330
B298
102
}
330
B298
100
AcDbXrecord
280
     1
102
DISPLAYNAME
  1
Imperial24
102
FLAGS
 90
        0
  0
CELLSTYLEMAP
  5
B260
102
{ACAD_REACTORS
330
B25F
102
}
330
B25F
100
AcDbCellStyleMap
 90
        3
300
CELLSTYLE
  1
TABLEFORMAT_BEGIN
 90
        5
170
     1
 91
        0
 92
    32768
 62
   257
 93
        1
300
CONTENTFORMAT
  1
CONTENTFORMAT_BEGIN
 90
        0
 91
        0
 92
      512
 93
        0
300

 40
0.0
140
1.0
 94
        5
 62
     0
340
AF65
144
0.25
309
CONTENTFORMAT_END
171
     0
 94
        0
309
TABLEFORMAT_END
  1
CELLSTYLE_BEGIN
 90
        1
 91
        1
300
_TITLE
309
CELLSTYLE_END
300
CELLSTYLE
  1
TABLEFORMAT_BEGIN
 90
        5
170
     1
 91
        0
 92
        0
 62
   257
 93
        1
300
CONTENTFORMAT
  1
CONTENTFORMAT_BEGIN
 90
        0
 91
        0
 92
      512
 93
        0
300

 40
0.0
140
1.0
 94
        5
 62
     0
340
AF65
144
0.18
309
CONTENTFORMAT_END
171
     0
 94
        0
309
TABLEFORMAT_END
  1
CELLSTYLE_BEGIN
 90
        2
 91
        1
300
_HEADER
309
CELLSTYLE_END
300
CELLSTYLE
  1
TABLEFORMAT_BEGIN
 90
        5
170
     1
 91
        0
 92
        0
 62
   257
 93
        1
300
CONTENTFORMAT
  1
CONTENTFORMAT_BEGIN
 90
        0
 91
        0
 92
      512
 93
        0
300

 40
0.0
140
1.0
 94
        2
 62
     0
340
AF65
144
0.18
309
CONTENTFORMAT_END
171
     0
 94
        0
309
TABLEFORMAT_END
  1
CELLSTYLE_BEGIN
 90
        3
 91
        2
300
_DATA
309
CELLSTYLE_END
  0
XRECORD
  5
B296
102
{ACAD_REACTORS
330
B25F
102
}
330
B25F
100
AcDbXrecord
280
     1
102
ACAD_ROUNDTRIP_PRE2007_TABLESTYLE
 90
      512
 91
        0
  1

 92
      512
 93
        0
  2

 94
      512
 95
        0
  3

  0
XRECORD
  5
B271
102
{ACAD_REACTORS
330
B270
102
}
330
B270
100
AcDbXrecord
280
     1
102
RTVSPost2010Prop28
280
     1
102
RTVSPost2010PropOp28
 70
     1
102
RTVSPost2010Prop29
280
     1
102
RTVSPost2010PropOp29
 70
     1
102
RTVSPost2010Prop30
280
     0
102
RTVSPost2010PropOp30
 70
     1
102
RTVSPost2010Prop31
280
     0
102
RTVSPost2010PropOp31
 70
     1
102
RTVSPost2010Prop32
280
     0
102
RTVSPost2010PropOp32
 70
     1
102
RTVSPost2010Prop33
280
     0
102
RTVSPost2010PropOp33
 70
     1
102
RTVSPost2010Prop34
280
     0
102
RTVSPost2010PropOp34
 70
     1
102
RTVSPost2010Prop35
280
     0
102
RTVSPost2010PropOp35
 70
     1
102
RTVSPost2010Prop36
280
     0
102
RTVSPost2010PropOp36
 70
     1
102
RTVSPost2010Prop37
 90
       50
102
RTVSPost2010PropOp37
 70
     1
102
RTVSPost2010Prop38
140
0.0
102
RTVSPost2010PropOp38
 70
     1
102
RTVSPost2010Prop39
140
1.0
102
RTVSPost2010PropOp39
 70
     1
102
RTVSPost2010Prop40
 90
        0
102
RTVSPost2010PropOp40
 70
     1
102
RTVSPost2010Prop41ColorIndex
 90
       18
102
RTVSPost2010Prop41ColorRGB
 90
        0
102
RTVSPost2010PropOp41
 70
     1
102
RTVSPost2010Prop42
 90
       50
102
RTVSPost2010PropOp42
 70
     1
102
RTVSPost2010Prop43
 90
        3
102
RTVSPost2010PropOp43
 70
     1
102
RTVSPost2010Prop44ColorIndex
 90
        5
102
RTVSPost2010Prop44ColorRGB
 90
      255
102
RTVSPost2010PropOp44
 70
     1
102
RTVSPost2010Prop45
280
     0
102
RTVSPost2010PropOp45
 70
     1
102
RTVSPost2010Prop46
 90
       50
102
RTVSPost2010PropOp46
 70
     1
102
RTVSPost2010Prop47
 90
       50
102
RTVSPost2010PropOp47
 70
     1
102
RTVSPost2010Prop48
 90
       50
102
RTVSPost2010PropOp48
 70
     1
102
RTVSPost2010Prop49
280
     0
102
RTVSPost2010PropOp49
 70
     1
102
RTVSPost2010Prop50
 90
       50
102
RTVSPost2010PropOp50
 70
     1
102
RTVSPost2010Prop51ColorIndex
 90
      256
102
RTVSPost2010Prop51ColorRGB
 90
-16777216
102
RTVSPost2010PropOp51
 70
     0
102
RTVSPost2010Prop52
140
1.0
102
RTVSPost2010PropOp52
 70
     0
102
RTVSPost2010Prop53
 90
        2
102
RTVSPost2010PropOp53
 70
     1
102
RTVSPost2010Prop54
  1
strokes_ogs.tif
102
RTVSPost2010PropOp54
 70
     1
102
RTVSPost2010Prop55
280
     0
102
RTVSPost2010PropOp55
 70
     1
102
RTVSPost2010Prop56
140
1.0
102
RTVSPost2010PropOp56
 70
     1
102
RTVSPost2010Prop57
140
1.0
102
RTVSPost2010PropOp57
 70
     1
102
RTVSPropertyOp0
 70
     1
102
RTVSPropertyOp1
 70
     1
102
RTVSPropertyOp2
 70
     1
102
RTVSPropertyOp3
 70
     1
102
RTVSPropertyOp4
 70
     1
102
RTVSPropertyOp5
 70
     1
102
RTVSPropertyOp6
 70
     1
102
RTVSPropertyOp7
 70
     1
102
RTVSPropertyOp8
 70
     1
102
RTVSPropertyOp9
 70
     1
102
RTVSPropertyOp10
 70
     1
102
RTVSPropertyOp11
 70
     1
102
RTVSPropertyOp12
 70
     1
102
RTVSPropertyOp13
 70
     1
102
RTVSPropertyOp14
 70
     1
102
RTVSPropertyOp15
 70
     1
102
RTVSPropertyOp16
 70
     1
102
RTVSPropertyOp17
 70
     1
102
RTVSPropertyOp18
 70
     1
102
RTVSPropertyOp19
 70
     1
102
RTVSPropertyOp20
 70
     1
102
RTVSPropertyOp21
 70
     1
102
RTVSPropertyOp22
 70
     1
102
RTVSPropertyOp23
 70
     1
102
RTVSPropertyOp24
 70
     1
102
RTVSPropertyOp25
 70
     1
102
RTVSPropertyOp26
 70
     1
102
RTVSPropertyOp27
 70
     1
102
RTVSPropertyOp28
 70
     1
102
RTVSPropertyOp29
 70
     1
102
RTVSPropertyOp30
 70
     1
102
RTVSPropertyOp31
 70
     1
102
RTVSPropertyOp32
 70
     1
102
RTVSPropertyOp33
 70
     1
102
RTVSPropertyOp34
 70
     1
102
RTVSPropertyOp35
 70
     1
102
RTVSPropertyOp36
 70
     1
102
RTVSPropertyOp37
 70
     1
102
RTVSPropertyOp38
 70
     1
102
RTVSPropertyOp39
 70
     1
102
RTVSPropertyOp40
 70
     1
102
RTVSPropertyOp41
 70
     1
102
RTVSPropertyOp42
 70
     1
102
RTVSPropertyOp43
 70
     1
102
RTVSPropertyOp44
 70
     1
102
RTVSPropertyOp45
 70
     1
102
RTVSPropertyOp46
 70
     1
102
RTVSPropertyOp47
 70
     1
102
RTVSPropertyOp48
 70
     1
102
RTVSPropertyOp49
 70
     1
102
RTVSPropertyOp50
 70
     1
102
RTVSPropertyOp51
 70
     0
102
RTVSPropertyOp52
 70
     0
102
RTVSPropertyOp53
 70
     1
102
RTVSPropertyOp54
 70
     1
102
RTVSPropertyOp55
 70
     1
102
RTVSPropertyOp56
 70
     1
102
RTVSPropertyOp57
 70
     1
102
RTVSPropertyOp58
 70
     1
102
RTVSPropertyOp59
 70
     1
102
RTVSPropertyOp60
 70
     1
102
RTVSPropertyOp61
 70
     1
102
RTVSPropertyOp62
 70
     1
  0
XRECORD
  5
B26F
102
{ACAD_REACTORS
330
B26E
102
}
330
B26E
100
AcDbXrecord
280
     1
102
RTVSPost2010Prop28
280
     0
102
RTVSPost2010PropOp28
 70
     1
102
RTVSPost2010Prop29
280
     1
102
RTVSPost2010PropOp29
 70
     1
102
RTVSPost2010Prop30
280
     1
102
RTVSPost2010PropOp30
 70
     1
102
RTVSPost2010Prop31
280
     0
102
RTVSPost2010PropOp31
 70
     1
102
RTVSPost2010Prop32
280
     0
102
RTVSPost2010PropOp32
 70
     1
102
RTVSPost2010Prop33
280
     0
102
RTVSPost2010PropOp33
 70
     1
102
RTVSPost2010Prop34
280
     0
102
RTVSPost2010PropOp34
 70
     1
102
RTVSPost2010Prop35
280
     0
102
RTVSPost2010PropOp35
 70
     1
102
RTVSPost2010Prop36
280
     0
102
RTVSPost2010PropOp36
 70
     1
102
RTVSPost2010Prop37
 90
       50
102
RTVSPost2010PropOp37
 70
     1
102
RTVSPost2010Prop38
140
0.0
102
RTVSPost2010PropOp38
 70
     1
102
RTVSPost2010Prop39
140
1.0
102
RTVSPost2010PropOp39
 70
     1
102
RTVSPost2010Prop40
 90
        0
102
RTVSPost2010PropOp40
 70
     1
102
RTVSPost2010Prop41ColorIndex
 90
       18
102
RTVSPost2010Prop41ColorRGB
 90
        0
102
RTVSPost2010PropOp41
 70
     1
102
RTVSPost2010Prop42
 90
       50
102
RTVSPost2010PropOp42
 70
     1
102
RTVSPost2010Prop43
 90
        3
102
RTVSPost2010PropOp43
 70
     1
102
RTVSPost2010Prop44ColorIndex
 90
        5
102
RTVSPost2010Prop44ColorRGB
 90
      255
102
RTVSPost2010PropOp44
 70
     1
102
RTVSPost2010Prop45
280
     0
102
RTVSPost2010PropOp45
 70
     1
102
RTVSPost2010Prop46
 90
       50
102
RTVSPost2010PropOp46
 70
     1
102
RTVSPost2010Prop47
 90
       50
102
RTVSPost2010PropOp47
 70
     1
102
RTVSPost2010Prop48
 90
       50
102
RTVSPost2010PropOp48
 70
     1
102
RTVSPost2010Prop49
280
     0
102
RTVSPost2010PropOp49
 70
     1
102
RTVSPost2010Prop50
 90
       50
102
RTVSPost2010PropOp50
 70
     1
102
RTVSPost2010Prop51ColorIndex
 90
      256
102
RTVSPost2010Prop51ColorRGB
 90
-16777216
102
RTVSPost2010PropOp51
 70
     0
102
RTVSPost2010Prop52
140
1.0
102
RTVSPost2010PropOp52
 70
     0
102
RTVSPost2010Prop53
 90
        2
102
RTVSPost2010PropOp53
 70
     1
102
RTVSPost2010Prop54
  1
strokes_ogs.tif
102
RTVSPost2010PropOp54
 70
     1
102
RTVSPost2010Prop55
280
     0
102
RTVSPost2010PropOp55
 70
     1
102
RTVSPost2010Prop56
140
1.0
102
RTVSPost2010PropOp56
 70
     1
102
RTVSPost2010Prop57
140
1.0
102
RTVSPost2010PropOp57
 70
     1
102
RTVSPropertyOp0
 70
     1
102
RTVSPropertyOp1
 70
     1
102
RTVSPropertyOp2
 70
     1
102
RTVSPropertyOp3
 70
     1
102
RTVSPropertyOp4
 70
     1
102
RTVSPropertyOp5
 70
     1
102
RTVSPropertyOp6
 70
     1
102
RTVSPropertyOp7
 70
     1
102
RTVSPropertyOp8
 70
     1
102
RTVSPropertyOp9
 70
     1
102
RTVSPropertyOp10
 70
     1
102
RTVSPropertyOp11
 70
     1
102
RTVSPropertyOp12
 70
     1
102
RTVSPropertyOp13
 70
     1
102
RTVSPropertyOp14
 70
     1
102
RTVSPropertyOp15
 70
     1
102
RTVSPropertyOp16
 70
     1
102
RTVSPropertyOp17
 70
     1
102
RTVSPropertyOp18
 70
     1
102
RTVSPropertyOp19
 70
     1
102
RTVSPropertyOp20
 70
     1
102
RTVSPropertyOp21
 70
     1
102
RTVSPropertyOp22
 70
     1
102
RTVSPropertyOp23
 70
     1
102
RTVSPropertyOp24
 70
     1
102
RTVSPropertyOp25
 70
     1
102
RTVSPropertyOp26
 70
     1
102
RTVSPropertyOp27
 70
     1
102
RTVSPropertyOp28
 70
     1
102
RTVSPropertyOp29
 70
     1
102
RTVSPropertyOp30
 70
     1
102
RTVSPropertyOp31
 70
     1
102
RTVSPropertyOp32
 70
     1
102
RTVSPropertyOp33
 70
     1
102
RTVSPropertyOp34
 70
     1
102
RTVSPropertyOp35
 70
     1
102
RTVSPropertyOp36
 70
     1
102
RTVSPropertyOp37
 70
     1
102
RTVSPropertyOp38
 70
     1
102
RTVSPropertyOp39
 70
     1
102
RTVSPropertyOp40
 70
     1
102
RTVSPropertyOp41
 70
     1
102
RTVSPropertyOp42
 70
     1
102
RTVSPropertyOp43
 70
     1
102
RTVSPropertyOp44
 70
     1
102
RTVSPropertyOp45
 70
     1
102
RTVSPropertyOp46
 70
     1
102
RTVSPropertyOp47
 70
     1
102
RTVSPropertyOp48
 70
     1
102
RTVSPropertyOp49
 70
     1
102
RTVSPropertyOp50
 70
     1
102
RTVSPropertyOp51
 70
     0
102
RTVSPropertyOp52
 70
     0
102
RTVSPropertyOp53
 70
     1
102
RTVSPropertyOp54
 70
     1
102
RTVSPropertyOp55
 70
     1
102
RTVSPropertyOp56
 70
     1
102
RTVSPropertyOp57
 70
     1
102
RTVSPropertyOp58
 70
     1
102
RTVSPropertyOp59
 70
     1
102
RTVSPropertyOp60
 70
     1
102
RTVSPropertyOp61
 70
     1
102
RTVSPropertyOp62
 70
     1
  0
XRECORD
  5
B27D
102
{ACAD_REACTORS
330
B27C
102
}
330
B27C
100
AcDbXrecord
280
     1
102
RTVSPost2010Prop28
280
     0
102
RTVSPost2010PropOp28
 70
     1
102
RTVSPost2010Prop29
280
     1
102
RTVSPost2010PropOp29
 70
     1
102
RTVSPost2010Prop30
280
     1
102
RTVSPost2010PropOp30
 70
     1
102
RTVSPost2010Prop31
280
     0
102
RTVSPost2010PropOp31
 70
     1
102
RTVSPost2010Prop32
280
     0
102
RTVSPost2010PropOp32
 70
     1
102
RTVSPost2010Prop33
280
     0
102
RTVSPost2010PropOp33
 70
     1
102
RTVSPost2010Prop34
280
     0
102
RTVSPost2010PropOp34
 70
     1
102
RTVSPost2010Prop35
280
     0
102
RTVSPost2010PropOp35
 70
     1
102
RTVSPost2010Prop36
280
     0
102
RTVSPost2010PropOp36
 70
     1
102
RTVSPost2010Prop37
 90
       50
102
RTVSPost2010PropOp37
 70
     1
102
RTVSPost2010Prop38
140
0.0
102
RTVSPost2010PropOp38
 70
     1
102
RTVSPost2010Prop39
140
1.0
102
RTVSPost2010PropOp39
 70
     1
102
RTVSPost2010Prop40
 90
        0
102
RTVSPost2010PropOp40
 70
     1
102
RTVSPost2010Prop41ColorIndex
 90
       18
102
RTVSPost2010Prop41ColorRGB
 90
        0
102
RTVSPost2010PropOp41
 70
     1
102
RTVSPost2010Prop42
 90
       50
102
RTVSPost2010PropOp42
 70
     1
102
RTVSPost2010Prop43
 90
        3
102
RTVSPost2010PropOp43
 70
     1
102
RTVSPost2010Prop44ColorIndex
 90
        5
102
RTVSPost2010Prop44ColorRGB
 90
      255
102
RTVSPost2010PropOp44
 70
     1
102
RTVSPost2010Prop45
280
     0
102
RTVSPost2010PropOp45
 70
     1
102
RTVSPost2010Prop46
 90
       50
102
RTVSPost2010PropOp46
 70
     1
102
RTVSPost2010Prop47
 90
       50
102
RTVSPost2010PropOp47
 70
     1
102
RTVSPost2010Prop48
 90
       50
102
RTVSPost2010PropOp48
 70
     1
102
RTVSPost2010Prop49
280
     0
102
RTVSPost2010PropOp49
 70
     1
102
RTVSPost2010Prop50
 90
       50
102
RTVSPost2010PropOp50
 70
     1
102
RTVSPost2010Prop51ColorIndex
 90
      256
102
RTVSPost2010Prop51ColorRGB
 90
-16777216
102
RTVSPost2010PropOp51
 70
     0
102
RTVSPost2010Prop52
140
1.0
102
RTVSPost2010PropOp52
 70
     0
102
RTVSPost2010Prop53
 90
        2
102
RTVSPost2010PropOp53
 70
     1
102
RTVSPost2010Prop54
  1
strokes_ogs.tif
102
RTVSPost2010PropOp54
 70
     1
102
RTVSPost2010Prop55
280
     0
102
RTVSPost2010PropOp55
 70
     1
102
RTVSPost2010Prop56
140
1.0
102
RTVSPost2010PropOp56
 70
     1
102
RTVSPost2010Prop57
140
1.0
102
RTVSPost2010PropOp57
 70
     1
102
RTVSPropertyOp0
 70
     1
102
RTVSPropertyOp1
 70
     1
102
RTVSPropertyOp2
 70
     1
102
RTVSPropertyOp3
 70
     1
102
RTVSPropertyOp4
 70
     1
102
RTVSPropertyOp5
 70
     1
102
RTVSPropertyOp6
 70
     1
102
RTVSPropertyOp7
 70
     1
102
RTVSPropertyOp8
 70
     1
102
RTVSPropertyOp9
 70
     1
102
RTVSPropertyOp10
 70
     1
102
RTVSPropertyOp11
 70
     1
102
RTVSPropertyOp12
 70
     1
102
RTVSPropertyOp13
 70
     1
102
RTVSPropertyOp14
 70
     1
102
RTVSPropertyOp15
 70
     1
102
RTVSPropertyOp16
 70
     1
102
RTVSPropertyOp17
 70
     1
102
RTVSPropertyOp18
 70
     1
102
RTVSPropertyOp19
 70
     1
102
RTVSPropertyOp20
 70
     1
102
RTVSPropertyOp21
 70
     1
102
RTVSPropertyOp22
 70
     1
102
RTVSPropertyOp23
 70
     1
102
RTVSPropertyOp24
 70
     1
102
RTVSPropertyOp25
 70
     1
102
RTVSPropertyOp26
 70
     1
102
RTVSPropertyOp27
 70
     1
102
RTVSPropertyOp28
 70
     1
102
RTVSPropertyOp29
 70
     1
102
RTVSPropertyOp30
 70
     1
102
RTVSPropertyOp31
 70
     1
102
RTVSPropertyOp32
 70
     1
102
RTVSPropertyOp33
 70
     1
102
RTVSPropertyOp34
 70
     1
102
RTVSPropertyOp35
 70
     1
102
RTVSPropertyOp36
 70
     1
102
RTVSPropertyOp37
 70
     1
102
RTVSPropertyOp38
 70
     1
102
RTVSPropertyOp39
 70
     1
102
RTVSPropertyOp40
 70
     1
102
RTVSPropertyOp41
 70
     1
102
RTVSPropertyOp42
 70
     1
102
RTVSPropertyOp43
 70
     1
102
RTVSPropertyOp44
 70
     1
102
RTVSPropertyOp45
 70
     1
102
RTVSPropertyOp46
 70
     1
102
RTVSPropertyOp47
 70
     1
102
RTVSPropertyOp48
 70
     1
102
RTVSPropertyOp49
 70
     1
102
RTVSPropertyOp50
 70
     1
102
RTVSPropertyOp51
 70
     0
102
RTVSPropertyOp52
 70
     0
102
RTVSPropertyOp53
 70
     1
102
RTVSPropertyOp54
 70
     1
102
RTVSPropertyOp55
 70
     1
102
RTVSPropertyOp56
 70
     1
102
RTVSPropertyOp57
 70
     1
102
RTVSPropertyOp58
 70
     1
102
RTVSPropertyOp59
 70
     1
102
RTVSPropertyOp60
 70
     1
102
RTVSPropertyOp61
 70
     1
102
RTVSPropertyOp62
 70
     1
  0
XRECORD
  5
B285
102
{ACAD_REACTORS
330
B284
102
}
330
B284
100
AcDbXrecord
280
     1
102
RTVSPost2010Prop28
280
     0
102
RTVSPost2010PropOp28
 70
     1
102
RTVSPost2010Prop29
280
     1
102
RTVSPost2010PropOp29
 70
     1
102
RTVSPost2010Prop30
280
     1
102
RTVSPost2010PropOp30
 70
     1
102
RTVSPost2010Prop31
280
     0
102
RTVSPost2010PropOp31
 70
     1
102
RTVSPost2010Prop32
280
     0
102
RTVSPost2010PropOp32
 70
     1
102
RTVSPost2010Prop33
280
     0
102
RTVSPost2010PropOp33
 70
     1
102
RTVSPost2010Prop34
280
     0
102
RTVSPost2010PropOp34
 70
     1
102
RTVSPost2010Prop35
280
     0
102
RTVSPost2010PropOp35
 70
     1
102
RTVSPost2010Prop36
280
     0
102
RTVSPost2010PropOp36
 70
     1
102
RTVSPost2010Prop37
 90
       50
102
RTVSPost2010PropOp37
 70
     1
102
RTVSPost2010Prop38
140
0.0
102
RTVSPost2010PropOp38
 70
     1
102
RTVSPost2010Prop39
140
1.0
102
RTVSPost2010PropOp39
 70
     1
102
RTVSPost2010Prop40
 90
        0
102
RTVSPost2010PropOp40
 70
     1
102
RTVSPost2010Prop41ColorIndex
 90
       18
102
RTVSPost2010Prop41ColorRGB
 90
        0
102
RTVSPost2010PropOp41
 70
     1
102
RTVSPost2010Prop42
 90
       50
102
RTVSPost2010PropOp42
 70
     1
102
RTVSPost2010Prop43
 90
        3
102
RTVSPost2010PropOp43
 70
     1
102
RTVSPost2010Prop44ColorIndex
 90
        5
102
RTVSPost2010Prop44ColorRGB
 90
      255
102
RTVSPost2010PropOp44
 70
     1
102
RTVSPost2010Prop45
280
     0
102
RTVSPost2010PropOp45
 70
     1
102
RTVSPost2010Prop46
 90
       50
102
RTVSPost2010PropOp46
 70
     1
102
RTVSPost2010Prop47
 90
       50
102
RTVSPost2010PropOp47
 70
     1
102
RTVSPost2010Prop48
 90
       50
102
RTVSPost2010PropOp48
 70
     1
102
RTVSPost2010Prop49
280
     0
102
RTVSPost2010PropOp49
 70
     1
102
RTVSPost2010Prop50
 90
       50
102
RTVSPost2010PropOp50
 70
     1
102
RTVSPost2010Prop51ColorIndex
 90
      256
102
RTVSPost2010Prop51ColorRGB
 90
-16777216
102
RTVSPost2010PropOp51
 70
     0
102
RTVSPost2010Prop52
140
1.0
102
RTVSPost2010PropOp52
 70
     0
102
RTVSPost2010Prop53
 90
        2
102
RTVSPost2010PropOp53
 70
     1
102
RTVSPost2010Prop54
  1
strokes_ogs.tif
102
RTVSPost2010PropOp54
 70
     1
102
RTVSPost2010Prop55
280
     0
102
RTVSPost2010PropOp55
 70
     1
102
RTVSPost2010Prop56
140
1.0
102
RTVSPost2010PropOp56
 70
     1
102
RTVSPost2010Prop57
140
1.0
102
RTVSPost2010PropOp57
 70
     1
102
RTVSPropertyOp0
 70
     1
102
RTVSPropertyOp1
 70
     1
102
RTVSPropertyOp2
 70
     1
102
RTVSPropertyOp3
 70
     1
102
RTVSPropertyOp4
 70
     1
102
RTVSPropertyOp5
 70
     1
102
RTVSPropertyOp6
 70
     1
102
RTVSPropertyOp7
 70
     1
102
RTVSPropertyOp8
 70
     1
102
RTVSPropertyOp9
 70
     1
102
RTVSPropertyOp10
 70
     1
102
RTVSPropertyOp11
 70
     1
102
RTVSPropertyOp12
 70
     1
102
RTVSPropertyOp13
 70
     1
102
RTVSPropertyOp14
 70
     1
102
RTVSPropertyOp15
 70
     1
102
RTVSPropertyOp16
 70
     1
102
RTVSPropertyOp17
 70
     1
102
RTVSPropertyOp18
 70
     1
102
RTVSPropertyOp19
 70
     1
102
RTVSPropertyOp20
 70
     1
102
RTVSPropertyOp21
 70
     1
102
RTVSPropertyOp22
 70
     1
102
RTVSPropertyOp23
 70
     1
102
RTVSPropertyOp24
 70
     1
102
RTVSPropertyOp25
 70
     1
102
RTVSPropertyOp26
 70
     1
102
RTVSPropertyOp27
 70
     1
102
RTVSPropertyOp28
 70
     1
102
RTVSPropertyOp29
 70
     1
102
RTVSPropertyOp30
 70
     1
102
RTVSPropertyOp31
 70
     1
102
RTVSPropertyOp32
 70
     1
102
RTVSPropertyOp33
 70
     1
102
RTVSPropertyOp34
 70
     1
102
RTVSPropertyOp35
 70
     1
102
RTVSPropertyOp36
 70
     1
102
RTVSPropertyOp37
 70
     1
102
RTVSPropertyOp38
 70
     1
102
RTVSPropertyOp39
 70
     1
102
RTVSPropertyOp40
 70
     1
102
RTVSPropertyOp41
 70
     1
102
RTVSPropertyOp42
 70
     1
102
RTVSPropertyOp43
 70
     1
102
RTVSPropertyOp44
 70
     1
102
RTVSPropertyOp45
 70
     1
102
RTVSPropertyOp46
 70
     1
102
RTVSPropertyOp47
 70
     1
102
RTVSPropertyOp48
 70
     1
102
RTVSPropertyOp49
 70
     1
102
RTVSPropertyOp50
 70
     1
102
RTVSPropertyOp51
 70
     0
102
RTVSPropertyOp52
 70
     0
102
RTVSPropertyOp53
 70
     1
102
RTVSPropertyOp54
 70
     1
102
RTVSPropertyOp55
 70
     1
102
RTVSPropertyOp56
 70
     1
102
RTVSPropertyOp57
 70
     1
102
RTVSPropertyOp58
 70
     1
102
RTVSPropertyOp59
 70
     1
102
RTVSPropertyOp60
 70
     1
102
RTVSPropertyOp61
 70
     1
102
RTVSPropertyOp62
 70
     1
  0
XRECORD
  5
B277
102
{ACAD_REACTORS
330
B276
102
}
330
B276
100
AcDbXrecord
280
     1
102
RTVSPost2010Prop28
280
     0
102
RTVSPost2010PropOp28
 70
     1
102
RTVSPost2010Prop29
280
     1
102
RTVSPost2010PropOp29
 70
     1
102
RTVSPost2010Prop30
280
     1
102
RTVSPost2010PropOp30
 70
     1
102
RTVSPost2010Prop31
280
     0
102
RTVSPost2010PropOp31
 70
     1
102
RTVSPost2010Prop32
280
     0
102
RTVSPost2010PropOp32
 70
     1
102
RTVSPost2010Prop33
280
     0
102
RTVSPost2010PropOp33
 70
     1
102
RTVSPost2010Prop34
280
     0
102
RTVSPost2010PropOp34
 70
     1
102
RTVSPost2010Prop35
280
     0
102
RTVSPost2010PropOp35
 70
     1
102
RTVSPost2010Prop36
280
     0
102
RTVSPost2010PropOp36
 70
     1
102
RTVSPost2010Prop37
 90
       50
102
RTVSPost2010PropOp37
 70
     1
102
RTVSPost2010Prop38
140
0.0
102
RTVSPost2010PropOp38
 70
     1
102
RTVSPost2010Prop39
140
1.0
102
RTVSPost2010PropOp39
 70
     1
102
RTVSPost2010Prop40
 90
        0
102
RTVSPost2010PropOp40
 70
     1
102
RTVSPost2010Prop41ColorIndex
 90
       18
102
RTVSPost2010Prop41ColorRGB
 90
        0
102
RTVSPost2010PropOp41
 70
     1
102
RTVSPost2010Prop42
 90
       50
102
RTVSPost2010PropOp42
 70
     1
102
RTVSPost2010Prop43
 90
        3
102
RTVSPost2010PropOp43
 70
     1
102
RTVSPost2010Prop44ColorIndex
 90
        5
102
RTVSPost2010Prop44ColorRGB
 90
      255
102
RTVSPost2010PropOp44
 70
     1
102
RTVSPost2010Prop45
280
     0
102
RTVSPost2010PropOp45
 70
     1
102
RTVSPost2010Prop46
 90
       50
102
RTVSPost2010PropOp46
 70
     1
102
RTVSPost2010Prop47
 90
       50
102
RTVSPost2010PropOp47
 70
     1
102
RTVSPost2010Prop48
 90
       50
102
RTVSPost2010PropOp48
 70
     1
102
RTVSPost2010Prop49
280
     0
102
RTVSPost2010PropOp49
 70
     1
102
RTVSPost2010Prop50
 90
       50
102
RTVSPost2010PropOp50
 70
     1
102
RTVSPost2010Prop51ColorIndex
 90
      256
102
RTVSPost2010Prop51ColorRGB
 90
-16777216
102
RTVSPost2010PropOp51
 70
     0
102
RTVSPost2010Prop52
140
1.0
102
RTVSPost2010PropOp52
 70
     0
102
RTVSPost2010Prop53
 90
        2
102
RTVSPost2010PropOp53
 70
     1
102
RTVSPost2010Prop54
  1
strokes_ogs.tif
102
RTVSPost2010PropOp54
 70
     1
102
RTVSPost2010Prop55
280
     0
102
RTVSPost2010PropOp55
 70
     1
102
RTVSPost2010Prop56
140
1.0
102
RTVSPost2010PropOp56
 70
     1
102
RTVSPost2010Prop57
140
1.0
102
RTVSPost2010PropOp57
 70
     1
102
RTVSPropertyOp0
 70
     1
102
RTVSPropertyOp1
 70
     1
102
RTVSPropertyOp2
 70
     1
102
RTVSPropertyOp3
 70
     1
102
RTVSPropertyOp4
 70
     1
102
RTVSPropertyOp5
 70
     1
102
RTVSPropertyOp6
 70
     1
102
RTVSPropertyOp7
 70
     1
102
RTVSPropertyOp8
 70
     1
102
RTVSPropertyOp9
 70
     1
102
RTVSPropertyOp10
 70
     1
102
RTVSPropertyOp11
 70
     1
102
RTVSPropertyOp12
 70
     1
102
RTVSPropertyOp13
 70
     1
102
RTVSPropertyOp14
 70
     1
102
RTVSPropertyOp15
 70
     1
102
RTVSPropertyOp16
 70
     1
102
RTVSPropertyOp17
 70
     1
102
RTVSPropertyOp18
 70
     1
102
RTVSPropertyOp19
 70
     1
102
RTVSPropertyOp20
 70
     1
102
RTVSPropertyOp21
 70
     1
102
RTVSPropertyOp22
 70
     1
102
RTVSPropertyOp23
 70
     1
102
RTVSPropertyOp24
 70
     1
102
RTVSPropertyOp25
 70
     1
102
RTVSPropertyOp26
 70
     1
102
RTVSPropertyOp27
 70
     1
102
RTVSPropertyOp28
 70
     1
102
RTVSPropertyOp29
 70
     1
102
RTVSPropertyOp30
 70
     1
102
RTVSPropertyOp31
 70
     1
102
RTVSPropertyOp32
 70
     1
102
RTVSPropertyOp33
 70
     1
102
RTVSPropertyOp34
 70
     1
102
RTVSPropertyOp35
 70
     1
102
RTVSPropertyOp36
 70
     1
102
RTVSPropertyOp37
 70
     1
102
RTVSPropertyOp38
 70
     1
102
RTVSPropertyOp39
 70
     1
102
RTVSPropertyOp40
 70
     1
102
RTVSPropertyOp41
 70
     1
102
RTVSPropertyOp42
 70
     1
102
RTVSPropertyOp43
 70
     1
102
RTVSPropertyOp44
 70
     1
102
RTVSPropertyOp45
 70
     1
102
RTVSPropertyOp46
 70
     1
102
RTVSPropertyOp47
 70
     1
102
RTVSPropertyOp48
 70
     1
102
RTVSPropertyOp49
 70
     1
102
RTVSPropertyOp50
 70
     1
102
RTVSPropertyOp51
 70
     0
102
RTVSPropertyOp52
 70
     0
102
RTVSPropertyOp53
 70
     1
102
RTVSPropertyOp54
 70
     1
102
RTVSPropertyOp55
 70
     1
102
RTVSPropertyOp56
 70
     1
102
RTVSPropertyOp57
 70
     1
102
RTVSPropertyOp58
 70
     1
102
RTVSPropertyOp59
 70
     1
102
RTVSPropertyOp60
 70
     1
102
RTVSPropertyOp61
 70
     1
102
RTVSPropertyOp62
 70
     1
  0
XRECORD
  5
B27B
102
{ACAD_REACTORS
330
B27A
102
}
330
B27A
100
AcDbXrecord
280
     1
102
RTVSPost2010Prop28
280
     0
102
RTVSPost2010PropOp28
 70
     1
102
RTVSPost2010Prop29
280
     1
102
RTVSPost2010PropOp29
 70
     1
102
RTVSPost2010Prop30
280
     1
102
RTVSPost2010PropOp30
 70
     1
102
RTVSPost2010Prop31
280
     0
102
RTVSPost2010PropOp31
 70
     1
102
RTVSPost2010Prop32
280
     0
102
RTVSPost2010PropOp32
 70
     1
102
RTVSPost2010Prop33
280
     0
102
RTVSPost2010PropOp33
 70
     1
102
RTVSPost2010Prop34
280
     0
102
RTVSPost2010PropOp34
 70
     1
102
RTVSPost2010Prop35
280
     0
102
RTVSPost2010PropOp35
 70
     1
102
RTVSPost2010Prop36
280
     0
102
RTVSPost2010PropOp36
 70
     1
102
RTVSPost2010Prop37
 90
       50
102
RTVSPost2010PropOp37
 70
     1
102
RTVSPost2010Prop38
140
0.0
102
RTVSPost2010PropOp38
 70
     1
102
RTVSPost2010Prop39
140
1.0
102
RTVSPost2010PropOp39
 70
     1
102
RTVSPost2010Prop40
 90
        0
102
RTVSPost2010PropOp40
 70
     1
102
RTVSPost2010Prop41ColorIndex
 90
       18
102
RTVSPost2010Prop41ColorRGB
 90
        0
102
RTVSPost2010PropOp41
 70
     1
102
RTVSPost2010Prop42
 90
       50
102
RTVSPost2010PropOp42
 70
     1
102
RTVSPost2010Prop43
 90
        3
102
RTVSPost2010PropOp43
 70
     1
102
RTVSPost2010Prop44ColorIndex
 90
        5
102
RTVSPost2010Prop44ColorRGB
 90
      255
102
RTVSPost2010PropOp44
 70
     1
102
RTVSPost2010Prop45
280
     0
102
RTVSPost2010PropOp45
 70
     1
102
RTVSPost2010Prop46
 90
       50
102
RTVSPost2010PropOp46
 70
     1
102
RTVSPost2010Prop47
 90
       50
102
RTVSPost2010PropOp47
 70
     1
102
RTVSPost2010Prop48
 90
       50
102
RTVSPost2010PropOp48
 70
     1
102
RTVSPost2010Prop49
280
     0
102
RTVSPost2010PropOp49
 70
     1
102
RTVSPost2010Prop50
 90
       50
102
RTVSPost2010PropOp50
 70
     1
102
RTVSPost2010Prop51ColorIndex
 90
      256
102
RTVSPost2010Prop51ColorRGB
 90
-16777216
102
RTVSPost2010PropOp51
 70
     0
102
RTVSPost2010Prop52
140
1.0
102
RTVSPost2010PropOp52
 70
     0
102
RTVSPost2010Prop53
 90
        2
102
RTVSPost2010PropOp53
 70
     1
102
RTVSPost2010Prop54
  1
strokes_ogs.tif
102
RTVSPost2010PropOp54
 70
     1
102
RTVSPost2010Prop55
280
     0
102
RTVSPost2010PropOp55
 70
     1
102
RTVSPost2010Prop56
140
1.0
102
RTVSPost2010PropOp56
 70
     1
102
RTVSPost2010Prop57
140
1.0
102
RTVSPost2010PropOp57
 70
     1
102
RTVSPropertyOp0
 70
     1
102
RTVSPropertyOp1
 70
     1
102
RTVSPropertyOp2
 70
     1
102
RTVSPropertyOp3
 70
     1
102
RTVSPropertyOp4
 70
     1
102
RTVSPropertyOp5
 70
     1
102
RTVSPropertyOp6
 70
     1
102
RTVSPropertyOp7
 70
     1
102
RTVSPropertyOp8
 70
     1
102
RTVSPropertyOp9
 70
     1
102
RTVSPropertyOp10
 70
     1
102
RTVSPropertyOp11
 70
     1
102
RTVSPropertyOp12
 70
     1
102
RTVSPropertyOp13
 70
     1
102
RTVSPropertyOp14
 70
     1
102
RTVSPropertyOp15
 70
     1
102
RTVSPropertyOp16
 70
     1
102
RTVSPropertyOp17
 70
     1
102
RTVSPropertyOp18
 70
     1
102
RTVSPropertyOp19
 70
     1
102
RTVSPropertyOp20
 70
     1
102
RTVSPropertyOp21
 70
     1
102
RTVSPropertyOp22
 70
     1
102
RTVSPropertyOp23
 70
     1
102
RTVSPropertyOp24
 70
     1
102
RTVSPropertyOp25
 70
     1
102
RTVSPropertyOp26
 70
     1
102
RTVSPropertyOp27
 70
     1
102
RTVSPropertyOp28
 70
     1
102
RTVSPropertyOp29
 70
     1
102
RTVSPropertyOp30
 70
     1
102
RTVSPropertyOp31
 70
     1
102
RTVSPropertyOp32
 70
     1
102
RTVSPropertyOp33
 70
     1
102
RTVSPropertyOp34
 70
     1
102
RTVSPropertyOp35
 70
     1
102
RTVSPropertyOp36
 70
     1
102
RTVSPropertyOp37
 70
     1
102
RTVSPropertyOp38
 70
     1
102
RTVSPropertyOp39
 70
     1
102
RTVSPropertyOp40
 70
     1
102
RTVSPropertyOp41
 70
     1
102
RTVSPropertyOp42
 70
     1
102
RTVSPropertyOp43
 70
     1
102
RTVSPropertyOp44
 70
     1
102
RTVSPropertyOp45
 70
     1
102
RTVSPropertyOp46
 70
     1
102
RTVSPropertyOp47
 70
     1
102
RTVSPropertyOp48
 70
     1
102
RTVSPropertyOp49
 70
     1
102
RTVSPropertyOp50
 70
     1
102
RTVSPropertyOp51
 70
     0
102
RTVSPropertyOp52
 70
     0
102
RTVSPropertyOp53
 70
     1
102
RTVSPropertyOp54
 70
     1
102
RTVSPropertyOp55
 70
     1
102
RTVSPropertyOp56
 70
     1
102
RTVSPropertyOp57
 70
     1
102
RTVSPropertyOp58
 70
     1
102
RTVSPropertyOp59
 70
     1
102
RTVSPropertyOp60
 70
     1
102
RTVSPropertyOp61
 70
     1
102
RTVSPropertyOp62
 70
     1
  0
XRECORD
  5
B295
102
{ACAD_REACTORS
330
B294
102
}
330
B294
100
AcDbXrecord
280
     1
102
RTVSPost2010Prop28
280
     0
102
RTVSPost2010PropOp28
 70
     1
102
RTVSPost2010Prop29
280
     1
102
RTVSPost2010PropOp29
 70
     1
102
RTVSPost2010Prop30
280
     1
102
RTVSPost2010PropOp30
 70
     1
102
RTVSPost2010Prop31
280
     0
102
RTVSPost2010PropOp31
 70
     1
102
RTVSPost2010Prop32
280
     0
102
RTVSPost2010PropOp32
 70
     1
102
RTVSPost2010Prop33
280
     0
102
RTVSPost2010PropOp33
 70
     1
102
RTVSPost2010Prop34
280
     0
102
RTVSPost2010PropOp34
 70
     1
102
RTVSPost2010Prop35
280
     0
102
RTVSPost2010PropOp35
 70
     1
102
RTVSPost2010Prop36
280
     0
102
RTVSPost2010PropOp36
 70
     1
102
RTVSPost2010Prop37
 90
       50
102
RTVSPost2010PropOp37
 70
     0
102
RTVSPost2010Prop38
140
0.0
102
RTVSPost2010PropOp38
 70
     0
102
RTVSPost2010Prop39
140
1.0
102
RTVSPost2010PropOp39
 70
     0
102
RTVSPost2010Prop40
 90
        0
102
RTVSPost2010PropOp40
 70
     0
102
RTVSPost2010Prop41ColorIndex
 90
       18
102
RTVSPost2010Prop41ColorRGB
 90
        0
102
RTVSPost2010PropOp41
 70
     0
102
RTVSPost2010Prop42
 90
       50
102
RTVSPost2010PropOp42
 70
     0
102
RTVSPost2010Prop43
 90
        3
102
RTVSPost2010PropOp43
 70
     0
102
RTVSPost2010Prop44ColorIndex
 90
        5
102
RTVSPost2010Prop44ColorRGB
 90
      255
102
RTVSPost2010PropOp44
 70
     0
102
RTVSPost2010Prop45
280
     0
102
RTVSPost2010PropOp45
 70
     1
102
RTVSPost2010Prop46
 90
       50
102
RTVSPost2010PropOp46
 70
     0
102
RTVSPost2010Prop47
 90
       50
102
RTVSPost2010PropOp47
 70
     0
102
RTVSPost2010Prop48
 90
       50
102
RTVSPost2010PropOp48
 70
     0
102
RTVSPost2010Prop49
280
     0
102
RTVSPost2010PropOp49
 70
     1
102
RTVSPost2010Prop50
 90
       50
102
RTVSPost2010PropOp50
 70
     0
102
RTVSPost2010Prop51ColorIndex
 90
      256
102
RTVSPost2010Prop51ColorRGB
 90
-16777216
102
RTVSPost2010PropOp51
 70
     0
102
RTVSPost2010Prop52
140
1.0
102
RTVSPost2010PropOp52
 70
     0
102
RTVSPost2010Prop53
 90
        2
102
RTVSPost2010PropOp53
 70
     0
102
RTVSPost2010Prop54
  1
strokes_ogs.tif
102
RTVSPost2010PropOp54
 70
     0
102
RTVSPost2010Prop55
280
     0
102
RTVSPost2010PropOp55
 70
     1
102
RTVSPost2010Prop56
140
1.0
102
RTVSPost2010PropOp56
 70
     0
102
RTVSPost2010Prop57
140
1.0
102
RTVSPost2010PropOp57
 70
     0
102
RTVSPropertyOp0
 70
     0
102
RTVSPropertyOp1
 70
     0
102
RTVSPropertyOp2
 70
     0
102
RTVSPropertyOp3
 70
     0
102
RTVSPropertyOp4
 70
     0
102
RTVSPropertyOp5
 70
     0
102
RTVSPropertyOp6
 70
     0
102
RTVSPropertyOp7
 70
     0
102
RTVSPropertyOp8
 70
     0
102
RTVSPropertyOp9
 70
     0
102
RTVSPropertyOp10
 70
     0
102
RTVSPropertyOp11
 70
     0
102
RTVSPropertyOp12
 70
     0
102
RTVSPropertyOp13
 70
     0
102
RTVSPropertyOp14
 70
     2
102
RTVSPropertyOp15
 70
     0
102
RTVSPropertyOp16
 70
     0
102
RTVSPropertyOp17
 70
     0
102
RTVSPropertyOp18
 70
     0
102
RTVSPropertyOp19
 70
     0
102
RTVSPropertyOp20
 70
     0
102
RTVSPropertyOp21
 70
     0
102
RTVSPropertyOp22
 70
     0
102
RTVSPropertyOp23
 70
     0
102
RTVSPropertyOp24
 70
     0
102
RTVSPropertyOp25
 70
     0
102
RTVSPropertyOp26
 70
     0
102
RTVSPropertyOp27
 70
     0
102
RTVSPropertyOp28
 70
     1
102
RTVSPropertyOp29
 70
     1
102
RTVSPropertyOp30
 70
     1
102
RTVSPropertyOp31
 70
     1
102
RTVSPropertyOp32
 70
     1
102
RTVSPropertyOp33
 70
     1
102
RTVSPropertyOp34
 70
     1
102
RTVSPropertyOp35
 70
     1
102
RTVSPropertyOp36
 70
     1
102
RTVSPropertyOp37
 70
     0
102
RTVSPropertyOp38
 70
     0
102
RTVSPropertyOp39
 70
     0
102
RTVSPropertyOp40
 70
     0
102
RTVSPropertyOp41
 70
     0
102
RTVSPropertyOp42
 70
     0
102
RTVSPropertyOp43
 70
     0
102
RTVSPropertyOp44
 70
     0
102
RTVSPropertyOp45
 70
     1
102
RTVSPropertyOp46
 70
     0
102
RTVSPropertyOp47
 70
     0
102
RTVSPropertyOp48
 70
     0
102
RTVSPropertyOp49
 70
     1
102
RTVSPropertyOp50
 70
     0
102
RTVSPropertyOp51
 70
     0
102
RTVSPropertyOp52
 70
     0
102
RTVSPropertyOp53
 70
     0
102
RTVSPropertyOp54
 70
     0
102
RTVSPropertyOp55
 70
     1
102
RTVSPropertyOp56
 70
     0
102
RTVSPropertyOp57
 70
     0
102
RTVSPropertyOp58
 70
     0
102
RTVSPropertyOp59
 70
     0
102
RTVSPropertyOp60
 70
     0
102
RTVSPropertyOp61
 70
     0
102
RTVSPropertyOp62
 70
     0
  0
XRECORD
  5
B283
102
{ACAD_REACTORS
330
B282
102
}
330
B282
100
AcDbXrecord
280
     1
102
RTVSPost2010Prop28
280
     0
102
RTVSPost2010PropOp28
 70
     1
102
RTVSPost2010Prop29
280
     1
102
RTVSPost2010PropOp29
 70
     1
102
RTVSPost2010Prop30
280
     1
102
RTVSPost2010PropOp30
 70
     1
102
RTVSPost2010Prop31
280
     0
102
RTVSPost2010PropOp31
 70
     1
102
RTVSPost2010Prop32
280
     0
102
RTVSPost2010PropOp32
 70
     1
102
RTVSPost2010Prop33
280
     0
102
RTVSPost2010PropOp33
 70
     1
102
RTVSPost2010Prop34
280
     0
102
RTVSPost2010PropOp34
 70
     1
102
RTVSPost2010Prop35
280
     0
102
RTVSPost2010PropOp35
 70
     1
102
RTVSPost2010Prop36
280
     0
102
RTVSPost2010PropOp36
 70
     1
102
RTVSPost2010Prop37
 90
       50
102
RTVSPost2010PropOp37
 70
     1
102
RTVSPost2010Prop38
140
0.0
102
RTVSPost2010PropOp38
 70
     1
102
RTVSPost2010Prop39
140
1.0
102
RTVSPost2010PropOp39
 70
     1
102
RTVSPost2010Prop40
 90
        0
102
RTVSPost2010PropOp40
 70
     1
102
RTVSPost2010Prop41ColorIndex
 90
       18
102
RTVSPost2010Prop41ColorRGB
 90
        0
102
RTVSPost2010PropOp41
 70
     1
102
RTVSPost2010Prop42
 90
       50
102
RTVSPost2010PropOp42
 70
     1
102
RTVSPost2010Prop43
 90
        3
102
RTVSPost2010PropOp43
 70
     1
102
RTVSPost2010Prop44ColorIndex
 90
        5
102
RTVSPost2010Prop44ColorRGB
 90
      255
102
RTVSPost2010PropOp44
 70
     1
102
RTVSPost2010Prop45
280
     0
102
RTVSPost2010PropOp45
 70
     1
102
RTVSPost2010Prop46
 90
       50
102
RTVSPost2010PropOp46
 70
     1
102
RTVSPost2010Prop47
 90
       50
102
RTVSPost2010PropOp47
 70
     1
102
RTVSPost2010Prop48
 90
       50
102
RTVSPost2010PropOp48
 70
     1
102
RTVSPost2010Prop49
280
     0
102
RTVSPost2010PropOp49
 70
     1
102
RTVSPost2010Prop50
 90
       50
102
RTVSPost2010PropOp50
 70
     1
102
RTVSPost2010Prop51ColorIndex
 90
      256
102
RTVSPost2010Prop51ColorRGB
 90
-16777216
102
RTVSPost2010PropOp51
 70
     0
102
RTVSPost2010Prop52
140
1.0
102
RTVSPost2010PropOp52
 70
     0
102
RTVSPost2010Prop53
 90
        2
102
RTVSPost2010PropOp53
 70
     1
102
RTVSPost2010Prop54
  1
strokes_ogs.tif
102
RTVSPost2010PropOp54
 70
     1
102
RTVSPost2010Prop55
280
     0
102
RTVSPost2010PropOp55
 70
     1
102
RTVSPost2010Prop56
140
1.0
102
RTVSPost2010PropOp56
 70
     1
102
RTVSPost2010Prop57
140
1.0
102
RTVSPost2010PropOp57
 70
     1
102
RTVSPropertyOp0
 70
     1
102
RTVSPropertyOp1
 70
     1
102
RTVSPropertyOp2
 70
     1
102
RTVSPropertyOp3
 70
     1
102
RTVSPropertyOp4
 70
     1
102
RTVSPropertyOp5
 70
     1
102
RTVSPropertyOp6
 70
     1
102
RTVSPropertyOp7
 70
     1
102
RTVSPropertyOp8
 70
     1
102
RTVSPropertyOp9
 70
     1
102
RTVSPropertyOp10
 70
     1
102
RTVSPropertyOp11
 70
     1
102
RTVSPropertyOp12
 70
     1
102
RTVSPropertyOp13
 70
     1
102
RTVSPropertyOp14
 70
     1
102
RTVSPropertyOp15
 70
     1
102
RTVSPropertyOp16
 70
     1
102
RTVSPropertyOp17
 70
     1
102
RTVSPropertyOp18
 70
     1
102
RTVSPropertyOp19
 70
     1
102
RTVSPropertyOp20
 70
     1
102
RTVSPropertyOp21
 70
     1
102
RTVSPropertyOp22
 70
     1
102
RTVSPropertyOp23
 70
     1
102
RTVSPropertyOp24
 70
     1
102
RTVSPropertyOp25
 70
     1
102
RTVSPropertyOp26
 70
     1
102
RTVSPropertyOp27
 70
     1
102
RTVSPropertyOp28
 70
     1
102
RTVSPropertyOp29
 70
     1
102
RTVSPropertyOp30
 70
     1
102
RTVSPropertyOp31
 70
     1
102
RTVSPropertyOp32
 70
     1
102
RTVSPropertyOp33
 70
     1
102
RTVSPropertyOp34
 70
     1
102
RTVSPropertyOp35
 70
     1
102
RTVSPropertyOp36
 70
     1
102
RTVSPropertyOp37
 70
     1
102
RTVSPropertyOp38
 70
     1
102
RTVSPropertyOp39
 70
     1
102
RTVSPropertyOp40
 70
     1
102
RTVSPropertyOp41
 70
     1
102
RTVSPropertyOp42
 70
     1
102
RTVSPropertyOp43
 70
     1
102
RTVSPropertyOp44
 70
     1
102
RTVSPropertyOp45
 70
     1
102
RTVSPropertyOp46
 70
     1
102
RTVSPropertyOp47
 70
     1
102
RTVSPropertyOp48
 70
     1
102
RTVSPropertyOp49
 70
     1
102
RTVSPropertyOp50
 70
     1
102
RTVSPropertyOp51
 70
     0
102
RTVSPropertyOp52
 70
     0
102
RTVSPropertyOp53
 70
     1
102
RTVSPropertyOp54
 70
     1
102
RTVSPropertyOp55
 70
     1
102
RTVSPropertyOp56
 70
     1
102
RTVSPropertyOp57
 70
     1
102
RTVSPropertyOp58
 70
     1
102
RTVSPropertyOp59
 70
     1
102
RTVSPropertyOp60
 70
     1
102
RTVSPropertyOp61
 70
     1
102
RTVSPropertyOp62
 70
     1
  0
XRECORD
  5
B267
102
{ACAD_REACTORS
330
B266
102
}
330
B266
100
AcDbXrecord
280
     1
102
RTVSPost2010Prop28
280
     0
102
RTVSPost2010PropOp28
 70
     1
102
RTVSPost2010Prop29
280
     1
102
RTVSPost2010PropOp29
 70
     1
102
RTVSPost2010Prop30
280
     1
102
RTVSPost2010PropOp30
 70
     1
102
RTVSPost2010Prop31
280
     0
102
RTVSPost2010PropOp31
 70
     1
102
RTVSPost2010Prop32
280
     0
102
RTVSPost2010PropOp32
 70
     1
102
RTVSPost2010Prop33
280
     0
102
RTVSPost2010PropOp33
 70
     1
102
RTVSPost2010Prop34
280
     0
102
RTVSPost2010PropOp34
 70
     1
102
RTVSPost2010Prop35
280
     0
102
RTVSPost2010PropOp35
 70
     1
102
RTVSPost2010Prop36
280
     0
102
RTVSPost2010PropOp36
 70
     1
102
RTVSPost2010Prop37
 90
       50
102
RTVSPost2010PropOp37
 70
     1
102
RTVSPost2010Prop38
140
0.0
102
RTVSPost2010PropOp38
 70
     1
102
RTVSPost2010Prop39
140
1.0
102
RTVSPost2010PropOp39
 70
     1
102
RTVSPost2010Prop40
 90
        0
102
RTVSPost2010PropOp40
 70
     1
102
RTVSPost2010Prop41ColorIndex
 90
       18
102
RTVSPost2010Prop41ColorRGB
 90
        0
102
RTVSPost2010PropOp41
 70
     1
102
RTVSPost2010Prop42
 90
       50
102
RTVSPost2010PropOp42
 70
     1
102
RTVSPost2010Prop43
 90
        3
102
RTVSPost2010PropOp43
 70
     1
102
RTVSPost2010Prop44ColorIndex
 90
        5
102
RTVSPost2010Prop44ColorRGB
 90
      255
102
RTVSPost2010PropOp44
 70
     1
102
RTVSPost2010Prop45
280
     0
102
RTVSPost2010PropOp45
 70
     1
102
RTVSPost2010Prop46
 90
       50
102
RTVSPost2010PropOp46
 70
     1
102
RTVSPost2010Prop47
 90
       50
102
RTVSPost2010PropOp47
 70
     1
102
RTVSPost2010Prop48
 90
       50
102
RTVSPost2010PropOp48
 70
     1
102
RTVSPost2010Prop49
280
     0
102
RTVSPost2010PropOp49
 70
     1
102
RTVSPost2010Prop50
 90
       50
102
RTVSPost2010PropOp50
 70
     1
102
RTVSPost2010Prop51ColorIndex
 90
      256
102
RTVSPost2010Prop51ColorRGB
 90
-16777216
102
RTVSPost2010PropOp51
 70
     0
102
RTVSPost2010Prop52
140
1.0
102
RTVSPost2010PropOp52
 70
     0
102
RTVSPost2010Prop53
 90
        2
102
RTVSPost2010PropOp53
 70
     1
102
RTVSPost2010Prop54
  1
strokes_ogs.tif
102
RTVSPost2010PropOp54
 70
     1
102
RTVSPost2010Prop55
280
     0
102
RTVSPost2010PropOp55
 70
     1
102
RTVSPost2010Prop56
140
1.0
102
RTVSPost2010PropOp56
 70
     1
102
RTVSPost2010Prop57
140
1.0
102
RTVSPost2010PropOp57
 70
     1
102
RTVSPropertyOp0
 70
     1
102
RTVSPropertyOp1
 70
     1
102
RTVSPropertyOp2
 70
     1
102
RTVSPropertyOp3
 70
     1
102
RTVSPropertyOp4
 70
     1
102
RTVSPropertyOp5
 70
     1
102
RTVSPropertyOp6
 70
     1
102
RTVSPropertyOp7
 70
     1
102
RTVSPropertyOp8
 70
     1
102
RTVSPropertyOp9
 70
     1
102
RTVSPropertyOp10
 70
     1
102
RTVSPropertyOp11
 70
     1
102
RTVSPropertyOp12
 70
     1
102
RTVSPropertyOp13
 70
     1
102
RTVSPropertyOp14
 70
     1
102
RTVSPropertyOp15
 70
     1
102
RTVSPropertyOp16
 70
     1
102
RTVSPropertyOp17
 70
     1
102
RTVSPropertyOp18
 70
     1
102
RTVSPropertyOp19
 70
     1
102
RTVSPropertyOp20
 70
     1
102
RTVSPropertyOp21
 70
     1
102
RTVSPropertyOp22
 70
     1
102
RTVSPropertyOp23
 70
     1
102
RTVSPropertyOp24
 70
     1
102
RTVSPropertyOp25
 70
     1
102
RTVSPropertyOp26
 70
     1
102
RTVSPropertyOp27
 70
     1
102
RTVSPropertyOp28
 70
     1
102
RTVSPropertyOp29
 70
     1
102
RTVSPropertyOp30
 70
     1
102
RTVSPropertyOp31
 70
     1
102
RTVSPropertyOp32
 70
     1
102
RTVSPropertyOp33
 70
     1
102
RTVSPropertyOp34
 70
     1
102
RTVSPropertyOp35
 70
     1
102
RTVSPropertyOp36
 70
     1
102
RTVSPropertyOp37
 70
     1
102
RTVSPropertyOp38
 70
     1
102
RTVSPropertyOp39
 70
     1
102
RTVSPropertyOp40
 70
     1
102
RTVSPropertyOp41
 70
     1
102
RTVSPropertyOp42
 70
     1
102
RTVSPropertyOp43
 70
     1
102
RTVSPropertyOp44
 70
     1
102
RTVSPropertyOp45
 70
     1
102
RTVSPropertyOp46
 70
     1
102
RTVSPropertyOp47
 70
     1
102
RTVSPropertyOp48
 70
     1
102
RTVSPropertyOp49
 70
     1
102
RTVSPropertyOp50
 70
     1
102
RTVSPropertyOp51
 70
     0
102
RTVSPropertyOp52
 70
     0
102
RTVSPropertyOp53
 70
     1
102
RTVSPropertyOp54
 70
     1
102
RTVSPropertyOp55
 70
     1
102
RTVSPropertyOp56
 70
     1
102
RTVSPropertyOp57
 70
     1
102
RTVSPropertyOp58
 70
     1
102
RTVSPropertyOp59
 70
     1
102
RTVSPropertyOp60
 70
     1
102
RTVSPropertyOp61
 70
     1
102
RTVSPropertyOp62
 70
     1
  0
XRECORD
  5
B269
102
{ACAD_REACTORS
330
B268
102
}
330
B268
100
AcDbXrecord
280
     1
102
RTVSPost2010Prop28
280
     0
102
RTVSPost2010PropOp28
 70
     1
102
RTVSPost2010Prop29
280
     1
102
RTVSPost2010PropOp29
 70
     1
102
RTVSPost2010Prop30
280
     1
102
RTVSPost2010PropOp30
 70
     1
102
RTVSPost2010Prop31
280
     0
102
RTVSPost2010PropOp31
 70
     1
102
RTVSPost2010Prop32
280
     0
102
RTVSPost2010PropOp32
 70
     1
102
RTVSPost2010Prop33
280
     0
102
RTVSPost2010PropOp33
 70
     1
102
RTVSPost2010Prop34
280
     0
102
RTVSPost2010PropOp34
 70
     1
102
RTVSPost2010Prop35
280
     0
102
RTVSPost2010PropOp35
 70
     1
102
RTVSPost2010Prop36
280
     0
102
RTVSPost2010PropOp36
 70
     1
102
RTVSPost2010Prop37
 90
       50
102
RTVSPost2010PropOp37
 70
     1
102
RTVSPost2010Prop38
140
0.0
102
RTVSPost2010PropOp38
 70
     1
102
RTVSPost2010Prop39
140
1.0
102
RTVSPost2010PropOp39
 70
     1
102
RTVSPost2010Prop40
 90
        0
102
RTVSPost2010PropOp40
 70
     1
102
RTVSPost2010Prop41ColorIndex
 90
       18
102
RTVSPost2010Prop41ColorRGB
 90
        0
102
RTVSPost2010PropOp41
 70
     1
102
RTVSPost2010Prop42
 90
       50
102
RTVSPost2010PropOp42
 70
     1
102
RTVSPost2010Prop43
 90
        3
102
RTVSPost2010PropOp43
 70
     1
102
RTVSPost2010Prop44ColorIndex
 90
        5
102
RTVSPost2010Prop44ColorRGB
 90
      255
102
RTVSPost2010PropOp44
 70
     1
102
RTVSPost2010Prop45
280
     0
102
RTVSPost2010PropOp45
 70
     1
102
RTVSPost2010Prop46
 90
       50
102
RTVSPost2010PropOp46
 70
     1
102
RTVSPost2010Prop47
 90
       50
102
RTVSPost2010PropOp47
 70
     1
102
RTVSPost2010Prop48
 90
       50
102
RTVSPost2010PropOp48
 70
     1
102
RTVSPost2010Prop49
280
     0
102
RTVSPost2010PropOp49
 70
     1
102
RTVSPost2010Prop50
 90
       50
102
RTVSPost2010PropOp50
 70
     1
102
RTVSPost2010Prop51ColorIndex
 90
      256
102
RTVSPost2010Prop51ColorRGB
 90
-16777216
102
RTVSPost2010PropOp51
 70
     0
102
RTVSPost2010Prop52
140
1.0
102
RTVSPost2010PropOp52
 70
     0
102
RTVSPost2010Prop53
 90
        2
102
RTVSPost2010PropOp53
 70
     1
102
RTVSPost2010Prop54
  1
strokes_ogs.tif
102
RTVSPost2010PropOp54
 70
     1
102
RTVSPost2010Prop55
280
     0
102
RTVSPost2010PropOp55
 70
     1
102
RTVSPost2010Prop56
140
1.0
102
RTVSPost2010PropOp56
 70
     1
102
RTVSPost2010Prop57
140
1.0
102
RTVSPost2010PropOp57
 70
     1
102
RTVSPropertyOp0
 70
     1
102
RTVSPropertyOp1
 70
     1
102
RTVSPropertyOp2
 70
     1
102
RTVSPropertyOp3
 70
     1
102
RTVSPropertyOp4
 70
     1
102
RTVSPropertyOp5
 70
     1
102
RTVSPropertyOp6
 70
     1
102
RTVSPropertyOp7
 70
     1
102
RTVSPropertyOp8
 70
     1
102
RTVSPropertyOp9
 70
     1
102
RTVSPropertyOp10
 70
     1
102
RTVSPropertyOp11
 70
     1
102
RTVSPropertyOp12
 70
     1
102
RTVSPropertyOp13
 70
     1
102
RTVSPropertyOp14
 70
     1
102
RTVSPropertyOp15
 70
     1
102
RTVSPropertyOp16
 70
     1
102
RTVSPropertyOp17
 70
     1
102
RTVSPropertyOp18
 70
     1
102
RTVSPropertyOp19
 70
     1
102
RTVSPropertyOp20
 70
     1
102
RTVSPropertyOp21
 70
     1
102
RTVSPropertyOp22
 70
     1
102
RTVSPropertyOp23
 70
     1
102
RTVSPropertyOp24
 70
     1
102
RTVSPropertyOp25
 70
     1
102
RTVSPropertyOp26
 70
     1
102
RTVSPropertyOp27
 70
     1
102
RTVSPropertyOp28
 70
     1
102
RTVSPropertyOp29
 70
     1
102
RTVSPropertyOp30
 70
     1
102
RTVSPropertyOp31
 70
     1
102
RTVSPropertyOp32
 70
     1
102
RTVSPropertyOp33
 70
     1
102
RTVSPropertyOp34
 70
     1
102
RTVSPropertyOp35
 70
     1
102
RTVSPropertyOp36
 70
     1
102
RTVSPropertyOp37
 70
     1
102
RTVSPropertyOp38
 70
     1
102
RTVSPropertyOp39
 70
     1
102
RTVSPropertyOp40
 70
     1
102
RTVSPropertyOp41
 70
     1
102
RTVSPropertyOp42
 70
     1
102
RTVSPropertyOp43
 70
     1
102
RTVSPropertyOp44
 70
     1
102
RTVSPropertyOp45
 70
     1
102
RTVSPropertyOp46
 70
     1
102
RTVSPropertyOp47
 70
     1
102
RTVSPropertyOp48
 70
     1
102
RTVSPropertyOp49
 70
     1
102
RTVSPropertyOp50
 70
     1
102
RTVSPropertyOp51
 70
     0
102
RTVSPropertyOp52
 70
     0
102
RTVSPropertyOp53
 70
     1
102
RTVSPropertyOp54
 70
     1
102
RTVSPropertyOp55
 70
     1
102
RTVSPropertyOp56
 70
     1
102
RTVSPropertyOp57
 70
     1
102
RTVSPropertyOp58
 70
     1
102
RTVSPropertyOp59
 70
     1
102
RTVSPropertyOp60
 70
     1
102
RTVSPropertyOp61
 70
     1
102
RTVSPropertyOp62
 70
     1
  0
XRECORD
  5
B26B
102
{ACAD_REACTORS
330
B26A
102
}
330
B26A
100
AcDbXrecord
280
     1
102
RTVSPost2010Prop28
280
     0
102
RTVSPost2010PropOp28
 70
     1
102
RTVSPost2010Prop29
280
     1
102
RTVSPost2010PropOp29
 70
     1
102
RTVSPost2010Prop30
280
     1
102
RTVSPost2010PropOp30
 70
     1
102
RTVSPost2010Prop31
280
     0
102
RTVSPost2010PropOp31
 70
     1
102
RTVSPost2010Prop32
280
     0
102
RTVSPost2010PropOp32
 70
     1
102
RTVSPost2010Prop33
280
     0
102
RTVSPost2010PropOp33
 70
     1
102
RTVSPost2010Prop34
280
     0
102
RTVSPost2010PropOp34
 70
     1
102
RTVSPost2010Prop35
280
     0
102
RTVSPost2010PropOp35
 70
     1
102
RTVSPost2010Prop36
280
     0
102
RTVSPost2010PropOp36
 70
     1
102
RTVSPost2010Prop37
 90
       50
102
RTVSPost2010PropOp37
 70
     1
102
RTVSPost2010Prop38
140
0.0
102
RTVSPost2010PropOp38
 70
     1
102
RTVSPost2010Prop39
140
1.0
102
RTVSPost2010PropOp39
 70
     1
102
RTVSPost2010Prop40
 90
        0
102
RTVSPost2010PropOp40
 70
     1
102
RTVSPost2010Prop41ColorIndex
 90
       18
102
RTVSPost2010Prop41ColorRGB
 90
        0
102
RTVSPost2010PropOp41
 70
     1
102
RTVSPost2010Prop42
 90
       50
102
RTVSPost2010PropOp42
 70
     1
102
RTVSPost2010Prop43
 90
        3
102
RTVSPost2010PropOp43
 70
     1
102
RTVSPost2010Prop44ColorIndex
 90
        5
102
RTVSPost2010Prop44ColorRGB
 90
      255
102
RTVSPost2010PropOp44
 70
     1
102
RTVSPost2010Prop45
280
     0
102
RTVSPost2010PropOp45
 70
     1
102
RTVSPost2010Prop46
 90
       50
102
RTVSPost2010PropOp46
 70
     1
102
RTVSPost2010Prop47
 90
       50
102
RTVSPost2010PropOp47
 70
     1
102
RTVSPost2010Prop48
 90
       50
102
RTVSPost2010PropOp48
 70
     1
102
RTVSPost2010Prop49
280
     0
102
RTVSPost2010PropOp49
 70
     1
102
RTVSPost2010Prop50
 90
       50
102
RTVSPost2010PropOp50
 70
     1
102
RTVSPost2010Prop51ColorIndex
 90
      256
102
RTVSPost2010Prop51ColorRGB
 90
-16777216
102
RTVSPost2010PropOp51
 70
     0
102
RTVSPost2010Prop52
140
1.0
102
RTVSPost2010PropOp52
 70
     0
102
RTVSPost2010Prop53
 90
        2
102
RTVSPost2010PropOp53
 70
     1
102
RTVSPost2010Prop54
  1
strokes_ogs.tif
102
RTVSPost2010PropOp54
 70
     1
102
RTVSPost2010Prop55
280
     0
102
RTVSPost2010PropOp55
 70
     1
102
RTVSPost2010Prop56
140
1.0
102
RTVSPost2010PropOp56
 70
     1
102
RTVSPost2010Prop57
140
1.0
102
RTVSPost2010PropOp57
 70
     1
102
RTVSPropertyOp0
 70
     1
102
RTVSPropertyOp1
 70
     1
102
RTVSPropertyOp2
 70
     1
102
RTVSPropertyOp3
 70
     1
102
RTVSPropertyOp4
 70
     1
102
RTVSPropertyOp5
 70
     1
102
RTVSPropertyOp6
 70
     1
102
RTVSPropertyOp7
 70
     1
102
RTVSPropertyOp8
 70
     1
102
RTVSPropertyOp9
 70
     1
102
RTVSPropertyOp10
 70
     1
102
RTVSPropertyOp11
 70
     1
102
RTVSPropertyOp12
 70
     1
102
RTVSPropertyOp13
 70
     1
102
RTVSPropertyOp14
 70
     1
102
RTVSPropertyOp15
 70
     1
102
RTVSPropertyOp16
 70
     1
102
RTVSPropertyOp17
 70
     1
102
RTVSPropertyOp18
 70
     1
102
RTVSPropertyOp19
 70
     1
102
RTVSPropertyOp20
 70
     1
102
RTVSPropertyOp21
 70
     1
102
RTVSPropertyOp22
 70
     1
102
RTVSPropertyOp23
 70
     1
102
RTVSPropertyOp24
 70
     1
102
RTVSPropertyOp25
 70
     1
102
RTVSPropertyOp26
 70
     1
102
RTVSPropertyOp27
 70
     1
102
RTVSPropertyOp28
 70
     1
102
RTVSPropertyOp29
 70
     1
102
RTVSPropertyOp30
 70
     1
102
RTVSPropertyOp31
 70
     1
102
RTVSPropertyOp32
 70
     1
102
RTVSPropertyOp33
 70
     1
102
RTVSPropertyOp34
 70
     1
102
RTVSPropertyOp35
 70
     1
102
RTVSPropertyOp36
 70
     1
102
RTVSPropertyOp37
 70
     1
102
RTVSPropertyOp38
 70
     1
102
RTVSPropertyOp39
 70
     1
102
RTVSPropertyOp40
 70
     1
102
RTVSPropertyOp41
 70
     1
102
RTVSPropertyOp42
 70
     1
102
RTVSPropertyOp43
 70
     1
102
RTVSPropertyOp44
 70
     1
102
RTVSPropertyOp45
 70
     1
102
RTVSPropertyOp46
 70
     1
102
RTVSPropertyOp47
 70
     1
102
RTVSPropertyOp48
 70
     1
102
RTVSPropertyOp49
 70
     1
102
RTVSPropertyOp50
 70
     1
102
RTVSPropertyOp51
 70
     0
102
RTVSPropertyOp52
 70
     0
102
RTVSPropertyOp53
 70
     1
102
RTVSPropertyOp54
 70
     1
102
RTVSPropertyOp55
 70
     1
102
RTVSPropertyOp56
 70
     1
102
RTVSPropertyOp57
 70
     1
102
RTVSPropertyOp58
 70
     1
102
RTVSPropertyOp59
 70
     1
102
RTVSPropertyOp60
 70
     1
102
RTVSPropertyOp61
 70
     1
102
RTVSPropertyOp62
 70
     1
  0
XRECORD
  5
B26D
102
{ACAD_REACTORS
330
B26C
102
}
330
B26C
100
AcDbXrecord
280
     1
102
RTVSPost2010Prop28
280
     0
102
RTVSPost2010PropOp28
 70
     1
102
RTVSPost2010Prop29
280
     1
102
RTVSPost2010PropOp29
 70
     1
102
RTVSPost2010Prop30
280
     1
102
RTVSPost2010PropOp30
 70
     1
102
RTVSPost2010Prop31
280
     0
102
RTVSPost2010PropOp31
 70
     1
102
RTVSPost2010Prop32
280
     0
102
RTVSPost2010PropOp32
 70
     1
102
RTVSPost2010Prop33
280
     0
102
RTVSPost2010PropOp33
 70
     1
102
RTVSPost2010Prop34
280
     0
102
RTVSPost2010PropOp34
 70
     1
102
RTVSPost2010Prop35
280
     0
102
RTVSPost2010PropOp35
 70
     1
102
RTVSPost2010Prop36
280
     0
102
RTVSPost2010PropOp36
 70
     1
102
RTVSPost2010Prop37
 90
       50
102
RTVSPost2010PropOp37
 70
     1
102
RTVSPost2010Prop38
140
0.0
102
RTVSPost2010PropOp38
 70
     1
102
RTVSPost2010Prop39
140
1.0
102
RTVSPost2010PropOp39
 70
     1
102
RTVSPost2010Prop40
 90
        0
102
RTVSPost2010PropOp40
 70
     1
102
RTVSPost2010Prop41ColorIndex
 90
       18
102
RTVSPost2010Prop41ColorRGB
 90
        0
102
RTVSPost2010PropOp41
 70
     1
102
RTVSPost2010Prop42
 90
       50
102
RTVSPost2010PropOp42
 70
     1
102
RTVSPost2010Prop43
 90
        3
102
RTVSPost2010PropOp43
 70
     1
102
RTVSPost2010Prop44ColorIndex
 90
        5
102
RTVSPost2010Prop44ColorRGB
 90
      255
102
RTVSPost2010PropOp44
 70
     1
102
RTVSPost2010Prop45
280
     0
102
RTVSPost2010PropOp45
 70
     1
102
RTVSPost2010Prop46
 90
       50
102
RTVSPost2010PropOp46
 70
     1
102
RTVSPost2010Prop47
 90
       50
102
RTVSPost2010PropOp47
 70
     1
102
RTVSPost2010Prop48
 90
       50
102
RTVSPost2010PropOp48
 70
     1
102
RTVSPost2010Prop49
280
     0
102
RTVSPost2010PropOp49
 70
     1
102
RTVSPost2010Prop50
 90
       50
102
RTVSPost2010PropOp50
 70
     1
102
RTVSPost2010Prop51ColorIndex
 90
      256
102
RTVSPost2010Prop51ColorRGB
 90
-16777216
102
RTVSPost2010PropOp51
 70
     0
102
RTVSPost2010Prop52
140
1.0
102
RTVSPost2010PropOp52
 70
     0
102
RTVSPost2010Prop53
 90
        2
102
RTVSPost2010PropOp53
 70
     1
102
RTVSPost2010Prop54
  1
strokes_ogs.tif
102
RTVSPost2010PropOp54
 70
     1
102
RTVSPost2010Prop55
280
     0
102
RTVSPost2010PropOp55
 70
     1
102
RTVSPost2010Prop56
140
1.0
102
RTVSPost2010PropOp56
 70
     1
102
RTVSPost2010Prop57
140
1.0
102
RTVSPost2010PropOp57
 70
     1
102
RTVSPropertyOp0
 70
     1
102
RTVSPropertyOp1
 70
     1
102
RTVSPropertyOp2
 70
     1
102
RTVSPropertyOp3
 70
     1
102
RTVSPropertyOp4
 70
     1
102
RTVSPropertyOp5
 70
     1
102
RTVSPropertyOp6
 70
     1
102
RTVSPropertyOp7
 70
     1
102
RTVSPropertyOp8
 70
     1
102
RTVSPropertyOp9
 70
     1
102
RTVSPropertyOp10
 70
     1
102
RTVSPropertyOp11
 70
     1
102
RTVSPropertyOp12
 70
     1
102
RTVSPropertyOp13
 70
     1
102
RTVSPropertyOp14
 70
     1
102
RTVSPropertyOp15
 70
     1
102
RTVSPropertyOp16
 70
     1
102
RTVSPropertyOp17
 70
     1
102
RTVSPropertyOp18
 70
     1
102
RTVSPropertyOp19
 70
     1
102
RTVSPropertyOp20
 70
     1
102
RTVSPropertyOp21
 70
     1
102
RTVSPropertyOp22
 70
     1
102
RTVSPropertyOp23
 70
     1
102
RTVSPropertyOp24
 70
     1
102
RTVSPropertyOp25
 70
     1
102
RTVSPropertyOp26
 70
     1
102
RTVSPropertyOp27
 70
     1
102
RTVSPropertyOp28
 70
     1
102
RTVSPropertyOp29
 70
     1
102
RTVSPropertyOp30
 70
     1
102
RTVSPropertyOp31
 70
     1
102
RTVSPropertyOp32
 70
     1
102
RTVSPropertyOp33
 70
     1
102
RTVSPropertyOp34
 70
     1
102
RTVSPropertyOp35
 70
     1
102
RTVSPropertyOp36
 70
     1
102
RTVSPropertyOp37
 70
     1
102
RTVSPropertyOp38
 70
     1
102
RTVSPropertyOp39
 70
     1
102
RTVSPropertyOp40
 70
     1
102
RTVSPropertyOp41
 70
     1
102
RTVSPropertyOp42
 70
     1
102
RTVSPropertyOp43
 70
     1
102
RTVSPropertyOp44
 70
     1
102
RTVSPropertyOp45
 70
     1
102
RTVSPropertyOp46
 70
     1
102
RTVSPropertyOp47
 70
     1
102
RTVSPropertyOp48
 70
     1
102
RTVSPropertyOp49
 70
     1
102
RTVSPropertyOp50
 70
     1
102
RTVSPropertyOp51
 70
     0
102
RTVSPropertyOp52
 70
     0
102
RTVSPropertyOp53
 70
     1
102
RTVSPropertyOp54
 70
     1
102
RTVSPropertyOp55
 70
     1
102
RTVSPropertyOp56
 70
     1
102
RTVSPropertyOp57
 70
     1
102
RTVSPropertyOp58
 70
     1
102
RTVSPropertyOp59
 70
     1
102
RTVSPropertyOp60
 70
     1
102
RTVSPropertyOp61
 70
     1
102
RTVSPropertyOp62
 70
     1
  0
XRECORD
  5
B275
102
{ACAD_REACTORS
330
B274
102
}
330
B274
100
AcDbXrecord
280
     1
102
RTVSPost2010Prop28
280
     0
102
RTVSPost2010PropOp28
 70
     1
102
RTVSPost2010Prop29
280
     1
102
RTVSPost2010PropOp29
 70
     1
102
RTVSPost2010Prop30
280
     1
102
RTVSPost2010PropOp30
 70
     1
102
RTVSPost2010Prop31
280
     0
102
RTVSPost2010PropOp31
 70
     1
102
RTVSPost2010Prop32
280
     0
102
RTVSPost2010PropOp32
 70
     1
102
RTVSPost2010Prop33
280
     0
102
RTVSPost2010PropOp33
 70
     1
102
RTVSPost2010Prop34
280
     0
102
RTVSPost2010PropOp34
 70
     1
102
RTVSPost2010Prop35
280
     0
102
RTVSPost2010PropOp35
 70
     1
102
RTVSPost2010Prop36
280
     0
102
RTVSPost2010PropOp36
 70
     1
102
RTVSPost2010Prop37
 90
       50
102
RTVSPost2010PropOp37
 70
     1
102
RTVSPost2010Prop38
140
0.0
102
RTVSPost2010PropOp38
 70
     1
102
RTVSPost2010Prop39
140
1.0
102
RTVSPost2010PropOp39
 70
     1
102
RTVSPost2010Prop40
 90
        0
102
RTVSPost2010PropOp40
 70
     1
102
RTVSPost2010Prop41ColorIndex
 90
       18
102
RTVSPost2010Prop41ColorRGB
 90
        0
102
RTVSPost2010PropOp41
 70
     1
102
RTVSPost2010Prop42
 90
       50
102
RTVSPost2010PropOp42
 70
     1
102
RTVSPost2010Prop43
 90
        3
102
RTVSPost2010PropOp43
 70
     1
102
RTVSPost2010Prop44ColorIndex
 90
        5
102
RTVSPost2010Prop44ColorRGB
 90
      255
102
RTVSPost2010PropOp44
 70
     1
102
RTVSPost2010Prop45
280
     0
102
RTVSPost2010PropOp45
 70
     1
102
RTVSPost2010Prop46
 90
       50
102
RTVSPost2010PropOp46
 70
     1
102
RTVSPost2010Prop47
 90
       50
102
RTVSPost2010PropOp47
 70
     1
102
RTVSPost2010Prop48
 90
       50
102
RTVSPost2010PropOp48
 70
     1
102
RTVSPost2010Prop49
280
     0
102
RTVSPost2010PropOp49
 70
     1
102
RTVSPost2010Prop50
 90
       50
102
RTVSPost2010PropOp50
 70
     1
102
RTVSPost2010Prop51ColorIndex
 90
      256
102
RTVSPost2010Prop51ColorRGB
 90
-16777216
102
RTVSPost2010PropOp51
 70
     0
102
RTVSPost2010Prop52
140
1.0
102
RTVSPost2010PropOp52
 70
     0
102
RTVSPost2010Prop53
 90
        2
102
RTVSPost2010PropOp53
 70
     1
102
RTVSPost2010Prop54
  1
strokes_ogs.tif
102
RTVSPost2010PropOp54
 70
     1
102
RTVSPost2010Prop55
280
     0
102
RTVSPost2010PropOp55
 70
     1
102
RTVSPost2010Prop56
140
1.0
102
RTVSPost2010PropOp56
 70
     1
102
RTVSPost2010Prop57
140
1.0
102
RTVSPost2010PropOp57
 70
     1
102
RTVSPropertyOp0
 70
     1
102
RTVSPropertyOp1
 70
     1
102
RTVSPropertyOp2
 70
     1
102
RTVSPropertyOp3
 70
     1
102
RTVSPropertyOp4
 70
     1
102
RTVSPropertyOp5
 70
     1
102
RTVSPropertyOp6
 70
     1
102
RTVSPropertyOp7
 70
     1
102
RTVSPropertyOp8
 70
     1
102
RTVSPropertyOp9
 70
     1
102
RTVSPropertyOp10
 70
     1
102
RTVSPropertyOp11
 70
     1
102
RTVSPropertyOp12
 70
     1
102
RTVSPropertyOp13
 70
     1
102
RTVSPropertyOp14
 70
     1
102
RTVSPropertyOp15
 70
     1
102
RTVSPropertyOp16
 70
     1
102
RTVSPropertyOp17
 70
     1
102
RTVSPropertyOp18
 70
     1
102
RTVSPropertyOp19
 70
     1
102
RTVSPropertyOp20
 70
     1
102
RTVSPropertyOp21
 70
     1
102
RTVSPropertyOp22
 70
     1
102
RTVSPropertyOp23
 70
     1
102
RTVSPropertyOp24
 70
     1
102
RTVSPropertyOp25
 70
     1
102
RTVSPropertyOp26
 70
     1
102
RTVSPropertyOp27
 70
     1
102
RTVSPropertyOp28
 70
     1
102
RTVSPropertyOp29
 70
     1
102
RTVSPropertyOp30
 70
     1
102
RTVSPropertyOp31
 70
     1
102
RTVSPropertyOp32
 70
     1
102
RTVSPropertyOp33
 70
     1
102
RTVSPropertyOp34
 70
     1
102
RTVSPropertyOp35
 70
     1
102
RTVSPropertyOp36
 70
     1
102
RTVSPropertyOp37
 70
     1
102
RTVSPropertyOp38
 70
     1
102
RTVSPropertyOp39
 70
     1
102
RTVSPropertyOp40
 70
     1
102
RTVSPropertyOp41
 70
     1
102
RTVSPropertyOp42
 70
     1
102
RTVSPropertyOp43
 70
     1
102
RTVSPropertyOp44
 70
     1
102
RTVSPropertyOp45
 70
     1
102
RTVSPropertyOp46
 70
     1
102
RTVSPropertyOp47
 70
     1
102
RTVSPropertyOp48
 70
     1
102
RTVSPropertyOp49
 70
     1
102
RTVSPropertyOp50
 70
     1
102
RTVSPropertyOp51
 70
     0
102
RTVSPropertyOp52
 70
     0
102
RTVSPropertyOp53
 70
     1
102
RTVSPropertyOp54
 70
     1
102
RTVSPropertyOp55
 70
     1
102
RTVSPropertyOp56
 70
     1
102
RTVSPropertyOp57
 70
     1
102
RTVSPropertyOp58
 70
     1
102
RTVSPropertyOp59
 70
     1
102
RTVSPropertyOp60
 70
     1
102
RTVSPropertyOp61
 70
     1
102
RTVSPropertyOp62
 70
     1
  0
XRECORD
  5
B291
102
{ACAD_REACTORS
330
B290
102
}
330
B290
100
AcDbXrecord
280
     1
102
RTVSPost2010Prop28
280
     0
102
RTVSPost2010PropOp28
 70
     1
102
RTVSPost2010Prop29
280
     1
102
RTVSPost2010PropOp29
 70
     1
102
RTVSPost2010Prop30
280
     1
102
RTVSPost2010PropOp30
 70
     1
102
RTVSPost2010Prop31
280
     0
102
RTVSPost2010PropOp31
 70
     1
102
RTVSPost2010Prop32
280
     0
102
RTVSPost2010PropOp32
 70
     1
102
RTVSPost2010Prop33
280
     0
102
RTVSPost2010PropOp33
 70
     1
102
RTVSPost2010Prop34
280
     0
102
RTVSPost2010PropOp34
 70
     1
102
RTVSPost2010Prop35
280
     0
102
RTVSPost2010PropOp35
 70
     1
102
RTVSPost2010Prop36
280
     0
102
RTVSPost2010PropOp36
 70
     1
102
RTVSPost2010Prop37
 90
       50
102
RTVSPost2010PropOp37
 70
     0
102
RTVSPost2010Prop38
140
0.0
102
RTVSPost2010PropOp38
 70
     0
102
RTVSPost2010Prop39
140
1.0
102
RTVSPost2010PropOp39
 70
     0
102
RTVSPost2010Prop40
 90
        0
102
RTVSPost2010PropOp40
 70
     0
102
RTVSPost2010Prop41ColorIndex
 90
       18
102
RTVSPost2010Prop41ColorRGB
 90
        0
102
RTVSPost2010PropOp41
 70
     0
102
RTVSPost2010Prop42
 90
       50
102
RTVSPost2010PropOp42
 70
     0
102
RTVSPost2010Prop43
 90
        3
102
RTVSPost2010PropOp43
 70
     0
102
RTVSPost2010Prop44ColorIndex
 90
        5
102
RTVSPost2010Prop44ColorRGB
 90
      255
102
RTVSPost2010PropOp44
 70
     0
102
RTVSPost2010Prop45
280
     0
102
RTVSPost2010PropOp45
 70
     1
102
RTVSPost2010Prop46
 90
       50
102
RTVSPost2010PropOp46
 70
     0
102
RTVSPost2010Prop47
 90
       50
102
RTVSPost2010PropOp47
 70
     0
102
RTVSPost2010Prop48
 90
       50
102
RTVSPost2010PropOp48
 70
     0
102
RTVSPost2010Prop49
280
     0
102
RTVSPost2010PropOp49
 70
     1
102
RTVSPost2010Prop50
 90
       50
102
RTVSPost2010PropOp50
 70
     0
102
RTVSPost2010Prop51ColorIndex
 90
      256
102
RTVSPost2010Prop51ColorRGB
 90
-16777216
102
RTVSPost2010PropOp51
 70
     0
102
RTVSPost2010Prop52
140
1.0
102
RTVSPost2010PropOp52
 70
     0
102
RTVSPost2010Prop53
 90
        2
102
RTVSPost2010PropOp53
 70
     0
102
RTVSPost2010Prop54
  1
strokes_ogs.tif
102
RTVSPost2010PropOp54
 70
     0
102
RTVSPost2010Prop55
280
     0
102
RTVSPost2010PropOp55
 70
     1
102
RTVSPost2010Prop56
140
1.0
102
RTVSPost2010PropOp56
 70
     0
102
RTVSPost2010Prop57
140
1.0
102
RTVSPost2010PropOp57
 70
     0
102
RTVSPropertyOp0
 70
     0
102
RTVSPropertyOp1
 70
     0
102
RTVSPropertyOp2
 70
     0
102
RTVSPropertyOp3
 70
     0
102
RTVSPropertyOp4
 70
     0
102
RTVSPropertyOp5
 70
     0
102
RTVSPropertyOp6
 70
     0
102
RTVSPropertyOp7
 70
     0
102
RTVSPropertyOp8
 70
     0
102
RTVSPropertyOp9
 70
     0
102
RTVSPropertyOp10
 70
     0
102
RTVSPropertyOp11
 70
     0
102
RTVSPropertyOp12
 70
     0
102
RTVSPropertyOp13
 70
     0
102
RTVSPropertyOp14
 70
     2
102
RTVSPropertyOp15
 70
     0
102
RTVSPropertyOp16
 70
     0
102
RTVSPropertyOp17
 70
     0
102
RTVSPropertyOp18
 70
     0
102
RTVSPropertyOp19
 70
     0
102
RTVSPropertyOp20
 70
     0
102
RTVSPropertyOp21
 70
     0
102
RTVSPropertyOp22
 70
     0
102
RTVSPropertyOp23
 70
     0
102
RTVSPropertyOp24
 70
     0
102
RTVSPropertyOp25
 70
     0
102
RTVSPropertyOp26
 70
     0
102
RTVSPropertyOp27
 70
     0
102
RTVSPropertyOp28
 70
     1
102
RTVSPropertyOp29
 70
     1
102
RTVSPropertyOp30
 70
     1
102
RTVSPropertyOp31
 70
     1
102
RTVSPropertyOp32
 70
     1
102
RTVSPropertyOp33
 70
     1
102
RTVSPropertyOp34
 70
     1
102
RTVSPropertyOp35
 70
     1
102
RTVSPropertyOp36
 70
     1
102
RTVSPropertyOp37
 70
     0
102
RTVSPropertyOp38
 70
     0
102
RTVSPropertyOp39
 70
     0
102
RTVSPropertyOp40
 70
     0
102
RTVSPropertyOp41
 70
     0
102
RTVSPropertyOp42
 70
     0
102
RTVSPropertyOp43
 70
     0
102
RTVSPropertyOp44
 70
     0
102
RTVSPropertyOp45
 70
     1
102
RTVSPropertyOp46
 70
     0
102
RTVSPropertyOp47
 70
     0
102
RTVSPropertyOp48
 70
     0
102
RTVSPropertyOp49
 70
     1
102
RTVSPropertyOp50
 70
     0
102
RTVSPropertyOp51
 70
     0
102
RTVSPropertyOp52
 70
     0
102
RTVSPropertyOp53
 70
     0
102
RTVSPropertyOp54
 70
     0
102
RTVSPropertyOp55
 70
     1
102
RTVSPropertyOp56
 70
     0
102
RTVSPropertyOp57
 70
     0
102
RTVSPropertyOp58
 70
     0
102
RTVSPropertyOp59
 70
     0
102
RTVSPropertyOp60
 70
     0
102
RTVSPropertyOp61
 70
     0
102
RTVSPropertyOp62
 70
     0
  0
XRECORD
  5
B281
102
{ACAD_REACTORS
330
B280
102
}
330
B280
100
AcDbXrecord
280
     1
102
RTVSPost2010Prop28
280
     0
102
RTVSPost2010PropOp28
 70
     1
102
RTVSPost2010Prop29
280
     1
102
RTVSPost2010PropOp29
 70
     1
102
RTVSPost2010Prop30
280
     1
102
RTVSPost2010PropOp30
 70
     1
102
RTVSPost2010Prop31
280
     0
102
RTVSPost2010PropOp31
 70
     1
102
RTVSPost2010Prop32
280
     0
102
RTVSPost2010PropOp32
 70
     1
102
RTVSPost2010Prop33
280
     0
102
RTVSPost2010PropOp33
 70
     1
102
RTVSPost2010Prop34
280
     0
102
RTVSPost2010PropOp34
 70
     1
102
RTVSPost2010Prop35
280
     0
102
RTVSPost2010PropOp35
 70
     1
102
RTVSPost2010Prop36
280
     0
102
RTVSPost2010PropOp36
 70
     1
102
RTVSPost2010Prop37
 90
       50
102
RTVSPost2010PropOp37
 70
     1
102
RTVSPost2010Prop38
140
0.0
102
RTVSPost2010PropOp38
 70
     1
102
RTVSPost2010Prop39
140
1.0
102
RTVSPost2010PropOp39
 70
     1
102
RTVSPost2010Prop40
 90
        0
102
RTVSPost2010PropOp40
 70
     1
102
RTVSPost2010Prop41ColorIndex
 90
       18
102
RTVSPost2010Prop41ColorRGB
 90
        0
102
RTVSPost2010PropOp41
 70
     1
102
RTVSPost2010Prop42
 90
       50
102
RTVSPost2010PropOp42
 70
     1
102
RTVSPost2010Prop43
 90
        3
102
RTVSPost2010PropOp43
 70
     1
102
RTVSPost2010Prop44ColorIndex
 90
        5
102
RTVSPost2010Prop44ColorRGB
 90
      255
102
RTVSPost2010PropOp44
 70
     1
102
RTVSPost2010Prop45
280
     0
102
RTVSPost2010PropOp45
 70
     1
102
RTVSPost2010Prop46
 90
       50
102
RTVSPost2010PropOp46
 70
     1
102
RTVSPost2010Prop47
 90
       50
102
RTVSPost2010PropOp47
 70
     1
102
RTVSPost2010Prop48
 90
       50
102
RTVSPost2010PropOp48
 70
     1
102
RTVSPost2010Prop49
280
     0
102
RTVSPost2010PropOp49
 70
     1
102
RTVSPost2010Prop50
 90
       50
102
RTVSPost2010PropOp50
 70
     1
102
RTVSPost2010Prop51ColorIndex
 90
      256
102
RTVSPost2010Prop51ColorRGB
 90
-16777216
102
RTVSPost2010PropOp51
 70
     0
102
RTVSPost2010Prop52
140
1.0
102
RTVSPost2010PropOp52
 70
     0
102
RTVSPost2010Prop53
 90
        2
102
RTVSPost2010PropOp53
 70
     1
102
RTVSPost2010Prop54
  1
strokes_ogs.tif
102
RTVSPost2010PropOp54
 70
     1
102
RTVSPost2010Prop55
280
     0
102
RTVSPost2010PropOp55
 70
     1
102
RTVSPost2010Prop56
140
1.0
102
RTVSPost2010PropOp56
 70
     1
102
RTVSPost2010Prop57
140
1.0
102
RTVSPost2010PropOp57
 70
     1
102
RTVSPropertyOp0
 70
     1
102
RTVSPropertyOp1
 70
     1
102
RTVSPropertyOp2
 70
     1
102
RTVSPropertyOp3
 70
     1
102
RTVSPropertyOp4
 70
     1
102
RTVSPropertyOp5
 70
     1
102
RTVSPropertyOp6
 70
     1
102
RTVSPropertyOp7
 70
     1
102
RTVSPropertyOp8
 70
     1
102
RTVSPropertyOp9
 70
     1
102
RTVSPropertyOp10
 70
     1
102
RTVSPropertyOp11
 70
     1
102
RTVSPropertyOp12
 70
     1
102
RTVSPropertyOp13
 70
     1
102
RTVSPropertyOp14
 70
     1
102
RTVSPropertyOp15
 70
     1
102
RTVSPropertyOp16
 70
     1
102
RTVSPropertyOp17
 70
     1
102
RTVSPropertyOp18
 70
     1
102
RTVSPropertyOp19
 70
     1
102
RTVSPropertyOp20
 70
     1
102
RTVSPropertyOp21
 70
     1
102
RTVSPropertyOp22
 70
     1
102
RTVSPropertyOp23
 70
     1
102
RTVSPropertyOp24
 70
     1
102
RTVSPropertyOp25
 70
     1
102
RTVSPropertyOp26
 70
     1
102
RTVSPropertyOp27
 70
     1
102
RTVSPropertyOp28
 70
     1
102
RTVSPropertyOp29
 70
     1
102
RTVSPropertyOp30
 70
     1
102
RTVSPropertyOp31
 70
     1
102
RTVSPropertyOp32
 70
     1
102
RTVSPropertyOp33
 70
     1
102
RTVSPropertyOp34
 70
     1
102
RTVSPropertyOp35
 70
     1
102
RTVSPropertyOp36
 70
     1
102
RTVSPropertyOp37
 70
     1
102
RTVSPropertyOp38
 70
     1
102
RTVSPropertyOp39
 70
     1
102
RTVSPropertyOp40
 70
     1
102
RTVSPropertyOp41
 70
     1
102
RTVSPropertyOp42
 70
     1
102
RTVSPropertyOp43
 70
     1
102
RTVSPropertyOp44
 70
     1
102
RTVSPropertyOp45
 70
     1
102
RTVSPropertyOp46
 70
     1
102
RTVSPropertyOp47
 70
     1
102
RTVSPropertyOp48
 70
     1
102
RTVSPropertyOp49
 70
     1
102
RTVSPropertyOp50
 70
     1
102
RTVSPropertyOp51
 70
     0
102
RTVSPropertyOp52
 70
     0
102
RTVSPropertyOp53
 70
     1
102
RTVSPropertyOp54
 70
     1
102
RTVSPropertyOp55
 70
     1
102
RTVSPropertyOp56
 70
     1
102
RTVSPropertyOp57
 70
     1
102
RTVSPropertyOp58
 70
     1
102
RTVSPropertyOp59
 70
     1
102
RTVSPropertyOp60
 70
     1
102
RTVSPropertyOp61
 70
     1
102
RTVSPropertyOp62
 70
     1
  0
XRECORD
  5
B293
102
{ACAD_REACTORS
330
B292
102
}
330
B292
100
AcDbXrecord
280
     1
102
RTVSPost2010Prop28
280
     0
102
RTVSPost2010PropOp28
 70
     1
102
RTVSPost2010Prop29
280
     1
102
RTVSPost2010PropOp29
 70
     1
102
RTVSPost2010Prop30
280
     1
102
RTVSPost2010PropOp30
 70
     1
102
RTVSPost2010Prop31
280
     0
102
RTVSPost2010PropOp31
 70
     1
102
RTVSPost2010Prop32
280
     0
102
RTVSPost2010PropOp32
 70
     1
102
RTVSPost2010Prop33
280
     0
102
RTVSPost2010PropOp33
 70
     1
102
RTVSPost2010Prop34
280
     0
102
RTVSPost2010PropOp34
 70
     1
102
RTVSPost2010Prop35
280
     0
102
RTVSPost2010PropOp35
 70
     1
102
RTVSPost2010Prop36
280
     0
102
RTVSPost2010PropOp36
 70
     1
102
RTVSPost2010Prop37
 90
       50
102
RTVSPost2010PropOp37
 70
     0
102
RTVSPost2010Prop38
140
0.0
102
RTVSPost2010PropOp38
 70
     0
102
RTVSPost2010Prop39
140
1.0
102
RTVSPost2010PropOp39
 70
     0
102
RTVSPost2010Prop40
 90
        0
102
RTVSPost2010PropOp40
 70
     0
102
RTVSPost2010Prop41ColorIndex
 90
       18
102
RTVSPost2010Prop41ColorRGB
 90
        0
102
RTVSPost2010PropOp41
 70
     0
102
RTVSPost2010Prop42
 90
       50
102
RTVSPost2010PropOp42
 70
     0
102
RTVSPost2010Prop43
 90
        3
102
RTVSPost2010PropOp43
 70
     0
102
RTVSPost2010Prop44ColorIndex
 90
        5
102
RTVSPost2010Prop44ColorRGB
 90
      255
102
RTVSPost2010PropOp44
 70
     0
102
RTVSPost2010Prop45
280
     0
102
RTVSPost2010PropOp45
 70
     1
102
RTVSPost2010Prop46
 90
       50
102
RTVSPost2010PropOp46
 70
     0
102
RTVSPost2010Prop47
 90
       50
102
RTVSPost2010PropOp47
 70
     0
102
RTVSPost2010Prop48
 90
       50
102
RTVSPost2010PropOp48
 70
     0
102
RTVSPost2010Prop49
280
     0
102
RTVSPost2010PropOp49
 70
     1
102
RTVSPost2010Prop50
 90
       50
102
RTVSPost2010PropOp50
 70
     0
102
RTVSPost2010Prop51ColorIndex
 90
      256
102
RTVSPost2010Prop51ColorRGB
 90
-16777216
102
RTVSPost2010PropOp51
 70
     0
102
RTVSPost2010Prop52
140
1.0
102
RTVSPost2010PropOp52
 70
     0
102
RTVSPost2010Prop53
 90
        2
102
RTVSPost2010PropOp53
 70
     0
102
RTVSPost2010Prop54
  1
strokes_ogs.tif
102
RTVSPost2010PropOp54
 70
     0
102
RTVSPost2010Prop55
280
     0
102
RTVSPost2010PropOp55
 70
     1
102
RTVSPost2010Prop56
140
1.0
102
RTVSPost2010PropOp56
 70
     0
102
RTVSPost2010Prop57
140
1.0
102
RTVSPost2010PropOp57
 70
     0
102
RTVSPropertyOp0
 70
     0
102
RTVSPropertyOp1
 70
     0
102
RTVSPropertyOp2
 70
     0
102
RTVSPropertyOp3
 70
     0
102
RTVSPropertyOp4
 70
     0
102
RTVSPropertyOp5
 70
     0
102
RTVSPropertyOp6
 70
     0
102
RTVSPropertyOp7
 70
     0
102
RTVSPropertyOp8
 70
     0
102
RTVSPropertyOp9
 70
     0
102
RTVSPropertyOp10
 70
     0
102
RTVSPropertyOp11
 70
     0
102
RTVSPropertyOp12
 70
     0
102
RTVSPropertyOp13
 70
     0
102
RTVSPropertyOp14
 70
     2
102
RTVSPropertyOp15
 70
     0
102
RTVSPropertyOp16
 70
     0
102
RTVSPropertyOp17
 70
     0
102
RTVSPropertyOp18
 70
     0
102
RTVSPropertyOp19
 70
     0
102
RTVSPropertyOp20
 70
     0
102
RTVSPropertyOp21
 70
     0
102
RTVSPropertyOp22
 70
     0
102
RTVSPropertyOp23
 70
     0
102
RTVSPropertyOp24
 70
     0
102
RTVSPropertyOp25
 70
     0
102
RTVSPropertyOp26
 70
     0
102
RTVSPropertyOp27
 70
     0
102
RTVSPropertyOp28
 70
     1
102
RTVSPropertyOp29
 70
     1
102
RTVSPropertyOp30
 70
     1
102
RTVSPropertyOp31
 70
     1
102
RTVSPropertyOp32
 70
     1
102
RTVSPropertyOp33
 70
     1
102
RTVSPropertyOp34
 70
     1
102
RTVSPropertyOp35
 70
     1
102
RTVSPropertyOp36
 70
     1
102
RTVSPropertyOp37
 70
     0
102
RTVSPropertyOp38
 70
     0
102
RTVSPropertyOp39
 70
     0
102
RTVSPropertyOp40
 70
     0
102
RTVSPropertyOp41
 70
     0
102
RTVSPropertyOp42
 70
     0
102
RTVSPropertyOp43
 70
     0
102
RTVSPropertyOp44
 70
     0
102
RTVSPropertyOp45
 70
     1
102
RTVSPropertyOp46
 70
     0
102
RTVSPropertyOp47
 70
     0
102
RTVSPropertyOp48
 70
     0
102
RTVSPropertyOp49
 70
     1
102
RTVSPropertyOp50
 70
     0
102
RTVSPropertyOp51
 70
     0
102
RTVSPropertyOp52
 70
     0
102
RTVSPropertyOp53
 70
     0
102
RTVSPropertyOp54
 70
     0
102
RTVSPropertyOp55
 70
     1
102
RTVSPropertyOp56
 70
     0
102
RTVSPropertyOp57
 70
     0
102
RTVSPropertyOp58
 70
     0
102
RTVSPropertyOp59
 70
     0
102
RTVSPropertyOp60
 70
     0
102
RTVSPropertyOp61
 70
     0
102
RTVSPropertyOp62
 70
     0
  0
XRECORD
  5
B279
102
{ACAD_REACTORS
330
B278
102
}
330
B278
100
AcDbXrecord
280
     1
102
RTVSPost2010Prop28
280
     0
102
RTVSPost2010PropOp28
 70
     1
102
RTVSPost2010Prop29
280
     1
102
RTVSPost2010PropOp29
 70
     1
102
RTVSPost2010Prop30
280
     1
102
RTVSPost2010PropOp30
 70
     1
102
RTVSPost2010Prop31
280
     0
102
RTVSPost2010PropOp31
 70
     1
102
RTVSPost2010Prop32
280
     0
102
RTVSPost2010PropOp32
 70
     1
102
RTVSPost2010Prop33
280
     0
102
RTVSPost2010PropOp33
 70
     1
102
RTVSPost2010Prop34
280
     0
102
RTVSPost2010PropOp34
 70
     1
102
RTVSPost2010Prop35
280
     0
102
RTVSPost2010PropOp35
 70
     1
102
RTVSPost2010Prop36
280
     0
102
RTVSPost2010PropOp36
 70
     1
102
RTVSPost2010Prop37
 90
       50
102
RTVSPost2010PropOp37
 70
     1
102
RTVSPost2010Prop38
140
0.0
102
RTVSPost2010PropOp38
 70
     1
102
RTVSPost2010Prop39
140
1.0
102
RTVSPost2010PropOp39
 70
     1
102
RTVSPost2010Prop40
 90
        0
102
RTVSPost2010PropOp40
 70
     1
102
RTVSPost2010Prop41ColorIndex
 90
       18
102
RTVSPost2010Prop41ColorRGB
 90
        0
102
RTVSPost2010PropOp41
 70
     1
102
RTVSPost2010Prop42
 90
       50
102
RTVSPost2010PropOp42
 70
     1
102
RTVSPost2010Prop43
 90
        3
102
RTVSPost2010PropOp43
 70
     1
102
RTVSPost2010Prop44ColorIndex
 90
        5
102
RTVSPost2010Prop44ColorRGB
 90
      255
102
RTVSPost2010PropOp44
 70
     1
102
RTVSPost2010Prop45
280
     0
102
RTVSPost2010PropOp45
 70
     1
102
RTVSPost2010Prop46
 90
       50
102
RTVSPost2010PropOp46
 70
     1
102
RTVSPost2010Prop47
 90
       50
102
RTVSPost2010PropOp47
 70
     1
102
RTVSPost2010Prop48
 90
       50
102
RTVSPost2010PropOp48
 70
     1
102
RTVSPost2010Prop49
280
     0
102
RTVSPost2010PropOp49
 70
     1
102
RTVSPost2010Prop50
 90
       50
102
RTVSPost2010PropOp50
 70
     1
102
RTVSPost2010Prop51ColorIndex
 90
      256
102
RTVSPost2010Prop51ColorRGB
 90
-16777216
102
RTVSPost2010PropOp51
 70
     0
102
RTVSPost2010Prop52
140
1.0
102
RTVSPost2010PropOp52
 70
     0
102
RTVSPost2010Prop53
 90
        2
102
RTVSPost2010PropOp53
 70
     1
102
RTVSPost2010Prop54
  1
strokes_ogs.tif
102
RTVSPost2010PropOp54
 70
     1
102
RTVSPost2010Prop55
280
     0
102
RTVSPost2010PropOp55
 70
     1
102
RTVSPost2010Prop56
140
1.0
102
RTVSPost2010PropOp56
 70
     1
102
RTVSPost2010Prop57
140
1.0
102
RTVSPost2010PropOp57
 70
     1
102
RTVSPropertyOp0
 70
     1
102
RTVSPropertyOp1
 70
     1
102
RTVSPropertyOp2
 70
     1
102
RTVSPropertyOp3
 70
     1
102
RTVSPropertyOp4
 70
     1
102
RTVSPropertyOp5
 70
     1
102
RTVSPropertyOp6
 70
     1
102
RTVSPropertyOp7
 70
     1
102
RTVSPropertyOp8
 70
     1
102
RTVSPropertyOp9
 70
     1
102
RTVSPropertyOp10
 70
     1
102
RTVSPropertyOp11
 70
     1
102
RTVSPropertyOp12
 70
     1
102
RTVSPropertyOp13
 70
     1
102
RTVSPropertyOp14
 70
     1
102
RTVSPropertyOp15
 70
     1
102
RTVSPropertyOp16
 70
     1
102
RTVSPropertyOp17
 70
     1
102
RTVSPropertyOp18
 70
     1
102
RTVSPropertyOp19
 70
     1
102
RTVSPropertyOp20
 70
     1
102
RTVSPropertyOp21
 70
     1
102
RTVSPropertyOp22
 70
     1
102
RTVSPropertyOp23
 70
     1
102
RTVSPropertyOp24
 70
     1
102
RTVSPropertyOp25
 70
     1
102
RTVSPropertyOp26
 70
     1
102
RTVSPropertyOp27
 70
     1
102
RTVSPropertyOp28
 70
     1
102
RTVSPropertyOp29
 70
     1
102
RTVSPropertyOp30
 70
     1
102
RTVSPropertyOp31
 70
     1
102
RTVSPropertyOp32
 70
     1
102
RTVSPropertyOp33
 70
     1
102
RTVSPropertyOp34
 70
     1
102
RTVSPropertyOp35
 70
     1
102
RTVSPropertyOp36
 70
     1
102
RTVSPropertyOp37
 70
     1
102
RTVSPropertyOp38
 70
     1
102
RTVSPropertyOp39
 70
     1
102
RTVSPropertyOp40
 70
     1
102
RTVSPropertyOp41
 70
     1
102
RTVSPropertyOp42
 70
     1
102
RTVSPropertyOp43
 70
     1
102
RTVSPropertyOp44
 70
     1
102
RTVSPropertyOp45
 70
     1
102
RTVSPropertyOp46
 70
     1
102
RTVSPropertyOp47
 70
     1
102
RTVSPropertyOp48
 70
     1
102
RTVSPropertyOp49
 70
     1
102
RTVSPropertyOp50
 70
     1
102
RTVSPropertyOp51
 70
     0
102
RTVSPropertyOp52
 70
     0
102
RTVSPropertyOp53
 70
     1
102
RTVSPropertyOp54
 70
     1
102
RTVSPropertyOp55
 70
     1
102
RTVSPropertyOp56
 70
     1
102
RTVSPropertyOp57
 70
     1
102
RTVSPropertyOp58
 70
     1
102
RTVSPropertyOp59
 70
     1
102
RTVSPropertyOp60
 70
     1
102
RTVSPropertyOp61
 70
     1
102
RTVSPropertyOp62
 70
     1
  0
XRECORD
  5
B28F
102
{ACAD_REACTORS
330
B28E
102
}
330
B28E
100
AcDbXrecord
280
     1
102
RTVSPost2010Prop28
280
     0
102
RTVSPost2010PropOp28
 70
     1
102
RTVSPost2010Prop29
280
     1
102
RTVSPost2010PropOp29
 70
     1
102
RTVSPost2010Prop30
280
     1
102
RTVSPost2010PropOp30
 70
     1
102
RTVSPost2010Prop31
280
     0
102
RTVSPost2010PropOp31
 70
     1
102
RTVSPost2010Prop32
280
     0
102
RTVSPost2010PropOp32
 70
     1
102
RTVSPost2010Prop33
280
     0
102
RTVSPost2010PropOp33
 70
     1
102
RTVSPost2010Prop34
280
     0
102
RTVSPost2010PropOp34
 70
     1
102
RTVSPost2010Prop35
280
     0
102
RTVSPost2010PropOp35
 70
     1
102
RTVSPost2010Prop36
280
     0
102
RTVSPost2010PropOp36
 70
     1
102
RTVSPost2010Prop37
 90
       50
102
RTVSPost2010PropOp37
 70
     1
102
RTVSPost2010Prop38
140
0.0
102
RTVSPost2010PropOp38
 70
     1
102
RTVSPost2010Prop39
140
1.0
102
RTVSPost2010PropOp39
 70
     1
102
RTVSPost2010Prop40
 90
        0
102
RTVSPost2010PropOp40
 70
     1
102
RTVSPost2010Prop41ColorIndex
 90
       18
102
RTVSPost2010Prop41ColorRGB
 90
        0
102
RTVSPost2010PropOp41
 70
     1
102
RTVSPost2010Prop42
 90
       50
102
RTVSPost2010PropOp42
 70
     1
102
RTVSPost2010Prop43
 90
        3
102
RTVSPost2010PropOp43
 70
     1
102
RTVSPost2010Prop44ColorIndex
 90
        5
102
RTVSPost2010Prop44ColorRGB
 90
      255
102
RTVSPost2010PropOp44
 70
     1
102
RTVSPost2010Prop45
280
     0
102
RTVSPost2010PropOp45
 70
     1
102
RTVSPost2010Prop46
 90
       50
102
RTVSPost2010PropOp46
 70
     1
102
RTVSPost2010Prop47
 90
       50
102
RTVSPost2010PropOp47
 70
     1
102
RTVSPost2010Prop48
 90
       50
102
RTVSPost2010PropOp48
 70
     1
102
RTVSPost2010Prop49
280
     0
102
RTVSPost2010PropOp49
 70
     1
102
RTVSPost2010Prop50
 90
       50
102
RTVSPost2010PropOp50
 70
     1
102
RTVSPost2010Prop51ColorIndex
 90
      256
102
RTVSPost2010Prop51ColorRGB
 90
-16777216
102
RTVSPost2010PropOp51
 70
     0
102
RTVSPost2010Prop52
140
1.0
102
RTVSPost2010PropOp52
 70
     0
102
RTVSPost2010Prop53
 90
        2
102
RTVSPost2010PropOp53
 70
     1
102
RTVSPost2010Prop54
  1
strokes_ogs.tif
102
RTVSPost2010PropOp54
 70
     1
102
RTVSPost2010Prop55
280
     0
102
RTVSPost2010PropOp55
 70
     1
102
RTVSPost2010Prop56
140
1.0
102
RTVSPost2010PropOp56
 70
     1
102
RTVSPost2010Prop57
140
1.0
102
RTVSPost2010PropOp57
 70
     1
102
RTVSPropertyOp0
 70
     1
102
RTVSPropertyOp1
 70
     1
102
RTVSPropertyOp2
 70
     1
102
RTVSPropertyOp3
 70
     1
102
RTVSPropertyOp4
 70
     1
102
RTVSPropertyOp5
 70
     1
102
RTVSPropertyOp6
 70
     1
102
RTVSPropertyOp7
 70
     1
102
RTVSPropertyOp8
 70
     1
102
RTVSPropertyOp9
 70
     1
102
RTVSPropertyOp10
 70
     1
102
RTVSPropertyOp11
 70
     1
102
RTVSPropertyOp12
 70
     1
102
RTVSPropertyOp13
 70
     1
102
RTVSPropertyOp14
 70
     1
102
RTVSPropertyOp15
 70
     1
102
RTVSPropertyOp16
 70
     1
102
RTVSPropertyOp17
 70
     1
102
RTVSPropertyOp18
 70
     1
102
RTVSPropertyOp19
 70
     1
102
RTVSPropertyOp20
 70
     1
102
RTVSPropertyOp21
 70
     1
102
RTVSPropertyOp22
 70
     1
102
RTVSPropertyOp23
 70
     1
102
RTVSPropertyOp24
 70
     1
102
RTVSPropertyOp25
 70
     1
102
RTVSPropertyOp26
 70
     1
102
RTVSPropertyOp27
 70
     1
102
RTVSPropertyOp28
 70
     1
102
RTVSPropertyOp29
 70
     1
102
RTVSPropertyOp30
 70
     1
102
RTVSPropertyOp31
 70
     1
102
RTVSPropertyOp32
 70
     1
102
RTVSPropertyOp33
 70
     1
102
RTVSPropertyOp34
 70
     1
102
RTVSPropertyOp35
 70
     1
102
RTVSPropertyOp36
 70
     1
102
RTVSPropertyOp37
 70
     1
102
RTVSPropertyOp38
 70
     1
102
RTVSPropertyOp39
 70
     1
102
RTVSPropertyOp40
 70
     1
102
RTVSPropertyOp41
 70
     1
102
RTVSPropertyOp42
 70
     1
102
RTVSPropertyOp43
 70
     1
102
RTVSPropertyOp44
 70
     1
102
RTVSPropertyOp45
 70
     1
102
RTVSPropertyOp46
 70
     1
102
RTVSPropertyOp47
 70
     1
102
RTVSPropertyOp48
 70
     1
102
RTVSPropertyOp49
 70
     1
102
RTVSPropertyOp50
 70
     1
102
RTVSPropertyOp51
 70
     0
102
RTVSPropertyOp52
 70
     0
102
RTVSPropertyOp53
 70
     1
102
RTVSPropertyOp54
 70
     1
102
RTVSPropertyOp55
 70
     1
102
RTVSPropertyOp56
 70
     1
102
RTVSPropertyOp57
 70
     1
102
RTVSPropertyOp58
 70
     1
102
RTVSPropertyOp59
 70
     1
102
RTVSPropertyOp60
 70
     1
102
RTVSPropertyOp61
 70
     1
102
RTVSPropertyOp62
 70
     1
  0
XRECORD
  5
B28D
102
{ACAD_REACTORS
330
B28C
102
}
330
B28C
100
AcDbXrecord
280
     1
102
RTVSPost2010Prop28
280
     0
102
RTVSPost2010PropOp28
 70
     1
102
RTVSPost2010Prop29
280
     1
102
RTVSPost2010PropOp29
 70
     1
102
RTVSPost2010Prop30
280
     1
102
RTVSPost2010PropOp30
 70
     1
102
RTVSPost2010Prop31
280
     0
102
RTVSPost2010PropOp31
 70
     1
102
RTVSPost2010Prop32
280
     0
102
RTVSPost2010PropOp32
 70
     1
102
RTVSPost2010Prop33
280
     0
102
RTVSPost2010PropOp33
 70
     1
102
RTVSPost2010Prop34
280
     0
102
RTVSPost2010PropOp34
 70
     1
102
RTVSPost2010Prop35
280
     0
102
RTVSPost2010PropOp35
 70
     1
102
RTVSPost2010Prop36
280
     0
102
RTVSPost2010PropOp36
 70
     1
102
RTVSPost2010Prop37
 90
       50
102
RTVSPost2010PropOp37
 70
     1
102
RTVSPost2010Prop38
140
0.0
102
RTVSPost2010PropOp38
 70
     1
102
RTVSPost2010Prop39
140
1.0
102
RTVSPost2010PropOp39
 70
     1
102
RTVSPost2010Prop40
 90
        0
102
RTVSPost2010PropOp40
 70
     1
102
RTVSPost2010Prop41ColorIndex
 90
       18
102
RTVSPost2010Prop41ColorRGB
 90
        0
102
RTVSPost2010PropOp41
 70
     1
102
RTVSPost2010Prop42
 90
       50
102
RTVSPost2010PropOp42
 70
     1
102
RTVSPost2010Prop43
 90
        3
102
RTVSPost2010PropOp43
 70
     1
102
RTVSPost2010Prop44ColorIndex
 90
        5
102
RTVSPost2010Prop44ColorRGB
 90
      255
102
RTVSPost2010PropOp44
 70
     1
102
RTVSPost2010Prop45
280
     0
102
RTVSPost2010PropOp45
 70
     1
102
RTVSPost2010Prop46
 90
       50
102
RTVSPost2010PropOp46
 70
     1
102
RTVSPost2010Prop47
 90
       50
102
RTVSPost2010PropOp47
 70
     1
102
RTVSPost2010Prop48
 90
       50
102
RTVSPost2010PropOp48
 70
     1
102
RTVSPost2010Prop49
280
     0
102
RTVSPost2010PropOp49
 70
     1
102
RTVSPost2010Prop50
 90
       50
102
RTVSPost2010PropOp50
 70
     1
102
RTVSPost2010Prop51ColorIndex
 90
      256
102
RTVSPost2010Prop51ColorRGB
 90
-16777216
102
RTVSPost2010PropOp51
 70
     0
102
RTVSPost2010Prop52
140
1.0
102
RTVSPost2010PropOp52
 70
     0
102
RTVSPost2010Prop53
 90
        2
102
RTVSPost2010PropOp53
 70
     1
102
RTVSPost2010Prop54
  1
strokes_ogs.tif
102
RTVSPost2010PropOp54
 70
     1
102
RTVSPost2010Prop55
280
     0
102
RTVSPost2010PropOp55
 70
     1
102
RTVSPost2010Prop56
140
1.0
102
RTVSPost2010PropOp56
 70
     1
102
RTVSPost2010Prop57
140
1.0
102
RTVSPost2010PropOp57
 70
     1
102
RTVSPropertyOp0
 70
     1
102
RTVSPropertyOp1
 70
     1
102
RTVSPropertyOp2
 70
     1
102
RTVSPropertyOp3
 70
     1
102
RTVSPropertyOp4
 70
     1
102
RTVSPropertyOp5
 70
     1
102
RTVSPropertyOp6
 70
     1
102
RTVSPropertyOp7
 70
     1
102
RTVSPropertyOp8
 70
     1
102
RTVSPropertyOp9
 70
     1
102
RTVSPropertyOp10
 70
     1
102
RTVSPropertyOp11
 70
     1
102
RTVSPropertyOp12
 70
     1
102
RTVSPropertyOp13
 70
     1
102
RTVSPropertyOp14
 70
     1
102
RTVSPropertyOp15
 70
     1
102
RTVSPropertyOp16
 70
     1
102
RTVSPropertyOp17
 70
     1
102
RTVSPropertyOp18
 70
     1
102
RTVSPropertyOp19
 70
     1
102
RTVSPropertyOp20
 70
     1
102
RTVSPropertyOp21
 70
     1
102
RTVSPropertyOp22
 70
     1
102
RTVSPropertyOp23
 70
     1
102
RTVSPropertyOp24
 70
     1
102
RTVSPropertyOp25
 70
     1
102
RTVSPropertyOp26
 70
     1
102
RTVSPropertyOp27
 70
     1
102
RTVSPropertyOp28
 70
     1
102
RTVSPropertyOp29
 70
     1
102
RTVSPropertyOp30
 70
     1
102
RTVSPropertyOp31
 70
     1
102
RTVSPropertyOp32
 70
     1
102
RTVSPropertyOp33
 70
     1
102
RTVSPropertyOp34
 70
     1
102
RTVSPropertyOp35
 70
     1
102
RTVSPropertyOp36
 70
     1
102
RTVSPropertyOp37
 70
     1
102
RTVSPropertyOp38
 70
     1
102
RTVSPropertyOp39
 70
     1
102
RTVSPropertyOp40
 70
     1
102
RTVSPropertyOp41
 70
     1
102
RTVSPropertyOp42
 70
     1
102
RTVSPropertyOp43
 70
     1
102
RTVSPropertyOp44
 70
     1
102
RTVSPropertyOp45
 70
     1
102
RTVSPropertyOp46
 70
     1
102
RTVSPropertyOp47
 70
     1
102
RTVSPropertyOp48
 70
     1
102
RTVSPropertyOp49
 70
     1
102
RTVSPropertyOp50
 70
     1
102
RTVSPropertyOp51
 70
     0
102
RTVSPropertyOp52
 70
     0
102
RTVSPropertyOp53
 70
     1
102
RTVSPropertyOp54
 70
     1
102
RTVSPropertyOp55
 70
     1
102
RTVSPropertyOp56
 70
     1
102
RTVSPropertyOp57
 70
     1
102
RTVSPropertyOp58
 70
     1
102
RTVSPropertyOp59
 70
     1
102
RTVSPropertyOp60
 70
     1
102
RTVSPropertyOp61
 70
     1
102
RTVSPropertyOp62
 70
     1
  0
XRECORD
  5
B287
102
{ACAD_REACTORS
330
B286
102
}
330
B286
100
AcDbXrecord
280
     1
102
RTVSPost2010Prop28
280
     0
102
RTVSPost2010PropOp28
 70
     1
102
RTVSPost2010Prop29
280
     1
102
RTVSPost2010PropOp29
 70
     1
102
RTVSPost2010Prop30
280
     1
102
RTVSPost2010PropOp30
 70
     1
102
RTVSPost2010Prop31
280
     0
102
RTVSPost2010PropOp31
 70
     1
102
RTVSPost2010Prop32
280
     0
102
RTVSPost2010PropOp32
 70
     1
102
RTVSPost2010Prop33
280
     0
102
RTVSPost2010PropOp33
 70
     1
102
RTVSPost2010Prop34
280
     0
102
RTVSPost2010PropOp34
 70
     1
102
RTVSPost2010Prop35
280
     0
102
RTVSPost2010PropOp35
 70
     1
102
RTVSPost2010Prop36
280
     0
102
RTVSPost2010PropOp36
 70
     1
102
RTVSPost2010Prop37
 90
       50
102
RTVSPost2010PropOp37
 70
     1
102
RTVSPost2010Prop38
140
0.0
102
RTVSPost2010PropOp38
 70
     1
102
RTVSPost2010Prop39
140
1.0
102
RTVSPost2010PropOp39
 70
     1
102
RTVSPost2010Prop40
 90
        0
102
RTVSPost2010PropOp40
 70
     1
102
RTVSPost2010Prop41ColorIndex
 90
       18
102
RTVSPost2010Prop41ColorRGB
 90
        0
102
RTVSPost2010PropOp41
 70
     1
102
RTVSPost2010Prop42
 90
       50
102
RTVSPost2010PropOp42
 70
     1
102
RTVSPost2010Prop43
 90
        3
102
RTVSPost2010PropOp43
 70
     1
102
RTVSPost2010Prop44ColorIndex
 90
        5
102
RTVSPost2010Prop44ColorRGB
 90
      255
102
RTVSPost2010PropOp44
 70
     1
102
RTVSPost2010Prop45
280
     0
102
RTVSPost2010PropOp45
 70
     1
102
RTVSPost2010Prop46
 90
       50
102
RTVSPost2010PropOp46
 70
     1
102
RTVSPost2010Prop47
 90
       50
102
RTVSPost2010PropOp47
 70
     1
102
RTVSPost2010Prop48
 90
       50
102
RTVSPost2010PropOp48
 70
     1
102
RTVSPost2010Prop49
280
     0
102
RTVSPost2010PropOp49
 70
     1
102
RTVSPost2010Prop50
 90
       50
102
RTVSPost2010PropOp50
 70
     1
102
RTVSPost2010Prop51ColorIndex
 90
      256
102
RTVSPost2010Prop51ColorRGB
 90
-16777216
102
RTVSPost2010PropOp51
 70
     0
102
RTVSPost2010Prop52
140
1.0
102
RTVSPost2010PropOp52
 70
     0
102
RTVSPost2010Prop53
 90
        2
102
RTVSPost2010PropOp53
 70
     1
102
RTVSPost2010Prop54
  1
strokes_ogs.tif
102
RTVSPost2010PropOp54
 70
     1
102
RTVSPost2010Prop55
280
     0
102
RTVSPost2010PropOp55
 70
     1
102
RTVSPost2010Prop56
140
1.0
102
RTVSPost2010PropOp56
 70
     1
102
RTVSPost2010Prop57
140
1.0
102
RTVSPost2010PropOp57
 70
     1
102
RTVSPropertyOp0
 70
     1
102
RTVSPropertyOp1
 70
     1
102
RTVSPropertyOp2
 70
     1
102
RTVSPropertyOp3
 70
     1
102
RTVSPropertyOp4
 70
     1
102
RTVSPropertyOp5
 70
     1
102
RTVSPropertyOp6
 70
     1
102
RTVSPropertyOp7
 70
     1
102
RTVSPropertyOp8
 70
     1
102
RTVSPropertyOp9
 70
     1
102
RTVSPropertyOp10
 70
     1
102
RTVSPropertyOp11
 70
     1
102
RTVSPropertyOp12
 70
     1
102
RTVSPropertyOp13
 70
     1
102
RTVSPropertyOp14
 70
     1
102
RTVSPropertyOp15
 70
     1
102
RTVSPropertyOp16
 70
     1
102
RTVSPropertyOp17
 70
     1
102
RTVSPropertyOp18
 70
     1
102
RTVSPropertyOp19
 70
     1
102
RTVSPropertyOp20
 70
     1
102
RTVSPropertyOp21
 70
     1
102
RTVSPropertyOp22
 70
     1
102
RTVSPropertyOp23
 70
     1
102
RTVSPropertyOp24
 70
     1
102
RTVSPropertyOp25
 70
     1
102
RTVSPropertyOp26
 70
     1
102
RTVSPropertyOp27
 70
     1
102
RTVSPropertyOp28
 70
     1
102
RTVSPropertyOp29
 70
     1
102
RTVSPropertyOp30
 70
     1
102
RTVSPropertyOp31
 70
     1
102
RTVSPropertyOp32
 70
     1
102
RTVSPropertyOp33
 70
     1
102
RTVSPropertyOp34
 70
     1
102
RTVSPropertyOp35
 70
     1
102
RTVSPropertyOp36
 70
     1
102
RTVSPropertyOp37
 70
     1
102
RTVSPropertyOp38
 70
     1
102
RTVSPropertyOp39
 70
     1
102
RTVSPropertyOp40
 70
     1
102
RTVSPropertyOp41
 70
     1
102
RTVSPropertyOp42
 70
     1
102
RTVSPropertyOp43
 70
     1
102
RTVSPropertyOp44
 70
     1
102
RTVSPropertyOp45
 70
     1
102
RTVSPropertyOp46
 70
     1
102
RTVSPropertyOp47
 70
     1
102
RTVSPropertyOp48
 70
     1
102
RTVSPropertyOp49
 70
     1
102
RTVSPropertyOp50
 70
     1
102
RTVSPropertyOp51
 70
     0
102
RTVSPropertyOp52
 70
     0
102
RTVSPropertyOp53
 70
     1
102
RTVSPropertyOp54
 70
     1
102
RTVSPropertyOp55
 70
     1
102
RTVSPropertyOp56
 70
     1
102
RTVSPropertyOp57
 70
     1
102
RTVSPropertyOp58
 70
     1
102
RTVSPropertyOp59
 70
     1
102
RTVSPropertyOp60
 70
     1
102
RTVSPropertyOp61
 70
     1
102
RTVSPropertyOp62
 70
     1
  0
XRECORD
  5
B289
102
{ACAD_REACTORS
330
B288
102
}
330
B288
100
AcDbXrecord
280
     1
102
RTVSPost2010Prop28
280
     0
102
RTVSPost2010PropOp28
 70
     1
102
RTVSPost2010Prop29
280
     1
102
RTVSPost2010PropOp29
 70
     1
102
RTVSPost2010Prop30
280
     1
102
RTVSPost2010PropOp30
 70
     1
102
RTVSPost2010Prop31
280
     0
102
RTVSPost2010PropOp31
 70
     1
102
RTVSPost2010Prop32
280
     0
102
RTVSPost2010PropOp32
 70
     1
102
RTVSPost2010Prop33
280
     0
102
RTVSPost2010PropOp33
 70
     1
102
RTVSPost2010Prop34
280
     0
102
RTVSPost2010PropOp34
 70
     1
102
RTVSPost2010Prop35
280
     0
102
RTVSPost2010PropOp35
 70
     1
102
RTVSPost2010Prop36
280
     0
102
RTVSPost2010PropOp36
 70
     1
102
RTVSPost2010Prop37
 90
       50
102
RTVSPost2010PropOp37
 70
     1
102
RTVSPost2010Prop38
140
0.0
102
RTVSPost2010PropOp38
 70
     1
102
RTVSPost2010Prop39
140
1.0
102
RTVSPost2010PropOp39
 70
     1
102
RTVSPost2010Prop40
 90
        0
102
RTVSPost2010PropOp40
 70
     1
102
RTVSPost2010Prop41ColorIndex
 90
       18
102
RTVSPost2010Prop41ColorRGB
 90
        0
102
RTVSPost2010PropOp41
 70
     1
102
RTVSPost2010Prop42
 90
       50
102
RTVSPost2010PropOp42
 70
     1
102
RTVSPost2010Prop43
 90
        3
102
RTVSPost2010PropOp43
 70
     1
102
RTVSPost2010Prop44ColorIndex
 90
        5
102
RTVSPost2010Prop44ColorRGB
 90
      255
102
RTVSPost2010PropOp44
 70
     1
102
RTVSPost2010Prop45
280
     0
102
RTVSPost2010PropOp45
 70
     1
102
RTVSPost2010Prop46
 90
       50
102
RTVSPost2010PropOp46
 70
     1
102
RTVSPost2010Prop47
 90
       50
102
RTVSPost2010PropOp47
 70
     1
102
RTVSPost2010Prop48
 90
       50
102
RTVSPost2010PropOp48
 70
     1
102
RTVSPost2010Prop49
280
     0
102
RTVSPost2010PropOp49
 70
     1
102
RTVSPost2010Prop50
 90
       50
102
RTVSPost2010PropOp50
 70
     1
102
RTVSPost2010Prop51ColorIndex
 90
      256
102
RTVSPost2010Prop51ColorRGB
 90
-16777216
102
RTVSPost2010PropOp51
 70
     0
102
RTVSPost2010Prop52
140
1.0
102
RTVSPost2010PropOp52
 70
     0
102
RTVSPost2010Prop53
 90
        2
102
RTVSPost2010PropOp53
 70
     1
102
RTVSPost2010Prop54
  1
strokes_ogs.tif
102
RTVSPost2010PropOp54
 70
     1
102
RTVSPost2010Prop55
280
     0
102
RTVSPost2010PropOp55
 70
     1
102
RTVSPost2010Prop56
140
1.0
102
RTVSPost2010PropOp56
 70
     1
102
RTVSPost2010Prop57
140
1.0
102
RTVSPost2010PropOp57
 70
     1
102
RTVSPropertyOp0
 70
     1
102
RTVSPropertyOp1
 70
     1
102
RTVSPropertyOp2
 70
     1
102
RTVSPropertyOp3
 70
     1
102
RTVSPropertyOp4
 70
     1
102
RTVSPropertyOp5
 70
     1
102
RTVSPropertyOp6
 70
     1
102
RTVSPropertyOp7
 70
     1
102
RTVSPropertyOp8
 70
     1
102
RTVSPropertyOp9
 70
     1
102
RTVSPropertyOp10
 70
     1
102
RTVSPropertyOp11
 70
     1
102
RTVSPropertyOp12
 70
     1
102
RTVSPropertyOp13
 70
     1
102
RTVSPropertyOp14
 70
     1
102
RTVSPropertyOp15
 70
     1
102
RTVSPropertyOp16
 70
     1
102
RTVSPropertyOp17
 70
     1
102
RTVSPropertyOp18
 70
     1
102
RTVSPropertyOp19
 70
     1
102
RTVSPropertyOp20
 70
     1
102
RTVSPropertyOp21
 70
     1
102
RTVSPropertyOp22
 70
     1
102
RTVSPropertyOp23
 70
     1
102
RTVSPropertyOp24
 70
     1
102
RTVSPropertyOp25
 70
     1
102
RTVSPropertyOp26
 70
     1
102
RTVSPropertyOp27
 70
     1
102
RTVSPropertyOp28
 70
     1
102
RTVSPropertyOp29
 70
     1
102
RTVSPropertyOp30
 70
     1
102
RTVSPropertyOp31
 70
     1
102
RTVSPropertyOp32
 70
     1
102
RTVSPropertyOp33
 70
     1
102
RTVSPropertyOp34
 70
     1
102
RTVSPropertyOp35
 70
     1
102
RTVSPropertyOp36
 70
     1
102
RTVSPropertyOp37
 70
     1
102
RTVSPropertyOp38
 70
     1
102
RTVSPropertyOp39
 70
     1
102
RTVSPropertyOp40
 70
     1
102
RTVSPropertyOp41
 70
     1
102
RTVSPropertyOp42
 70
     1
102
RTVSPropertyOp43
 70
     1
102
RTVSPropertyOp44
 70
     1
102
RTVSPropertyOp45
 70
     1
102
RTVSPropertyOp46
 70
     1
102
RTVSPropertyOp47
 70
     1
102
RTVSPropertyOp48
 70
     1
102
RTVSPropertyOp49
 70
     1
102
RTVSPropertyOp50
 70
     1
102
RTVSPropertyOp51
 70
     0
102
RTVSPropertyOp52
 70
     0
102
RTVSPropertyOp53
 70
     1
102
RTVSPropertyOp54
 70
     1
102
RTVSPropertyOp55
 70
     1
102
RTVSPropertyOp56
 70
     1
102
RTVSPropertyOp57
 70
     1
102
RTVSPropertyOp58
 70
     1
102
RTVSPropertyOp59
 70
     1
102
RTVSPropertyOp60
 70
     1
102
RTVSPropertyOp61
 70
     1
102
RTVSPropertyOp62
 70
     1
  0
XRECORD
  5
B27F
102
{ACAD_REACTORS
330
B27E
102
}
330
B27E
100
AcDbXrecord
280
     1
102
RTVSPost2010Prop28
280
     0
102
RTVSPost2010PropOp28
 70
     1
102
RTVSPost2010Prop29
280
     1
102
RTVSPost2010PropOp29
 70
     1
102
RTVSPost2010Prop30
280
     1
102
RTVSPost2010PropOp30
 70
     1
102
RTVSPost2010Prop31
280
     0
102
RTVSPost2010PropOp31
 70
     1
102
RTVSPost2010Prop32
280
     0
102
RTVSPost2010PropOp32
 70
     1
102
RTVSPost2010Prop33
280
     0
102
RTVSPost2010PropOp33
 70
     1
102
RTVSPost2010Prop34
280
     0
102
RTVSPost2010PropOp34
 70
     1
102
RTVSPost2010Prop35
280
     0
102
RTVSPost2010PropOp35
 70
     1
102
RTVSPost2010Prop36
280
     0
102
RTVSPost2010PropOp36
 70
     1
102
RTVSPost2010Prop37
 90
       50
102
RTVSPost2010PropOp37
 70
     1
102
RTVSPost2010Prop38
140
0.0
102
RTVSPost2010PropOp38
 70
     1
102
RTVSPost2010Prop39
140
1.0
102
RTVSPost2010PropOp39
 70
     1
102
RTVSPost2010Prop40
 90
        0
102
RTVSPost2010PropOp40
 70
     1
102
RTVSPost2010Prop41ColorIndex
 90
       18
102
RTVSPost2010Prop41ColorRGB
 90
        0
102
RTVSPost2010PropOp41
 70
     1
102
RTVSPost2010Prop42
 90
       50
102
RTVSPost2010PropOp42
 70
     1
102
RTVSPost2010Prop43
 90
        3
102
RTVSPost2010PropOp43
 70
     1
102
RTVSPost2010Prop44ColorIndex
 90
        5
102
RTVSPost2010Prop44ColorRGB
 90
      255
102
RTVSPost2010PropOp44
 70
     1
102
RTVSPost2010Prop45
280
     0
102
RTVSPost2010PropOp45
 70
     1
102
RTVSPost2010Prop46
 90
       50
102
RTVSPost2010PropOp46
 70
     1
102
RTVSPost2010Prop47
 90
       50
102
RTVSPost2010PropOp47
 70
     1
102
RTVSPost2010Prop48
 90
       50
102
RTVSPost2010PropOp48
 70
     1
102
RTVSPost2010Prop49
280
     0
102
RTVSPost2010PropOp49
 70
     1
102
RTVSPost2010Prop50
 90
       50
102
RTVSPost2010PropOp50
 70
     1
102
RTVSPost2010Prop51ColorIndex
 90
      256
102
RTVSPost2010Prop51ColorRGB
 90
-16777216
102
RTVSPost2010PropOp51
 70
     0
102
RTVSPost2010Prop52
140
1.0
102
RTVSPost2010PropOp52
 70
     0
102
RTVSPost2010Prop53
 90
        2
102
RTVSPost2010PropOp53
 70
     1
102
RTVSPost2010Prop54
  1
strokes_ogs.tif
102
RTVSPost2010PropOp54
 70
     1
102
RTVSPost2010Prop55
280
     0
102
RTVSPost2010PropOp55
 70
     1
102
RTVSPost2010Prop56
140
1.0
102
RTVSPost2010PropOp56
 70
     1
102
RTVSPost2010Prop57
140
1.0
102
RTVSPost2010PropOp57
 70
     1
102
RTVSPropertyOp0
 70
     1
102
RTVSPropertyOp1
 70
     1
102
RTVSPropertyOp2
 70
     1
102
RTVSPropertyOp3
 70
     1
102
RTVSPropertyOp4
 70
     1
102
RTVSPropertyOp5
 70
     1
102
RTVSPropertyOp6
 70
     1
102
RTVSPropertyOp7
 70
     1
102
RTVSPropertyOp8
 70
     1
102
RTVSPropertyOp9
 70
     1
102
RTVSPropertyOp10
 70
     1
102
RTVSPropertyOp11
 70
     1
102
RTVSPropertyOp12
 70
     1
102
RTVSPropertyOp13
 70
     1
102
RTVSPropertyOp14
 70
     1
102
RTVSPropertyOp15
 70
     1
102
RTVSPropertyOp16
 70
     1
102
RTVSPropertyOp17
 70
     1
102
RTVSPropertyOp18
 70
     1
102
RTVSPropertyOp19
 70
     1
102
RTVSPropertyOp20
 70
     1
102
RTVSPropertyOp21
 70
     1
102
RTVSPropertyOp22
 70
     1
102
RTVSPropertyOp23
 70
     1
102
RTVSPropertyOp24
 70
     1
102
RTVSPropertyOp25
 70
     1
102
RTVSPropertyOp26
 70
     1
102
RTVSPropertyOp27
 70
     1
102
RTVSPropertyOp28
 70
     1
102
RTVSPropertyOp29
 70
     1
102
RTVSPropertyOp30
 70
     1
102
RTVSPropertyOp31
 70
     1
102
RTVSPropertyOp32
 70
     1
102
RTVSPropertyOp33
 70
     1
102
RTVSPropertyOp34
 70
     1
102
RTVSPropertyOp35
 70
     1
102
RTVSPropertyOp36
 70
     1
102
RTVSPropertyOp37
 70
     1
102
RTVSPropertyOp38
 70
     1
102
RTVSPropertyOp39
 70
     1
102
RTVSPropertyOp40
 70
     1
102
RTVSPropertyOp41
 70
     1
102
RTVSPropertyOp42
 70
     1
102
RTVSPropertyOp43
 70
     1
102
RTVSPropertyOp44
 70
     1
102
RTVSPropertyOp45
 70
     1
102
RTVSPropertyOp46
 70
     1
102
RTVSPropertyOp47
 70
     1
102
RTVSPropertyOp48
 70
     1
102
RTVSPropertyOp49
 70
     1
102
RTVSPropertyOp50
 70
     1
102
RTVSPropertyOp51
 70
     0
102
RTVSPropertyOp52
 70
     0
102
RTVSPropertyOp53
 70
     1
102
RTVSPropertyOp54
 70
     1
102
RTVSPropertyOp55
 70
     1
102
RTVSPropertyOp56
 70
     1
102
RTVSPropertyOp57
 70
     1
102
RTVSPropertyOp58
 70
     1
102
RTVSPropertyOp59
 70
     1
102
RTVSPropertyOp60
 70
     1
102
RTVSPropertyOp61
 70
     1
102
RTVSPropertyOp62
 70
     1
  0
XRECORD
  5
B273
102
{ACAD_REACTORS
330
B272
102
}
330
B272
100
AcDbXrecord
280
     1
102
RTVSPost2010Prop28
280
     0
102
RTVSPost2010PropOp28
 70
     1
102
RTVSPost2010Prop29
280
     1
102
RTVSPost2010PropOp29
 70
     1
102
RTVSPost2010Prop30
280
     1
102
RTVSPost2010PropOp30
 70
     1
102
RTVSPost2010Prop31
280
     0
102
RTVSPost2010PropOp31
 70
     1
102
RTVSPost2010Prop32
280
     0
102
RTVSPost2010PropOp32
 70
     1
102
RTVSPost2010Prop33
280
     0
102
RTVSPost2010PropOp33
 70
     1
102
RTVSPost2010Prop34
280
     0
102
RTVSPost2010PropOp34
 70
     1
102
RTVSPost2010Prop35
280
     0
102
RTVSPost2010PropOp35
 70
     1
102
RTVSPost2010Prop36
280
     0
102
RTVSPost2010PropOp36
 70
     1
102
RTVSPost2010Prop37
 90
       50
102
RTVSPost2010PropOp37
 70
     1
102
RTVSPost2010Prop38
140
0.0
102
RTVSPost2010PropOp38
 70
     1
102
RTVSPost2010Prop39
140
1.0
102
RTVSPost2010PropOp39
 70
     1
102
RTVSPost2010Prop40
 90
        0
102
RTVSPost2010PropOp40
 70
     1
102
RTVSPost2010Prop41ColorIndex
 90
       18
102
RTVSPost2010Prop41ColorRGB
 90
        0
102
RTVSPost2010PropOp41
 70
     1
102
RTVSPost2010Prop42
 90
       50
102
RTVSPost2010PropOp42
 70
     1
102
RTVSPost2010Prop43
 90
        3
102
RTVSPost2010PropOp43
 70
     1
102
RTVSPost2010Prop44ColorIndex
 90
        5
102
RTVSPost2010Prop44ColorRGB
 90
      255
102
RTVSPost2010PropOp44
 70
     1
102
RTVSPost2010Prop45
280
     0
102
RTVSPost2010PropOp45
 70
     1
102
RTVSPost2010Prop46
 90
       50
102
RTVSPost2010PropOp46
 70
     1
102
RTVSPost2010Prop47
 90
       50
102
RTVSPost2010PropOp47
 70
     1
102
RTVSPost2010Prop48
 90
       50
102
RTVSPost2010PropOp48
 70
     1
102
RTVSPost2010Prop49
280
     0
102
RTVSPost2010PropOp49
 70
     1
102
RTVSPost2010Prop50
 90
       50
102
RTVSPost2010PropOp50
 70
     1
102
RTVSPost2010Prop51ColorIndex
 90
      256
102
RTVSPost2010Prop51ColorRGB
 90
-16777216
102
RTVSPost2010PropOp51
 70
     0
102
RTVSPost2010Prop52
140
1.0
102
RTVSPost2010PropOp52
 70
     0
102
RTVSPost2010Prop53
 90
        2
102
RTVSPost2010PropOp53
 70
     1
102
RTVSPost2010Prop54
  1
strokes_ogs.tif
102
RTVSPost2010PropOp54
 70
     1
102
RTVSPost2010Prop55
280
     0
102
RTVSPost2010PropOp55
 70
     1
102
RTVSPost2010Prop56
140
1.0
102
RTVSPost2010PropOp56
 70
     1
102
RTVSPost2010Prop57
140
1.0
102
RTVSPost2010PropOp57
 70
     1
102
RTVSPropertyOp0
 70
     1
102
RTVSPropertyOp1
 70
     1
102
RTVSPropertyOp2
 70
     1
102
RTVSPropertyOp3
 70
     1
102
RTVSPropertyOp4
 70
     1
102
RTVSPropertyOp5
 70
     1
102
RTVSPropertyOp6
 70
     1
102
RTVSPropertyOp7
 70
     1
102
RTVSPropertyOp8
 70
     1
102
RTVSPropertyOp9
 70
     1
102
RTVSPropertyOp10
 70
     1
102
RTVSPropertyOp11
 70
     1
102
RTVSPropertyOp12
 70
     1
102
RTVSPropertyOp13
 70
     1
102
RTVSPropertyOp14
 70
     1
102
RTVSPropertyOp15
 70
     1
102
RTVSPropertyOp16
 70
     1
102
RTVSPropertyOp17
 70
     1
102
RTVSPropertyOp18
 70
     1
102
RTVSPropertyOp19
 70
     1
102
RTVSPropertyOp20
 70
     1
102
RTVSPropertyOp21
 70
     1
102
RTVSPropertyOp22
 70
     1
102
RTVSPropertyOp23
 70
     1
102
RTVSPropertyOp24
 70
     1
102
RTVSPropertyOp25
 70
     1
102
RTVSPropertyOp26
 70
     1
102
RTVSPropertyOp27
 70
     1
102
RTVSPropertyOp28
 70
     1
102
RTVSPropertyOp29
 70
     1
102
RTVSPropertyOp30
 70
     1
102
RTVSPropertyOp31
 70
     1
102
RTVSPropertyOp32
 70
     1
102
RTVSPropertyOp33
 70
     1
102
RTVSPropertyOp34
 70
     1
102
RTVSPropertyOp35
 70
     1
102
RTVSPropertyOp36
 70
     1
102
RTVSPropertyOp37
 70
     1
102
RTVSPropertyOp38
 70
     1
102
RTVSPropertyOp39
 70
     1
102
RTVSPropertyOp40
 70
     1
102
RTVSPropertyOp41
 70
     1
102
RTVSPropertyOp42
 70
     1
102
RTVSPropertyOp43
 70
     1
102
RTVSPropertyOp44
 70
     1
102
RTVSPropertyOp45
 70
     1
102
RTVSPropertyOp46
 70
     1
102
RTVSPropertyOp47
 70
     1
102
RTVSPropertyOp48
 70
     1
102
RTVSPropertyOp49
 70
     1
102
RTVSPropertyOp50
 70
     1
102
RTVSPropertyOp51
 70
     0
102
RTVSPropertyOp52
 70
     0
102
RTVSPropertyOp53
 70
     1
102
RTVSPropertyOp54
 70
     1
102
RTVSPropertyOp55
 70
     1
102
RTVSPropertyOp56
 70
     1
102
RTVSPropertyOp57
 70
     1
102
RTVSPropertyOp58
 70
     1
102
RTVSPropertyOp59
 70
     1
102
RTVSPropertyOp60
 70
     1
102
RTVSPropertyOp61
 70
     1
102
RTVSPropertyOp62
 70
     1
  0
XRECORD
  5
B28B
102
{ACAD_REACTORS
330
B28A
102
}
330
B28A
100
AcDbXrecord
280
     1
102
RTVSPost2010Prop28
280
     0
102
RTVSPost2010PropOp28
 70
     1
102
RTVSPost2010Prop29
280
     1
102
RTVSPost2010PropOp29
 70
     1
102
RTVSPost2010Prop30
280
     1
102
RTVSPost2010PropOp30
 70
     1
102
RTVSPost2010Prop31
280
     0
102
RTVSPost2010PropOp31
 70
     1
102
RTVSPost2010Prop32
280
     0
102
RTVSPost2010PropOp32
 70
     1
102
RTVSPost2010Prop33
280
     0
102
RTVSPost2010PropOp33
 70
     1
102
RTVSPost2010Prop34
280
     0
102
RTVSPost2010PropOp34
 70
     1
102
RTVSPost2010Prop35
280
     0
102
RTVSPost2010PropOp35
 70
     1
102
RTVSPost2010Prop36
280
     0
102
RTVSPost2010PropOp36
 70
     1
102
RTVSPost2010Prop37
 90
       50
102
RTVSPost2010PropOp37
 70
     1
102
RTVSPost2010Prop38
140
0.0
102
RTVSPost2010PropOp38
 70
     1
102
RTVSPost2010Prop39
140
1.0
102
RTVSPost2010PropOp39
 70
     1
102
RTVSPost2010Prop40
 90
        0
102
RTVSPost2010PropOp40
 70
     1
102
RTVSPost2010Prop41ColorIndex
 90
       18
102
RTVSPost2010Prop41ColorRGB
 90
        0
102
RTVSPost2010PropOp41
 70
     1
102
RTVSPost2010Prop42
 90
       50
102
RTVSPost2010PropOp42
 70
     1
102
RTVSPost2010Prop43
 90
        3
102
RTVSPost2010PropOp43
 70
     1
102
RTVSPost2010Prop44ColorIndex
 90
        5
102
RTVSPost2010Prop44ColorRGB
 90
      255
102
RTVSPost2010PropOp44
 70
     1
102
RTVSPost2010Prop45
280
     0
102
RTVSPost2010PropOp45
 70
     1
102
RTVSPost2010Prop46
 90
       50
102
RTVSPost2010PropOp46
 70
     1
102
RTVSPost2010Prop47
 90
       50
102
RTVSPost2010PropOp47
 70
     1
102
RTVSPost2010Prop48
 90
       50
102
RTVSPost2010PropOp48
 70
     1
102
RTVSPost2010Prop49
280
     0
102
RTVSPost2010PropOp49
 70
     1
102
RTVSPost2010Prop50
 90
       50
102
RTVSPost2010PropOp50
 70
     1
102
RTVSPost2010Prop51ColorIndex
 90
      256
102
RTVSPost2010Prop51ColorRGB
 90
-16777216
102
RTVSPost2010PropOp51
 70
     0
102
RTVSPost2010Prop52
140
1.0
102
RTVSPost2010PropOp52
 70
     0
102
RTVSPost2010Prop53
 90
        2
102
RTVSPost2010PropOp53
 70
     1
102
RTVSPost2010Prop54
  1
strokes_ogs.tif
102
RTVSPost2010PropOp54
 70
     1
102
RTVSPost2010Prop55
280
     0
102
RTVSPost2010PropOp55
 70
     1
102
RTVSPost2010Prop56
140
1.0
102
RTVSPost2010PropOp56
 70
     1
102
RTVSPost2010Prop57
140
1.0
102
RTVSPost2010PropOp57
 70
     1
102
RTVSPropertyOp0
 70
     1
102
RTVSPropertyOp1
 70
     1
102
RTVSPropertyOp2
 70
     1
102
RTVSPropertyOp3
 70
     1
102
RTVSPropertyOp4
 70
     1
102
RTVSPropertyOp5
 70
     1
102
RTVSPropertyOp6
 70
     1
102
RTVSPropertyOp7
 70
     1
102
RTVSPropertyOp8
 70
     1
102
RTVSPropertyOp9
 70
     1
102
RTVSPropertyOp10
 70
     1
102
RTVSPropertyOp11
 70
     1
102
RTVSPropertyOp12
 70
     1
102
RTVSPropertyOp13
 70
     1
102
RTVSPropertyOp14
 70
     1
102
RTVSPropertyOp15
 70
     1
102
RTVSPropertyOp16
 70
     1
102
RTVSPropertyOp17
 70
     1
102
RTVSPropertyOp18
 70
     1
102
RTVSPropertyOp19
 70
     1
102
RTVSPropertyOp20
 70
     1
102
RTVSPropertyOp21
 70
     1
102
RTVSPropertyOp22
 70
     1
102
RTVSPropertyOp23
 70
     1
102
RTVSPropertyOp24
 70
     1
102
RTVSPropertyOp25
 70
     1
102
RTVSPropertyOp26
 70
     1
102
RTVSPropertyOp27
 70
     1
102
RTVSPropertyOp28
 70
     1
102
RTVSPropertyOp29
 70
     1
102
RTVSPropertyOp30
 70
     1
102
RTVSPropertyOp31
 70
     1
102
RTVSPropertyOp32
 70
     1
102
RTVSPropertyOp33
 70
     1
102
RTVSPropertyOp34
 70
     1
102
RTVSPropertyOp35
 70
     1
102
RTVSPropertyOp36
 70
     1
102
RTVSPropertyOp37
 70
     1
102
RTVSPropertyOp38
 70
     1
102
RTVSPropertyOp39
 70
     1
102
RTVSPropertyOp40
 70
     1
102
RTVSPropertyOp41
 70
     1
102
RTVSPropertyOp42
 70
     1
102
RTVSPropertyOp43
 70
     1
102
RTVSPropertyOp44
 70
     1
102
RTVSPropertyOp45
 70
     1
102
RTVSPropertyOp46
 70
     1
102
RTVSPropertyOp47
 70
     1
102
RTVSPropertyOp48
 70
     1
102
RTVSPropertyOp49
 70
     1
102
RTVSPropertyOp50
 70
     1
102
RTVSPropertyOp51
 70
     0
102
RTVSPropertyOp52
 70
     0
102
RTVSPropertyOp53
 70
     1
102
RTVSPropertyOp54
 70
     1
102
RTVSPropertyOp55
 70
     1
102
RTVSPropertyOp56
 70
     1
102
RTVSPropertyOp57
 70
     1
102
RTVSPropertyOp58
 70
     1
102
RTVSPropertyOp59
 70
     1
102
RTVSPropertyOp60
 70
     1
102
RTVSPropertyOp61
 70
     1
102
RTVSPropertyOp62
 70
     1
  0
ENDSEC
  0
EOF
