  0
SECTION
  2
HEADER
  9
$ACADVER
  1
AC1015
  9
$ACADMAINTVER
 70
    20
  9
$DWGCODEPAGE
  3
ANSI_932
  9
$INSBASE
 10
0.0
 20
0.0
 30
0.0
  9
$EXTMIN
 10
10.0
 20
9.999999999999998
 30
0.0
  9
$EXTMAX
 10
418.9577029999998
 20
283.0
 30
0.0
  9
$LIMMIN
 10
0.0
 20
0.0
  9
$LIMMAX
 10
495.0
 20
341.25
  9
$ORTHOMODE
 70
     1
  9
$REGENMODE
 70
     1
  9
$FILLMODE
 70
     1
  9
$QTEXTMODE
 70
     0
  9
$MIRRTEXT
 70
     1
  9
$LTSCALE
 40
20.0
  9
$ATTMODE
 70
     1
  9
$TEXTSIZE
 40
5.0
  9
$TRACEWID
 40
1.0
  9
$TEXTSTYLE
  7
STANDARD
  9
$CLAYER
  8
0
  9
$CELTYPE
  6
BYLAYER
  9
$CECOLOR
 62
   256
  9
$CELTSCALE
 40
1.0
  9
$DISPSILH
 70
     0
  9
$DIMSCALE
 40
1.0
  9
$DIMASZ
 40
3.0
  9
$DIMEXO
 40
1.0
  9
$DIMDLI
 40
10.0
  9
$DIMRND
 40
0.0
  9
$DIMDLE
 40
0.0
  9
$DIMEXE
 40
1.0
  9
$DIMTP
 40
0.0
  9
$DIMTM
 40
0.0
  9
$DIMTXT
 40
3.0
  9
$DIMCEN
 40
0.0
  9
$DIMTSZ
 40
0.0
  9
$DIMTOL
 70
     0
  9
$DIMLIM
 70
     0
  9
$DIMTIH
 70
     0
  9
$DIMTOH
 70
     0
  9
$DIMSE1
 70
     0
  9
$DIMSE2
 70
     0
  9
$DIMTAD
 70
     3
  9
$DIMZIN
 70
     8
  9
$DIMBLK
  1

  9
$DIMASO
 70
     1
  9
$DIMSHO
 70
     1
  9
$DIMPOST
  1

  9
$DIMAPOST
  1

  9
$DIMALT
 70
     0
  9
$DIMALTD
 70
     2
  9
$DIMALTF
 40
25.4
  9
$DIMLFAC
 40
1.0
  9
$DIMTOFL
 70
     1
  9
$DIMTVP
 40
0.0
  9
$DIMTIX
 70
     0
  9
$DIMSOXD
 70
     0
  9
$DIMSAH
 70
     1
  9
$DIMBLK1
  1

  9
$DIMBLK2
  1

  9
$DIMSTYLE
  2
STANDARD
  9
$DIMCLRD
 70
     0
  9
$DIMCLRE
 70
     0
  9
$DIMCLRT
 70
     0
  9
$DIMTFAC
 40
1.0
  9
$DIMGAP
 40
1.0
  9
$DIMJUST
 70
     0
  9
$DIMSD1
 70
     0
  9
$DIMSD2
 70
     0
  9
$DIMTOLJ
 70
     1
  9
$DIMTZIN
 70
     0
  9
$DIMALTZ
 70
     0
  9
$DIMALTTZ
 70
     0
  9
$DIMUPT
 70
     0
  9
$DIMDEC
 70
     4
  9
$DIMTDEC
 70
     4
  9
$DIMALTU
 70
     2
  9
$DIMALTTD
 70
     2
  9
$DIMTXSTY
  7
STANDARD
  9
$DIMAUNIT
 70
     0
  9
$DIMADEC
 70
     0
  9
$DIMALTRND
 40
0.0
  9
$DIMAZIN
 70
     0
  9
$DIMDSEP
 70
    46
  9
$DIMATFIT
 70
     3
  9
$DIMFRAC
 70
     0
  9
$DIMLDRBLK
  1

  9
$DIMLUNIT
 70
     2
  9
$DIMLWD
 70
    -2
  9
$DIMLWE
 70
    -2
  9
$DIMTMOVE
 70
     0
  9
$LUNITS
 70
     2
  9
$LUPREC
 70
     4
  9
$SKETCHINC
 40
1.0
  9
$FILLETRAD
 40
0.5
  9
$AUNITS
 70
     0
  9
$AUPREC
 70
     2
  9
$MENU
  1
.
  9
$ELEVATION
 40
0.0
  9
$PELEVATION
 40
0.0
  9
$THICKNESS
 40
0.0
  9
$LIMCHECK
 70
     0
  9
$CHAMFERA
 40
10.0
  9
$CHAMFERB
 40
10.0
  9
$CHAMFERC
 40
0.0
  9
$CHAMFERD
 40
0.0
  9
$SKPOLY
 70
     0
  9
$TDCREATE
 40
2451233.432433333
  9
$TDUCREATE
 40
2451233.057433333
  9
$TDUPDATE
 40
2457192.661926285
  9
$TDUUPDATE
 40
2457192.286926285
  9
$TDINDWG
 40
0.0000124769
  9
$TDUSRTIMER
 40
0.0000119676
  9
$USRTIMER
 70
     1
  9
$ANGBASE
 50
0.0
  9
$ANGDIR
 70
     0
  9
$PDMODE
 70
     0
  9
$PDSIZE
 40
0.0
  9
$PLINEWID
 40
0.0
  9
$SPLFRAME
 70
     0
  9
$SPLINETYPE
 70
     6
  9
$SPLINESEGS
 70
     8
  9
$HANDSEED
  5
B8BD
  9
$SURFTAB1
 70
     6
  9
$SURFTAB2
 70
     6
  9
$SURFTYPE
 70
     6
  9
$SURFU
 70
     6
  9
$SURFV
 70
     6
  9
$UCSBASE
  2

  9
$UCSNAME
  2

  9
$UCSORG
 10
0.0
 20
0.0
 30
0.0
  9
$UCSXDIR
 10
1.0
 20
0.0
 30
0.0
  9
$UCSYDIR
 10
0.0
 20
1.0
 30
0.0
  9
$UCSORTHOREF
  2

  9
$UCSORTHOVIEW
 70
     0
  9
$UCSORGTOP
 10
0.0
 20
0.0
 30
0.0
  9
$UCSORGBOTTOM
 10
0.0
 20
0.0
 30
0.0
  9
$UCSORGLEFT
 10
0.0
 20
0.0
 30
0.0
  9
$UCSORGRIGHT
 10
0.0
 20
0.0
 30
0.0
  9
$UCSORGFRONT
 10
0.0
 20
0.0
 30
0.0
  9
$UCSORGBACK
 10
0.0
 20
0.0
 30
0.0
  9
$PUCSBASE
  2

  9
$PUCSNAME
  2

  9
$PUCSORG
 10
0.0
 20
0.0
 30
0.0
  9
$PUCSXDIR
 10
1.0
 20
0.0
 30
0.0
  9
$PUCSYDIR
 10
0.0
 20
1.0
 30
0.0
  9
$PUCSORTHOREF
  2

  9
$PUCSORTHOVIEW
 70
     0
  9
$PUCSORGTOP
 10
0.0
 20
0.0
 30
0.0
  9
$PUCSORGBOTTOM
 10
0.0
 20
0.0
 30
0.0
  9
$PUCSORGLEFT
 10
0.0
 20
0.0
 30
0.0
  9
$PUCSORGRIGHT
 10
0.0
 20
0.0
 30
0.0
  9
$PUCSORGFRONT
 10
0.0
 20
0.0
 30
0.0
  9
$PUCSORGBACK
 10
0.0
 20
0.0
 30
0.0
  9
$USERI1
 70
     0
  9
$USERI2
 70
     0
  9
$USERI3
 70
     0
  9
$USERI4
 70
     0
  9
$USERI5
 70
     0
  9
$USERR1
 40
0.0
  9
$USERR2
 40
0.0
  9
$USERR3
 40
0.0
  9
$USERR4
 40
0.0
  9
$USERR5
 40
0.0
  9
$WORLDVIEW
 70
     1
  9
$SHADEDGE
 70
     3
  9
$SHADEDIF
 70
    70
  9
$TILEMODE
 70
     1
  9
$MAXACTVP
 70
    16
  9
$PINSBASE
 10
0.0
 20
0.0
 30
0.0
  9
$PLIMCHECK
 70
     0
  9
$PEXTMIN
 10
1.000000000000000E+20
 20
1.000000000000000E+20
 30
1.000000000000000E+20
  9
$PEXTMAX
 10
-1.000000000000000E+20
 20
-1.000000000000000E+20
 30
-1.000000000000000E+20
  9
$PLIMMIN
 10
0.0
 20
0.0
  9
$PLIMMAX
 10
420.0
 20
297.0
  9
$UNITMODE
 70
     0
  9
$VISRETAIN
 70
     0
  9
$PLINEGEN
 70
     0
  9
$PSLTSCALE
 70
     0
  9
$TREEDEPTH
 70
  3020
  9
$CMLSTYLE
  2
STANDARD
  9
$CMLJUST
 70
     0
  9
$CMLSCALE
 40
1.0
  9
$PROXYGRAPHICS
 70
     1
  9
$MEASUREMENT
 70
     0
  9
$CELWEIGHT
370
    -1
  9
$ENDCAPS
280
     0
  9
$JOINSTYLE
280
     0
  9
$LWDISPLAY
290
     0
  9
$INSUNITS
 70
     0
  9
$HYPERLINKBASE
  1

  9
$STYLESHEET
  1

  9
$XEDIT
290
     1
  9
$CEPSNTYPE
380
     0
  9
$PSTYLEMODE
290
     1
  9
$FINGERPRINTGUID
  2
{A474A91E-6713-48E6-866B-86272BEA693B}
  9
$VERSIONGUID
  2
{A3C1A5FA-D30B-4469-B817-DA3411F055F9}
  9
$EXTNAMES
290
     1
  9
$PSVPSCALE
 40
0.0
  9
$OLESTARTUP
290
     0
  0
ENDSEC
  0
SECTION
  2
CLASSES
  0
CLASS
  1
ACDBDICTIONARYWDFLT
  2
AcDbDictionaryWithDefault
  3
ObjectDBX Classes
 90
        0
280
     0
281
     0
  0
CLASS
  1
ACDBPLACEHOLDER
  2
AcDbPlaceHolder
  3
ObjectDBX Classes
 90
        0
280
     0
281
     0
  0
CLASS
  1
LAYOUT
  2
AcDbLayout
  3
ObjectDBX Classes
 90
        0
280
     0
281
     0
  0
CLASS
  1
DICTIONARYVAR
  2
AcDbDictionaryVar
  3
ObjectDBX Classes
 90
        0
280
     0
281
     0
  0
CLASS
  1
MATERIAL
  2
AcDbMaterial
  3
ObjectDBX Classes
 90
     1153
280
     0
281
     0
  0
CLASS
  1
VISUALSTYLE
  2
AcDbVisualStyle
  3
ObjectDBX Classes
 90
     4095
280
     0
281
     0
  0
CLASS
  1
TABLESTYLE
  2
AcDbTableStyle
  3
ObjectDBX Classes
 90
     4095
280
     0
281
     0
  0
CLASS
  1
SCALE
  2
AcDbScale
  3
ObjectDBX Classes
 90
     1153
280
     0
281
     0
  0
CLASS
  1
MLEADERSTYLE
  2
AcDbMLeaderStyle
  3
ACDB_MLEADERSTYLE_CLASS
 90
     4095
280
     0
281
     0
  0
CLASS
  1
ACDBSECTIONVIEWSTYLE
  2
AcDbSectionViewStyle
  3
ObjectDBX Classes
 90
     1025
280
     0
281
     0
  0
CLASS
  1
ACDBDETAILVIEWSTYLE
  2
AcDbDetailViewStyle
  3
ObjectDBX Classes
 90
     1025
280
     0
281
     0
  0
CLASS
  1
CELLSTYLEMAP
  2
AcDbCellStyleMap
  3
ObjectDBX Classes
 90
     1152
280
     0
281
     0
  0
ENDSEC
  0
SECTION
  2
TABLES
  0
TABLE
  2
VPORT
  5
B503
330
0
100
AcDbSymbolTable
 70
     1
  0
VPORT
  5
B806
330
B503
100
AcDbSymbolTableRecord
100
AcDbViewportTableRecord
  2
*ACTIVE
 70
     0
 10
0.0
 20
0.0
 11
1.0
 21
1.0
 12
297.1895036370549
 22
146.5032871281474
 13
0.0
 23
0.0
 14
10.0
 24
10.0
 15
10.0
 25
10.0
 16
0.0
 26
0.0
 36
1.0
 17
0.0
 27
0.0
 37
0.0
 40
276.0859908048735
 41
1.899603698811096
 42
50.0
 43
0.0
 44
0.0
 50
0.0
 51
0.0
 71
     0
 72
   100
 73
     1
 74
     0
 75
     0
 76
     0
 77
     0
 78
     0
281
     0
 65
     1
110
0.0
120
0.0
130
0.0
111
1.0
121
0.0
131
0.0
112
0.0
122
1.0
132
0.0
 79
     0
146
0.0
1001
ACAD_NAV_VCDISPLAY
1070
     3
  0
ENDTAB
  0
TABLE
  2
LTYPE
  5
B500
330
0
100
AcDbSymbolTable
 70
     4
  0
LTYPE
  5
B50E
330
B500
100
AcDbSymbolTableRecord
100
AcDbLinetypeTableRecord
  2
BYBLOCK
 70
     0
  3

 72
    65
 73
     0
 40
0.0
  0
LTYPE
  5
B50F
330
B500
100
AcDbSymbolTableRecord
100
AcDbLinetypeTableRecord
  2
BYLAYER
 70
     0
  3

 72
    65
 73
     0
 40
0.0
  0
LTYPE
  5
B510
330
B500
100
AcDbSymbolTableRecord
100
AcDbLinetypeTableRecord
  2
CONTINUOUS
 70
     0
  3
Solid line
 72
    65
 73
     0
 40
0.0
  0
LTYPE
  5
B51E
330
B500
100
AcDbSymbolTableRecord
100
AcDbLinetypeTableRecord
  2
DASHED
 70
     0
  3
__ __ __ __ __ __ __ __ __ __ __ __ __ __ __ __
 72
    65
 73
     2
 40
0.75
 49
0.5
 74
     0
 49
-0.25
 74
     0
  0
LTYPE
  5
B51F
330
B500
100
AcDbSymbolTableRecord
100
AcDbLinetypeTableRecord
  2
CENTER
 70
     0
  3
____ _ ____ _ ____ _ ____ _ ____ _ ____ _ ____ 
 72
    65
 73
     4
 40
2.0
 49
1.25
 74
     0
 49
-0.25
 74
     0
 49
0.25
 74
     0
 49
-0.25
 74
     0
  0
LTYPE
  5
B520
330
B500
100
AcDbSymbolTableRecord
100
AcDbLinetypeTableRecord
  2
PHANTOM
 70
     0
  3
______  __  __  ______  __  __  ______  __  __ 
 72
    65
 73
     6
 40
2.5
 49
1.25
 74
     0
 49
-0.25
 74
     0
 49
0.25
 74
     0
 49
-0.25
 74
     0
 49
0.25
 74
     0
 49
-0.25
 74
     0
  0
ENDTAB
  0
TABLE
  2
LAYER
  5
B4FD
330
0
100
AcDbSymbolTable
 70
     8
  0
LAYER
  5
B50B
102
{ACAD_XDICTIONARY
360
B861
102
}
330
B4FD
100
AcDbSymbolTableRecord
100
AcDbLayerTableRecord
  2
0
 70
     0
 62
     7
  6
CONTINUOUS
370
    -3
390
B80F
  0
LAYER
  5
B521
102
{ACAD_XDICTIONARY
360
B863
102
}
330
B4FD
100
AcDbSymbolTableRecord
100
AcDbLayerTableRecord
  2
4
 70
     0
 62
     1
  6
CENTER
370
    -3
390
B80F
  0
LAYER
  5
B522
102
{ACAD_XDICTIONARY
360
B865
102
}
330
B4FD
100
AcDbSymbolTableRecord
100
AcDbLayerTableRecord
  2
5
 70
     0
 62
     6
  6
PHANTOM
370
    -3
390
B80F
  0
LAYER
  5
B523
102
{ACAD_XDICTIONARY
360
B867
102
}
330
B4FD
100
AcDbSymbolTableRecord
100
AcDbLayerTableRecord
  2
1
 70
     0
 62
     7
  6
CONTINUOUS
370
    -3
390
B80F
  0
LAYER
  5
B524
102
{ACAD_XDICTIONARY
360
B869
102
}
330
B4FD
100
AcDbSymbolTableRecord
100
AcDbLayerTableRecord
  2
2
 70
     0
 62
     4
  6
CONTINUOUS
370
    -3
390
B80F
  0
LAYER
  5
B525
102
{ACAD_XDICTIONARY
360
B86B
102
}
330
B4FD
100
AcDbSymbolTableRecord
100
AcDbLayerTableRecord
  2
3
 70
     0
 62
     2
  6
DASHED
370
    -3
390
B80F
  0
LAYER
  5
B526
102
{ACAD_XDICTIONARY
360
B86D
102
}
330
B4FD
100
AcDbSymbolTableRecord
100
AcDbLayerTableRecord
  2
6
 70
     0
 62
     5
  6
CONTINUOUS
370
    -3
390
B80F
  0
LAYER
  5
B527
102
{ACAD_XDICTIONARY
360
B86F
102
}
330
B4FD
100
AcDbSymbolTableRecord
100
AcDbLayerTableRecord
  2
7
 70
     0
 62
     3
  6
CONTINUOUS
370
    -3
390
B80F
  0
ENDTAB
  0
TABLE
  2
STYLE
  5
B4FE
330
0
100
AcDbSymbolTable
 70
     1
  0
STYLE
  5
B50C
330
B4FE
100
AcDbSymbolTableRecord
100
AcDbTextStyleTableRecord
  2
STANDARD
 70
     0
 40
0.0
 41
1.0
 50
0.0
 71
     0
 42
5.0
  3
txt
  4

  0
ENDTAB
  0
TABLE
  2
VIEW
  5
B501
330
0
100
AcDbSymbolTable
 70
     0
  0
ENDTAB
  0
TABLE
  2
UCS
  5
B502
330
0
100
AcDbSymbolTable
 70
     0
  0
ENDTAB
  0
TABLE
  2
APPID
  5
B504
330
0
100
AcDbSymbolTable
 70
     3
  0
APPID
  5
B50D
330
B504
100
AcDbSymbolTableRecord
100
AcDbRegAppTableRecord
  2
ACAD
 70
     0
  0
APPID
  5
B87B
330
B504
100
AcDbSymbolTableRecord
100
AcDbRegAppTableRecord
  2
ACAD_NAV_VCDISPLAY
 70
     0
  0
APPID
  5
B8B4
330
B504
100
AcDbSymbolTableRecord
100
AcDbRegAppTableRecord
  2
ACAD_MLEADERVER
 70
     0
  0
ENDTAB
  0
TABLE
  2
DIMSTYLE
  5
B505
330
0
100
AcDbSymbolTable
 70
     1
100
AcDbDimStyleTable
 71
     0
  0
DIMSTYLE
105
B529
330
B505
100
AcDbSymbolTableRecord
100
AcDbDimStyleTableRecord
  2
STANDARD
 70
     0
 41
3.0
 42
1.0
 43
10.0
 44
1.0
 73
     0
 74
     0
 77
     3
 78
     8
140
3.0
141
0.0
147
1.0
172
     1
173
     1
284
     8
285
     8
286
     8
340
B50C
  0
ENDTAB
  0
TABLE
  2
BLOCK_RECORD
  5
B4FC
330
0
100
AcDbSymbolTable
 70
     0
  0
BLOCK_RECORD
  5
B519
102
{ACAD_XDICTIONARY
360
B809
102
}
330
B4FC
100
AcDbSymbolTableRecord
100
AcDbBlockTableRecord
  2
*MODEL_SPACE
340
B85D
  0
BLOCK_RECORD
  5
B515
102
{ACAD_XDICTIONARY
360
B807
102
}
330
B4FC
100
AcDbSymbolTableRecord
100
AcDbBlockTableRecord
  2
*PAPER_SPACE
340
B85E
  0
ENDTAB
  0
ENDSEC
  0
SECTION
  2
BLOCKS
  0
BLOCK
  5
B51A
330
B519
100
AcDbEntity
  8
0
100
AcDbBlockBegin
  2
*MODEL_SPACE
 70
     0
 10
0.0
 20
0.0
 30
0.0
  3
*MODEL_SPACE
  1

  0
ENDBLK
  5
B51B
330
B519
100
AcDbEntity
  8
0
100
AcDbBlockEnd
  0
BLOCK
  5
B516
330
B515
100
AcDbEntity
 67
     1
  8
0
100
AcDbBlockBegin
  2
*PAPER_SPACE
 70
     0
 10
0.0
 20
0.0
 30
0.0
  3
*PAPER_SPACE
  1

  0
ENDBLK
  5
B517
330
B515
100
AcDbEntity
 67
     1
  8
0
100
AcDbBlockEnd
  0
ENDSEC
  0
SECTION
  2
ENTITIES
  0
TEXT
  5
B531
330
B519
100
AcDbEntity
  8
7
  6
Continuous
100
AcDbText
 10
10.0
 20
18.0
 30
0.0
 40
3.0
  1
TYPE No.TM-231-2
100
AcDbText
  0
TEXT
  5
B532
330
B519
100
AcDbEntity
  8
7
  6
Continuous
100
AcDbText
 10
10.0
 20
26.0
 30
0.0
 40
3.0
  1
CODE No.6017
100
AcDbText
  0
TEXT
  5
B533
330
B519
100
AcDbEntity
  8
1
  6
Continuous
100
AcDbText
 10
10.0
 20
10.0
 30
0.0
 40
1.399999999999999
  1
LAYER
100
AcDbText
  0
TEXT
  5
B534
330
B519
100
AcDbEntity
  8
1
  6
Continuous
100
AcDbText
 10
17.97951099999998
 20
10.04873699999998
 30
0.0
 40
1.399999999999999
  1
1
100
AcDbText
  0
TEXT
  5
B535
330
B519
100
AcDbEntity
  8
7
  6
Continuous
100
AcDbText
 10
29.97951099999999
 20
10.04873699999998
 30
0.0
 40
1.399999999999999
  1
7
100
AcDbText
  0
TEXT
  5
B536
330
B519
100
AcDbEntity
  8
4
  6
CENTER
100
AcDbText
 10
23.97951099999999
 20
10.04873699999998
 30
0.0
 40
1.399999999999999
  1
4
100
AcDbText
  0
TEXT
  5
B537
330
B519
100
AcDbEntity
  8
3
  6
DASHED
100
AcDbText
 10
21.979511
 20
10.04873699999998
 30
0.0
 40
1.399999999999999
  1
3
100
AcDbText
  0
TEXT
  5
B538
330
B519
100
AcDbEntity
  8
2
  6
Continuous
100
AcDbText
 10
19.97951099999999
 20
10.04873699999998
 30
0.0
 40
1.399999999999999
  1
2
100
AcDbText
  0
TEXT
  5
B539
330
B519
100
AcDbEntity
  8
6
  6
Continuous
100
AcDbText
 10
27.979511
 20
10.04873699999998
 30
0.0
 40
1.399999999999999
  1
6
100
AcDbText
  0
TEXT
  5
B53A
330
B519
100
AcDbEntity
  8
5
  6
PHANTOM
100
AcDbText
 10
25.97951099999999
 20
10.04873699999998
 30
0.0
 40
1.399999999999999
  1
5
100
AcDbText
  0
LINE
  5
B53B
330
B519
100
AcDbEntity
  8
1
  6
Continuous
100
AcDbLine
 10
369.478852
 20
131.0
 30
0.0
 11
69.478852
 21
131.0
 31
0.0
  0
LINE
  5
B53C
330
B519
100
AcDbEntity
  8
1
  6
Continuous
100
AcDbLine
 10
69.478852
 20
131.0
 30
0.0
 11
69.478852
 21
129.728427
 31
0.0
  0
ARC
  5
B53D
330
B519
100
AcDbEntity
  8
1
  6
Continuous
100
AcDbCircle
 10
70.478852
 20
129.728427
 30
0.0
 40
1.0
100
AcDbArc
 50
180.0
 51
225.0
  0
LINE
  5
B53E
330
B519
100
AcDbEntity
  8
1
  6
Continuous
100
AcDbLine
 10
69.771745
 20
129.0213199999998
 30
0.0
 11
70.78595899999998
 21
128.0071069999999
 31
0.0
  0
ARC
  5
B53F
330
B519
100
AcDbEntity
  8
1
  6
Continuous
100
AcDbCircle
 10
70.078852
 20
127.2999999999999
 30
0.0
 40
1.0
100
AcDbArc
 50
270.0
 51
323.130102
  0
LINE
  5
B540
330
B519
100
AcDbEntity
  8
1
  6
Continuous
100
AcDbLine
 10
69.478852
 20
126.2999999999999
 30
0.0
 11
69.478852
 21
115.7
 31
0.0
  0
LINE
  5
B541
330
B519
100
AcDbEntity
  8
1
  6
Continuous
100
AcDbLine
 10
69.478852
 20
115.7
 30
0.0
 11
70.87885199999998
 21
115.7
 31
0.0
  0
LINE
  5
B542
330
B519
100
AcDbEntity
  8
1
  6
Continuous
100
AcDbLine
 10
70.87885199999998
 20
126.2999999999999
 30
0.0
 11
69.478852
 21
126.2999999999999
 31
0.0
  0
ARC
  5
B543
330
B519
100
AcDbEntity
  8
1
  6
Continuous
100
AcDbCircle
 10
70.078852
 20
114.7
 30
0.0
 40
1.0
100
AcDbArc
 50
315.0
 51
8.626927
  0
LINE
  5
B544
330
B519
100
AcDbEntity
  8
1
  6
Continuous
100
AcDbLine
 10
70.78595899999998
 20
113.9928929999999
 30
0.0
 11
69.771745
 21
112.97868
 31
0.0
  0
ARC
  5
B545
330
B519
100
AcDbEntity
  8
1
  6
Continuous
100
AcDbCircle
 10
70.478852
 20
112.271573
 30
0.0
 40
1.0
100
AcDbArc
 50
135.0
 51
180.0
  0
LINE
  5
B546
330
B519
100
AcDbEntity
  8
1
  6
Continuous
100
AcDbLine
 10
69.478852
 20
112.271573
 30
0.0
 11
69.478852
 21
111.0
 31
0.0
  0
LINE
  5
B547
330
B519
100
AcDbEntity
  8
1
  6
Continuous
100
AcDbLine
 10
69.478852
 20
111.0
 30
0.0
 11
369.478852
 21
111.0
 31
0.0
  0
LINE
  5
B548
330
B519
100
AcDbEntity
  8
1
  6
Continuous
100
AcDbLine
 10
369.478852
 20
111.0
 30
0.0
 11
369.478852
 21
112.271573
 31
0.0
  0
ARC
  5
B549
330
B519
100
AcDbEntity
  8
1
  6
Continuous
100
AcDbCircle
 10
368.478852
 20
112.271573
 30
0.0
 40
1.0
100
AcDbArc
 50
0.0
 51
45.0
  0
LINE
  5
B54A
330
B519
100
AcDbEntity
  8
1
  6
Continuous
100
AcDbLine
 10
369.1859589999999
 20
112.97868
 30
0.0
 11
368.1717449999999
 21
113.9928929999999
 31
0.0
  0
ARC
  5
B54B
330
B519
100
AcDbEntity
  8
1
  6
Continuous
100
AcDbCircle
 10
368.878852
 20
114.7
 30
0.0
 40
1.0
100
AcDbArc
 50
90.0
 51
225.0
  0
LINE
  5
B54C
330
B519
100
AcDbEntity
  8
1
  6
Continuous
100
AcDbLine
 10
369.478852
 20
115.7
 30
0.0
 11
368.078852
 21
115.7
 31
0.0
  0
LINE
  5
B54D
330
B519
100
AcDbEntity
  8
1
  6
Continuous
100
AcDbLine
 10
368.078852
 20
115.7
 30
0.0
 11
368.078852
 21
126.2999999999999
 31
0.0
  0
LINE
  5
B54E
330
B519
100
AcDbEntity
  8
1
  6
Continuous
100
AcDbLine
 10
368.078852
 20
126.2999999999999
 30
0.0
 11
369.478852
 21
126.2999999999999
 31
0.0
  0
LINE
  5
B54F
330
B519
100
AcDbEntity
  8
1
  6
Continuous
100
AcDbLine
 10
369.478852
 20
126.2999999999999
 30
0.0
 11
369.478852
 21
115.7
 31
0.0
  0
ARC
  5
B550
330
B519
100
AcDbEntity
  8
1
  6
Continuous
100
AcDbCircle
 10
368.878852
 20
127.2999999999999
 30
0.0
 40
1.0
100
AcDbArc
 50
135.0
 51
270.0
  0
LINE
  5
B551
330
B519
100
AcDbEntity
  8
1
  6
Continuous
100
AcDbLine
 10
368.1717449999999
 20
128.0071069999999
 30
0.0
 11
369.1859589999999
 21
129.0213199999998
 31
0.0
  0
ARC
  5
B552
330
B519
100
AcDbEntity
  8
1
  6
Continuous
100
AcDbCircle
 10
368.478852
 20
129.728427
 30
0.0
 40
1.0
100
AcDbArc
 50
315.0
 51
0.0
  0
LINE
  5
B553
330
B519
100
AcDbEntity
  8
1
  6
Continuous
100
AcDbLine
 10
369.478852
 20
129.728427
 30
0.0
 11
369.478852
 21
131.0
 31
0.0
  0
LINE
  5
B554
330
B519
100
AcDbEntity
  8
4
  6
CENTER
100
AcDbLine
 10
64.478852
 20
121.0
 30
0.0
 11
374.478852
 21
121.0
 31
0.0
  0
LINE
  5
B555
330
B519
100
AcDbEntity
  8
1
  6
Continuous
100
AcDbLine
 10
369.478852
 20
112.4779619999999
 30
0.0
 11
69.478852
 21
112.4779619999999
 31
0.0
  0
LINE
  5
B556
330
B519
100
AcDbEntity
  8
1
  6
Continuous
100
AcDbLine
 10
70.120401
 20
113.327335
 30
0.0
 11
368.8373029999998
 21
113.327335
 31
0.0
  0
LINE
  5
B557
330
B519
100
AcDbEntity
  8
1
  6
Continuous
100
AcDbLine
 10
368.8373029999998
 20
128.672665
 30
0.0
 11
70.120401
 21
128.672665
 31
0.0
  0
LINE
  5
B558
330
B519
100
AcDbEntity
  8
1
  6
Continuous
100
AcDbLine
 10
69.478852
 20
129.5220379999999
 30
0.0
 11
369.478852
 21
129.5220379999999
 31
0.0
  0
LINE
  5
B559
330
B519
100
AcDbEntity
  8
1
  6
Continuous
100
AcDbLine
 10
170.8788519999998
 20
127.15
 30
0.0
 11
70.87885199999998
 21
127.15
 31
0.0
  0
LINE
  5
B55A
330
B519
100
AcDbEntity
  8
1
  6
Continuous
100
AcDbLine
 10
70.87885199999998
 20
127.15
 30
0.0
 11
70.87885199999998
 21
114.85
 31
0.0
  0
LINE
  5
B55B
330
B519
100
AcDbEntity
  8
1
  6
Continuous
100
AcDbLine
 10
70.87885199999998
 20
114.85
 30
0.0
 11
170.8788519999998
 21
114.85
 31
0.0
  0
LINE
  5
B55C
330
B519
100
AcDbEntity
  8
1
  6
Continuous
100
AcDbLine
 10
170.8788519999998
 20
114.85
 30
0.0
 11
170.8788519999998
 21
127.15
 31
0.0
  0
LINE
  5
B55D
330
B519
100
AcDbEntity
  8
1
  6
Continuous
100
AcDbLine
 10
85.678852
 20
127.6795
 30
0.0
 11
85.678852
 21
128.1795
 31
0.0
  0
LINE
  5
B55E
330
B519
100
AcDbEntity
  8
1
  6
Continuous
100
AcDbLine
 10
77.67885200000002
 20
127.6795
 30
0.0
 11
85.678852
 21
127.6795
 31
0.0
  0
LINE
  5
B55F
330
B519
100
AcDbEntity
  8
1
  6
Continuous
100
AcDbLine
 10
77.67885200000002
 20
128.1795
 30
0.0
 11
85.678852
 21
128.1795
 31
0.0
  0
ARC
  5
B560
330
B519
100
AcDbEntity
  8
1
  6
Continuous
100
AcDbCircle
 10
86.678852
 20
114.3205
 30
0.0
 40
1.0
100
AcDbArc
 50
0.0
 51
31.97167800000001
  0
LINE
  5
B561
330
B519
100
AcDbEntity
  8
1
  6
Continuous
100
AcDbLine
 10
85.678852
 20
114.3205
 30
0.0
 11
85.678852
 21
113.8204999999999
 31
0.0
  0
LINE
  5
B562
330
B519
100
AcDbEntity
  8
1
  6
Continuous
100
AcDbLine
 10
77.67885200000002
 20
114.3205
 30
0.0
 11
85.678852
 21
114.3205
 31
0.0
  0
LINE
  5
B563
330
B519
100
AcDbEntity
  8
1
  6
Continuous
100
AcDbLine
 10
77.67885200000002
 20
113.8204999999999
 30
0.0
 11
85.678852
 21
113.8204999999999
 31
0.0
  0
LINE
  5
B564
330
B519
100
AcDbEntity
  8
1
  6
Continuous
100
AcDbLine
 10
77.67885200000002
 20
128.1795
 30
0.0
 11
77.67885200000002
 21
127.15
 31
0.0
  0
ARC
  5
B565
330
B519
100
AcDbEntity
  8
1
  6
Continuous
100
AcDbCircle
 10
86.678852
 20
127.6795
 30
0.0
 40
1.0
100
AcDbArc
 50
180.0
 51
211.9716779999999
  0
ARC
  5
B566
330
B519
100
AcDbEntity
  8
1
  6
Continuous
100
AcDbCircle
 10
96.678852
 20
127.6795
 30
0.0
 40
1.0
100
AcDbArc
 50
180.0
 51
211.9716779999999
  0
LINE
  5
B567
330
B519
100
AcDbEntity
  8
1
  6
Continuous
100
AcDbLine
 10
95.678852
 20
127.6795
 30
0.0
 11
95.678852
 21
128.1795
 31
0.0
  0
LINE
  5
B568
330
B519
100
AcDbEntity
  8
1
  6
Continuous
100
AcDbLine
 10
87.678852
 20
127.6795
 30
0.0
 11
95.678852
 21
127.6795
 31
0.0
  0
LINE
  5
B569
330
B519
100
AcDbEntity
  8
1
  6
Continuous
100
AcDbLine
 10
87.678852
 20
128.1795
 30
0.0
 11
95.678852
 21
128.1795
 31
0.0
  0
LINE
  5
B56A
330
B519
100
AcDbEntity
  8
1
  6
Continuous
100
AcDbLine
 10
95.678852
 20
114.3205
 30
0.0
 11
95.678852
 21
113.8204999999999
 31
0.0
  0
LINE
  5
B56B
330
B519
100
AcDbEntity
  8
1
  6
Continuous
100
AcDbLine
 10
87.678852
 20
114.3205
 30
0.0
 11
95.678852
 21
114.3205
 31
0.0
  0
LINE
  5
B56C
330
B519
100
AcDbEntity
  8
1
  6
Continuous
100
AcDbLine
 10
87.678852
 20
113.8204999999999
 30
0.0
 11
95.678852
 21
113.8204999999999
 31
0.0
  0
LINE
  5
B56D
330
B519
100
AcDbEntity
  8
1
  6
Continuous
100
AcDbLine
 10
87.678852
 20
128.1795
 30
0.0
 11
87.678852
 21
127.6795
 31
0.0
  0
LINE
  5
B56E
330
B519
100
AcDbEntity
  8
1
  6
Continuous
100
AcDbLine
 10
87.678852
 20
113.8204999999999
 30
0.0
 11
87.678852
 21
114.3205
 31
0.0
  0
ARC
  5
B56F
330
B519
100
AcDbEntity
  8
1
  6
Continuous
100
AcDbCircle
 10
96.678852
 20
114.3205
 30
0.0
 40
1.0
100
AcDbArc
 50
0.0
 51
31.97167800000001
  0
ARC
  5
B570
330
B519
100
AcDbEntity
  8
1
  6
Continuous
100
AcDbCircle
 10
106.678852
 20
127.6795
 30
0.0
 40
1.0
100
AcDbArc
 50
180.0
 51
211.9716779999999
  0
LINE
  5
B571
330
B519
100
AcDbEntity
  8
1
  6
Continuous
100
AcDbLine
 10
105.678852
 20
127.6795
 30
0.0
 11
105.678852
 21
128.1795
 31
0.0
  0
LINE
  5
B572
330
B519
100
AcDbEntity
  8
1
  6
Continuous
100
AcDbLine
 10
97.67885200000002
 20
127.6795
 30
0.0
 11
105.678852
 21
127.6795
 31
0.0
  0
LINE
  5
B573
330
B519
100
AcDbEntity
  8
1
  6
Continuous
100
AcDbLine
 10
97.67885200000002
 20
128.1795
 30
0.0
 11
105.678852
 21
128.1795
 31
0.0
  0
LINE
  5
B574
330
B519
100
AcDbEntity
  8
1
  6
Continuous
100
AcDbLine
 10
105.678852
 20
114.3205
 30
0.0
 11
105.678852
 21
113.8204999999999
 31
0.0
  0
LINE
  5
B575
330
B519
100
AcDbEntity
  8
1
  6
Continuous
100
AcDbLine
 10
97.67885200000002
 20
114.3205
 30
0.0
 11
105.678852
 21
114.3205
 31
0.0
  0
LINE
  5
B576
330
B519
100
AcDbEntity
  8
1
  6
Continuous
100
AcDbLine
 10
97.67885200000002
 20
113.8204999999999
 30
0.0
 11
105.678852
 21
113.8204999999999
 31
0.0
  0
LINE
  5
B577
330
B519
100
AcDbEntity
  8
1
  6
Continuous
100
AcDbLine
 10
97.67885200000002
 20
128.1795
 30
0.0
 11
97.67885200000002
 21
127.6795
 31
0.0
  0
LINE
  5
B578
330
B519
100
AcDbEntity
  8
1
  6
Continuous
100
AcDbLine
 10
97.67885200000002
 20
113.8204999999999
 30
0.0
 11
97.67885200000002
 21
114.3205
 31
0.0
  0
ARC
  5
B579
330
B519
100
AcDbEntity
  8
1
  6
Continuous
100
AcDbCircle
 10
106.678852
 20
114.3205
 30
0.0
 40
1.0
100
AcDbArc
 50
0.0
 51
31.97167800000001
  0
ARC
  5
B57A
330
B519
100
AcDbEntity
  8
1
  6
Continuous
100
AcDbCircle
 10
116.678852
 20
127.6795
 30
0.0
 40
1.0
100
AcDbArc
 50
180.0
 51
211.9716779999999
  0
LINE
  5
B57B
330
B519
100
AcDbEntity
  8
1
  6
Continuous
100
AcDbLine
 10
115.678852
 20
127.6795
 30
0.0
 11
115.678852
 21
128.1795
 31
0.0
  0
LINE
  5
B57C
330
B519
100
AcDbEntity
  8
1
  6
Continuous
100
AcDbLine
 10
107.678852
 20
127.6795
 30
0.0
 11
115.678852
 21
127.6795
 31
0.0
  0
LINE
  5
B57D
330
B519
100
AcDbEntity
  8
1
  6
Continuous
100
AcDbLine
 10
107.678852
 20
128.1795
 30
0.0
 11
115.678852
 21
128.1795
 31
0.0
  0
LINE
  5
B57E
330
B519
100
AcDbEntity
  8
1
  6
Continuous
100
AcDbLine
 10
115.678852
 20
114.3205
 30
0.0
 11
115.678852
 21
113.8204999999999
 31
0.0
  0
LINE
  5
B57F
330
B519
100
AcDbEntity
  8
1
  6
Continuous
100
AcDbLine
 10
107.678852
 20
114.3205
 30
0.0
 11
115.678852
 21
114.3205
 31
0.0
  0
LINE
  5
B580
330
B519
100
AcDbEntity
  8
1
  6
Continuous
100
AcDbLine
 10
107.678852
 20
113.8204999999999
 30
0.0
 11
115.678852
 21
113.8204999999999
 31
0.0
  0
LINE
  5
B581
330
B519
100
AcDbEntity
  8
1
  6
Continuous
100
AcDbLine
 10
107.678852
 20
128.1795
 30
0.0
 11
107.678852
 21
127.6795
 31
0.0
  0
LINE
  5
B582
330
B519
100
AcDbEntity
  8
1
  6
Continuous
100
AcDbLine
 10
107.678852
 20
113.8204999999999
 30
0.0
 11
107.678852
 21
114.3205
 31
0.0
  0
ARC
  5
B583
330
B519
100
AcDbEntity
  8
1
  6
Continuous
100
AcDbCircle
 10
116.678852
 20
114.3205
 30
0.0
 40
1.0
100
AcDbArc
 50
0.0
 51
31.97167800000001
  0
LINE
  5
B584
330
B519
100
AcDbEntity
  8
1
  6
Continuous
100
AcDbLine
 10
125.678852
 20
127.6795
 30
0.0
 11
125.678852
 21
128.1795
 31
0.0
  0
LINE
  5
B585
330
B519
100
AcDbEntity
  8
1
  6
Continuous
100
AcDbLine
 10
117.678852
 20
127.6795
 30
0.0
 11
125.678852
 21
127.6795
 31
0.0
  0
LINE
  5
B586
330
B519
100
AcDbEntity
  8
1
  6
Continuous
100
AcDbLine
 10
117.678852
 20
128.1795
 30
0.0
 11
125.678852
 21
128.1795
 31
0.0
  0
LINE
  5
B587
330
B519
100
AcDbEntity
  8
1
  6
Continuous
100
AcDbLine
 10
125.678852
 20
114.3205
 30
0.0
 11
125.678852
 21
113.8204999999999
 31
0.0
  0
LINE
  5
B588
330
B519
100
AcDbEntity
  8
1
  6
Continuous
100
AcDbLine
 10
117.678852
 20
114.3205
 30
0.0
 11
125.678852
 21
114.3205
 31
0.0
  0
LINE
  5
B589
330
B519
100
AcDbEntity
  8
1
  6
Continuous
100
AcDbLine
 10
117.678852
 20
113.8204999999999
 30
0.0
 11
125.678852
 21
113.8204999999999
 31
0.0
  0
LINE
  5
B58A
330
B519
100
AcDbEntity
  8
1
  6
Continuous
100
AcDbLine
 10
117.678852
 20
128.1795
 30
0.0
 11
117.678852
 21
127.6795
 31
0.0
  0
LINE
  5
B58B
330
B519
100
AcDbEntity
  8
1
  6
Continuous
100
AcDbLine
 10
117.678852
 20
113.8204999999999
 30
0.0
 11
117.678852
 21
114.3205
 31
0.0
  0
ARC
  5
B58C
330
B519
100
AcDbEntity
  8
1
  6
Continuous
100
AcDbCircle
 10
126.678852
 20
114.3205
 30
0.0
 40
1.0
100
AcDbArc
 50
0.0
 51
31.97167800000001
  0
LINE
  5
B58D
330
B519
100
AcDbEntity
  8
1
  6
Continuous
100
AcDbLine
 10
135.678852
 20
127.6795
 30
0.0
 11
135.678852
 21
128.1795
 31
0.0
  0
LINE
  5
B58E
330
B519
100
AcDbEntity
  8
1
  6
Continuous
100
AcDbLine
 10
127.6788519999999
 20
127.6795
 30
0.0
 11
135.678852
 21
127.6795
 31
0.0
  0
LINE
  5
B58F
330
B519
100
AcDbEntity
  8
1
  6
Continuous
100
AcDbLine
 10
127.6788519999999
 20
128.1795
 30
0.0
 11
135.678852
 21
128.1795
 31
0.0
  0
LINE
  5
B590
330
B519
100
AcDbEntity
  8
1
  6
Continuous
100
AcDbLine
 10
135.678852
 20
114.3205
 30
0.0
 11
135.678852
 21
113.8204999999999
 31
0.0
  0
LINE
  5
B591
330
B519
100
AcDbEntity
  8
1
  6
Continuous
100
AcDbLine
 10
127.6788519999999
 20
114.3205
 30
0.0
 11
135.678852
 21
114.3205
 31
0.0
  0
LINE
  5
B592
330
B519
100
AcDbEntity
  8
1
  6
Continuous
100
AcDbLine
 10
127.6788519999999
 20
113.8204999999999
 30
0.0
 11
135.678852
 21
113.8204999999999
 31
0.0
  0
LINE
  5
B593
330
B519
100
AcDbEntity
  8
1
  6
Continuous
100
AcDbLine
 10
127.6788519999999
 20
128.1795
 30
0.0
 11
127.6788519999999
 21
127.6795
 31
0.0
  0
ARC
  5
B594
330
B519
100
AcDbEntity
  8
1
  6
Continuous
100
AcDbCircle
 10
126.678852
 20
127.6795
 30
0.0
 40
1.0
100
AcDbArc
 50
180.0
 51
211.9716779999999
  0
LINE
  5
B595
330
B519
100
AcDbEntity
  8
1
  6
Continuous
100
AcDbLine
 10
127.6788519999999
 20
113.8204999999999
 30
0.0
 11
127.6788519999999
 21
114.3205
 31
0.0
  0
ARC
  5
B596
330
B519
100
AcDbEntity
  8
1
  6
Continuous
100
AcDbCircle
 10
146.678852
 20
127.6795
 30
0.0
 40
1.0
100
AcDbArc
 50
180.0
 51
211.9716779999999
  0
LINE
  5
B597
330
B519
100
AcDbEntity
  8
1
  6
Continuous
100
AcDbLine
 10
145.678852
 20
127.6795
 30
0.0
 11
145.678852
 21
128.1795
 31
0.0
  0
LINE
  5
B598
330
B519
100
AcDbEntity
  8
1
  6
Continuous
100
AcDbLine
 10
137.678852
 20
127.6795
 30
0.0
 11
145.678852
 21
127.6795
 31
0.0
  0
LINE
  5
B599
330
B519
100
AcDbEntity
  8
1
  6
Continuous
100
AcDbLine
 10
137.678852
 20
128.1795
 30
0.0
 11
145.678852
 21
128.1795
 31
0.0
  0
LINE
  5
B59A
330
B519
100
AcDbEntity
  8
1
  6
Continuous
100
AcDbLine
 10
145.678852
 20
114.3205
 30
0.0
 11
145.678852
 21
113.8204999999999
 31
0.0
  0
LINE
  5
B59B
330
B519
100
AcDbEntity
  8
1
  6
Continuous
100
AcDbLine
 10
137.678852
 20
114.3205
 30
0.0
 11
145.678852
 21
114.3205
 31
0.0
  0
LINE
  5
B59C
330
B519
100
AcDbEntity
  8
1
  6
Continuous
100
AcDbLine
 10
137.678852
 20
113.8204999999999
 30
0.0
 11
145.678852
 21
113.8204999999999
 31
0.0
  0
LINE
  5
B59D
330
B519
100
AcDbEntity
  8
1
  6
Continuous
100
AcDbLine
 10
137.678852
 20
128.1795
 30
0.0
 11
137.678852
 21
127.6795
 31
0.0
  0
ARC
  5
B59E
330
B519
100
AcDbEntity
  8
1
  6
Continuous
100
AcDbCircle
 10
136.678852
 20
127.6795
 30
0.0
 40
1.0
100
AcDbArc
 50
180.0
 51
211.9716779999999
  0
LINE
  5
B59F
330
B519
100
AcDbEntity
  8
1
  6
Continuous
100
AcDbLine
 10
137.678852
 20
113.8204999999999
 30
0.0
 11
137.678852
 21
114.3205
 31
0.0
  0
ARC
  5
B5A0
330
B519
100
AcDbEntity
  8
1
  6
Continuous
100
AcDbCircle
 10
146.678852
 20
114.3205
 30
0.0
 40
1.0
100
AcDbArc
 50
0.0
 51
31.97167800000001
  0
ARC
  5
B5A1
330
B519
100
AcDbEntity
  8
1
  6
Continuous
100
AcDbCircle
 10
136.678852
 20
114.3205
 30
0.0
 40
1.0
100
AcDbArc
 50
0.0
 51
31.97167800000001
  0
ARC
  5
B5A2
330
B519
100
AcDbEntity
  8
1
  6
Continuous
100
AcDbCircle
 10
156.678852
 20
127.6795
 30
0.0
 40
1.0
100
AcDbArc
 50
180.0
 51
211.9716779999999
  0
LINE
  5
B5A3
330
B519
100
AcDbEntity
  8
1
  6
Continuous
100
AcDbLine
 10
155.678852
 20
127.6795
 30
0.0
 11
155.678852
 21
128.1795
 31
0.0
  0
LINE
  5
B5A4
330
B519
100
AcDbEntity
  8
1
  6
Continuous
100
AcDbLine
 10
147.678852
 20
127.6795
 30
0.0
 11
155.678852
 21
127.6795
 31
0.0
  0
LINE
  5
B5A5
330
B519
100
AcDbEntity
  8
1
  6
Continuous
100
AcDbLine
 10
147.678852
 20
128.1795
 30
0.0
 11
155.678852
 21
128.1795
 31
0.0
  0
LINE
  5
B5A6
330
B519
100
AcDbEntity
  8
1
  6
Continuous
100
AcDbLine
 10
155.678852
 20
114.3205
 30
0.0
 11
155.678852
 21
113.8204999999999
 31
0.0
  0
LINE
  5
B5A7
330
B519
100
AcDbEntity
  8
1
  6
Continuous
100
AcDbLine
 10
147.678852
 20
114.3205
 30
0.0
 11
155.678852
 21
114.3205
 31
0.0
  0
LINE
  5
B5A8
330
B519
100
AcDbEntity
  8
1
  6
Continuous
100
AcDbLine
 10
147.678852
 20
113.8204999999999
 30
0.0
 11
155.678852
 21
113.8204999999999
 31
0.0
  0
LINE
  5
B5A9
330
B519
100
AcDbEntity
  8
1
  6
Continuous
100
AcDbLine
 10
147.678852
 20
128.1795
 30
0.0
 11
147.678852
 21
127.6795
 31
0.0
  0
LINE
  5
B5AA
330
B519
100
AcDbEntity
  8
1
  6
Continuous
100
AcDbLine
 10
147.678852
 20
113.8204999999999
 30
0.0
 11
147.678852
 21
114.3205
 31
0.0
  0
ARC
  5
B5AB
330
B519
100
AcDbEntity
  8
1
  6
Continuous
100
AcDbCircle
 10
156.678852
 20
114.3205
 30
0.0
 40
1.0
100
AcDbArc
 50
0.0
 51
31.97167800000001
  0
ARC
  5
B5AC
330
B519
100
AcDbEntity
  8
1
  6
Continuous
100
AcDbCircle
 10
166.678852
 20
127.6795
 30
0.0
 40
1.0
100
AcDbArc
 50
180.0
 51
211.9716779999999
  0
LINE
  5
B5AD
330
B519
100
AcDbEntity
  8
1
  6
Continuous
100
AcDbLine
 10
165.678852
 20
127.6795
 30
0.0
 11
165.678852
 21
128.1795
 31
0.0
  0
LINE
  5
B5AE
330
B519
100
AcDbEntity
  8
1
  6
Continuous
100
AcDbLine
 10
157.678852
 20
127.6795
 30
0.0
 11
165.678852
 21
127.6795
 31
0.0
  0
LINE
  5
B5AF
330
B519
100
AcDbEntity
  8
1
  6
Continuous
100
AcDbLine
 10
157.678852
 20
128.1795
 30
0.0
 11
165.678852
 21
128.1795
 31
0.0
  0
LINE
  5
B5B0
330
B519
100
AcDbEntity
  8
1
  6
Continuous
100
AcDbLine
 10
165.678852
 20
114.3205
 30
0.0
 11
165.678852
 21
113.8204999999999
 31
0.0
  0
LINE
  5
B5B1
330
B519
100
AcDbEntity
  8
1
  6
Continuous
100
AcDbLine
 10
157.678852
 20
114.3205
 30
0.0
 11
165.678852
 21
114.3205
 31
0.0
  0
LINE
  5
B5B2
330
B519
100
AcDbEntity
  8
1
  6
Continuous
100
AcDbLine
 10
157.678852
 20
113.8204999999999
 30
0.0
 11
165.678852
 21
113.8204999999999
 31
0.0
  0
LINE
  5
B5B3
330
B519
100
AcDbEntity
  8
1
  6
Continuous
100
AcDbLine
 10
157.678852
 20
128.1795
 30
0.0
 11
157.678852
 21
127.6795
 31
0.0
  0
LINE
  5
B5B4
330
B519
100
AcDbEntity
  8
1
  6
Continuous
100
AcDbLine
 10
157.678852
 20
113.8204999999999
 30
0.0
 11
157.678852
 21
114.3205
 31
0.0
  0
ARC
  5
B5B5
330
B519
100
AcDbEntity
  8
1
  6
Continuous
100
AcDbCircle
 10
166.678852
 20
114.3205
 30
0.0
 40
1.0
100
AcDbArc
 50
0.0
 51
31.97167800000001
  0
ARC
  5
B5B6
330
B519
100
AcDbEntity
  8
1
  6
Continuous
100
AcDbCircle
 10
176.678852
 20
127.6795
 30
0.0
 40
1.0
100
AcDbArc
 50
180.0
 51
0.0
  0
LINE
  5
B5B7
330
B519
100
AcDbEntity
  8
1
  6
Continuous
100
AcDbLine
 10
175.678852
 20
127.6795
 30
0.0
 11
175.678852
 21
128.1795
 31
0.0
  0
LINE
  5
B5B8
330
B519
100
AcDbEntity
  8
1
  6
Continuous
100
AcDbLine
 10
167.678852
 20
127.6795
 30
0.0
 11
175.678852
 21
127.6795
 31
0.0
  0
LINE
  5
B5B9
330
B519
100
AcDbEntity
  8
1
  6
Continuous
100
AcDbLine
 10
167.678852
 20
128.1795
 30
0.0
 11
175.678852
 21
128.1795
 31
0.0
  0
LINE
  5
B5BA
330
B519
100
AcDbEntity
  8
1
  6
Continuous
100
AcDbLine
 10
175.678852
 20
114.3205
 30
0.0
 11
175.678852
 21
113.8204999999999
 31
0.0
  0
LINE
  5
B5BB
330
B519
100
AcDbEntity
  8
1
  6
Continuous
100
AcDbLine
 10
167.678852
 20
114.3205
 30
0.0
 11
175.678852
 21
114.3205
 31
0.0
  0
LINE
  5
B5BC
330
B519
100
AcDbEntity
  8
1
  6
Continuous
100
AcDbLine
 10
167.678852
 20
113.8204999999999
 30
0.0
 11
175.678852
 21
113.8204999999999
 31
0.0
  0
LINE
  5
B5BD
330
B519
100
AcDbEntity
  8
1
  6
Continuous
100
AcDbLine
 10
167.678852
 20
128.1795
 30
0.0
 11
167.678852
 21
127.6795
 31
0.0
  0
LINE
  5
B5BE
330
B519
100
AcDbEntity
  8
1
  6
Continuous
100
AcDbLine
 10
167.678852
 20
113.8204999999999
 30
0.0
 11
167.678852
 21
114.3205
 31
0.0
  0
ARC
  5
B5BF
330
B519
100
AcDbEntity
  8
1
  6
Continuous
100
AcDbCircle
 10
176.678852
 20
114.3205
 30
0.0
 40
1.0
100
AcDbArc
 50
0.0
 51
180.0
  0
ARC
  5
B5C0
330
B519
100
AcDbEntity
  8
1
  6
Continuous
100
AcDbCircle
 10
186.678852
 20
127.6795
 30
0.0
 40
1.0
100
AcDbArc
 50
180.0
 51
0.0
  0
LINE
  5
B5C1
330
B519
100
AcDbEntity
  8
1
  6
Continuous
100
AcDbLine
 10
185.678852
 20
127.6795
 30
0.0
 11
185.678852
 21
128.1795
 31
0.0
  0
LINE
  5
B5C2
330
B519
100
AcDbEntity
  8
1
  6
Continuous
100
AcDbLine
 10
177.678852
 20
127.6795
 30
0.0
 11
185.678852
 21
127.6795
 31
0.0
  0
LINE
  5
B5C3
330
B519
100
AcDbEntity
  8
1
  6
Continuous
100
AcDbLine
 10
177.678852
 20
128.1795
 30
0.0
 11
185.678852
 21
128.1795
 31
0.0
  0
LINE
  5
B5C4
330
B519
100
AcDbEntity
  8
1
  6
Continuous
100
AcDbLine
 10
185.678852
 20
114.3205
 30
0.0
 11
185.678852
 21
113.8204999999999
 31
0.0
  0
LINE
  5
B5C5
330
B519
100
AcDbEntity
  8
1
  6
Continuous
100
AcDbLine
 10
177.678852
 20
114.3205
 30
0.0
 11
185.678852
 21
114.3205
 31
0.0
  0
LINE
  5
B5C6
330
B519
100
AcDbEntity
  8
1
  6
Continuous
100
AcDbLine
 10
177.678852
 20
113.8204999999999
 30
0.0
 11
185.678852
 21
113.8204999999999
 31
0.0
  0
LINE
  5
B5C7
330
B519
100
AcDbEntity
  8
1
  6
Continuous
100
AcDbLine
 10
177.678852
 20
128.1795
 30
0.0
 11
177.678852
 21
127.6795
 31
0.0
  0
LINE
  5
B5C8
330
B519
100
AcDbEntity
  8
1
  6
Continuous
100
AcDbLine
 10
177.678852
 20
113.8204999999999
 30
0.0
 11
177.678852
 21
114.3205
 31
0.0
  0
LINE
  5
B5C9
330
B519
100
AcDbEntity
  8
1
  6
Continuous
100
AcDbLine
 10
195.678852
 20
127.6795
 30
0.0
 11
195.678852
 21
128.1795
 31
0.0
  0
LINE
  5
B5CA
330
B519
100
AcDbEntity
  8
1
  6
Continuous
100
AcDbLine
 10
187.678852
 20
127.6795
 30
0.0
 11
195.678852
 21
127.6795
 31
0.0
  0
LINE
  5
B5CB
330
B519
100
AcDbEntity
  8
1
  6
Continuous
100
AcDbLine
 10
187.678852
 20
128.1795
 30
0.0
 11
195.678852
 21
128.1795
 31
0.0
  0
LINE
  5
B5CC
330
B519
100
AcDbEntity
  8
1
  6
Continuous
100
AcDbLine
 10
195.678852
 20
114.3205
 30
0.0
 11
195.678852
 21
113.8204999999999
 31
0.0
  0
LINE
  5
B5CD
330
B519
100
AcDbEntity
  8
1
  6
Continuous
100
AcDbLine
 10
187.678852
 20
114.3205
 30
0.0
 11
195.678852
 21
114.3205
 31
0.0
  0
LINE
  5
B5CE
330
B519
100
AcDbEntity
  8
1
  6
Continuous
100
AcDbLine
 10
187.678852
 20
113.8204999999999
 30
0.0
 11
195.678852
 21
113.8204999999999
 31
0.0
  0
LINE
  5
B5CF
330
B519
100
AcDbEntity
  8
1
  6
Continuous
100
AcDbLine
 10
187.678852
 20
128.1795
 30
0.0
 11
187.678852
 21
127.6795
 31
0.0
  0
LINE
  5
B5D0
330
B519
100
AcDbEntity
  8
1
  6
Continuous
100
AcDbLine
 10
187.678852
 20
113.8204999999999
 30
0.0
 11
187.678852
 21
114.3205
 31
0.0
  0
ARC
  5
B5D1
330
B519
100
AcDbEntity
  8
1
  6
Continuous
100
AcDbCircle
 10
186.678852
 20
114.3205
 30
0.0
 40
1.0
100
AcDbArc
 50
0.0
 51
180.0
  0
ARC
  5
B5D2
330
B519
100
AcDbEntity
  8
1
  6
Continuous
100
AcDbCircle
 10
206.678852
 20
127.6795
 30
0.0
 40
1.0
100
AcDbArc
 50
180.0
 51
0.0
  0
LINE
  5
B5D3
330
B519
100
AcDbEntity
  8
1
  6
Continuous
100
AcDbLine
 10
205.678852
 20
127.6795
 30
0.0
 11
205.678852
 21
128.1795
 31
0.0
  0
LINE
  5
B5D4
330
B519
100
AcDbEntity
  8
1
  6
Continuous
100
AcDbLine
 10
197.678852
 20
127.6795
 30
0.0
 11
205.678852
 21
127.6795
 31
0.0
  0
LINE
  5
B5D5
330
B519
100
AcDbEntity
  8
1
  6
Continuous
100
AcDbLine
 10
197.678852
 20
128.1795
 30
0.0
 11
205.678852
 21
128.1795
 31
0.0
  0
LINE
  5
B5D6
330
B519
100
AcDbEntity
  8
1
  6
Continuous
100
AcDbLine
 10
205.678852
 20
114.3205
 30
0.0
 11
205.678852
 21
113.8204999999999
 31
0.0
  0
LINE
  5
B5D7
330
B519
100
AcDbEntity
  8
1
  6
Continuous
100
AcDbLine
 10
197.678852
 20
114.3205
 30
0.0
 11
205.678852
 21
114.3205
 31
0.0
  0
LINE
  5
B5D8
330
B519
100
AcDbEntity
  8
1
  6
Continuous
100
AcDbLine
 10
197.678852
 20
113.8204999999999
 30
0.0
 11
205.678852
 21
113.8204999999999
 31
0.0
  0
LINE
  5
B5D9
330
B519
100
AcDbEntity
  8
1
  6
Continuous
100
AcDbLine
 10
197.678852
 20
128.1795
 30
0.0
 11
197.678852
 21
127.6795
 31
0.0
  0
ARC
  5
B5DA
330
B519
100
AcDbEntity
  8
1
  6
Continuous
100
AcDbCircle
 10
196.678852
 20
127.6795
 30
0.0
 40
1.0
100
AcDbArc
 50
180.0
 51
0.0
  0
LINE
  5
B5DB
330
B519
100
AcDbEntity
  8
1
  6
Continuous
100
AcDbLine
 10
197.678852
 20
113.8204999999999
 30
0.0
 11
197.678852
 21
114.3205
 31
0.0
  0
ARC
  5
B5DC
330
B519
100
AcDbEntity
  8
1
  6
Continuous
100
AcDbCircle
 10
206.678852
 20
114.3205
 30
0.0
 40
1.0
100
AcDbArc
 50
0.0
 51
180.0
  0
ARC
  5
B5DD
330
B519
100
AcDbEntity
  8
1
  6
Continuous
100
AcDbCircle
 10
196.678852
 20
114.3205
 30
0.0
 40
1.0
100
AcDbArc
 50
0.0
 51
180.0
  0
LINE
  5
B5DE
330
B519
100
AcDbEntity
  8
1
  6
Continuous
100
AcDbLine
 10
207.678852
 20
127.6795
 30
0.0
 11
207.678852
 21
128.1795
 31
0.0
  0
LINE
  5
B5DF
330
B519
100
AcDbEntity
  8
1
  6
Continuous
100
AcDbLine
 10
207.678852
 20
127.6795
 30
0.0
 11
215.678852
 21
127.6795
 31
0.0
  0
LINE
  5
B5E0
330
B519
100
AcDbEntity
  8
1
  6
Continuous
100
AcDbLine
 10
207.678852
 20
128.1795
 30
0.0
 11
215.678852
 21
128.1795
 31
0.0
  0
LINE
  5
B5E1
330
B519
100
AcDbEntity
  8
1
  6
Continuous
100
AcDbLine
 10
207.678852
 20
114.3205
 30
0.0
 11
207.678852
 21
113.8204999999999
 31
0.0
  0
LINE
  5
B5E2
330
B519
100
AcDbEntity
  8
1
  6
Continuous
100
AcDbLine
 10
207.678852
 20
114.3205
 30
0.0
 11
215.678852
 21
114.3205
 31
0.0
  0
LINE
  5
B5E3
330
B519
100
AcDbEntity
  8
1
  6
Continuous
100
AcDbLine
 10
207.678852
 20
113.8204999999999
 30
0.0
 11
215.678852
 21
113.8204999999999
 31
0.0
  0
LINE
  5
B5E4
330
B519
100
AcDbEntity
  8
1
  6
Continuous
100
AcDbLine
 10
77.67885200000002
 20
114.85
 30
0.0
 11
77.67885200000002
 21
113.8204999999999
 31
0.0
  0
LINE
  5
B5E5
330
B519
100
AcDbEntity
  8
1
  6
Continuous
100
AcDbLine
 10
170.8788519999998
 20
125.78
 30
0.0
 11
265.678852
 21
125.78
 31
0.0
  0
LINE
  5
B5E6
330
B519
100
AcDbEntity
  8
1
  6
Continuous
100
AcDbLine
 10
170.8788519999998
 20
124.5999999999998
 30
0.0
 11
265.678852
 21
124.5999999999998
 31
0.0
  0
LINE
  5
B5E7
330
B519
100
AcDbEntity
  8
1
  6
Continuous
100
AcDbLine
 10
170.8788519999998
 20
117.4
 30
0.0
 11
265.678852
 21
117.4
 31
0.0
  0
LINE
  5
B5E8
330
B519
100
AcDbEntity
  8
1
  6
Continuous
100
AcDbLine
 10
170.8788519999998
 20
116.22
 30
0.0
 11
265.678852
 21
116.22
 31
0.0
  0
LINE
  5
B5E9
330
B519
100
AcDbEntity
  8
4
  6
CENTER
100
AcDbLine
 10
89.47885199999998
 20
123.3784559999999
 30
0.0
 11
89.47885199999998
 21
118.9305499999999
 31
0.0
  0
CIRCLE
  5
B5EA
330
B519
100
AcDbEntity
  8
2
  6
Continuous
100
AcDbCircle
 10
90.878852
 20
121.0
 30
0.0
 40
1.5
  0
LINE
  5
B5EB
330
B519
100
AcDbEntity
  8
4
  6
CENTER
100
AcDbLine
 10
90.878852
 20
125.2156339999999
 30
0.0
 11
90.878852
 21
116.706597
 31
0.0
  0
LINE
  5
B5EC
330
B519
100
AcDbEntity
  8
4
  6
CENTER
100
AcDbLine
 10
104.4788519999999
 20
123.76523
 30
0.0
 11
104.4788519999999
 21
118.3503889999998
 31
0.0
  0
CIRCLE
  5
B5ED
330
B519
100
AcDbEntity
  8
2
  6
Continuous
100
AcDbCircle
 10
150.8788519999999
 20
121.0
 30
0.0
 40
1.5
  0
LINE
  5
B5EE
330
B519
100
AcDbEntity
  8
4
  6
CENTER
100
AcDbLine
 10
150.8788519999999
 20
125.263981
 30
0.0
 11
150.8788519999999
 21
116.899985
 31
0.0
  0
LINE
  5
B5EF
330
B519
100
AcDbEntity
  8
4
  6
CENTER
100
AcDbLine
 10
189.4788519999999
 20
123.668537
 30
0.0
 11
189.4788519999999
 21
118.398735
 31
0.0
  0
LINE
  5
B5F0
330
B519
100
AcDbEntity
  8
4
  6
CENTER
100
AcDbLine
 10
334.478852
 20
123.861924
 30
0.0
 11
334.478852
 21
118.398735
 31
0.0
  0
LINE
  5
B5F1
330
B519
100
AcDbEntity
  8
1
  6
Continuous
100
AcDbLine
 10
334.178852
 20
119.4
 30
0.0
 11
334.7788519999999
 21
119.4
 31
0.0
  0
LINE
  5
B5F2
330
B519
100
AcDbEntity
  8
1
  6
Continuous
100
AcDbLine
 10
334.7788519999999
 20
122.5999999999998
 30
0.0
 11
334.178852
 21
122.5999999999998
 31
0.0
  0
ARC
  5
B5F3
330
B519
100
AcDbEntity
  8
1
  6
Continuous
100
AcDbCircle
 10
334.178852
 20
121.0
 30
0.0
 40
1.6
100
AcDbArc
 50
90.0
 51
270.0
  0
ARC
  5
B5F4
330
B519
100
AcDbEntity
  8
1
  6
Continuous
100
AcDbCircle
 10
334.7788519999999
 20
121.0
 30
0.0
 40
1.6
100
AcDbArc
 50
270.0
 51
90.0
  0
LINE
  5
B5F5
330
B519
100
AcDbEntity
  8
4
  6
CENTER
100
AcDbLine
 10
349.478852
 20
123.910271
 30
0.0
 11
349.478852
 21
117.866921
 31
0.0
  0
LINE
  5
B5F6
330
B519
100
AcDbEntity
  8
1
  6
Continuous
100
AcDbLine
 10
349.178852
 20
119.4
 30
0.0
 11
349.7788519999998
 21
119.4
 31
0.0
  0
LINE
  5
B5F7
330
B519
100
AcDbEntity
  8
1
  6
Continuous
100
AcDbLine
 10
349.7788519999998
 20
122.5999999999998
 30
0.0
 11
349.178852
 21
122.5999999999998
 31
0.0
  0
ARC
  5
B5F8
330
B519
100
AcDbEntity
  8
1
  6
Continuous
100
AcDbCircle
 10
349.178852
 20
121.0
 30
0.0
 40
1.6
100
AcDbArc
 50
90.0
 51
270.0
  0
ARC
  5
B5F9
330
B519
100
AcDbEntity
  8
1
  6
Continuous
100
AcDbCircle
 10
349.7788519999998
 20
121.0
 30
0.0
 40
1.6
100
AcDbArc
 50
270.0
 51
90.0
  0
ARC
  5
B5FA
330
B519
100
AcDbEntity
  8
1
  6
Continuous
100
AcDbCircle
 10
96.678852
 20
127.6795
 30
0.0
 40
1.0
100
AcDbArc
 50
328.028322
 51
0.0
  0
ARC
  5
B5FB
330
B519
100
AcDbEntity
  8
1
  6
Continuous
100
AcDbCircle
 10
86.678852
 20
127.6795
 30
0.0
 40
1.0
100
AcDbArc
 50
328.028322
 51
0.0
  0
ARC
  5
B5FC
330
B519
100
AcDbEntity
  8
1
  6
Continuous
100
AcDbCircle
 10
106.678852
 20
127.6795
 30
0.0
 40
1.0
100
AcDbArc
 50
328.028322
 51
0.0
  0
ARC
  5
B5FD
330
B519
100
AcDbEntity
  8
1
  6
Continuous
100
AcDbCircle
 10
116.678852
 20
127.6795
 30
0.0
 40
1.0
100
AcDbArc
 50
328.028322
 51
0.0
  0
ARC
  5
B5FE
330
B519
100
AcDbEntity
  8
1
  6
Continuous
100
AcDbCircle
 10
116.678852
 20
114.3205
 30
0.0
 40
1.0
100
AcDbArc
 50
148.028322
 51
180.0
  0
ARC
  5
B5FF
330
B519
100
AcDbEntity
  8
1
  6
Continuous
100
AcDbCircle
 10
106.678852
 20
114.3205
 30
0.0
 40
1.0
100
AcDbArc
 50
148.028322
 51
180.0
  0
ARC
  5
B600
330
B519
100
AcDbEntity
  8
1
  6
Continuous
100
AcDbCircle
 10
96.678852
 20
114.3205
 30
0.0
 40
1.0
100
AcDbArc
 50
148.028322
 51
180.0
  0
ARC
  5
B601
330
B519
100
AcDbEntity
  8
1
  6
Continuous
100
AcDbCircle
 10
86.678852
 20
114.3205
 30
0.0
 40
1.0
100
AcDbArc
 50
148.028322
 51
180.0
  0
ARC
  5
B602
330
B519
100
AcDbEntity
  8
1
  6
Continuous
100
AcDbCircle
 10
70.078852
 20
114.7
 30
0.0
 40
1.0
100
AcDbArc
 50
36.869898
 51
90.0
  0
ARC
  5
B603
330
B519
100
AcDbEntity
  8
1
  6
Continuous
100
AcDbCircle
 10
70.078852
 20
127.2999999999999
 30
0.0
 40
1.0
100
AcDbArc
 50
351.3730729999999
 51
45.0
  0
LINE
  5
B604
330
B519
100
AcDbEntity
  8
1
  6
Continuous
100
AcDbLine
 10
25.0
 20
127.081989
 30
0.0
 11
25.0
 21
114.918011
 31
0.0
  0
LINE
  5
B605
330
B519
100
AcDbEntity
  8
1
  6
Continuous
100
AcDbLine
 10
33.0
 20
125.6410399999999
 30
0.0
 11
33.0
 21
116.35896
 31
0.0
  0
LINE
  5
B606
330
B519
100
AcDbEntity
  8
1
  6
Continuous
100
AcDbLine
 10
26.4
 20
127.081989
 30
0.0
 11
26.4
 21
126.2999999999999
 31
0.0
  0
ARC
  5
B607
330
B519
100
AcDbEntity
  8
1
  6
Continuous
100
AcDbCircle
 10
29.5
 20
128.0124999999999
 30
0.0
 40
1.587499999999999
100
AcDbArc
 50
0.343152
 51
195.7716379999999
  0
ARC
  5
B608
330
B519
100
AcDbEntity
  8
1
  6
Continuous
100
AcDbCircle
 10
29.5
 20
128.0124999999999
 30
0.0
 40
2.987499999999998
100
AcDbArc
 50
30.350252
 51
132.8834129999999
  0
ARC
  5
B609
330
B519
100
AcDbEntity
  8
1
  6
Continuous
100
AcDbCircle
 10
81.678852
 20
128.0124999999999
 30
0.0
 40
1.587499999999999
100
AcDbArc
 50
327.090948
 51
347.8914909999998
  0
ARC
  5
B60A
330
B519
100
AcDbEntity
  8
1
  6
Continuous
100
AcDbCircle
 10
81.678852
 20
128.0124999999999
 30
0.0
 40
1.587499999999999
100
AcDbArc
 50
155.4270199999999
 51
173.9614919999999
  0
ARC
  5
B60B
330
B519
100
AcDbEntity
  8
1
  6
Continuous
100
AcDbCircle
 10
81.678852
 20
128.0124999999999
 30
0.0
 40
1.587499999999999
100
AcDbArc
 50
6.038508
 51
24.57297999999999
  0
ARC
  5
B60C
330
B519
100
AcDbEntity
  8
1
  6
Continuous
100
AcDbCircle
 10
81.678852
 20
128.0124999999999
 30
0.0
 40
1.587499999999999
100
AcDbArc
 50
192.1085089999999
 51
212.9090519999999
  0
ARC
  5
B60D
330
B519
100
AcDbEntity
  8
1
  6
Continuous
100
AcDbCircle
 10
91.678852
 20
128.0124999999999
 30
0.0
 40
1.587499999999999
100
AcDbArc
 50
192.1085089999999
 51
212.9090519999999
  0
ARC
  5
B60E
330
B519
100
AcDbEntity
  8
1
  6
Continuous
100
AcDbCircle
 10
91.678852
 20
128.0124999999999
 30
0.0
 40
1.587499999999999
100
AcDbArc
 50
155.4270199999999
 51
173.9614919999999
  0
ARC
  5
B60F
330
B519
100
AcDbEntity
  8
1
  6
Continuous
100
AcDbCircle
 10
91.678852
 20
128.0124999999999
 30
0.0
 40
1.587499999999999
100
AcDbArc
 50
6.038508
 51
24.57297999999999
  0
ARC
  5
B610
330
B519
100
AcDbEntity
  8
1
  6
Continuous
100
AcDbCircle
 10
91.678852
 20
128.0124999999999
 30
0.0
 40
1.587499999999999
100
AcDbArc
 50
327.090948
 51
347.8914909999998
  0
ARC
  5
B611
330
B519
100
AcDbEntity
  8
1
  6
Continuous
100
AcDbCircle
 10
111.678852
 20
128.0124999999999
 30
0.0
 40
1.587499999999999
100
AcDbArc
 50
327.090948
 51
347.8914909999998
  0
ARC
  5
B612
330
B519
100
AcDbEntity
  8
1
  6
Continuous
100
AcDbCircle
 10
111.678852
 20
128.0124999999999
 30
0.0
 40
1.587499999999999
100
AcDbArc
 50
6.038508
 51
24.57297999999999
  0
ARC
  5
B613
330
B519
100
AcDbEntity
  8
1
  6
Continuous
100
AcDbCircle
 10
111.678852
 20
128.0124999999999
 30
0.0
 40
1.587499999999999
100
AcDbArc
 50
155.4270199999999
 51
173.9614919999999
  0
ARC
  5
B614
330
B519
100
AcDbEntity
  8
1
  6
Continuous
100
AcDbCircle
 10
111.678852
 20
128.0124999999999
 30
0.0
 40
1.587499999999999
100
AcDbArc
 50
192.1085089999999
 51
212.9090519999999
  0
ARC
  5
B615
330
B519
100
AcDbEntity
  8
1
  6
Continuous
100
AcDbCircle
 10
101.6788519999999
 20
128.0124999999999
 30
0.0
 40
1.587499999999999
100
AcDbArc
 50
192.1085089999999
 51
212.9090519999999
  0
ARC
  5
B616
330
B519
100
AcDbEntity
  8
1
  6
Continuous
100
AcDbCircle
 10
101.6788519999999
 20
128.0124999999999
 30
0.0
 40
1.587499999999999
100
AcDbArc
 50
155.4270199999999
 51
173.9614919999999
  0
ARC
  5
B617
330
B519
100
AcDbEntity
  8
1
  6
Continuous
100
AcDbCircle
 10
101.6788519999999
 20
128.0124999999999
 30
0.0
 40
1.587499999999999
100
AcDbArc
 50
6.038508
 51
24.57297999999999
  0
ARC
  5
B618
330
B519
100
AcDbEntity
  8
1
  6
Continuous
100
AcDbCircle
 10
101.6788519999999
 20
128.0124999999999
 30
0.0
 40
1.587499999999999
100
AcDbArc
 50
327.090948
 51
347.8914909999998
  0
ARC
  5
B619
330
B519
100
AcDbEntity
  8
1
  6
Continuous
100
AcDbCircle
 10
131.678852
 20
128.0124999999999
 30
0.0
 40
1.587499999999999
100
AcDbArc
 50
192.1085089999999
 51
212.9090519999999
  0
ARC
  5
B61A
330
B519
100
AcDbEntity
  8
1
  6
Continuous
100
AcDbCircle
 10
131.678852
 20
128.0124999999999
 30
0.0
 40
1.587499999999999
100
AcDbArc
 50
155.4270199999999
 51
173.9614919999999
  0
ARC
  5
B61B
330
B519
100
AcDbEntity
  8
1
  6
Continuous
100
AcDbCircle
 10
131.678852
 20
128.0124999999999
 30
0.0
 40
1.587499999999999
100
AcDbArc
 50
6.038508
 51
24.57297999999999
  0
ARC
  5
B61C
330
B519
100
AcDbEntity
  8
1
  6
Continuous
100
AcDbCircle
 10
131.678852
 20
128.0124999999999
 30
0.0
 40
1.587499999999999
100
AcDbArc
 50
327.090948
 51
347.8914909999998
  0
ARC
  5
B61D
330
B519
100
AcDbEntity
  8
1
  6
Continuous
100
AcDbCircle
 10
121.678852
 20
128.0124999999999
 30
0.0
 40
1.587499999999999
100
AcDbArc
 50
327.090948
 51
347.8914909999998
  0
ARC
  5
B61E
330
B519
100
AcDbEntity
  8
1
  6
Continuous
100
AcDbCircle
 10
121.678852
 20
128.0124999999999
 30
0.0
 40
1.587499999999999
100
AcDbArc
 50
6.038508
 51
24.57297999999999
  0
ARC
  5
B61F
330
B519
100
AcDbEntity
  8
1
  6
Continuous
100
AcDbCircle
 10
121.678852
 20
128.0124999999999
 30
0.0
 40
1.587499999999999
100
AcDbArc
 50
155.4270199999999
 51
173.9614919999999
  0
ARC
  5
B620
330
B519
100
AcDbEntity
  8
1
  6
Continuous
100
AcDbCircle
 10
121.678852
 20
128.0124999999999
 30
0.0
 40
1.587499999999999
100
AcDbArc
 50
192.1085089999999
 51
212.9090519999999
  0
ARC
  5
B621
330
B519
100
AcDbEntity
  8
1
  6
Continuous
100
AcDbCircle
 10
141.678852
 20
128.0124999999999
 30
0.0
 40
1.587499999999999
100
AcDbArc
 50
192.1085089999999
 51
212.9090519999999
  0
ARC
  5
B622
330
B519
100
AcDbEntity
  8
1
  6
Continuous
100
AcDbCircle
 10
141.678852
 20
128.0124999999999
 30
0.0
 40
1.587499999999999
100
AcDbArc
 50
155.4270199999999
 51
173.9614919999999
  0
ARC
  5
B623
330
B519
100
AcDbEntity
  8
1
  6
Continuous
100
AcDbCircle
 10
141.678852
 20
128.0124999999999
 30
0.0
 40
1.587499999999999
100
AcDbArc
 50
6.038508
 51
24.57297999999999
  0
ARC
  5
B624
330
B519
100
AcDbEntity
  8
1
  6
Continuous
100
AcDbCircle
 10
141.678852
 20
128.0124999999999
 30
0.0
 40
1.587499999999999
100
AcDbArc
 50
327.090948
 51
347.8914909999998
  0
ARC
  5
B625
330
B519
100
AcDbEntity
  8
1
  6
Continuous
100
AcDbCircle
 10
151.678852
 20
128.0124999999999
 30
0.0
 40
1.587499999999999
100
AcDbArc
 50
192.1085089999999
 51
212.9090519999999
  0
ARC
  5
B626
330
B519
100
AcDbEntity
  8
1
  6
Continuous
100
AcDbCircle
 10
151.678852
 20
128.0124999999999
 30
0.0
 40
1.587499999999999
100
AcDbArc
 50
155.4270199999999
 51
173.9614919999999
  0
ARC
  5
B627
330
B519
100
AcDbEntity
  8
1
  6
Continuous
100
AcDbCircle
 10
151.678852
 20
128.0124999999999
 30
0.0
 40
1.587499999999999
100
AcDbArc
 50
6.038508
 51
24.57297999999999
  0
ARC
  5
B628
330
B519
100
AcDbEntity
  8
1
  6
Continuous
100
AcDbCircle
 10
151.678852
 20
128.0124999999999
 30
0.0
 40
1.587499999999999
100
AcDbArc
 50
327.090948
 51
347.8914909999998
  0
ARC
  5
B629
330
B519
100
AcDbEntity
  8
1
  6
Continuous
100
AcDbCircle
 10
161.678852
 20
128.0124999999999
 30
0.0
 40
1.587499999999999
100
AcDbArc
 50
327.090948
 51
347.8914909999998
  0
ARC
  5
B62A
330
B519
100
AcDbEntity
  8
1
  6
Continuous
100
AcDbCircle
 10
161.678852
 20
128.0124999999999
 30
0.0
 40
1.587499999999999
100
AcDbArc
 50
6.038508
 51
24.57297999999999
  0
ARC
  5
B62B
330
B519
100
AcDbEntity
  8
1
  6
Continuous
100
AcDbCircle
 10
161.678852
 20
128.0124999999999
 30
0.0
 40
1.587499999999999
100
AcDbArc
 50
155.4270199999999
 51
173.9614919999999
  0
ARC
  5
B62C
330
B519
100
AcDbEntity
  8
1
  6
Continuous
100
AcDbCircle
 10
161.678852
 20
128.0124999999999
 30
0.0
 40
1.587499999999999
100
AcDbArc
 50
192.1085089999999
 51
212.9090519999999
  0
ARC
  5
B62D
330
B519
100
AcDbEntity
  8
1
  6
Continuous
100
AcDbCircle
 10
211.678852
 20
128.0124999999999
 30
0.0
 40
1.587499999999999
100
AcDbArc
 50
155.4270199999999
 51
173.9614919999999
  0
ARC
  5
B62E
330
B519
100
AcDbEntity
  8
1
  6
Continuous
100
AcDbCircle
 10
211.678852
 20
128.0124999999999
 30
0.0
 40
1.587499999999999
100
AcDbArc
 50
6.038508
 51
24.57297999999999
  0
ARC
  5
B62F
330
B519
100
AcDbEntity
  8
1
  6
Continuous
100
AcDbCircle
 10
211.678852
 20
128.0124999999999
 30
0.0
 40
1.587499999999999
100
AcDbArc
 50
192.1085089999999
 51
347.8914909999998
  0
ARC
  5
B630
330
B519
100
AcDbEntity
  8
1
  6
Continuous
100
AcDbCircle
 10
201.6788519999999
 20
128.0124999999999
 30
0.0
 40
1.587499999999999
100
AcDbArc
 50
192.1085089999999
 51
347.8914909999998
  0
ARC
  5
B631
330
B519
100
AcDbEntity
  8
1
  6
Continuous
100
AcDbCircle
 10
201.6788519999999
 20
128.0124999999999
 30
0.0
 40
1.587499999999999
100
AcDbArc
 50
6.038508
 51
24.57297999999999
  0
ARC
  5
B632
330
B519
100
AcDbEntity
  8
1
  6
Continuous
100
AcDbCircle
 10
201.6788519999999
 20
128.0124999999999
 30
0.0
 40
1.587499999999999
100
AcDbArc
 50
155.4270199999999
 51
173.9614919999999
  0
ARC
  5
B633
330
B519
100
AcDbEntity
  8
1
  6
Continuous
100
AcDbCircle
 10
191.678852
 20
128.0124999999999
 30
0.0
 40
1.587499999999999
100
AcDbArc
 50
192.1085089999999
 51
347.8914909999998
  0
ARC
  5
B634
330
B519
100
AcDbEntity
  8
1
  6
Continuous
100
AcDbCircle
 10
191.678852
 20
128.0124999999999
 30
0.0
 40
1.587499999999999
100
AcDbArc
 50
6.038508
 51
24.57297999999999
  0
ARC
  5
B635
330
B519
100
AcDbEntity
  8
1
  6
Continuous
100
AcDbCircle
 10
191.678852
 20
128.0124999999999
 30
0.0
 40
1.587499999999999
100
AcDbArc
 50
155.4270199999999
 51
173.9614919999999
  0
ARC
  5
B636
330
B519
100
AcDbEntity
  8
1
  6
Continuous
100
AcDbCircle
 10
181.678852
 20
128.0124999999999
 30
0.0
 40
1.587499999999999
100
AcDbArc
 50
192.1085089999999
 51
347.8914909999998
  0
ARC
  5
B637
330
B519
100
AcDbEntity
  8
1
  6
Continuous
100
AcDbCircle
 10
181.678852
 20
128.0124999999999
 30
0.0
 40
1.587499999999999
100
AcDbArc
 50
6.038508
 51
24.57297999999999
  0
ARC
  5
B638
330
B519
100
AcDbEntity
  8
1
  6
Continuous
100
AcDbCircle
 10
181.678852
 20
128.0124999999999
 30
0.0
 40
1.587499999999999
100
AcDbArc
 50
155.4270199999999
 51
173.9614919999999
  0
ARC
  5
B639
330
B519
100
AcDbEntity
  8
1
  6
Continuous
100
AcDbCircle
 10
171.678852
 20
128.0124999999999
 30
0.0
 40
1.587499999999999
100
AcDbArc
 50
192.1085089999999
 51
212.9090519999999
  0
ARC
  5
B63A
330
B519
100
AcDbEntity
  8
1
  6
Continuous
100
AcDbCircle
 10
171.678852
 20
128.0124999999999
 30
0.0
 40
1.587499999999999
100
AcDbArc
 50
155.4270199999999
 51
173.9614919999999
  0
ARC
  5
B63B
330
B519
100
AcDbEntity
  8
1
  6
Continuous
100
AcDbCircle
 10
171.678852
 20
128.0124999999999
 30
0.0
 40
1.587499999999999
100
AcDbArc
 50
6.038508
 51
24.57297999999999
  0
ARC
  5
B63C
330
B519
100
AcDbEntity
  8
1
  6
Continuous
100
AcDbCircle
 10
171.678852
 20
128.0124999999999
 30
0.0
 40
1.587499999999999
100
AcDbArc
 50
239.7391859999999
 51
347.8914909999998
  0
ARC
  5
B63D
330
B519
100
AcDbEntity
  8
1
  6
Continuous
100
AcDbCircle
 10
211.678852
 20
113.9874999999999
 30
0.0
 40
1.587499999999999
100
AcDbArc
 50
12.108509
 51
167.891491
  0
ARC
  5
B63E
330
B519
100
AcDbEntity
  8
1
  6
Continuous
100
AcDbCircle
 10
201.6788519999999
 20
113.9874999999999
 30
0.0
 40
1.587499999999999
100
AcDbArc
 50
12.108509
 51
167.891491
  0
ARC
  5
B63F
330
B519
100
AcDbEntity
  8
1
  6
Continuous
100
AcDbCircle
 10
191.678852
 20
113.9874999999999
 30
0.0
 40
1.587499999999999
100
AcDbArc
 50
12.108509
 51
167.891491
  0
ARC
  5
B640
330
B519
100
AcDbEntity
  8
1
  6
Continuous
100
AcDbCircle
 10
181.678852
 20
113.9874999999999
 30
0.0
 40
1.587499999999999
100
AcDbArc
 50
12.108509
 51
167.891491
  0
ARC
  5
B641
330
B519
100
AcDbEntity
  8
1
  6
Continuous
100
AcDbCircle
 10
171.678852
 20
113.9874999999999
 30
0.0
 40
1.587499999999999
100
AcDbArc
 50
12.108509
 51
120.2608139999999
  0
ARC
  5
B642
330
B519
100
AcDbEntity
  8
1
  6
Continuous
100
AcDbCircle
 10
171.678852
 20
113.9874999999999
 30
0.0
 40
1.587499999999999
100
AcDbArc
 50
186.038508
 51
204.57298
  0
ARC
  5
B643
330
B519
100
AcDbEntity
  8
1
  6
Continuous
100
AcDbCircle
 10
171.678852
 20
113.9874999999999
 30
0.0
 40
1.587499999999999
100
AcDbArc
 50
147.0909479999999
 51
167.891491
  0
ARC
  5
B644
330
B519
100
AcDbEntity
  8
1
  6
Continuous
100
AcDbCircle
 10
171.678852
 20
113.9874999999999
 30
0.0
 40
1.587499999999999
100
AcDbArc
 50
335.4270200000001
 51
353.9614919999999
  0
ARC
  5
B645
330
B519
100
AcDbEntity
  8
1
  6
Continuous
100
AcDbCircle
 10
181.678852
 20
113.9874999999999
 30
0.0
 40
1.587499999999999
100
AcDbArc
 50
186.038508
 51
204.57298
  0
ARC
  5
B646
330
B519
100
AcDbEntity
  8
1
  6
Continuous
100
AcDbCircle
 10
181.678852
 20
113.9874999999999
 30
0.0
 40
1.587499999999999
100
AcDbArc
 50
335.4270200000001
 51
353.9614919999999
  0
ARC
  5
B647
330
B519
100
AcDbEntity
  8
1
  6
Continuous
100
AcDbCircle
 10
191.678852
 20
113.9874999999999
 30
0.0
 40
1.587499999999999
100
AcDbArc
 50
186.038508
 51
204.57298
  0
ARC
  5
B648
330
B519
100
AcDbEntity
  8
1
  6
Continuous
100
AcDbCircle
 10
191.678852
 20
113.9874999999999
 30
0.0
 40
1.587499999999999
100
AcDbArc
 50
335.4270200000001
 51
353.9614919999999
  0
ARC
  5
B649
330
B519
100
AcDbEntity
  8
1
  6
Continuous
100
AcDbCircle
 10
201.6788519999999
 20
113.9874999999999
 30
0.0
 40
1.587499999999999
100
AcDbArc
 50
186.038508
 51
204.57298
  0
ARC
  5
B64A
330
B519
100
AcDbEntity
  8
1
  6
Continuous
100
AcDbCircle
 10
201.6788519999999
 20
113.9874999999999
 30
0.0
 40
1.587499999999999
100
AcDbArc
 50
335.4270200000001
 51
353.9614919999999
  0
ARC
  5
B64B
330
B519
100
AcDbEntity
  8
1
  6
Continuous
100
AcDbCircle
 10
211.678852
 20
113.9874999999999
 30
0.0
 40
1.587499999999999
100
AcDbArc
 50
335.4270200000001
 51
353.9614919999999
  0
ARC
  5
B64C
330
B519
100
AcDbEntity
  8
1
  6
Continuous
100
AcDbCircle
 10
211.678852
 20
113.9874999999999
 30
0.0
 40
1.587499999999999
100
AcDbArc
 50
186.038508
 51
204.57298
  0
ARC
  5
B64D
330
B519
100
AcDbEntity
  8
1
  6
Continuous
100
AcDbCircle
 10
166.678852
 20
127.6795
 30
0.0
 40
1.0
100
AcDbArc
 50
328.028322
 51
0.0
  0
ARC
  5
B64E
330
B519
100
AcDbEntity
  8
1
  6
Continuous
100
AcDbCircle
 10
166.678852
 20
114.3205
 30
0.0
 40
1.0
100
AcDbArc
 50
148.028322
 51
180.0
  0
ARC
  5
B64F
330
B519
100
AcDbEntity
  8
1
  6
Continuous
100
AcDbCircle
 10
156.678852
 20
127.6795
 30
0.0
 40
1.0
100
AcDbArc
 50
328.028322
 51
0.0
  0
ARC
  5
B650
330
B519
100
AcDbEntity
  8
1
  6
Continuous
100
AcDbCircle
 10
146.678852
 20
127.6795
 30
0.0
 40
1.0
100
AcDbArc
 50
328.028322
 51
0.0
  0
ARC
  5
B651
330
B519
100
AcDbEntity
  8
1
  6
Continuous
100
AcDbCircle
 10
136.678852
 20
127.6795
 30
0.0
 40
1.0
100
AcDbArc
 50
328.028322
 51
0.0
  0
ARC
  5
B652
330
B519
100
AcDbEntity
  8
1
  6
Continuous
100
AcDbCircle
 10
126.678852
 20
127.6795
 30
0.0
 40
1.0
100
AcDbArc
 50
328.028322
 51
0.0
  0
ARC
  5
B653
330
B519
100
AcDbEntity
  8
1
  6
Continuous
100
AcDbCircle
 10
126.678852
 20
114.3205
 30
0.0
 40
1.0
100
AcDbArc
 50
148.028322
 51
180.0
  0
ARC
  5
B654
330
B519
100
AcDbEntity
  8
1
  6
Continuous
100
AcDbCircle
 10
136.678852
 20
114.3205
 30
0.0
 40
1.0
100
AcDbArc
 50
148.028322
 51
180.0
  0
ARC
  5
B655
330
B519
100
AcDbEntity
  8
1
  6
Continuous
100
AcDbCircle
 10
146.678852
 20
114.3205
 30
0.0
 40
1.0
100
AcDbArc
 50
148.028322
 51
180.0
  0
ARC
  5
B656
330
B519
100
AcDbEntity
  8
1
  6
Continuous
100
AcDbCircle
 10
156.678852
 20
114.3205
 30
0.0
 40
1.0
100
AcDbArc
 50
148.028322
 51
180.0
  0
ARC
  5
B657
330
B519
100
AcDbEntity
  8
1
  6
Continuous
100
AcDbCircle
 10
161.678852
 20
113.9874999999999
 30
0.0
 40
1.587499999999999
100
AcDbArc
 50
147.0909479999999
 51
167.891491
  0
ARC
  5
B658
330
B519
100
AcDbEntity
  8
1
  6
Continuous
100
AcDbCircle
 10
161.678852
 20
113.9874999999999
 30
0.0
 40
1.587499999999999
100
AcDbArc
 50
186.038508
 51
204.57298
  0
ARC
  5
B659
330
B519
100
AcDbEntity
  8
1
  6
Continuous
100
AcDbCircle
 10
161.678852
 20
113.9874999999999
 30
0.0
 40
1.587499999999999
100
AcDbArc
 50
335.4270200000001
 51
353.9614919999999
  0
ARC
  5
B65A
330
B519
100
AcDbEntity
  8
1
  6
Continuous
100
AcDbCircle
 10
161.678852
 20
113.9874999999999
 30
0.0
 40
1.587499999999999
100
AcDbArc
 50
12.108509
 51
32.909052
  0
ARC
  5
B65B
330
B519
100
AcDbEntity
  8
1
  6
Continuous
100
AcDbCircle
 10
151.678852
 20
113.9874999999999
 30
0.0
 40
1.587499999999999
100
AcDbArc
 50
12.108509
 51
32.909052
  0
ARC
  5
B65C
330
B519
100
AcDbEntity
  8
1
  6
Continuous
100
AcDbCircle
 10
151.678852
 20
113.9874999999999
 30
0.0
 40
1.587499999999999
100
AcDbArc
 50
335.4270200000001
 51
353.9614919999999
  0
ARC
  5
B65D
330
B519
100
AcDbEntity
  8
1
  6
Continuous
100
AcDbCircle
 10
151.678852
 20
113.9874999999999
 30
0.0
 40
1.587499999999999
100
AcDbArc
 50
186.038508
 51
204.57298
  0
ARC
  5
B65E
330
B519
100
AcDbEntity
  8
1
  6
Continuous
100
AcDbCircle
 10
151.678852
 20
113.9874999999999
 30
0.0
 40
1.587499999999999
100
AcDbArc
 50
147.0909479999999
 51
167.891491
  0
ARC
  5
B65F
330
B519
100
AcDbEntity
  8
1
  6
Continuous
100
AcDbCircle
 10
141.678852
 20
113.9874999999999
 30
0.0
 40
1.587499999999999
100
AcDbArc
 50
12.108509
 51
32.909052
  0
ARC
  5
B660
330
B519
100
AcDbEntity
  8
1
  6
Continuous
100
AcDbCircle
 10
141.678852
 20
113.9874999999999
 30
0.0
 40
1.587499999999999
100
AcDbArc
 50
335.4270200000001
 51
353.9614919999999
  0
ARC
  5
B661
330
B519
100
AcDbEntity
  8
1
  6
Continuous
100
AcDbCircle
 10
141.678852
 20
113.9874999999999
 30
0.0
 40
1.587499999999999
100
AcDbArc
 50
186.038508
 51
204.57298
  0
ARC
  5
B662
330
B519
100
AcDbEntity
  8
1
  6
Continuous
100
AcDbCircle
 10
141.678852
 20
113.9874999999999
 30
0.0
 40
1.587499999999999
100
AcDbArc
 50
147.0909479999999
 51
167.891491
  0
ARC
  5
B663
330
B519
100
AcDbEntity
  8
1
  6
Continuous
100
AcDbCircle
 10
131.678852
 20
113.9874999999999
 30
0.0
 40
1.587499999999999
100
AcDbArc
 50
12.108509
 51
32.909052
  0
ARC
  5
B664
330
B519
100
AcDbEntity
  8
1
  6
Continuous
100
AcDbCircle
 10
131.678852
 20
113.9874999999999
 30
0.0
 40
1.587499999999999
100
AcDbArc
 50
335.4270200000001
 51
353.9614919999999
  0
ARC
  5
B665
330
B519
100
AcDbEntity
  8
1
  6
Continuous
100
AcDbCircle
 10
131.678852
 20
113.9874999999999
 30
0.0
 40
1.587499999999999
100
AcDbArc
 50
186.038508
 51
204.57298
  0
ARC
  5
B666
330
B519
100
AcDbEntity
  8
1
  6
Continuous
100
AcDbCircle
 10
131.678852
 20
113.9874999999999
 30
0.0
 40
1.587499999999999
100
AcDbArc
 50
147.0909479999999
 51
167.891491
  0
ARC
  5
B667
330
B519
100
AcDbEntity
  8
1
  6
Continuous
100
AcDbCircle
 10
121.678852
 20
113.9874999999999
 30
0.0
 40
1.587499999999999
100
AcDbArc
 50
147.0909479999999
 51
167.891491
  0
ARC
  5
B668
330
B519
100
AcDbEntity
  8
1
  6
Continuous
100
AcDbCircle
 10
121.678852
 20
113.9874999999999
 30
0.0
 40
1.587499999999999
100
AcDbArc
 50
186.038508
 51
204.57298
  0
ARC
  5
B669
330
B519
100
AcDbEntity
  8
1
  6
Continuous
100
AcDbCircle
 10
121.678852
 20
113.9874999999999
 30
0.0
 40
1.587499999999999
100
AcDbArc
 50
335.4270200000001
 51
353.9614919999999
  0
ARC
  5
B66A
330
B519
100
AcDbEntity
  8
1
  6
Continuous
100
AcDbCircle
 10
121.678852
 20
113.9874999999999
 30
0.0
 40
1.587499999999999
100
AcDbArc
 50
12.108509
 51
32.909052
  0
ARC
  5
B66B
330
B519
100
AcDbEntity
  8
1
  6
Continuous
100
AcDbCircle
 10
81.678852
 20
113.9874999999999
 30
0.0
 40
1.587499999999999
100
AcDbArc
 50
147.0909479999999
 51
167.891491
  0
ARC
  5
B66C
330
B519
100
AcDbEntity
  8
1
  6
Continuous
100
AcDbCircle
 10
81.678852
 20
113.9874999999999
 30
0.0
 40
1.587499999999999
100
AcDbArc
 50
186.038508
 51
204.57298
  0
ARC
  5
B66D
330
B519
100
AcDbEntity
  8
1
  6
Continuous
100
AcDbCircle
 10
81.678852
 20
113.9874999999999
 30
0.0
 40
1.587499999999999
100
AcDbArc
 50
335.4270200000001
 51
353.9614919999999
  0
ARC
  5
B66E
330
B519
100
AcDbEntity
  8
1
  6
Continuous
100
AcDbCircle
 10
81.678852
 20
113.9874999999999
 30
0.0
 40
1.587499999999999
100
AcDbArc
 50
12.108509
 51
32.909052
  0
ARC
  5
B66F
330
B519
100
AcDbEntity
  8
1
  6
Continuous
100
AcDbCircle
 10
91.678852
 20
113.9874999999999
 30
0.0
 40
1.587499999999999
100
AcDbArc
 50
12.108509
 51
32.909052
  0
ARC
  5
B670
330
B519
100
AcDbEntity
  8
1
  6
Continuous
100
AcDbCircle
 10
91.678852
 20
113.9874999999999
 30
0.0
 40
1.587499999999999
100
AcDbArc
 50
335.4270200000001
 51
353.9614919999999
  0
ARC
  5
B671
330
B519
100
AcDbEntity
  8
1
  6
Continuous
100
AcDbCircle
 10
91.678852
 20
113.9874999999999
 30
0.0
 40
1.587499999999999
100
AcDbArc
 50
186.038508
 51
204.57298
  0
ARC
  5
B672
330
B519
100
AcDbEntity
  8
1
  6
Continuous
100
AcDbCircle
 10
91.678852
 20
113.9874999999999
 30
0.0
 40
1.587499999999999
100
AcDbArc
 50
147.0909479999999
 51
167.891491
  0
ARC
  5
B673
330
B519
100
AcDbEntity
  8
1
  6
Continuous
100
AcDbCircle
 10
101.6788519999999
 20
113.9874999999999
 30
0.0
 40
1.587499999999999
100
AcDbArc
 50
12.108509
 51
32.909052
  0
ARC
  5
B674
330
B519
100
AcDbEntity
  8
1
  6
Continuous
100
AcDbCircle
 10
101.6788519999999
 20
113.9874999999999
 30
0.0
 40
1.587499999999999
100
AcDbArc
 50
335.4270200000001
 51
353.9614919999999
  0
ARC
  5
B675
330
B519
100
AcDbEntity
  8
1
  6
Continuous
100
AcDbCircle
 10
101.6788519999999
 20
113.9874999999999
 30
0.0
 40
1.587499999999999
100
AcDbArc
 50
186.038508
 51
204.57298
  0
ARC
  5
B676
330
B519
100
AcDbEntity
  8
1
  6
Continuous
100
AcDbCircle
 10
101.6788519999999
 20
113.9874999999999
 30
0.0
 40
1.587499999999999
100
AcDbArc
 50
147.0909479999999
 51
167.891491
  0
ARC
  5
B677
330
B519
100
AcDbEntity
  8
1
  6
Continuous
100
AcDbCircle
 10
111.678852
 20
113.9874999999999
 30
0.0
 40
1.587499999999999
100
AcDbArc
 50
147.0909479999999
 51
167.891491
  0
ARC
  5
B678
330
B519
100
AcDbEntity
  8
1
  6
Continuous
100
AcDbCircle
 10
111.678852
 20
113.9874999999999
 30
0.0
 40
1.587499999999999
100
AcDbArc
 50
186.038508
 51
204.57298
  0
ARC
  5
B679
330
B519
100
AcDbEntity
  8
1
  6
Continuous
100
AcDbCircle
 10
111.678852
 20
113.9874999999999
 30
0.0
 40
1.587499999999999
100
AcDbArc
 50
335.4270200000001
 51
353.9614919999999
  0
ARC
  5
B67A
330
B519
100
AcDbEntity
  8
1
  6
Continuous
100
AcDbCircle
 10
111.678852
 20
113.9874999999999
 30
0.0
 40
1.587499999999999
100
AcDbArc
 50
12.108509
 51
32.909052
  0
LINE
  5
B67B
330
B519
100
AcDbEntity
  8
1
  6
Continuous
100
AcDbLine
 10
26.559746
 20
127.448359
 30
0.0
 11
28.41969199999999
 21
129.175725
 31
0.0
  0
LINE
  5
B67C
330
B519
100
AcDbEntity
  8
1
  6
Continuous
100
AcDbLine
 10
25.607033
 20
128.474195
 30
0.0
 11
27.46698
 21
130.2015609999999
 31
0.0
  0
ARC
  5
B67D
330
B519
100
AcDbEntity
  8
1
  6
Continuous
100
AcDbCircle
 10
26.89999999999999
 20
127.081989
 30
0.0
 40
0.5
100
AcDbArc
 50
132.8834129999999
 51
180.0
  0
ARC
  5
B67E
330
B519
100
AcDbEntity
  8
1
  6
Continuous
100
AcDbCircle
 10
26.89999999999999
 20
127.081989
 30
0.0
 40
1.9
100
AcDbArc
 50
132.8834129999999
 51
180.0
  0
LINE
  5
B67F
330
B519
100
AcDbEntity
  8
4
  6
CENTER
100
AcDbLine
 10
20.0
 20
121.0
 30
0.0
 11
38.0
 21
121.0
 31
0.0
  0
ARC
  5
B680
330
B519
100
AcDbEntity
  8
1
  6
Continuous
100
AcDbCircle
 10
31.49104
 20
125.6410399999999
 30
0.0
 40
1.50896
100
AcDbArc
 50
0.0
 51
130.0162919999999
  0
LINE
  5
B681
330
B519
100
AcDbEntity
  8
1
  6
Continuous
100
AcDbLine
 10
30.943724
 20
128.672665
 30
0.0
 11
32.078071
 21
129.5220379999999
 31
0.0
  0
LINE
  5
B682
330
B519
100
AcDbEntity
  8
1
  6
Continuous
100
AcDbLine
 10
27.73607199999998
 20
126.2999999999999
 30
0.0
 11
28.36098699999999
 21
126.906695
 31
0.0
  0
LINE
  5
B683
330
B519
100
AcDbEntity
  8
1
  6
Continuous
100
AcDbLine
 10
30.943724
 20
113.327335
 30
0.0
 11
32.078071
 21
112.4779619999999
 31
0.0
  0
ARC
  5
B684
330
B519
100
AcDbEntity
  8
1
  6
Continuous
100
AcDbCircle
 10
31.49104
 20
116.35896
 30
0.0
 40
1.50896
100
AcDbArc
 50
229.983708
 51
0.0
  0
ARC
  5
B685
330
B519
100
AcDbEntity
  8
1
  6
Continuous
100
AcDbCircle
 10
29.5
 20
113.9874999999999
 30
0.0
 40
2.987499999999998
100
AcDbArc
 50
227.116587
 51
329.6497479999998
  0
LINE
  5
B686
330
B519
100
AcDbEntity
  8
1
  6
Continuous
100
AcDbLine
 10
27.73607199999998
 20
115.7
 30
0.0
 11
28.36098699999999
 21
115.093305
 31
0.0
  0
ARC
  5
B687
330
B519
100
AcDbEntity
  8
1
  6
Continuous
100
AcDbCircle
 10
26.89999999999999
 20
114.918011
 30
0.0
 40
1.9
100
AcDbArc
 50
180.0
 51
227.116587
  0
ARC
  5
B688
330
B519
100
AcDbEntity
  8
1
  6
Continuous
100
AcDbCircle
 10
26.89999999999999
 20
114.918011
 30
0.0
 40
0.5
100
AcDbArc
 50
180.0
 51
227.116587
  0
LINE
  5
B689
330
B519
100
AcDbEntity
  8
1
  6
Continuous
100
AcDbLine
 10
25.607033
 20
113.525805
 30
0.0
 11
27.46698
 21
111.7984389999999
 31
0.0
  0
LINE
  5
B68A
330
B519
100
AcDbEntity
  8
1
  6
Continuous
100
AcDbLine
 10
26.559746
 20
114.5516409999999
 30
0.0
 11
28.41969199999999
 21
112.824275
 31
0.0
  0
ARC
  5
B68B
330
B519
100
AcDbEntity
  8
1
  6
Continuous
100
AcDbCircle
 10
29.5
 20
113.9874999999999
 30
0.0
 40
1.587499999999999
100
AcDbArc
 50
18.435313
 51
145.449896
  0
LINE
  5
B68C
330
B519
100
AcDbEntity
  8
1
  6
Continuous
100
AcDbLine
 10
26.89999999999999
 20
126.9950149999999
 30
0.0
 11
26.89999999999999
 21
126.2999999999999
 31
0.0
  0
LINE
  5
B68D
330
B519
100
AcDbEntity
  8
1
  6
Continuous
100
AcDbLine
 10
27.4
 20
127.0
 30
0.0
 11
27.4
 21
126.2999999999999
 31
0.0
  0
LINE
  5
B68E
330
B519
100
AcDbEntity
  8
1
  6
Continuous
100
AcDbLine
 10
32.20000000000001
 20
128.1795
 30
0.0
 11
32.20000000000001
 21
127.6795
 31
0.0
  0
LINE
  5
B68F
330
B519
100
AcDbEntity
  8
1
  6
Continuous
100
AcDbLine
 10
27.4
 20
127.0
 30
0.0
 11
32.20000000000001
 21
127.6795
 31
0.0
  0
LINE
  5
B690
330
B519
100
AcDbEntity
  8
1
  6
Continuous
100
AcDbLine
 10
27.32991699999999
 20
127.490079
 30
0.0
 11
32.20000000000001
 21
128.1795
 31
0.0
  0
ARC
  5
B691
330
B519
100
AcDbEntity
  8
1
  6
Continuous
100
AcDbCircle
 10
27.4
 20
126.9950149999999
 30
0.0
 40
0.5
100
AcDbArc
 50
98.05739500000001
 51
180.0
  0
ARC
  5
B692
330
B519
100
AcDbEntity
  8
1
  6
Continuous
100
AcDbCircle
 10
29.5
 20
128.0124999999999
 30
0.0
 40
1.587499999999999
100
AcDbArc
 50
214.550104
 51
341.5646869999999
  0
LINE
  5
B693
330
B519
100
AcDbEntity
  8
1
  6
Continuous
100
AcDbLine
 10
27.32991699999999
 20
114.5099209999999
 30
0.0
 11
32.20000000000001
 21
113.8204999999999
 31
0.0
  0
LINE
  5
B694
330
B519
100
AcDbEntity
  8
1
  6
Continuous
100
AcDbLine
 10
27.4
 20
115.0
 30
0.0
 11
32.20000000000001
 21
114.3205
 31
0.0
  0
LINE
  5
B695
330
B519
100
AcDbEntity
  8
1
  6
Continuous
100
AcDbLine
 10
32.20000000000001
 20
113.8204999999999
 30
0.0
 11
32.20000000000001
 21
114.3205
 31
0.0
  0
LINE
  5
B696
330
B519
100
AcDbEntity
  8
1
  6
Continuous
100
AcDbLine
 10
27.4
 20
115.0
 30
0.0
 11
27.4
 21
115.7
 31
0.0
  0
ARC
  5
B697
330
B519
100
AcDbEntity
  8
1
  6
Continuous
100
AcDbCircle
 10
27.4
 20
115.004985
 30
0.0
 40
0.5
100
AcDbArc
 50
180.0
 51
261.9426049999999
  0
LINE
  5
B698
330
B519
100
AcDbEntity
  8
1
  6
Continuous
100
AcDbLine
 10
26.89999999999999
 20
115.004985
 30
0.0
 11
26.89999999999999
 21
115.7
 31
0.0
  0
ARC
  5
B699
330
B519
100
AcDbEntity
  8
1
  6
Continuous
100
AcDbCircle
 10
29.5
 20
113.9874999999999
 30
0.0
 40
1.587499999999999
100
AcDbArc
 50
164.228362
 51
359.656848
  0
LINE
  5
B69A
330
B519
100
AcDbEntity
  8
1
  6
Continuous
100
AcDbLine
 10
69.478852
 20
201.0
 30
0.0
 11
69.478852
 21
193.921929
 31
0.0
  0
LINE
  5
B69B
330
B519
100
AcDbEntity
  8
1
  6
Continuous
100
AcDbLine
 10
369.478852
 20
201.0
 30
0.0
 11
369.478852
 21
193.921929
 31
0.0
  0
LINE
  5
B69C
330
B519
100
AcDbEntity
  8
1
  6
Continuous
100
AcDbLine
 10
369.478852
 20
201.0
 30
0.0
 11
69.478852
 21
201.0
 31
0.0
  0
LINE
  5
B69D
330
B519
100
AcDbEntity
  8
1
  6
Continuous
100
AcDbLine
 10
170.8788519999998
 20
193.0
 30
0.0
 11
70.87885199999998
 21
193.0
 31
0.0
  0
LINE
  5
B69E
330
B519
100
AcDbEntity
  8
1
  6
Continuous
100
AcDbLine
 10
69.478852
 20
193.921929
 30
0.0
 11
369.478852
 21
193.921929
 31
0.0
  0
LINE
  5
B69F
330
B519
100
AcDbEntity
  8
1
  6
Continuous
100
AcDbLine
 10
170.8788519999998
 20
193.0
 30
0.0
 11
170.8788519999998
 21
193.8
 31
0.0
  0
LINE
  5
B6A0
330
B519
100
AcDbEntity
  8
1
  6
Continuous
100
AcDbLine
 10
70.87885199999998
 20
193.921929
 30
0.0
 11
70.87885199999998
 21
193.0
 31
0.0
  0
LINE
  5
B6A1
330
B519
100
AcDbEntity
  8
4
  6
CENTER
100
AcDbLine
 10
90.878852
 20
196.421929
 30
0.0
 11
90.878852
 21
190.5
 31
0.0
  0
LINE
  5
B6A2
330
B519
100
AcDbEntity
  8
4
  6
CENTER
100
AcDbLine
 10
150.8788519999999
 20
196.421929
 30
0.0
 11
150.8788519999999
 21
190.5
 31
0.0
  0
LINE
  5
B6A3
330
B519
100
AcDbEntity
  8
4
  6
CENTER
100
AcDbLine
 10
349.478852
 20
203.5
 30
0.0
 11
349.478852
 21
198.5
 31
0.0
  0
LINE
  5
B6A4
330
B519
100
AcDbEntity
  8
4
  6
CENTER
100
AcDbLine
 10
334.478852
 20
203.5
 30
0.0
 11
334.478852
 21
198.5
 31
0.0
  0
LINE
  5
B6A5
330
B519
100
AcDbEntity
  8
4
  6
CENTER
100
AcDbLine
 10
189.4788519999999
 20
203.5
 30
0.0
 11
189.4788519999999
 21
198.5
 31
0.0
  0
LINE
  5
B6A6
330
B519
100
AcDbEntity
  8
4
  6
CENTER
100
AcDbLine
 10
104.4788519999999
 20
203.5
 30
0.0
 11
104.4788519999999
 21
198.5
 31
0.0
  0
LINE
  5
B6A7
330
B519
100
AcDbEntity
  8
4
  6
CENTER
100
AcDbLine
 10
89.47885199999998
 20
203.5
 30
0.0
 11
89.47885199999998
 21
198.5
 31
0.0
  0
LINE
  5
B6A8
330
B519
100
AcDbEntity
  8
3
  6
DASHED
100
AcDbLine
 10
170.8788519999998
 20
198.5
 30
0.0
 11
70.87885199999998
 21
198.5
 31
0.0
  0
LINE
  5
B6A9
330
B519
100
AcDbEntity
  8
3
  6
DASHED
100
AcDbLine
 10
170.8788519999998
 20
193.8
 30
0.0
 11
170.8788519999998
 21
198.5
 31
0.0
  0
LINE
  5
B6AA
330
B519
100
AcDbEntity
  8
3
  6
DASHED
100
AcDbLine
 10
70.87885199999998
 20
198.5
 30
0.0
 11
70.87885199999998
 21
193.921929
 31
0.0
  0
LINE
  5
B6AB
330
B519
100
AcDbEntity
  8
4
  6
CENTER
100
AcDbLine
 10
64.478852
 20
273.0
 30
0.0
 11
374.478852
 21
273.0
 31
0.0
  0
LINE
  5
B6AC
330
B519
100
AcDbEntity
  8
1
  6
Continuous
100
AcDbLine
 10
69.478852
 20
283.0
 30
0.0
 11
369.478852
 21
283.0
 31
0.0
  0
LINE
  5
B6AD
330
B519
100
AcDbEntity
  8
1
  6
Continuous
100
AcDbLine
 10
369.478852
 20
263.0
 30
0.0
 11
69.478852
 21
263.0
 31
0.0
  0
LINE
  5
B6AE
330
B519
100
AcDbEntity
  8
1
  6
Continuous
100
AcDbLine
 10
70.87885199999998
 20
279.1499999999999
 30
0.0
 11
71.06753799999999
 21
279.1499999999999
 31
0.0
  0
LINE
  5
B6AF
330
B519
100
AcDbEntity
  8
3
  6
DASHED
100
AcDbLine
 10
170.8788519999998
 20
266.85
 30
0.0
 11
71.06753799999999
 21
266.85
 31
0.0
  0
LINE
  5
B6B0
330
B519
100
AcDbEntity
  8
3
  6
DASHED
100
AcDbLine
 10
70.87885199999998
 20
267.3
 30
0.0
 11
70.87885199999998
 21
278.6999999999998
 31
0.0
  0
LINE
  5
B6B1
330
B519
100
AcDbEntity
  8
1
  6
Continuous
100
AcDbLine
 10
69.478852
 20
281.728427
 30
0.0
 11
69.478852
 21
283.0
 31
0.0
  0
ARC
  5
B6B2
330
B519
100
AcDbEntity
  8
1
  6
Continuous
100
AcDbCircle
 10
70.478852
 20
281.728427
 30
0.0
 40
1.0
100
AcDbArc
 50
180.0
 51
225.0
  0
LINE
  5
B6B3
330
B519
100
AcDbEntity
  8
1
  6
Continuous
100
AcDbLine
 10
70.78595899999998
 20
280.0071069999999
 30
0.0
 11
69.771745
 21
281.02132
 31
0.0
  0
ARC
  5
B6B4
330
B519
100
AcDbEntity
  8
1
  6
Continuous
100
AcDbCircle
 10
70.078852
 20
279.3
 30
0.0
 40
1.0
100
AcDbArc
 50
270.0
 51
45.0
  0
LINE
  5
B6B5
330
B519
100
AcDbEntity
  8
1
  6
Continuous
100
AcDbLine
 10
70.078852
 20
267.7
 30
0.0
 11
69.478852
 21
267.7
 31
0.0
  0
LINE
  5
B6B6
330
B519
100
AcDbEntity
  8
1
  6
Continuous
100
AcDbLine
 10
69.478852
 20
278.3
 30
0.0
 11
70.078852
 21
278.3
 31
0.0
  0
LINE
  5
B6B7
330
B519
100
AcDbEntity
  8
1
  6
Continuous
100
AcDbLine
 10
69.478852
 20
267.7
 30
0.0
 11
69.478852
 21
278.3
 31
0.0
  0
LINE
  5
B6B8
330
B519
100
AcDbEntity
  8
4
  6
CENTER
100
AcDbLine
 10
90.878852
 20
268.7843659999999
 30
0.0
 11
90.878852
 21
277.2934029999999
 31
0.0
  0
CIRCLE
  5
B6B9
330
B519
100
AcDbEntity
  8
1
  6
Continuous
100
AcDbCircle
 10
89.47885199999998
 20
273.0
 30
0.0
 40
1.6
  0
LINE
  5
B6BA
330
B519
100
AcDbEntity
  8
4
  6
CENTER
100
AcDbLine
 10
89.47885199999998
 20
270.6215439999999
 30
0.0
 11
89.47885199999998
 21
275.06945
 31
0.0
  0
ARC
  5
B6BB
330
B519
100
AcDbEntity
  8
1
  6
Continuous
100
AcDbCircle
 10
70.078852
 20
266.6999999999998
 30
0.0
 40
1.0
100
AcDbArc
 50
315.0
 51
90.0
  0
LINE
  5
B6BC
330
B519
100
AcDbEntity
  8
1
  6
Continuous
100
AcDbLine
 10
69.771745
 20
264.97868
 30
0.0
 11
70.78595899999998
 21
265.9928929999999
 31
0.0
  0
ARC
  5
B6BD
330
B519
100
AcDbEntity
  8
1
  6
Continuous
100
AcDbCircle
 10
70.478852
 20
264.2715729999998
 30
0.0
 40
1.0
100
AcDbArc
 50
135.0
 51
180.0
  0
LINE
  5
B6BE
330
B519
100
AcDbEntity
  8
1
  6
Continuous
100
AcDbLine
 10
69.478852
 20
263.0
 30
0.0
 11
69.478852
 21
264.2715729999998
 31
0.0
  0
ARC
  5
B6BF
330
B519
100
AcDbEntity
  8
1
  6
Continuous
100
AcDbCircle
 10
104.778852
 20
273.0
 30
0.0
 40
1.6
100
AcDbArc
 50
270.0
 51
90.0
  0
ARC
  5
B6C0
330
B519
100
AcDbEntity
  8
1
  6
Continuous
100
AcDbCircle
 10
104.178852
 20
273.0
 30
0.0
 40
1.6
100
AcDbArc
 50
90.0
 51
270.0
  0
LINE
  5
B6C1
330
B519
100
AcDbEntity
  8
1
  6
Continuous
100
AcDbLine
 10
104.778852
 20
271.3999999999999
 30
0.0
 11
104.178852
 21
271.3999999999999
 31
0.0
  0
LINE
  5
B6C2
330
B519
100
AcDbEntity
  8
1
  6
Continuous
100
AcDbLine
 10
104.178852
 20
274.6
 30
0.0
 11
104.778852
 21
274.6
 31
0.0
  0
LINE
  5
B6C3
330
B519
100
AcDbEntity
  8
4
  6
CENTER
100
AcDbLine
 10
104.4788519999999
 20
270.23477
 30
0.0
 11
104.4788519999999
 21
275.649611
 31
0.0
  0
LINE
  5
B6C4
330
B519
100
AcDbEntity
  8
4
  6
CENTER
100
AcDbLine
 10
150.8788519999999
 20
268.736019
 30
0.0
 11
150.8788519999999
 21
277.1000149999999
 31
0.0
  0
ARC
  5
B6C5
330
B519
100
AcDbEntity
  8
1
  6
Continuous
100
AcDbCircle
 10
189.7788519999998
 20
273.0
 30
0.0
 40
1.6
100
AcDbArc
 50
270.0
 51
90.0
  0
LINE
  5
B6C6
330
B519
100
AcDbEntity
  8
3
  6
DASHED
100
AcDbLine
 10
170.8788519999998
 20
279.1499999999999
 30
0.0
 11
170.8788519999998
 21
266.85
 31
0.0
  0
ARC
  5
B6C7
330
B519
100
AcDbEntity
  8
1
  6
Continuous
100
AcDbCircle
 10
189.178852
 20
273.0
 30
0.0
 40
1.6
100
AcDbArc
 50
90.0
 51
270.0
  0
LINE
  5
B6C8
330
B519
100
AcDbEntity
  8
1
  6
Continuous
100
AcDbLine
 10
189.7788519999998
 20
271.3999999999999
 30
0.0
 11
189.178852
 21
271.3999999999999
 31
0.0
  0
LINE
  5
B6C9
330
B519
100
AcDbEntity
  8
1
  6
Continuous
100
AcDbLine
 10
189.178852
 20
274.6
 30
0.0
 11
189.7788519999998
 21
274.6
 31
0.0
  0
LINE
  5
B6CA
330
B519
100
AcDbEntity
  8
4
  6
CENTER
100
AcDbLine
 10
189.4788519999999
 20
270.3314629999999
 30
0.0
 11
189.4788519999999
 21
275.601265
 31
0.0
  0
ARC
  5
B6CB
330
B519
100
AcDbEntity
  8
1
  6
Continuous
100
AcDbCircle
 10
334.7788519999999
 20
273.0
 30
0.0
 40
1.6
100
AcDbArc
 50
270.0
 51
90.0
  0
ARC
  5
B6CC
330
B519
100
AcDbEntity
  8
1
  6
Continuous
100
AcDbCircle
 10
334.178852
 20
273.0
 30
0.0
 40
1.6
100
AcDbArc
 50
90.0
 51
270.0
  0
LINE
  5
B6CD
330
B519
100
AcDbEntity
  8
1
  6
Continuous
100
AcDbLine
 10
334.7788519999999
 20
271.3999999999999
 30
0.0
 11
334.178852
 21
271.3999999999999
 31
0.0
  0
LINE
  5
B6CE
330
B519
100
AcDbEntity
  8
1
  6
Continuous
100
AcDbLine
 10
334.178852
 20
274.6
 30
0.0
 11
334.7788519999999
 21
274.6
 31
0.0
  0
LINE
  5
B6CF
330
B519
100
AcDbEntity
  8
4
  6
CENTER
100
AcDbLine
 10
334.478852
 20
270.1380759999998
 30
0.0
 11
334.478852
 21
275.601265
 31
0.0
  0
ARC
  5
B6D0
330
B519
100
AcDbEntity
  8
1
  6
Continuous
100
AcDbCircle
 10
349.7788519999998
 20
273.0
 30
0.0
 40
1.6
100
AcDbArc
 50
270.0
 51
90.0
  0
ARC
  5
B6D1
330
B519
100
AcDbEntity
  8
1
  6
Continuous
100
AcDbCircle
 10
349.178852
 20
273.0
 30
0.0
 40
1.6
100
AcDbArc
 50
90.0
 51
270.0
  0
LINE
  5
B6D2
330
B519
100
AcDbEntity
  8
1
  6
Continuous
100
AcDbLine
 10
349.7788519999998
 20
271.3999999999999
 30
0.0
 11
349.178852
 21
271.3999999999999
 31
0.0
  0
LINE
  5
B6D3
330
B519
100
AcDbEntity
  8
1
  6
Continuous
100
AcDbLine
 10
349.178852
 20
274.6
 30
0.0
 11
349.7788519999998
 21
274.6
 31
0.0
  0
LINE
  5
B6D4
330
B519
100
AcDbEntity
  8
4
  6
CENTER
100
AcDbLine
 10
349.478852
 20
270.0897289999999
 30
0.0
 11
349.478852
 21
276.133079
 31
0.0
  0
ARC
  5
B6D5
330
B519
100
AcDbEntity
  8
1
  6
Continuous
100
AcDbCircle
 10
368.878852
 20
266.6999999999998
 30
0.0
 40
1.0
100
AcDbArc
 50
90.0
 51
225.0
  0
LINE
  5
B6D6
330
B519
100
AcDbEntity
  8
1
  6
Continuous
100
AcDbLine
 10
369.478852
 20
267.7
 30
0.0
 11
369.478852
 21
278.3
 31
0.0
  0
LINE
  5
B6D7
330
B519
100
AcDbEntity
  8
1
  6
Continuous
100
AcDbLine
 10
368.878852
 20
267.7
 30
0.0
 11
369.478852
 21
267.7
 31
0.0
  0
LINE
  5
B6D8
330
B519
100
AcDbEntity
  8
1
  6
Continuous
100
AcDbLine
 10
369.478852
 20
278.3
 30
0.0
 11
368.878852
 21
278.3
 31
0.0
  0
ARC
  5
B6D9
330
B519
100
AcDbEntity
  8
1
  6
Continuous
100
AcDbCircle
 10
368.878852
 20
279.3
 30
0.0
 40
1.0
100
AcDbArc
 50
135.0
 51
270.0
  0
LINE
  5
B6DA
330
B519
100
AcDbEntity
  8
1
  6
Continuous
100
AcDbLine
 10
369.1859589999999
 20
281.02132
 30
0.0
 11
368.1717449999999
 21
280.0071069999999
 31
0.0
  0
ARC
  5
B6DB
330
B519
100
AcDbEntity
  8
1
  6
Continuous
100
AcDbCircle
 10
368.478852
 20
281.728427
 30
0.0
 40
1.0
100
AcDbArc
 50
315.0
 51
0.0
  0
LINE
  5
B6DC
330
B519
100
AcDbEntity
  8
1
  6
Continuous
100
AcDbLine
 10
369.478852
 20
283.0
 30
0.0
 11
369.478852
 21
281.728427
 31
0.0
  0
LINE
  5
B6DD
330
B519
100
AcDbEntity
  8
1
  6
Continuous
100
AcDbLine
 10
369.478852
 20
264.2715729999998
 30
0.0
 11
369.478852
 21
263.0
 31
0.0
  0
ARC
  5
B6DE
330
B519
100
AcDbEntity
  8
1
  6
Continuous
100
AcDbCircle
 10
368.478852
 20
264.2715729999998
 30
0.0
 40
1.0
100
AcDbArc
 50
0.0
 51
45.0
  0
LINE
  5
B6DF
330
B519
100
AcDbEntity
  8
1
  6
Continuous
100
AcDbLine
 10
368.1717449999999
 20
265.9928929999999
 30
0.0
 11
369.1859589999999
 21
264.97868
 31
0.0
  0
LINE
  5
B6E0
330
B519
100
AcDbEntity
  8
1
  6
Continuous
100
AcDbLine
 10
70.87885199999998
 20
278.6999999999998
 30
0.0
 11
70.87885199999998
 21
279.1499999999999
 31
0.0
  0
LINE
  5
B6E1
330
B519
100
AcDbEntity
  8
3
  6
DASHED
100
AcDbLine
 10
71.06753799999999
 20
279.1499999999999
 30
0.0
 11
170.8788519999998
 21
279.1499999999999
 31
0.0
  0
LINE
  5
B6E2
330
B519
100
AcDbEntity
  8
1
  6
Continuous
100
AcDbLine
 10
70.87885199999998
 20
267.3
 30
0.0
 11
70.87885199999998
 21
266.85
 31
0.0
  0
LINE
  5
B6E3
330
B519
100
AcDbEntity
  8
1
  6
Continuous
100
AcDbLine
 10
70.87885199999998
 20
266.85
 30
0.0
 11
71.06753799999999
 21
266.85
 31
0.0
  0
LINE
  5
B6E4
330
B519
100
AcDbEntity
  8
1
  6
Continuous
100
AcDbLine
 10
215.678852
 20
193.921929
 30
0.0
 11
215.678852
 21
193.8
 31
0.0
  0
LINE
  5
B6E5
330
B519
100
AcDbEntity
  8
1
  6
Continuous
100
AcDbLine
 10
215.678852
 20
193.8
 30
0.0
 11
207.678852
 21
193.8
 31
0.0
  0
LINE
  5
B6E6
330
B519
100
AcDbEntity
  8
1
  6
Continuous
100
AcDbLine
 10
207.678852
 20
193.8
 30
0.0
 11
207.678852
 21
193.921929
 31
0.0
  0
LINE
  5
B6E7
330
B519
100
AcDbEntity
  8
1
  6
Continuous
100
AcDbLine
 10
205.678852
 20
193.8
 30
0.0
 11
197.678852
 21
193.8
 31
0.0
  0
LINE
  5
B6E8
330
B519
100
AcDbEntity
  8
1
  6
Continuous
100
AcDbLine
 10
205.678852
 20
193.921929
 30
0.0
 11
205.678852
 21
193.8
 31
0.0
  0
LINE
  5
B6E9
330
B519
100
AcDbEntity
  8
1
  6
Continuous
100
AcDbLine
 10
197.678852
 20
193.8
 30
0.0
 11
197.678852
 21
193.921929
 31
0.0
  0
LINE
  5
B6EA
330
B519
100
AcDbEntity
  8
1
  6
Continuous
100
AcDbLine
 10
187.678852
 20
193.8
 30
0.0
 11
187.678852
 21
193.921929
 31
0.0
  0
LINE
  5
B6EB
330
B519
100
AcDbEntity
  8
1
  6
Continuous
100
AcDbLine
 10
195.678852
 20
193.921929
 30
0.0
 11
195.678852
 21
193.8
 31
0.0
  0
LINE
  5
B6EC
330
B519
100
AcDbEntity
  8
1
  6
Continuous
100
AcDbLine
 10
195.678852
 20
193.8
 30
0.0
 11
187.678852
 21
193.8
 31
0.0
  0
LINE
  5
B6ED
330
B519
100
AcDbEntity
  8
1
  6
Continuous
100
AcDbLine
 10
185.678852
 20
193.8
 30
0.0
 11
177.678852
 21
193.8
 31
0.0
  0
LINE
  5
B6EE
330
B519
100
AcDbEntity
  8
1
  6
Continuous
100
AcDbLine
 10
177.678852
 20
193.8
 30
0.0
 11
177.678852
 21
193.921929
 31
0.0
  0
LINE
  5
B6EF
330
B519
100
AcDbEntity
  8
1
  6
Continuous
100
AcDbLine
 10
185.678852
 20
193.921929
 30
0.0
 11
185.678852
 21
193.8
 31
0.0
  0
LINE
  5
B6F0
330
B519
100
AcDbEntity
  8
1
  6
Continuous
100
AcDbLine
 10
175.678852
 20
193.921929
 30
0.0
 11
175.678852
 21
193.8
 31
0.0
  0
LINE
  5
B6F1
330
B519
100
AcDbEntity
  8
1
  6
Continuous
100
AcDbLine
 10
167.678852
 20
193.8
 30
0.0
 11
167.678852
 21
193.921929
 31
0.0
  0
LINE
  5
B6F2
330
B519
100
AcDbEntity
  8
1
  6
Continuous
100
AcDbLine
 10
175.678852
 20
193.8
 30
0.0
 11
167.678852
 21
193.8
 31
0.0
  0
LINE
  5
B6F3
330
B519
100
AcDbEntity
  8
1
  6
Continuous
100
AcDbLine
 10
165.678852
 20
193.8
 30
0.0
 11
157.678852
 21
193.8
 31
0.0
  0
LINE
  5
B6F4
330
B519
100
AcDbEntity
  8
1
  6
Continuous
100
AcDbLine
 10
157.678852
 20
193.8
 30
0.0
 11
157.678852
 21
193.921929
 31
0.0
  0
LINE
  5
B6F5
330
B519
100
AcDbEntity
  8
1
  6
Continuous
100
AcDbLine
 10
165.678852
 20
193.921929
 30
0.0
 11
165.678852
 21
193.8
 31
0.0
  0
LINE
  5
B6F6
330
B519
100
AcDbEntity
  8
1
  6
Continuous
100
AcDbLine
 10
155.678852
 20
193.8
 30
0.0
 11
147.678852
 21
193.8
 31
0.0
  0
LINE
  5
B6F7
330
B519
100
AcDbEntity
  8
1
  6
Continuous
100
AcDbLine
 10
147.678852
 20
193.8
 30
0.0
 11
147.678852
 21
193.921929
 31
0.0
  0
LINE
  5
B6F8
330
B519
100
AcDbEntity
  8
1
  6
Continuous
100
AcDbLine
 10
155.678852
 20
193.921929
 30
0.0
 11
155.678852
 21
193.8
 31
0.0
  0
LINE
  5
B6F9
330
B519
100
AcDbEntity
  8
1
  6
Continuous
100
AcDbLine
 10
145.678852
 20
193.921929
 30
0.0
 11
145.678852
 21
193.8
 31
0.0
  0
LINE
  5
B6FA
330
B519
100
AcDbEntity
  8
1
  6
Continuous
100
AcDbLine
 10
137.678852
 20
193.8
 30
0.0
 11
137.678852
 21
193.921929
 31
0.0
  0
LINE
  5
B6FB
330
B519
100
AcDbEntity
  8
1
  6
Continuous
100
AcDbLine
 10
145.678852
 20
193.8
 30
0.0
 11
137.678852
 21
193.8
 31
0.0
  0
LINE
  5
B6FC
330
B519
100
AcDbEntity
  8
1
  6
Continuous
100
AcDbLine
 10
135.678852
 20
193.8
 30
0.0
 11
127.6788519999999
 21
193.8
 31
0.0
  0
LINE
  5
B6FD
330
B519
100
AcDbEntity
  8
1
  6
Continuous
100
AcDbLine
 10
127.6788519999999
 20
193.8
 30
0.0
 11
127.6788519999999
 21
193.921929
 31
0.0
  0
LINE
  5
B6FE
330
B519
100
AcDbEntity
  8
1
  6
Continuous
100
AcDbLine
 10
135.678852
 20
193.921929
 30
0.0
 11
135.678852
 21
193.8
 31
0.0
  0
LINE
  5
B6FF
330
B519
100
AcDbEntity
  8
1
  6
Continuous
100
AcDbLine
 10
125.678852
 20
193.921929
 30
0.0
 11
125.678852
 21
193.8
 31
0.0
  0
LINE
  5
B700
330
B519
100
AcDbEntity
  8
1
  6
Continuous
100
AcDbLine
 10
117.678852
 20
193.8
 30
0.0
 11
117.678852
 21
193.921929
 31
0.0
  0
LINE
  5
B701
330
B519
100
AcDbEntity
  8
1
  6
Continuous
100
AcDbLine
 10
125.678852
 20
193.8
 30
0.0
 11
117.678852
 21
193.8
 31
0.0
  0
LINE
  5
B702
330
B519
100
AcDbEntity
  8
1
  6
Continuous
100
AcDbLine
 10
115.678852
 20
193.8
 30
0.0
 11
107.678852
 21
193.8
 31
0.0
  0
LINE
  5
B703
330
B519
100
AcDbEntity
  8
1
  6
Continuous
100
AcDbLine
 10
107.678852
 20
193.8
 30
0.0
 11
107.678852
 21
193.921929
 31
0.0
  0
LINE
  5
B704
330
B519
100
AcDbEntity
  8
1
  6
Continuous
100
AcDbLine
 10
115.678852
 20
193.921929
 30
0.0
 11
115.678852
 21
193.8
 31
0.0
  0
LINE
  5
B705
330
B519
100
AcDbEntity
  8
1
  6
Continuous
100
AcDbLine
 10
105.678852
 20
193.8
 30
0.0
 11
97.67885200000002
 21
193.8
 31
0.0
  0
LINE
  5
B706
330
B519
100
AcDbEntity
  8
1
  6
Continuous
100
AcDbLine
 10
97.67885200000002
 20
193.8
 30
0.0
 11
97.67885200000002
 21
193.921929
 31
0.0
  0
LINE
  5
B707
330
B519
100
AcDbEntity
  8
1
  6
Continuous
100
AcDbLine
 10
105.678852
 20
193.921929
 30
0.0
 11
105.678852
 21
193.8
 31
0.0
  0
LINE
  5
B708
330
B519
100
AcDbEntity
  8
1
  6
Continuous
100
AcDbLine
 10
95.678852
 20
193.921929
 30
0.0
 11
95.678852
 21
193.8
 31
0.0
  0
LINE
  5
B709
330
B519
100
AcDbEntity
  8
1
  6
Continuous
100
AcDbLine
 10
87.678852
 20
193.8
 30
0.0
 11
87.678852
 21
193.921929
 31
0.0
  0
LINE
  5
B70A
330
B519
100
AcDbEntity
  8
1
  6
Continuous
100
AcDbLine
 10
95.678852
 20
193.8
 30
0.0
 11
87.678852
 21
193.8
 31
0.0
  0
LINE
  5
B70B
330
B519
100
AcDbEntity
  8
1
  6
Continuous
100
AcDbLine
 10
85.678852
 20
193.8
 30
0.0
 11
77.67885200000002
 21
193.8
 31
0.0
  0
LINE
  5
B70C
330
B519
100
AcDbEntity
  8
1
  6
Continuous
100
AcDbLine
 10
77.67885200000002
 20
193.8
 30
0.0
 11
77.67885200000002
 21
193.921929
 31
0.0
  0
LINE
  5
B70D
330
B519
100
AcDbEntity
  8
1
  6
Continuous
100
AcDbLine
 10
85.678852
 20
193.921929
 30
0.0
 11
85.678852
 21
193.8
 31
0.0
  0
LINE
  5
B70E
330
B519
100
AcDbEntity
  8
1
  6
Continuous
100
AcDbLine
 10
69.478852
 20
48.078071
 30
0.0
 11
369.478852
 21
48.078071
 31
0.0
  0
LINE
  5
B70F
330
B519
100
AcDbEntity
  8
1
  6
Continuous
100
AcDbLine
 10
369.478852
 20
41.0
 30
0.0
 11
69.478852
 21
41.0
 31
0.0
  0
LINE
  5
B710
330
B519
100
AcDbEntity
  8
3
  6
DASHED
100
AcDbLine
 10
170.8788519999998
 20
43.5
 30
0.0
 11
70.87885199999998
 21
43.5
 31
0.0
  0
LINE
  5
B711
330
B519
100
AcDbEntity
  8
1
  6
Continuous
100
AcDbLine
 10
170.8788519999998
 20
49.0
 30
0.0
 11
70.87885199999998
 21
49.0
 31
0.0
  0
LINE
  5
B712
330
B519
100
AcDbEntity
  8
3
  6
DASHED
100
AcDbLine
 10
70.87885199999998
 20
43.5
 30
0.0
 11
70.87885199999998
 21
48.078071
 31
0.0
  0
LINE
  5
B713
330
B519
100
AcDbEntity
  8
1
  6
Continuous
100
AcDbLine
 10
69.478852
 20
41.0
 30
0.0
 11
69.478852
 21
48.078071
 31
0.0
  0
LINE
  5
B714
330
B519
100
AcDbEntity
  8
1
  6
Continuous
100
AcDbLine
 10
85.678852
 20
48.2
 30
0.0
 11
77.67885200000002
 21
48.2
 31
0.0
  0
LINE
  5
B715
330
B519
100
AcDbEntity
  8
1
  6
Continuous
100
AcDbLine
 10
77.67885200000002
 20
48.2
 30
0.0
 11
77.67885200000002
 21
48.078071
 31
0.0
  0
LINE
  5
B716
330
B519
100
AcDbEntity
  8
1
  6
Continuous
100
AcDbLine
 10
70.87885199999998
 20
48.078071
 30
0.0
 11
70.87885199999998
 21
49.0
 31
0.0
  0
LINE
  5
B717
330
B519
100
AcDbEntity
  8
1
  6
Continuous
100
AcDbLine
 10
85.678852
 20
48.078071
 30
0.0
 11
85.678852
 21
48.2
 31
0.0
  0
LINE
  5
B718
330
B519
100
AcDbEntity
  8
1
  6
Continuous
100
AcDbLine
 10
95.678852
 20
48.2
 30
0.0
 11
87.678852
 21
48.2
 31
0.0
  0
LINE
  5
B719
330
B519
100
AcDbEntity
  8
1
  6
Continuous
100
AcDbLine
 10
87.678852
 20
48.2
 30
0.0
 11
87.678852
 21
48.078071
 31
0.0
  0
LINE
  5
B71A
330
B519
100
AcDbEntity
  8
1
  6
Continuous
100
AcDbLine
 10
95.678852
 20
48.078071
 30
0.0
 11
95.678852
 21
48.2
 31
0.0
  0
LINE
  5
B71B
330
B519
100
AcDbEntity
  8
4
  6
CENTER
100
AcDbLine
 10
90.878852
 20
45.578071
 30
0.0
 11
90.878852
 21
51.5
 31
0.0
  0
LINE
  5
B71C
330
B519
100
AcDbEntity
  8
4
  6
CENTER
100
AcDbLine
 10
89.47885199999998
 20
38.5
 30
0.0
 11
89.47885199999998
 21
43.5
 31
0.0
  0
LINE
  5
B71D
330
B519
100
AcDbEntity
  8
1
  6
Continuous
100
AcDbLine
 10
115.678852
 20
48.2
 30
0.0
 11
107.678852
 21
48.2
 31
0.0
  0
LINE
  5
B71E
330
B519
100
AcDbEntity
  8
1
  6
Continuous
100
AcDbLine
 10
105.678852
 20
48.078071
 30
0.0
 11
105.678852
 21
48.2
 31
0.0
  0
LINE
  5
B71F
330
B519
100
AcDbEntity
  8
1
  6
Continuous
100
AcDbLine
 10
97.67885200000002
 20
48.2
 30
0.0
 11
97.67885200000002
 21
48.078071
 31
0.0
  0
LINE
  5
B720
330
B519
100
AcDbEntity
  8
1
  6
Continuous
100
AcDbLine
 10
105.678852
 20
48.2
 30
0.0
 11
97.67885200000002
 21
48.2
 31
0.0
  0
LINE
  5
B721
330
B519
100
AcDbEntity
  8
1
  6
Continuous
100
AcDbLine
 10
107.678852
 20
48.2
 30
0.0
 11
107.678852
 21
48.078071
 31
0.0
  0
LINE
  5
B722
330
B519
100
AcDbEntity
  8
1
  6
Continuous
100
AcDbLine
 10
115.678852
 20
48.078071
 30
0.0
 11
115.678852
 21
48.2
 31
0.0
  0
LINE
  5
B723
330
B519
100
AcDbEntity
  8
1
  6
Continuous
100
AcDbLine
 10
125.678852
 20
48.2
 30
0.0
 11
117.678852
 21
48.2
 31
0.0
  0
LINE
  5
B724
330
B519
100
AcDbEntity
  8
1
  6
Continuous
100
AcDbLine
 10
117.678852
 20
48.2
 30
0.0
 11
117.678852
 21
48.078071
 31
0.0
  0
LINE
  5
B725
330
B519
100
AcDbEntity
  8
1
  6
Continuous
100
AcDbLine
 10
125.678852
 20
48.078071
 30
0.0
 11
125.678852
 21
48.2
 31
0.0
  0
LINE
  5
B726
330
B519
100
AcDbEntity
  8
4
  6
CENTER
100
AcDbLine
 10
104.4788519999999
 20
38.5
 30
0.0
 11
104.4788519999999
 21
43.5
 31
0.0
  0
LINE
  5
B727
330
B519
100
AcDbEntity
  8
1
  6
Continuous
100
AcDbLine
 10
195.678852
 20
48.2
 30
0.0
 11
187.678852
 21
48.2
 31
0.0
  0
LINE
  5
B728
330
B519
100
AcDbEntity
  8
1
  6
Continuous
100
AcDbLine
 10
165.678852
 20
48.2
 30
0.0
 11
157.678852
 21
48.2
 31
0.0
  0
LINE
  5
B729
330
B519
100
AcDbEntity
  8
1
  6
Continuous
100
AcDbLine
 10
145.678852
 20
48.2
 30
0.0
 11
137.678852
 21
48.2
 31
0.0
  0
LINE
  5
B72A
330
B519
100
AcDbEntity
  8
1
  6
Continuous
100
AcDbLine
 10
135.678852
 20
48.078071
 30
0.0
 11
135.678852
 21
48.2
 31
0.0
  0
LINE
  5
B72B
330
B519
100
AcDbEntity
  8
1
  6
Continuous
100
AcDbLine
 10
127.6788519999999
 20
48.2
 30
0.0
 11
127.6788519999999
 21
48.078071
 31
0.0
  0
LINE
  5
B72C
330
B519
100
AcDbEntity
  8
1
  6
Continuous
100
AcDbLine
 10
135.678852
 20
48.2
 30
0.0
 11
127.6788519999999
 21
48.2
 31
0.0
  0
LINE
  5
B72D
330
B519
100
AcDbEntity
  8
1
  6
Continuous
100
AcDbLine
 10
137.678852
 20
48.2
 30
0.0
 11
137.678852
 21
48.078071
 31
0.0
  0
LINE
  5
B72E
330
B519
100
AcDbEntity
  8
1
  6
Continuous
100
AcDbLine
 10
145.678852
 20
48.078071
 30
0.0
 11
145.678852
 21
48.2
 31
0.0
  0
LINE
  5
B72F
330
B519
100
AcDbEntity
  8
1
  6
Continuous
100
AcDbLine
 10
155.678852
 20
48.078071
 30
0.0
 11
155.678852
 21
48.2
 31
0.0
  0
LINE
  5
B730
330
B519
100
AcDbEntity
  8
1
  6
Continuous
100
AcDbLine
 10
147.678852
 20
48.2
 30
0.0
 11
147.678852
 21
48.078071
 31
0.0
  0
LINE
  5
B731
330
B519
100
AcDbEntity
  8
1
  6
Continuous
100
AcDbLine
 10
155.678852
 20
48.2
 30
0.0
 11
147.678852
 21
48.2
 31
0.0
  0
LINE
  5
B732
330
B519
100
AcDbEntity
  8
1
  6
Continuous
100
AcDbLine
 10
157.678852
 20
48.2
 30
0.0
 11
157.678852
 21
48.078071
 31
0.0
  0
LINE
  5
B733
330
B519
100
AcDbEntity
  8
4
  6
CENTER
100
AcDbLine
 10
150.8788519999999
 20
45.578071
 30
0.0
 11
150.8788519999999
 21
51.5
 31
0.0
  0
LINE
  5
B734
330
B519
100
AcDbEntity
  8
3
  6
DASHED
100
AcDbLine
 10
170.8788519999998
 20
48.2
 30
0.0
 11
170.8788519999998
 21
43.5
 31
0.0
  0
LINE
  5
B735
330
B519
100
AcDbEntity
  8
1
  6
Continuous
100
AcDbLine
 10
175.678852
 20
48.2
 30
0.0
 11
167.678852
 21
48.2
 31
0.0
  0
LINE
  5
B736
330
B519
100
AcDbEntity
  8
1
  6
Continuous
100
AcDbLine
 10
165.678852
 20
48.078071
 30
0.0
 11
165.678852
 21
48.2
 31
0.0
  0
LINE
  5
B737
330
B519
100
AcDbEntity
  8
1
  6
Continuous
100
AcDbLine
 10
170.8788519999998
 20
49.0
 30
0.0
 11
170.8788519999998
 21
48.2
 31
0.0
  0
LINE
  5
B738
330
B519
100
AcDbEntity
  8
1
  6
Continuous
100
AcDbLine
 10
167.678852
 20
48.2
 30
0.0
 11
167.678852
 21
48.078071
 31
0.0
  0
LINE
  5
B739
330
B519
100
AcDbEntity
  8
1
  6
Continuous
100
AcDbLine
 10
175.678852
 20
48.078071
 30
0.0
 11
175.678852
 21
48.2
 31
0.0
  0
LINE
  5
B73A
330
B519
100
AcDbEntity
  8
1
  6
Continuous
100
AcDbLine
 10
185.678852
 20
48.078071
 30
0.0
 11
185.678852
 21
48.2
 31
0.0
  0
LINE
  5
B73B
330
B519
100
AcDbEntity
  8
1
  6
Continuous
100
AcDbLine
 10
177.678852
 20
48.2
 30
0.0
 11
177.678852
 21
48.078071
 31
0.0
  0
LINE
  5
B73C
330
B519
100
AcDbEntity
  8
1
  6
Continuous
100
AcDbLine
 10
185.678852
 20
48.2
 30
0.0
 11
177.678852
 21
48.2
 31
0.0
  0
LINE
  5
B73D
330
B519
100
AcDbEntity
  8
1
  6
Continuous
100
AcDbLine
 10
187.678852
 20
48.2
 30
0.0
 11
187.678852
 21
48.078071
 31
0.0
  0
LINE
  5
B73E
330
B519
100
AcDbEntity
  8
4
  6
CENTER
100
AcDbLine
 10
189.4788519999999
 20
38.5
 30
0.0
 11
189.4788519999999
 21
43.5
 31
0.0
  0
LINE
  5
B73F
330
B519
100
AcDbEntity
  8
1
  6
Continuous
100
AcDbLine
 10
195.678852
 20
48.078071
 30
0.0
 11
195.678852
 21
48.2
 31
0.0
  0
LINE
  5
B740
330
B519
100
AcDbEntity
  8
1
  6
Continuous
100
AcDbLine
 10
197.678852
 20
48.2
 30
0.0
 11
197.678852
 21
48.078071
 31
0.0
  0
LINE
  5
B741
330
B519
100
AcDbEntity
  8
1
  6
Continuous
100
AcDbLine
 10
205.678852
 20
48.078071
 30
0.0
 11
205.678852
 21
48.2
 31
0.0
  0
LINE
  5
B742
330
B519
100
AcDbEntity
  8
1
  6
Continuous
100
AcDbLine
 10
205.678852
 20
48.2
 30
0.0
 11
197.678852
 21
48.2
 31
0.0
  0
LINE
  5
B743
330
B519
100
AcDbEntity
  8
1
  6
Continuous
100
AcDbLine
 10
215.678852
 20
48.2
 30
0.0
 11
207.678852
 21
48.2
 31
0.0
  0
LINE
  5
B744
330
B519
100
AcDbEntity
  8
1
  6
Continuous
100
AcDbLine
 10
215.678852
 20
48.078071
 30
0.0
 11
215.678852
 21
48.2
 31
0.0
  0
LINE
  5
B745
330
B519
100
AcDbEntity
  8
1
  6
Continuous
100
AcDbLine
 10
207.678852
 20
48.2
 30
0.0
 11
207.678852
 21
48.078071
 31
0.0
  0
LINE
  5
B746
330
B519
100
AcDbEntity
  8
4
  6
CENTER
100
AcDbLine
 10
334.478852
 20
38.5
 30
0.0
 11
334.478852
 21
43.5
 31
0.0
  0
LINE
  5
B747
330
B519
100
AcDbEntity
  8
4
  6
CENTER
100
AcDbLine
 10
349.478852
 20
38.5
 30
0.0
 11
349.478852
 21
43.5
 31
0.0
  0
LINE
  5
B748
330
B519
100
AcDbEntity
  8
1
  6
Continuous
100
AcDbLine
 10
369.478852
 20
41.0
 30
0.0
 11
369.478852
 21
48.078071
 31
0.0
  0
LINE
  5
B749
330
B519
100
AcDbEntity
  8
1
  6
Continuous
100
AcDbLine
 10
25.5
 20
115.7
 30
0.0
 11
31.0
 21
115.7
 31
0.0
  0
LINE
  5
B74A
330
B519
100
AcDbEntity
  8
1
  6
Continuous
100
AcDbLine
 10
31.0
 20
126.2999999999999
 30
0.0
 11
25.5
 21
126.2999999999999
 31
0.0
  0
LINE
  5
B74B
330
B519
100
AcDbEntity
  8
1
  6
Continuous
100
AcDbLine
 10
32.0
 20
125.2999999999999
 30
0.0
 11
32.0
 21
116.7
 31
0.0
  0
ARC
  5
B74C
330
B519
100
AcDbEntity
  8
1
  6
Continuous
100
AcDbCircle
 10
31.0
 20
125.2999999999999
 30
0.0
 40
1.0
100
AcDbArc
 50
0.0
 51
90.0
  0
ARC
  5
B74D
330
B519
100
AcDbEntity
  8
1
  6
Continuous
100
AcDbCircle
 10
31.0
 20
116.7
 30
0.0
 40
1.0
100
AcDbArc
 50
270.0
 51
0.0
  0
LINE
  5
B74E
330
B519
100
AcDbEntity
  8
1
  6
Continuous
100
AcDbLine
 10
26.4
 20
115.7
 30
0.0
 11
26.4
 21
114.918011
 31
0.0
  0
ARC
  5
B74F
330
B519
100
AcDbEntity
  8
1
  6
Continuous
100
AcDbCircle
 10
25.5
 20
126.8
 30
0.0
 40
0.5
100
AcDbArc
 50
180.0
 51
270.0
  0
ARC
  5
B750
330
B519
100
AcDbEntity
  8
1
  6
Continuous
100
AcDbCircle
 10
25.5
 20
115.2
 30
0.0
 40
0.5
100
AcDbArc
 50
90.0
 51
180.0
  0
ARC
  5
B751
330
B519
100
AcDbEntity
  8
1
  6
Continuous
100
AcDbCircle
 10
407.957703
 20
116.7
 30
0.0
 40
1.0
100
AcDbArc
 50
180.0
 51
270.0
  0
ARC
  5
B752
330
B519
100
AcDbEntity
  8
1
  6
Continuous
100
AcDbCircle
 10
407.957703
 20
125.2999999999999
 30
0.0
 40
1.0
100
AcDbArc
 50
90.0
 51
180.0
  0
LINE
  5
B753
330
B519
100
AcDbEntity
  8
1
  6
Continuous
100
AcDbLine
 10
411.5577029999998
 20
115.0
 30
0.0
 11
406.7577029999998
 21
114.3205
 31
0.0
  0
LINE
  5
B754
330
B519
100
AcDbEntity
  8
1
  6
Continuous
100
AcDbLine
 10
411.627786
 20
114.5099209999999
 30
0.0
 11
406.7577029999998
 21
113.8204999999999
 31
0.0
  0
LINE
  5
B755
330
B519
100
AcDbEntity
  8
1
  6
Continuous
100
AcDbLine
 10
411.627786
 20
127.490079
 30
0.0
 11
406.7577029999998
 21
128.1795
 31
0.0
  0
LINE
  5
B756
330
B519
100
AcDbEntity
  8
1
  6
Continuous
100
AcDbLine
 10
411.5577029999998
 20
127.0
 30
0.0
 11
406.7577029999998
 21
127.6795
 31
0.0
  0
ARC
  5
B757
330
B519
100
AcDbEntity
  8
1
  6
Continuous
100
AcDbCircle
 10
409.4577029999999
 20
113.9874999999999
 30
0.0
 40
2.987499999999998
100
AcDbArc
 50
210.350252
 51
312.8834129999999
  0
ARC
  5
B758
330
B519
100
AcDbEntity
  8
1
  6
Continuous
100
AcDbCircle
 10
407.466663
 20
116.35896
 30
0.0
 40
1.50896
100
AcDbArc
 50
180.0
 51
310.0162919999998
  0
LINE
  5
B759
330
B519
100
AcDbEntity
  8
1
  6
Continuous
100
AcDbLine
 10
408.013979
 20
113.327335
 30
0.0
 11
406.8796319999998
 21
112.4779619999999
 31
0.0
  0
LINE
  5
B75A
330
B519
100
AcDbEntity
  8
1
  6
Continuous
100
AcDbLine
 10
408.013979
 20
128.672665
 30
0.0
 11
406.8796319999998
 21
129.5220379999999
 31
0.0
  0
ARC
  5
B75B
330
B519
100
AcDbEntity
  8
1
  6
Continuous
100
AcDbCircle
 10
407.466663
 20
125.6410399999999
 30
0.0
 40
1.50896
100
AcDbArc
 50
49.983708
 51
180.0
  0
LINE
  5
B75C
330
B519
100
AcDbEntity
  8
4
  6
CENTER
100
AcDbLine
 10
418.9577029999998
 20
121.0
 30
0.0
 11
400.9577029999999
 21
121.0
 31
0.0
  0
ARC
  5
B75D
330
B519
100
AcDbEntity
  8
1
  6
Continuous
100
AcDbCircle
 10
409.4577029999999
 20
128.0124999999999
 30
0.0
 40
2.987499999999998
100
AcDbArc
 50
47.116587
 51
149.6497479999999
  0
LINE
  5
B75E
330
B519
100
AcDbEntity
  8
1
  6
Continuous
100
AcDbLine
 10
413.9577029999998
 20
127.081989
 30
0.0
 11
413.9577029999998
 21
114.918011
 31
0.0
  0
ARC
  5
B75F
330
B519
100
AcDbEntity
  8
1
  6
Continuous
100
AcDbCircle
 10
413.4577029999999
 20
115.2
 30
0.0
 40
0.5
100
AcDbArc
 50
0.0
 51
90.0
  0
LINE
  5
B760
330
B519
100
AcDbEntity
  8
1
  6
Continuous
100
AcDbLine
 10
413.4577029999999
 20
115.7
 30
0.0
 11
407.957703
 21
115.7
 31
0.0
  0
ARC
  5
B761
330
B519
100
AcDbEntity
  8
1
  6
Continuous
100
AcDbCircle
 10
413.4577029999999
 20
126.8
 30
0.0
 40
0.5
100
AcDbArc
 50
270.0
 51
0.0
  0
LINE
  5
B762
330
B519
100
AcDbEntity
  8
1
  6
Continuous
100
AcDbLine
 10
407.957703
 20
126.2999999999999
 30
0.0
 11
413.4577029999999
 21
126.2999999999999
 31
0.0
  0
LINE
  5
B763
330
B519
100
AcDbEntity
  8
1
  6
Continuous
100
AcDbLine
 10
412.557703
 20
115.7
 30
0.0
 11
412.557703
 21
114.918011
 31
0.0
  0
LINE
  5
B764
330
B519
100
AcDbEntity
  8
1
  6
Continuous
100
AcDbLine
 10
412.557703
 20
127.081989
 30
0.0
 11
412.557703
 21
126.2999999999999
 31
0.0
  0
LINE
  5
B765
330
B519
100
AcDbEntity
  8
1
  6
Continuous
100
AcDbLine
 10
411.2216309999998
 20
115.7
 30
0.0
 11
410.596717
 21
115.093305
 31
0.0
  0
LINE
  5
B766
330
B519
100
AcDbEntity
  8
1
  6
Continuous
100
AcDbLine
 10
412.0577029999997
 20
115.004985
 30
0.0
 11
412.0577029999997
 21
115.7
 31
0.0
  0
LINE
  5
B767
330
B519
100
AcDbEntity
  8
1
  6
Continuous
100
AcDbLine
 10
411.5577029999998
 20
115.0
 30
0.0
 11
411.5577029999998
 21
115.7
 31
0.0
  0
LINE
  5
B768
330
B519
100
AcDbEntity
  8
1
  6
Continuous
100
AcDbLine
 10
412.0577029999997
 20
126.9950149999999
 30
0.0
 11
412.0577029999997
 21
126.2999999999999
 31
0.0
  0
LINE
  5
B769
330
B519
100
AcDbEntity
  8
1
  6
Continuous
100
AcDbLine
 10
411.5577029999998
 20
127.0
 30
0.0
 11
411.5577029999998
 21
126.2999999999999
 31
0.0
  0
LINE
  5
B76A
330
B519
100
AcDbEntity
  8
1
  6
Continuous
100
AcDbLine
 10
411.2216309999998
 20
126.2999999999999
 30
0.0
 11
410.596717
 21
126.906695
 31
0.0
  0
ARC
  5
B76B
330
B519
100
AcDbEntity
  8
1
  6
Continuous
100
AcDbCircle
 10
409.4577029999999
 20
113.9874999999999
 30
0.0
 40
1.587499999999999
100
AcDbArc
 50
180.343152
 51
15.771638
  0
ARC
  5
B76C
330
B519
100
AcDbEntity
  8
1
  6
Continuous
100
AcDbCircle
 10
411.5577029999998
 20
115.004985
 30
0.0
 40
0.5
100
AcDbArc
 50
278.0573949999999
 51
0.0
  0
ARC
  5
B76D
330
B519
100
AcDbEntity
  8
1
  6
Continuous
100
AcDbCircle
 10
409.4577029999999
 20
128.0124999999999
 30
0.0
 40
1.587499999999999
100
AcDbArc
 50
198.4353129999999
 51
325.449896
  0
ARC
  5
B76E
330
B519
100
AcDbEntity
  8
1
  6
Continuous
100
AcDbCircle
 10
411.5577029999998
 20
126.9950149999999
 30
0.0
 40
0.5
100
AcDbArc
 50
0.0
 51
81.942605
  0
ARC
  5
B76F
330
B519
100
AcDbEntity
  8
1
  6
Continuous
100
AcDbCircle
 10
409.4577029999999
 20
113.9874999999999
 30
0.0
 40
1.587499999999999
100
AcDbArc
 50
34.55010399999999
 51
161.5646869999999
  0
LINE
  5
B770
330
B519
100
AcDbEntity
  8
1
  6
Continuous
100
AcDbLine
 10
412.397958
 20
114.5516409999999
 30
0.0
 11
410.5380109999998
 21
112.824275
 31
0.0
  0
LINE
  5
B771
330
B519
100
AcDbEntity
  8
1
  6
Continuous
100
AcDbLine
 10
413.3506699999998
 20
113.525805
 30
0.0
 11
411.490723
 21
111.7984389999999
 31
0.0
  0
ARC
  5
B772
330
B519
100
AcDbEntity
  8
1
  6
Continuous
100
AcDbCircle
 10
412.0577029999997
 20
114.918011
 30
0.0
 40
0.5
100
AcDbArc
 50
312.8834129999999
 51
0.0
  0
ARC
  5
B773
330
B519
100
AcDbEntity
  8
1
  6
Continuous
100
AcDbCircle
 10
412.0577029999997
 20
114.918011
 30
0.0
 40
1.9
100
AcDbArc
 50
312.8834129999999
 51
0.0
  0
ARC
  5
B774
330
B519
100
AcDbEntity
  8
1
  6
Continuous
100
AcDbCircle
 10
412.0577029999997
 20
127.081989
 30
0.0
 40
1.9
100
AcDbArc
 50
0.0
 51
47.116587
  0
ARC
  5
B775
330
B519
100
AcDbEntity
  8
1
  6
Continuous
100
AcDbCircle
 10
412.0577029999997
 20
127.081989
 30
0.0
 40
0.5
100
AcDbArc
 50
0.0
 51
47.116587
  0
LINE
  5
B776
330
B519
100
AcDbEntity
  8
1
  6
Continuous
100
AcDbLine
 10
413.3506699999998
 20
128.474195
 30
0.0
 11
411.490723
 21
130.2015609999999
 31
0.0
  0
LINE
  5
B777
330
B519
100
AcDbEntity
  8
1
  6
Continuous
100
AcDbLine
 10
412.397958
 20
127.448359
 30
0.0
 11
410.5380109999998
 21
129.175725
 31
0.0
  0
ARC
  5
B778
330
B519
100
AcDbEntity
  8
1
  6
Continuous
100
AcDbCircle
 10
409.4577029999999
 20
128.0124999999999
 30
0.0
 40
1.587499999999999
100
AcDbArc
 50
344.2283619999998
 51
179.6568479999999
  0
LINE
  5
B779
330
B519
100
AcDbEntity
  8
1
  6
Continuous
100
AcDbLine
 10
406.9577029999998
 20
125.2999999999999
 30
0.0
 11
406.9577029999998
 21
116.7
 31
0.0
  0
LINE
  5
B77A
330
B519
100
AcDbEntity
  8
1
  6
Continuous
100
AcDbLine
 10
406.7577029999998
 20
113.8204999999999
 30
0.0
 11
406.7577029999998
 21
114.3205
 31
0.0
  0
LINE
  5
B77B
330
B519
100
AcDbEntity
  8
1
  6
Continuous
100
AcDbLine
 10
406.7577029999998
 20
128.1795
 30
0.0
 11
406.7577029999998
 21
127.6795
 31
0.0
  0
LINE
  5
B77C
330
B519
100
AcDbEntity
  8
1
  6
Continuous
100
AcDbLine
 10
405.9577029999998
 20
125.6410399999999
 30
0.0
 11
405.9577029999998
 21
116.35896
 31
0.0
  0
LINE
  5
B77D
330
B519
100
AcDbEntity
  8
4
  6
CENTER
100
AcDbLine
 10
348.0788519999999
 20
125.263981
 30
0.0
 11
348.0788519999999
 21
116.899985
 31
0.0
  0
CIRCLE
  5
B77E
330
B519
100
AcDbEntity
  8
1
  6
Continuous
100
AcDbCircle
 10
90.878852
 20
121.0
 30
0.0
 40
1.2295
  0
CIRCLE
  5
B77F
330
B519
100
AcDbEntity
  8
1
  6
Continuous
100
AcDbCircle
 10
150.8788519999999
 20
121.0
 30
0.0
 40
1.2295
  0
LINE
  5
B780
330
B519
100
AcDbEntity
  8
4
  6
CENTER
100
AcDbLine
 10
249.4788519999999
 20
203.5
 30
0.0
 11
249.4788519999999
 21
198.5
 31
0.0
  0
ARC
  5
B781
330
B519
100
AcDbEntity
  8
1
  6
Continuous
100
AcDbCircle
 10
249.7788519999998
 20
273.0
 30
0.0
 40
1.6
100
AcDbArc
 50
270.0
 51
90.0
  0
ARC
  5
B782
330
B519
100
AcDbEntity
  8
1
  6
Continuous
100
AcDbCircle
 10
249.178852
 20
273.0
 30
0.0
 40
1.6
100
AcDbArc
 50
90.0
 51
270.0
  0
LINE
  5
B783
330
B519
100
AcDbEntity
  8
1
  6
Continuous
100
AcDbLine
 10
249.7788519999998
 20
271.3999999999999
 30
0.0
 11
249.178852
 21
271.3999999999999
 31
0.0
  0
LINE
  5
B784
330
B519
100
AcDbEntity
  8
1
  6
Continuous
100
AcDbLine
 10
249.178852
 20
274.6
 30
0.0
 11
249.7788519999998
 21
274.6
 31
0.0
  0
LINE
  5
B785
330
B519
100
AcDbEntity
  8
4
  6
CENTER
100
AcDbLine
 10
249.4788519999999
 20
270.0897289999999
 30
0.0
 11
249.4788519999999
 21
276.133079
 31
0.0
  0
LINE
  5
B786
330
B519
100
AcDbEntity
  8
4
  6
CENTER
100
AcDbLine
 10
249.4788519999999
 20
123.910271
 30
0.0
 11
249.4788519999999
 21
117.866921
 31
0.0
  0
LINE
  5
B787
330
B519
100
AcDbEntity
  8
4
  6
CENTER
100
AcDbLine
 10
249.4788519999999
 20
38.5
 30
0.0
 11
249.4788519999999
 21
43.5
 31
0.0
  0
ARC
  5
B788
330
B519
100
AcDbEntity
  8
1
  6
Continuous
100
AcDbCircle
 10
216.678852
 20
127.6795
 30
0.0
 40
1.0
100
AcDbArc
 50
180.0
 51
0.0
  0
LINE
  5
B789
330
B519
100
AcDbEntity
  8
1
  6
Continuous
100
AcDbLine
 10
215.678852
 20
127.6795
 30
0.0
 11
215.678852
 21
128.1795
 31
0.0
  0
ARC
  5
B78A
330
B519
100
AcDbEntity
  8
1
  6
Continuous
100
AcDbCircle
 10
221.678852
 20
128.0124999999999
 30
0.0
 40
1.587499999999999
100
AcDbArc
 50
192.1085089999999
 51
347.8914909999998
  0
ARC
  5
B78B
330
B519
100
AcDbEntity
  8
1
  6
Continuous
100
AcDbCircle
 10
221.678852
 20
128.0124999999999
 30
0.0
 40
1.587499999999999
100
AcDbArc
 50
6.038508
 51
24.57297999999999
  0
ARC
  5
B78C
330
B519
100
AcDbEntity
  8
1
  6
Continuous
100
AcDbCircle
 10
221.678852
 20
128.0124999999999
 30
0.0
 40
1.587499999999999
100
AcDbArc
 50
155.4270199999999
 51
173.9614919999999
  0
LINE
  5
B78D
330
B519
100
AcDbEntity
  8
1
  6
Continuous
100
AcDbLine
 10
217.678852
 20
128.1795
 30
0.0
 11
225.678852
 21
128.1795
 31
0.0
  0
LINE
  5
B78E
330
B519
100
AcDbEntity
  8
1
  6
Continuous
100
AcDbLine
 10
217.678852
 20
127.6795
 30
0.0
 11
225.678852
 21
127.6795
 31
0.0
  0
LINE
  5
B78F
330
B519
100
AcDbEntity
  8
1
  6
Continuous
100
AcDbLine
 10
217.678852
 20
127.6795
 30
0.0
 11
217.678852
 21
128.1795
 31
0.0
  0
ARC
  5
B790
330
B519
100
AcDbEntity
  8
1
  6
Continuous
100
AcDbCircle
 10
216.678852
 20
114.3205
 30
0.0
 40
1.0
100
AcDbArc
 50
0.0
 51
180.0
  0
LINE
  5
B791
330
B519
100
AcDbEntity
  8
1
  6
Continuous
100
AcDbLine
 10
215.678852
 20
114.3205
 30
0.0
 11
215.678852
 21
113.8204999999999
 31
0.0
  0
ARC
  5
B792
330
B519
100
AcDbEntity
  8
1
  6
Continuous
100
AcDbCircle
 10
221.678852
 20
113.9874999999999
 30
0.0
 40
1.587499999999999
100
AcDbArc
 50
186.038508
 51
204.57298
  0
ARC
  5
B793
330
B519
100
AcDbEntity
  8
1
  6
Continuous
100
AcDbCircle
 10
221.678852
 20
113.9874999999999
 30
0.0
 40
1.587499999999999
100
AcDbArc
 50
335.4270200000001
 51
353.9614919999999
  0
ARC
  5
B794
330
B519
100
AcDbEntity
  8
1
  6
Continuous
100
AcDbCircle
 10
221.678852
 20
113.9874999999999
 30
0.0
 40
1.587499999999999
100
AcDbArc
 50
12.108509
 51
167.891491
  0
LINE
  5
B795
330
B519
100
AcDbEntity
  8
1
  6
Continuous
100
AcDbLine
 10
217.678852
 20
113.8204999999999
 30
0.0
 11
225.678852
 21
113.8204999999999
 31
0.0
  0
LINE
  5
B796
330
B519
100
AcDbEntity
  8
1
  6
Continuous
100
AcDbLine
 10
217.678852
 20
114.3205
 30
0.0
 11
225.678852
 21
114.3205
 31
0.0
  0
LINE
  5
B797
330
B519
100
AcDbEntity
  8
1
  6
Continuous
100
AcDbLine
 10
217.678852
 20
114.3205
 30
0.0
 11
217.678852
 21
113.8204999999999
 31
0.0
  0
LINE
  5
B798
330
B519
100
AcDbEntity
  8
1
  6
Continuous
100
AcDbLine
 10
227.678852
 20
127.6795
 30
0.0
 11
235.678852
 21
127.6795
 31
0.0
  0
LINE
  5
B799
330
B519
100
AcDbEntity
  8
1
  6
Continuous
100
AcDbLine
 10
227.678852
 20
128.1795
 30
0.0
 11
235.678852
 21
128.1795
 31
0.0
  0
LINE
  5
B79A
330
B519
100
AcDbEntity
  8
1
  6
Continuous
100
AcDbLine
 10
227.678852
 20
127.6795
 30
0.0
 11
227.678852
 21
128.1795
 31
0.0
  0
ARC
  5
B79B
330
B519
100
AcDbEntity
  8
1
  6
Continuous
100
AcDbCircle
 10
231.678852
 20
128.0124999999999
 30
0.0
 40
1.587499999999999
100
AcDbArc
 50
155.4270199999999
 51
173.9614919999999
  0
ARC
  5
B79C
330
B519
100
AcDbEntity
  8
1
  6
Continuous
100
AcDbCircle
 10
231.678852
 20
128.0124999999999
 30
0.0
 40
1.587499999999999
100
AcDbArc
 50
6.038508
 51
24.57297999999999
  0
ARC
  5
B79D
330
B519
100
AcDbEntity
  8
1
  6
Continuous
100
AcDbCircle
 10
231.678852
 20
128.0124999999999
 30
0.0
 40
1.587499999999999
100
AcDbArc
 50
192.1085089999999
 51
347.8914909999998
  0
LINE
  5
B79E
330
B519
100
AcDbEntity
  8
1
  6
Continuous
100
AcDbLine
 10
225.678852
 20
127.6795
 30
0.0
 11
225.678852
 21
128.1795
 31
0.0
  0
ARC
  5
B79F
330
B519
100
AcDbEntity
  8
1
  6
Continuous
100
AcDbCircle
 10
226.6788519999999
 20
127.6795
 30
0.0
 40
1.0
100
AcDbArc
 50
180.0
 51
0.0
  0
LINE
  5
B7A0
330
B519
100
AcDbEntity
  8
1
  6
Continuous
100
AcDbLine
 10
227.678852
 20
114.3205
 30
0.0
 11
235.678852
 21
114.3205
 31
0.0
  0
LINE
  5
B7A1
330
B519
100
AcDbEntity
  8
1
  6
Continuous
100
AcDbLine
 10
227.678852
 20
113.8204999999999
 30
0.0
 11
235.678852
 21
113.8204999999999
 31
0.0
  0
LINE
  5
B7A2
330
B519
100
AcDbEntity
  8
1
  6
Continuous
100
AcDbLine
 10
227.678852
 20
114.3205
 30
0.0
 11
227.678852
 21
113.8204999999999
 31
0.0
  0
ARC
  5
B7A3
330
B519
100
AcDbEntity
  8
1
  6
Continuous
100
AcDbCircle
 10
231.678852
 20
113.9874999999999
 30
0.0
 40
1.587499999999999
100
AcDbArc
 50
12.108509
 51
167.891491
  0
ARC
  5
B7A4
330
B519
100
AcDbEntity
  8
1
  6
Continuous
100
AcDbCircle
 10
231.678852
 20
113.9874999999999
 30
0.0
 40
1.587499999999999
100
AcDbArc
 50
335.4270200000001
 51
353.9614919999999
  0
ARC
  5
B7A5
330
B519
100
AcDbEntity
  8
1
  6
Continuous
100
AcDbCircle
 10
231.678852
 20
113.9874999999999
 30
0.0
 40
1.587499999999999
100
AcDbArc
 50
186.038508
 51
204.57298
  0
LINE
  5
B7A6
330
B519
100
AcDbEntity
  8
1
  6
Continuous
100
AcDbLine
 10
225.678852
 20
114.3205
 30
0.0
 11
225.678852
 21
113.8204999999999
 31
0.0
  0
ARC
  5
B7A7
330
B519
100
AcDbEntity
  8
1
  6
Continuous
100
AcDbCircle
 10
226.6788519999999
 20
114.3205
 30
0.0
 40
1.0
100
AcDbArc
 50
0.0
 51
180.0
  0
ARC
  5
B7A8
330
B519
100
AcDbEntity
  8
1
  6
Continuous
100
AcDbCircle
 10
236.678852
 20
127.6795
 30
0.0
 40
1.0
100
AcDbArc
 50
180.0
 51
0.0
  0
LINE
  5
B7A9
330
B519
100
AcDbEntity
  8
1
  6
Continuous
100
AcDbLine
 10
235.678852
 20
127.6795
 30
0.0
 11
235.678852
 21
128.1795
 31
0.0
  0
ARC
  5
B7AA
330
B519
100
AcDbEntity
  8
1
  6
Continuous
100
AcDbCircle
 10
241.678852
 20
128.0124999999999
 30
0.0
 40
1.587499999999999
100
AcDbArc
 50
192.1085089999999
 51
347.8914909999998
  0
ARC
  5
B7AB
330
B519
100
AcDbEntity
  8
1
  6
Continuous
100
AcDbCircle
 10
241.678852
 20
128.0124999999999
 30
0.0
 40
1.587499999999999
100
AcDbArc
 50
6.038508
 51
24.57297999999999
  0
ARC
  5
B7AC
330
B519
100
AcDbEntity
  8
1
  6
Continuous
100
AcDbCircle
 10
241.678852
 20
128.0124999999999
 30
0.0
 40
1.587499999999999
100
AcDbArc
 50
155.4270199999999
 51
173.9614919999999
  0
LINE
  5
B7AD
330
B519
100
AcDbEntity
  8
1
  6
Continuous
100
AcDbLine
 10
237.678852
 20
127.6795
 30
0.0
 11
237.678852
 21
128.1795
 31
0.0
  0
LINE
  5
B7AE
330
B519
100
AcDbEntity
  8
1
  6
Continuous
100
AcDbLine
 10
237.678852
 20
128.1795
 30
0.0
 11
245.6788519999999
 21
128.1795
 31
0.0
  0
LINE
  5
B7AF
330
B519
100
AcDbEntity
  8
1
  6
Continuous
100
AcDbLine
 10
237.678852
 20
127.6795
 30
0.0
 11
245.6788519999999
 21
127.6795
 31
0.0
  0
ARC
  5
B7B0
330
B519
100
AcDbEntity
  8
1
  6
Continuous
100
AcDbCircle
 10
236.678852
 20
114.3205
 30
0.0
 40
1.0
100
AcDbArc
 50
0.0
 51
180.0
  0
LINE
  5
B7B1
330
B519
100
AcDbEntity
  8
1
  6
Continuous
100
AcDbLine
 10
235.678852
 20
114.3205
 30
0.0
 11
235.678852
 21
113.8204999999999
 31
0.0
  0
ARC
  5
B7B2
330
B519
100
AcDbEntity
  8
1
  6
Continuous
100
AcDbCircle
 10
241.678852
 20
113.9874999999999
 30
0.0
 40
1.587499999999999
100
AcDbArc
 50
186.038508
 51
204.57298
  0
ARC
  5
B7B3
330
B519
100
AcDbEntity
  8
1
  6
Continuous
100
AcDbCircle
 10
241.678852
 20
113.9874999999999
 30
0.0
 40
1.587499999999999
100
AcDbArc
 50
335.4270200000001
 51
353.9614919999999
  0
ARC
  5
B7B4
330
B519
100
AcDbEntity
  8
1
  6
Continuous
100
AcDbCircle
 10
241.678852
 20
113.9874999999999
 30
0.0
 40
1.587499999999999
100
AcDbArc
 50
12.108509
 51
167.891491
  0
LINE
  5
B7B5
330
B519
100
AcDbEntity
  8
1
  6
Continuous
100
AcDbLine
 10
237.678852
 20
114.3205
 30
0.0
 11
237.678852
 21
113.8204999999999
 31
0.0
  0
LINE
  5
B7B6
330
B519
100
AcDbEntity
  8
1
  6
Continuous
100
AcDbLine
 10
237.678852
 20
113.8204999999999
 30
0.0
 11
245.6788519999999
 21
113.8204999999999
 31
0.0
  0
LINE
  5
B7B7
330
B519
100
AcDbEntity
  8
1
  6
Continuous
100
AcDbLine
 10
237.678852
 20
114.3205
 30
0.0
 11
245.6788519999999
 21
114.3205
 31
0.0
  0
LINE
  5
B7B8
330
B519
100
AcDbEntity
  8
1
  6
Continuous
100
AcDbLine
 10
247.6788519999999
 20
114.3205
 30
0.0
 11
255.678852
 21
114.3205
 31
0.0
  0
LINE
  5
B7B9
330
B519
100
AcDbEntity
  8
1
  6
Continuous
100
AcDbLine
 10
247.6788519999999
 20
113.8204999999999
 30
0.0
 11
255.678852
 21
113.8204999999999
 31
0.0
  0
LINE
  5
B7BA
330
B519
100
AcDbEntity
  8
1
  6
Continuous
100
AcDbLine
 10
247.6788519999999
 20
127.6795
 30
0.0
 11
255.678852
 21
127.6795
 31
0.0
  0
LINE
  5
B7BB
330
B519
100
AcDbEntity
  8
1
  6
Continuous
100
AcDbLine
 10
247.6788519999999
 20
128.1795
 30
0.0
 11
255.678852
 21
128.1795
 31
0.0
  0
LINE
  5
B7BC
330
B519
100
AcDbEntity
  8
1
  6
Continuous
100
AcDbLine
 10
247.6788519999999
 20
114.3205
 30
0.0
 11
247.6788519999999
 21
113.8204999999999
 31
0.0
  0
LINE
  5
B7BD
330
B519
100
AcDbEntity
  8
1
  6
Continuous
100
AcDbLine
 10
245.6788519999999
 20
114.3205
 30
0.0
 11
245.6788519999999
 21
113.8204999999999
 31
0.0
  0
ARC
  5
B7BE
330
B519
100
AcDbEntity
  8
1
  6
Continuous
100
AcDbCircle
 10
246.678852
 20
114.3205
 30
0.0
 40
1.0
100
AcDbArc
 50
0.0
 51
180.0
  0
LINE
  5
B7BF
330
B519
100
AcDbEntity
  8
1
  6
Continuous
100
AcDbLine
 10
247.6788519999999
 20
127.6795
 30
0.0
 11
247.6788519999999
 21
128.1795
 31
0.0
  0
LINE
  5
B7C0
330
B519
100
AcDbEntity
  8
1
  6
Continuous
100
AcDbLine
 10
245.6788519999999
 20
127.6795
 30
0.0
 11
245.6788519999999
 21
128.1795
 31
0.0
  0
ARC
  5
B7C1
330
B519
100
AcDbEntity
  8
1
  6
Continuous
100
AcDbCircle
 10
246.678852
 20
127.6795
 30
0.0
 40
1.0
100
AcDbArc
 50
180.0
 51
0.0
  0
ARC
  5
B7C2
330
B519
100
AcDbEntity
  8
1
  6
Continuous
100
AcDbCircle
 10
251.6788519999999
 20
113.9874999999999
 30
0.0
 40
1.587499999999999
100
AcDbArc
 50
12.108509
 51
167.891491
  0
ARC
  5
B7C3
330
B519
100
AcDbEntity
  8
1
  6
Continuous
100
AcDbCircle
 10
251.6788519999999
 20
113.9874999999999
 30
0.0
 40
1.587499999999999
100
AcDbArc
 50
335.4270200000001
 51
353.9614919999999
  0
ARC
  5
B7C4
330
B519
100
AcDbEntity
  8
1
  6
Continuous
100
AcDbCircle
 10
251.6788519999999
 20
113.9874999999999
 30
0.0
 40
1.587499999999999
100
AcDbArc
 50
186.038508
 51
204.57298
  0
ARC
  5
B7C5
330
B519
100
AcDbEntity
  8
1
  6
Continuous
100
AcDbCircle
 10
251.6788519999999
 20
128.0124999999999
 30
0.0
 40
1.587499999999999
100
AcDbArc
 50
155.4270199999999
 51
173.9614919999999
  0
ARC
  5
B7C6
330
B519
100
AcDbEntity
  8
1
  6
Continuous
100
AcDbCircle
 10
251.6788519999999
 20
128.0124999999999
 30
0.0
 40
1.587499999999999
100
AcDbArc
 50
6.038508
 51
24.57297999999999
  0
ARC
  5
B7C7
330
B519
100
AcDbEntity
  8
1
  6
Continuous
100
AcDbCircle
 10
251.6788519999999
 20
128.0124999999999
 30
0.0
 40
1.587499999999999
100
AcDbArc
 50
192.1085089999999
 51
347.8914909999998
  0
LINE
  5
B7C8
330
B519
100
AcDbEntity
  8
1
  6
Continuous
100
AcDbLine
 10
257.678852
 20
128.1795
 30
0.0
 11
265.678852
 21
128.1795
 31
0.0
  0
LINE
  5
B7C9
330
B519
100
AcDbEntity
  8
1
  6
Continuous
100
AcDbLine
 10
257.678852
 20
127.6795
 30
0.0
 11
265.678852
 21
127.6795
 31
0.0
  0
ARC
  5
B7CA
330
B519
100
AcDbEntity
  8
1
  6
Continuous
100
AcDbCircle
 10
261.678852
 20
128.0124999999999
 30
0.0
 40
1.587499999999999
100
AcDbArc
 50
192.1085089999999
 51
347.8914909999998
  0
ARC
  5
B7CB
330
B519
100
AcDbEntity
  8
1
  6
Continuous
100
AcDbCircle
 10
261.678852
 20
128.0124999999999
 30
0.0
 40
1.587499999999999
100
AcDbArc
 50
6.038508
 51
24.57297999999999
  0
ARC
  5
B7CC
330
B519
100
AcDbEntity
  8
1
  6
Continuous
100
AcDbCircle
 10
261.678852
 20
128.0124999999999
 30
0.0
 40
1.587499999999999
100
AcDbArc
 50
155.4270199999999
 51
173.9614919999999
  0
ARC
  5
B7CD
330
B519
100
AcDbEntity
  8
1
  6
Continuous
100
AcDbCircle
 10
256.678852
 20
127.6795
 30
0.0
 40
1.0
100
AcDbArc
 50
180.0
 51
0.0
  0
LINE
  5
B7CE
330
B519
100
AcDbEntity
  8
1
  6
Continuous
100
AcDbLine
 10
255.678852
 20
127.6795
 30
0.0
 11
255.678852
 21
128.1795
 31
0.0
  0
LINE
  5
B7CF
330
B519
100
AcDbEntity
  8
1
  6
Continuous
100
AcDbLine
 10
257.678852
 20
127.6795
 30
0.0
 11
257.678852
 21
128.1795
 31
0.0
  0
LINE
  5
B7D0
330
B519
100
AcDbEntity
  8
1
  6
Continuous
100
AcDbLine
 10
257.678852
 20
113.8204999999999
 30
0.0
 11
265.678852
 21
113.8204999999999
 31
0.0
  0
LINE
  5
B7D1
330
B519
100
AcDbEntity
  8
1
  6
Continuous
100
AcDbLine
 10
257.678852
 20
114.3205
 30
0.0
 11
265.678852
 21
114.3205
 31
0.0
  0
ARC
  5
B7D2
330
B519
100
AcDbEntity
  8
1
  6
Continuous
100
AcDbCircle
 10
261.678852
 20
113.9874999999999
 30
0.0
 40
1.587499999999999
100
AcDbArc
 50
186.038508
 51
204.57298
  0
ARC
  5
B7D3
330
B519
100
AcDbEntity
  8
1
  6
Continuous
100
AcDbCircle
 10
261.678852
 20
113.9874999999999
 30
0.0
 40
1.587499999999999
100
AcDbArc
 50
335.4270200000001
 51
353.9614919999999
  0
ARC
  5
B7D4
330
B519
100
AcDbEntity
  8
1
  6
Continuous
100
AcDbCircle
 10
261.678852
 20
113.9874999999999
 30
0.0
 40
1.587499999999999
100
AcDbArc
 50
12.108509
 51
167.891491
  0
ARC
  5
B7D5
330
B519
100
AcDbEntity
  8
1
  6
Continuous
100
AcDbCircle
 10
256.678852
 20
114.3205
 30
0.0
 40
1.0
100
AcDbArc
 50
0.0
 51
180.0
  0
LINE
  5
B7D6
330
B519
100
AcDbEntity
  8
1
  6
Continuous
100
AcDbLine
 10
255.678852
 20
114.3205
 30
0.0
 11
255.678852
 21
113.8204999999999
 31
0.0
  0
LINE
  5
B7D7
330
B519
100
AcDbEntity
  8
1
  6
Continuous
100
AcDbLine
 10
257.678852
 20
114.3205
 30
0.0
 11
257.678852
 21
113.8204999999999
 31
0.0
  0
LINE
  5
B7D8
330
B519
100
AcDbEntity
  8
1
  6
Continuous
100
AcDbLine
 10
265.678852
 20
128.1795
 30
0.0
 11
265.678852
 21
113.8204999999999
 31
0.0
  0
LINE
  5
B7D9
330
B519
100
AcDbEntity
  8
1
  6
Continuous
100
AcDbLine
 10
217.678852
 20
193.8
 30
0.0
 11
217.678852
 21
193.921929
 31
0.0
  0
LINE
  5
B7DA
330
B519
100
AcDbEntity
  8
1
  6
Continuous
100
AcDbLine
 10
225.678852
 20
193.8
 30
0.0
 11
217.678852
 21
193.8
 31
0.0
  0
LINE
  5
B7DB
330
B519
100
AcDbEntity
  8
1
  6
Continuous
100
AcDbLine
 10
225.678852
 20
193.921929
 30
0.0
 11
225.678852
 21
193.8
 31
0.0
  0
LINE
  5
B7DC
330
B519
100
AcDbEntity
  8
1
  6
Continuous
100
AcDbLine
 10
235.678852
 20
193.8
 30
0.0
 11
227.678852
 21
193.8
 31
0.0
  0
LINE
  5
B7DD
330
B519
100
AcDbEntity
  8
1
  6
Continuous
100
AcDbLine
 10
227.678852
 20
193.8
 30
0.0
 11
227.678852
 21
193.921929
 31
0.0
  0
LINE
  5
B7DE
330
B519
100
AcDbEntity
  8
1
  6
Continuous
100
AcDbLine
 10
235.678852
 20
193.921929
 30
0.0
 11
235.678852
 21
193.8
 31
0.0
  0
LINE
  5
B7DF
330
B519
100
AcDbEntity
  8
1
  6
Continuous
100
AcDbLine
 10
245.6788519999999
 20
193.921929
 30
0.0
 11
245.6788519999999
 21
193.8
 31
0.0
  0
LINE
  5
B7E0
330
B519
100
AcDbEntity
  8
1
  6
Continuous
100
AcDbLine
 10
237.678852
 20
193.8
 30
0.0
 11
237.678852
 21
193.921929
 31
0.0
  0
LINE
  5
B7E1
330
B519
100
AcDbEntity
  8
1
  6
Continuous
100
AcDbLine
 10
245.6788519999999
 20
193.8
 30
0.0
 11
237.678852
 21
193.8
 31
0.0
  0
LINE
  5
B7E2
330
B519
100
AcDbEntity
  8
1
  6
Continuous
100
AcDbLine
 10
255.678852
 20
193.8
 30
0.0
 11
247.6788519999999
 21
193.8
 31
0.0
  0
LINE
  5
B7E3
330
B519
100
AcDbEntity
  8
1
  6
Continuous
100
AcDbLine
 10
247.6788519999999
 20
193.8
 30
0.0
 11
247.6788519999999
 21
193.921929
 31
0.0
  0
LINE
  5
B7E4
330
B519
100
AcDbEntity
  8
1
  6
Continuous
100
AcDbLine
 10
255.678852
 20
193.921929
 30
0.0
 11
255.678852
 21
193.8
 31
0.0
  0
LINE
  5
B7E5
330
B519
100
AcDbEntity
  8
1
  6
Continuous
100
AcDbLine
 10
265.678852
 20
193.8
 30
0.0
 11
257.678852
 21
193.8
 31
0.0
  0
LINE
  5
B7E6
330
B519
100
AcDbEntity
  8
1
  6
Continuous
100
AcDbLine
 10
257.678852
 20
193.8
 30
0.0
 11
257.678852
 21
193.921929
 31
0.0
  0
LINE
  5
B7E7
330
B519
100
AcDbEntity
  8
1
  6
Continuous
100
AcDbLine
 10
265.678852
 20
193.921929
 30
0.0
 11
265.678852
 21
193.8
 31
0.0
  0
LINE
  5
B7E8
330
B519
100
AcDbEntity
  8
1
  6
Continuous
100
AcDbLine
 10
217.678852
 20
48.2
 30
0.0
 11
217.678852
 21
48.078071
 31
0.0
  0
LINE
  5
B7E9
330
B519
100
AcDbEntity
  8
1
  6
Continuous
100
AcDbLine
 10
225.678852
 20
48.078071
 30
0.0
 11
225.678852
 21
48.2
 31
0.0
  0
LINE
  5
B7EA
330
B519
100
AcDbEntity
  8
1
  6
Continuous
100
AcDbLine
 10
225.678852
 20
48.2
 30
0.0
 11
217.678852
 21
48.2
 31
0.0
  0
LINE
  5
B7EB
330
B519
100
AcDbEntity
  8
1
  6
Continuous
100
AcDbLine
 10
245.6788519999999
 20
48.2
 30
0.0
 11
237.678852
 21
48.2
 31
0.0
  0
LINE
  5
B7EC
330
B519
100
AcDbEntity
  8
1
  6
Continuous
100
AcDbLine
 10
237.678852
 20
48.2
 30
0.0
 11
237.678852
 21
48.078071
 31
0.0
  0
LINE
  5
B7ED
330
B519
100
AcDbEntity
  8
1
  6
Continuous
100
AcDbLine
 10
227.678852
 20
48.2
 30
0.0
 11
227.678852
 21
48.078071
 31
0.0
  0
LINE
  5
B7EE
330
B519
100
AcDbEntity
  8
1
  6
Continuous
100
AcDbLine
 10
235.678852
 20
48.078071
 30
0.0
 11
235.678852
 21
48.2
 31
0.0
  0
LINE
  5
B7EF
330
B519
100
AcDbEntity
  8
1
  6
Continuous
100
AcDbLine
 10
235.678852
 20
48.2
 30
0.0
 11
227.678852
 21
48.2
 31
0.0
  0
LINE
  5
B7F0
330
B519
100
AcDbEntity
  8
1
  6
Continuous
100
AcDbLine
 10
245.6788519999999
 20
48.078071
 30
0.0
 11
245.6788519999999
 21
48.2
 31
0.0
  0
LINE
  5
B7F1
330
B519
100
AcDbEntity
  8
1
  6
Continuous
100
AcDbLine
 10
265.678852
 20
48.2
 30
0.0
 11
257.678852
 21
48.2
 31
0.0
  0
LINE
  5
B7F2
330
B519
100
AcDbEntity
  8
1
  6
Continuous
100
AcDbLine
 10
255.678852
 20
48.2
 30
0.0
 11
247.6788519999999
 21
48.2
 31
0.0
  0
LINE
  5
B7F3
330
B519
100
AcDbEntity
  8
1
  6
Continuous
100
AcDbLine
 10
255.678852
 20
48.078071
 30
0.0
 11
255.678852
 21
48.2
 31
0.0
  0
LINE
  5
B7F4
330
B519
100
AcDbEntity
  8
1
  6
Continuous
100
AcDbLine
 10
247.6788519999999
 20
48.2
 30
0.0
 11
247.6788519999999
 21
48.078071
 31
0.0
  0
LINE
  5
B7F5
330
B519
100
AcDbEntity
  8
1
  6
Continuous
100
AcDbLine
 10
257.678852
 20
48.2
 30
0.0
 11
257.678852
 21
48.078071
 31
0.0
  0
LINE
  5
B7F6
330
B519
100
AcDbEntity
  8
1
  6
Continuous
100
AcDbLine
 10
265.678852
 20
48.078071
 30
0.0
 11
265.678852
 21
48.2
 31
0.0
  0
LINE
  5
B7F7
330
B519
100
AcDbEntity
  8
5
  6
PHANTOM
100
AcDbLine
 10
268.0788519999999
 20
114.85
 30
0.0
 11
368.078852
 21
114.85
 31
0.0
  0
LINE
  5
B7F8
330
B519
100
AcDbEntity
  8
5
  6
PHANTOM
100
AcDbLine
 10
368.078852
 20
127.15
 30
0.0
 11
268.0788519999999
 21
127.15
 31
0.0
  0
LINE
  5
B7F9
330
B519
100
AcDbEntity
  8
5
  6
PHANTOM
100
AcDbLine
 10
268.0788519999999
 20
127.15
 30
0.0
 11
268.0788519999999
 21
114.85
 31
0.0
  0
CIRCLE
  5
B7FA
330
B519
100
AcDbEntity
  8
5
  6
PHANTOM
100
AcDbCircle
 10
288.0788519999999
 20
121.0
 30
0.0
 40
1.2295
  0
LINE
  5
B7FB
330
B519
100
AcDbEntity
  8
4
  6
CENTER
100
AcDbLine
 10
288.0788519999999
 20
125.2156339999999
 30
0.0
 11
288.0788519999999
 21
116.706597
 31
0.0
  0
CIRCLE
  5
B7FC
330
B519
100
AcDbEntity
  8
5
  6
PHANTOM
100
AcDbCircle
 10
288.0788519999999
 20
121.0
 30
0.0
 40
1.5
  0
CIRCLE
  5
B7FD
330
B519
100
AcDbEntity
  8
5
  6
PHANTOM
100
AcDbCircle
 10
348.0788519999999
 20
121.0
 30
0.0
 40
1.2295
  0
CIRCLE
  5
B7FE
330
B519
100
AcDbEntity
  8
5
  6
PHANTOM
100
AcDbCircle
 10
348.0788519999999
 20
121.0
 30
0.0
 40
1.5
  0
LINE
  5
B7FF
330
B519
100
AcDbEntity
  8
5
  6
PHANTOM
100
AcDbLine
 10
368.078852
 20
126.2999999999999
 30
0.0
 11
368.078852
 21
127.15
 31
0.0
  0
LINE
  5
B800
330
B519
100
AcDbEntity
  8
5
  6
PHANTOM
100
AcDbLine
 10
368.078852
 20
115.7
 30
0.0
 11
368.078852
 21
114.85
 31
0.0
  0
ENDSEC
  0
SECTION
  2
OBJECTS
  0
DICTIONARY
  5
B507
330
0
100
AcDbDictionary
281
     1
  3
ACAD_CIP_PREVIOUS_PRODUCT_INFO
350
B860
  3
ACAD_COLOR
350
B842
  3
ACAD_DETAILVIEWSTYLE
350
B85B
  3
ACAD_GROUP
350
B508
  3
ACAD_LAYOUT
350
B514
  3
ACAD_MATERIAL
350
B810
  3
ACAD_MLEADERSTYLE
350
B857
  3
ACAD_MLINESTYLE
350
B511
  3
ACAD_PLOTSETTINGS
350
B513
  3
ACAD_PLOTSTYLENAME
350
B80E
  3
ACAD_SCALELIST
350
B845
  3
ACAD_SECTIONVIEWSTYLE
350
B859
  3
ACAD_TABLESTYLE
350
B843
  3
ACAD_VISUALSTYLE
350
B829
  3
ACDB_RECOMPOSE_DATA
350
B87E
  3
AcDbVariableDictionary
350
B871
  3
DWGPROPS
350
B87F
  0
DICTIONARY
  5
B861
330
B50B
100
AcDbDictionary
280
     1
281
     1
  3
ADSK_XREC_LAYER_RECONCILED
360
B862
  0
DICTIONARY
  5
B863
330
B521
100
AcDbDictionary
280
     1
281
     1
  3
ADSK_XREC_LAYER_RECONCILED
360
B864
  0
DICTIONARY
  5
B865
330
B522
100
AcDbDictionary
280
     1
281
     1
  3
ADSK_XREC_LAYER_RECONCILED
360
B866
  0
DICTIONARY
  5
B867
330
B523
100
AcDbDictionary
280
     1
281
     1
  3
ADSK_XREC_LAYER_RECONCILED
360
B868
  0
DICTIONARY
  5
B869
330
B524
100
AcDbDictionary
280
     1
281
     1
  3
ADSK_XREC_LAYER_RECONCILED
360
B86A
  0
DICTIONARY
  5
B86B
330
B525
100
AcDbDictionary
280
     1
281
     1
  3
ADSK_XREC_LAYER_RECONCILED
360
B86C
  0
DICTIONARY
  5
B86D
330
B526
100
AcDbDictionary
280
     1
281
     1
  3
ADSK_XREC_LAYER_RECONCILED
360
B86E
  0
DICTIONARY
  5
B86F
330
B527
100
AcDbDictionary
280
     1
281
     1
  3
ADSK_XREC_LAYER_RECONCILED
360
B870
  0
DICTIONARY
  5
B809
330
B519
100
AcDbDictionary
281
     1
  3
ACAD_LAYOUTSELFREF
350
B80A
  0
DICTIONARY
  5
B807
330
B515
100
AcDbDictionary
281
     1
  3
ACAD_LAYOUTSELFREF
350
B808
  0
XRECORD
  5
B860
102
{ACAD_REACTORS
330
B507
102
}
330
B507
100
AcDbXrecord
280
     1
300
ACDLT
300
2014
300
ACDLT_F_S
  0
DICTIONARY
  5
B842
102
{ACAD_REACTORS
330
B507
102
}
330
B507
100
AcDbDictionary
281
     1
  0
DICTIONARY
  5
B85B
102
{ACAD_REACTORS
330
B507
102
}
330
B507
100
AcDbDictionary
281
     1
  3
Imperial24
350
B85C
  0
DICTIONARY
  5
B508
102
{ACAD_REACTORS
330
B507
102
}
330
B507
100
AcDbDictionary
281
     1
  0
DICTIONARY
  5
B514
102
{ACAD_REACTORS
330
B507
102
}
330
B507
100
AcDbDictionary
281
     1
  3
Model
350
B85D
  3
レイアウト1
350
B85E
  0
DICTIONARY
  5
B810
102
{ACAD_REACTORS
330
B507
102
}
330
B507
100
AcDbDictionary
281
     1
  3
ByBlock
350
B819
  3
ByLayer
350
B811
  3
Global
350
B821
  0
DICTIONARY
  5
B857
102
{ACAD_REACTORS
330
B507
102
}
330
B507
100
AcDbDictionary
281
     1
  3
Standard
350
B858
  0
DICTIONARY
  5
B511
102
{ACAD_REACTORS
330
B507
102
}
330
B507
100
AcDbDictionary
281
     1
  3
STANDARD
350
B512
  0
DICTIONARY
  5
B513
102
{ACAD_REACTORS
330
B507
102
}
330
B507
100
AcDbDictionary
281
     1
  0
ACDBDICTIONARYWDFLT
  5
B80E
102
{ACAD_REACTORS
330
B507
102
}
330
B507
100
AcDbDictionary
281
     1
  3
Normal
350
B80F
100
AcDbDictionaryWithDefault
340
B80F
  0
DICTIONARY
  5
B845
102
{ACAD_REACTORS
330
B507
102
}
330
B507
100
AcDbDictionary
281
     1
  3
A0
350
B846
  3
A1
350
B847
  3
A2
350
B848
  3
A3
350
B849
  3
A4
350
B84A
  3
A5
350
B84B
  3
A6
350
B84C
  3
A7
350
B84D
  3
A8
350
B84E
  3
A9
350
B84F
  3
B0
350
B850
  3
B1
350
B851
  3
B2
350
B852
  3
B3
350
B853
  3
B4
350
B854
  3
B5
350
B855
  3
B6
350
B856
  0
DICTIONARY
  5
B859
102
{ACAD_REACTORS
330
B507
102
}
330
B507
100
AcDbDictionary
281
     1
  3
Imperial24
350
B85A
  0
DICTIONARY
  5
B843
102
{ACAD_REACTORS
330
B507
102
}
330
B507
100
AcDbDictionary
281
     1
  3
Standard
350
B844
  0
DICTIONARY
  5
B829
102
{ACAD_REACTORS
330
B507
102
}
330
B507
100
AcDbDictionary
281
     1
  3
2dWireframe
350
B82F
  3
Basic
350
B82E
  3
Brighten
350
B835
  3
ColorChange
350
B839
  3
Conceptual
350
B832
  3
Dim
350
B834
  3
EdgeColorOff
350
B841
  3
Facepattern
350
B838
  3
Flat
350
B82A
  3
FlatWithEdges
350
B82B
  3
Gouraud
350
B82C
  3
GouraudWithEdges
350
B82D
  3
Hidden
350
B831
  3
JitterOff
350
B83F
  3
Linepattern
350
B837
  3
OverhangOff
350
B840
  3
Realistic
350
B833
  3
Shaded
350
B83E
  3
Shaded with edges
350
B83D
  3
Shades of Gray
350
B83A
  3
Sketchy
350
B83B
  3
Thicken
350
B836
  3
Wireframe
350
B830
  3
X-Ray
350
B83C
  0
XRECORD
  5
B87E
102
{ACAD_REACTORS
330
B507
102
}
330
B507
100
AcDbXrecord
280
     1
 90
        1
330
B844
  0
DICTIONARY
  5
B871
102
{ACAD_REACTORS
330
B507
102
}
330
B507
100
AcDbDictionary
281
     1
  3
CANNOSCALE
350
B876
  3
CMLEADERSTYLE
350
B873
  3
CTABLESTYLE
350
B872
  3
CVIEWDETAILSTYLE
350
B874
  3
CVIEWSECTIONSTYLE
350
B875
  3
DIMASSOC
350
B879
  3
INDEXCTL
350
B878
  3
SORTENTS
350
B877
  3
XCLIPFRAME
350
B87A
  0
XRECORD
  5
B87F
102
{ACAD_REACTORS
330
B507
102
}
330
B507
100
AcDbXrecord
280
     1
  1
DWGPROPS COOKIE
  2

  3

  4

  6

  7

  8
Yoshitsune
  9

300
=
301
=
302
=
303
=
304
=
305
=
306
=
307
=
308
=
309
=
 40
0.0000117824074074
 41
2451233.432433333
 42
2457192.661926285
  1

 90
        0
  0
XRECORD
  5
B862
102
{ACAD_REACTORS
330
B861
102
}
330
B861
100
AcDbXrecord
280
     1
290
     1
  0
XRECORD
  5
B864
102
{ACAD_REACTORS
330
B863
102
}
330
B863
100
AcDbXrecord
280
     1
290
     1
  0
XRECORD
  5
B866
102
{ACAD_REACTORS
330
B865
102
}
330
B865
100
AcDbXrecord
280
     1
290
     1
  0
XRECORD
  5
B868
102
{ACAD_REACTORS
330
B867
102
}
330
B867
100
AcDbXrecord
280
     1
290
     1
  0
XRECORD
  5
B86A
102
{ACAD_REACTORS
330
B869
102
}
330
B869
100
AcDbXrecord
280
     1
290
     1
  0
XRECORD
  5
B86C
102
{ACAD_REACTORS
330
B86B
102
}
330
B86B
100
AcDbXrecord
280
     1
290
     1
  0
XRECORD
  5
B86E
102
{ACAD_REACTORS
330
B86D
102
}
330
B86D
100
AcDbXrecord
280
     1
290
     1
  0
XRECORD
  5
B870
102
{ACAD_REACTORS
330
B86F
102
}
330
B86F
100
AcDbXrecord
280
     1
290
     1
  0
XRECORD
  5
B80A
102
{ACAD_REACTORS
330
B809
102
}
330
B809
100
AcDbXrecord
280
     1
340
B519
  0
XRECORD
  5
B808
102
{ACAD_REACTORS
330
B807
102
}
330
B807
100
AcDbXrecord
280
     1
340
B515
  0
ACDBDETAILVIEWSTYLE
  5
B85C
102
{ACAD_XDICTIONARY
360
B8B7
102
}
102
{ACAD_REACTORS
330
B85B
102
}
330
B85B
100
AcDbModelDocViewStyle
 70
     0
  3
Imperial24
290
     0
100
AcDbDetailViewStyle
 70
     0
 71
     0
 90
        3
 71
     1
340
B50C
 40
0.24
340
0
 40
0.24
300

 40
0.36
280
     3
 71
     2
340
B510
 90
       25
 71
     3
340
B50C
 40
0.24
 90
        1
 40
0.75
 90
        1
300
%<\AcVar ViewType \f "%tc1">% %<\AcVar ViewDetailId>%\PSCALE %<\AcVar ViewScale \f "%sn">%
 71
     4
340
B510
 90
       25
340
B510
 90
       25
280
     0
  0
LAYOUT
  5
B85D
102
{ACAD_XDICTIONARY
360
B8B9
102
}
102
{ACAD_REACTORS
330
B514
102
}
330
B514
100
AcDbPlotSettings
  1

  2
Canon LBP9100C
  4

  6

 40
0.0
 41
0.0
 42
0.0
 43
0.0
 44
0.0
 45
0.0
 46
0.0
 47
0.0
 48
0.0
 49
0.0
140
0.0
141
0.0
142
1.0
143
1.0
 70
  1712
 72
     0
 73
     0
 74
     0
  7

 75
     0
147
1.0
148
0.0
149
0.0
100
AcDbLayout
  1
Model
 70
     1
 71
     0
 10
0.0
 20
0.0
 11
12.0
 21
9.0
 12
0.0
 22
0.0
 32
0.0
 14
0.0
 24
0.0
 34
0.0
 15
0.0
 25
0.0
 35
0.0
146
0.0
 13
0.0
 23
0.0
 33
0.0
 16
1.0
 26
0.0
 36
0.0
 17
0.0
 27
1.0
 37
0.0
 76
     0
330
B519
331
B806
  0
LAYOUT
  5
B85E
102
{ACAD_XDICTIONARY
360
B8BB
102
}
102
{ACAD_REACTORS
330
B514
102
}
330
B514
100
AcDbPlotSettings
  1

  2
Canon LBP9100C
  4

  6

 40
0.0
 41
0.0
 42
0.0
 43
0.0
 44
0.0
 45
0.0
 46
0.0
 47
0.0
 48
0.0
 49
0.0
140
0.0
141
0.0
142
1.0
143
1.0
 70
   688
 72
     0
 73
     0
 74
     5
  7

 75
    16
147
1.0
148
0.0
149
0.0
100
AcDbLayout
  1
レイアウト1
 70
     0
 71
     1
 10
0.0
 20
0.0
 11
420.0
 21
297.0
 12
0.0
 22
0.0
 32
0.0
 14
1.000000000000000E+20
 24
1.000000000000000E+20
 34
1.000000000000000E+20
 15
-1.000000000000000E+20
 25
-1.000000000000000E+20
 35
-1.000000000000000E+20
146
0.0
 13
0.0
 23
0.0
 33
0.0
 16
1.0
 26
0.0
 36
0.0
 17
0.0
 27
1.0
 37
0.0
 76
     0
330
B515
  0
MATERIAL
  5
B819
102
{ACAD_XDICTIONARY
360
B81A
102
}
102
{ACAD_REACTORS
330
B810
102
}
330
B810
100
AcDbMaterial
  1
ByBlock
 72
     0
 43
0.0208333333333333
 43
0.0
 43
0.0
 43
0.0
 43
0.0
 43
0.0208333333333333
 43
0.0
 43
0.0
 43
0.0
 43
0.0
 43
1.0
 43
0.0
 43
0.0
 43
0.0
 43
0.0
 43
1.0
 77
     0
 47
0.0208333333333333
 47
0.0
 47
0.0
 47
0.0
 47
0.0
 47
0.0208333333333333
 47
0.0
 47
0.0
 47
0.0
 47
0.0
 47
1.0
 47
0.0
 47
0.0
 47
0.0
 47
0.0
 47
1.0
171
     0
 49
0.0208333333333333
 49
0.0
 49
0.0
 49
0.0
 49
0.0
 49
0.0208333333333333
 49
0.0
 49
0.0
 49
0.0
 49
0.0
 49
1.0
 49
0.0
 49
0.0
 49
0.0
 49
0.0
 49
1.0
175
     0
142
0.0208333333333333
142
0.0
142
0.0
142
0.0
142
0.0
142
0.0208333333333333
142
0.0
142
0.0
142
0.0
142
0.0
142
1.0
142
0.0
142
0.0
142
0.0
142
0.0
142
1.0
179
     0
144
0.0208333333333333
144
0.0
144
0.0
144
0.0
144
0.0
144
0.0208333333333333
144
0.0
144
0.0
144
0.0
144
0.0
144
1.0
144
0.0
144
0.0
144
0.0
144
0.0
144
1.0
147
0.0208333333333333
147
0.0
147
0.0
147
0.0
147
0.0
147
0.0208333333333333
147
0.0
147
0.0
147
0.0
147
0.0
147
1.0
147
0.0
147
0.0
147
0.0
147
0.0
147
1.0
  0
MATERIAL
  5
B811
102
{ACAD_XDICTIONARY
360
B812
102
}
102
{ACAD_REACTORS
330
B810
102
}
330
B810
100
AcDbMaterial
  1
ByLayer
 72
     0
 43
0.0208333333333333
 43
0.0
 43
0.0
 43
0.0
 43
0.0
 43
0.0208333333333333
 43
0.0
 43
0.0
 43
0.0
 43
0.0
 43
1.0
 43
0.0
 43
0.0
 43
0.0
 43
0.0
 43
1.0
 77
     0
 47
0.0208333333333333
 47
0.0
 47
0.0
 47
0.0
 47
0.0
 47
0.0208333333333333
 47
0.0
 47
0.0
 47
0.0
 47
0.0
 47
1.0
 47
0.0
 47
0.0
 47
0.0
 47
0.0
 47
1.0
171
     0
 49
0.0208333333333333
 49
0.0
 49
0.0
 49
0.0
 49
0.0
 49
0.0208333333333333
 49
0.0
 49
0.0
 49
0.0
 49
0.0
 49
1.0
 49
0.0
 49
0.0
 49
0.0
 49
0.0
 49
1.0
175
     0
142
0.0208333333333333
142
0.0
142
0.0
142
0.0
142
0.0
142
0.0208333333333333
142
0.0
142
0.0
142
0.0
142
0.0
142
1.0
142
0.0
142
0.0
142
0.0
142
0.0
142
1.0
179
     0
144
0.0208333333333333
144
0.0
144
0.0
144
0.0
144
0.0
144
0.0208333333333333
144
0.0
144
0.0
144
0.0
144
0.0
144
1.0
144
0.0
144
0.0
144
0.0
144
0.0
144
1.0
147
0.0208333333333333
147
0.0
147
0.0
147
0.0
147
0.0
147
0.0208333333333333
147
0.0
147
0.0
147
0.0
147
0.0
147
1.0
147
0.0
147
0.0
147
0.0
147
0.0
147
1.0
  0
MATERIAL
  5
B821
102
{ACAD_XDICTIONARY
360
B822
102
}
102
{ACAD_REACTORS
330
B810
102
}
330
B810
100
AcDbMaterial
  1
Global
 72
     0
 43
0.0208333333333333
 43
0.0
 43
0.0
 43
0.0
 43
0.0
 43
0.0208333333333333
 43
0.0
 43
0.0
 43
0.0
 43
0.0
 43
1.0
 43
0.0
 43
0.0
 43
0.0
 43
0.0
 43
1.0
 77
     0
 47
0.0208333333333333
 47
0.0
 47
0.0
 47
0.0
 47
0.0
 47
0.0208333333333333
 47
0.0
 47
0.0
 47
0.0
 47
0.0
 47
1.0
 47
0.0
 47
0.0
 47
0.0
 47
0.0
 47
1.0
171
     0
 49
0.0208333333333333
 49
0.0
 49
0.0
 49
0.0
 49
0.0
 49
0.0208333333333333
 49
0.0
 49
0.0
 49
0.0
 49
0.0
 49
1.0
 49
0.0
 49
0.0
 49
0.0
 49
0.0
 49
1.0
175
     0
142
0.0208333333333333
142
0.0
142
0.0
142
0.0
142
0.0
142
0.0208333333333333
142
0.0
142
0.0
142
0.0
142
0.0
142
1.0
142
0.0
142
0.0
142
0.0
142
0.0
142
1.0
179
     0
144
0.0208333333333333
144
0.0
144
0.0
144
0.0
144
0.0
144
0.0208333333333333
144
0.0
144
0.0
144
0.0
144
0.0
144
1.0
144
0.0
144
0.0
144
0.0
144
0.0
144
1.0
147
0.0208333333333333
147
0.0
147
0.0
147
0.0
147
0.0
147
0.0208333333333333
147
0.0
147
0.0
147
0.0
147
0.0
147
1.0
147
0.0
147
0.0
147
0.0
147
0.0
147
1.0
  0
MLEADERSTYLE
  5
B858
102
{ACAD_REACTORS
330
B857
102
}
330
B857
100
AcDbMLeaderStyle
170
     2
171
     1
172
     0
 90
        2
 40
0.0
 41
0.0
173
     1
 91
-1056964608
340
B50E
 92
       -2
290
     1
 42
0.09
291
     1
 43
0.36
  3
Standard
 44
0.18
300

342
B50C
174
     1
178
     6
175
     1
176
     0
 93
-1056964608
 45
0.18
292
     0
297
     0
 46
0.18
 94
-1056964608
 47
1.0
 49
1.0
140
1.0
293
     1
141
0.0
294
     1
177
     0
142
1.0
295
     0
296
     0
143
0.125
1001
ACAD_MLEADERVER
1070
     2
  0
MLINESTYLE
  5
B512
102
{ACAD_REACTORS
330
B511
102
}
330
B511
100
AcDbMlineStyle
  2
STANDARD
 70
     0
  3

 62
   256
 51
90.0
 52
90.0
 71
     2
 49
0.5
 62
   256
  6
BYLAYER
 49
-0.5
 62
   256
  6
BYLAYER
  0
ACDBPLACEHOLDER
  5
B80F
102
{ACAD_REACTORS
330
B80E
102
}
330
B80E
  0
SCALE
  5
B846
102
{ACAD_REACTORS
330
B845
102
}
330
B845
100
AcDbScale
 70
     0
300
1:1
140
1.0
141
1.0
290
     1
  0
SCALE
  5
B847
102
{ACAD_REACTORS
330
B845
102
}
330
B845
100
AcDbScale
 70
     0
300
1/128" = 1'-0"
140
0.0078125
141
12.0
290
     0
  0
SCALE
  5
B848
102
{ACAD_REACTORS
330
B845
102
}
330
B845
100
AcDbScale
 70
     0
300
1/64" = 1'-0"
140
0.015625
141
12.0
290
     0
  0
SCALE
  5
B849
102
{ACAD_REACTORS
330
B845
102
}
330
B845
100
AcDbScale
 70
     0
300
1/32" = 1'-0"
140
0.03125
141
12.0
290
     0
  0
SCALE
  5
B84A
102
{ACAD_REACTORS
330
B845
102
}
330
B845
100
AcDbScale
 70
     0
300
1/16" = 1'-0"
140
0.0625
141
12.0
290
     0
  0
SCALE
  5
B84B
102
{ACAD_REACTORS
330
B845
102
}
330
B845
100
AcDbScale
 70
     0
300
3/32" = 1'-0"
140
0.09375
141
12.0
290
     0
  0
SCALE
  5
B84C
102
{ACAD_REACTORS
330
B845
102
}
330
B845
100
AcDbScale
 70
     0
300
1/8" = 1'-0"
140
0.125
141
12.0
290
     0
  0
SCALE
  5
B84D
102
{ACAD_REACTORS
330
B845
102
}
330
B845
100
AcDbScale
 70
     0
300
3/16" = 1'-0"
140
0.1875
141
12.0
290
     0
  0
SCALE
  5
B84E
102
{ACAD_REACTORS
330
B845
102
}
330
B845
100
AcDbScale
 70
     0
300
1/4" = 1'-0"
140
0.25
141
12.0
290
     0
  0
SCALE
  5
B84F
102
{ACAD_REACTORS
330
B845
102
}
330
B845
100
AcDbScale
 70
     0
300
3/8" = 1'-0"
140
0.375
141
12.0
290
     0
  0
SCALE
  5
B850
102
{ACAD_REACTORS
330
B845
102
}
330
B845
100
AcDbScale
 70
     0
300
1/2" = 1'-0"
140
0.5
141
12.0
290
     0
  0
SCALE
  5
B851
102
{ACAD_REACTORS
330
B845
102
}
330
B845
100
AcDbScale
 70
     0
300
3/4" = 1'-0"
140
0.75
141
12.0
290
     0
  0
SCALE
  5
B852
102
{ACAD_REACTORS
330
B845
102
}
330
B845
100
AcDbScale
 70
     0
300
1" = 1'-0"
140
1.0
141
12.0
290
     0
  0
SCALE
  5
B853
102
{ACAD_REACTORS
330
B845
102
}
330
B845
100
AcDbScale
 70
     0
300
1-1/2" = 1'-0"
140
1.5
141
12.0
290
     0
  0
SCALE
  5
B854
102
{ACAD_REACTORS
330
B845
102
}
330
B845
100
AcDbScale
 70
     0
300
3" = 1'-0"
140
3.0
141
12.0
290
     0
  0
SCALE
  5
B855
102
{ACAD_REACTORS
330
B845
102
}
330
B845
100
AcDbScale
 70
     0
300
6" = 1'-0"
140
6.0
141
12.0
290
     0
  0
SCALE
  5
B856
102
{ACAD_REACTORS
330
B845
102
}
330
B845
100
AcDbScale
 70
     0
300
1'-0" = 1'-0"
140
12.0
141
12.0
290
     0
  0
ACDBSECTIONVIEWSTYLE
  5
B85A
102
{ACAD_XDICTIONARY
360
B8B5
102
}
102
{ACAD_REACTORS
330
B859
102
}
330
B859
100
AcDbModelDocViewStyle
 70
     0
  3
Imperial24
290
     0
100
AcDbSectionViewStyle
 70
     0
 71
     0
 90
       78
 71
     1
340
B50C
 40
0.24
340
0
340
0
 40
0.24
300
I, O, Q, S, X, Z
 40
0.48
 90
        3
 40
0.18
 90
        1
 71
     2
340
B510
 90
       25
340
B510
 90
       50
 40
0.24
 40
0.0
 40
0.24
 71
     3
340
B50C
 40
0.24
 90
        1
 40
0.75
 90
        1
300
%<\AcVar ViewType \f "%tc1">% %<\AcVar ViewSectionStartId>%-%<\AcVar ViewSectionEndId>%\PSCALE %<\AcVar ViewScale \f "%sn">%
 71
     4
300
ANSI31
 40
1.0
 90
        0
290
     0
290
     0
 90
        6
 40
0.0
 40
1.570796326794896
 40
0.2617993877991494
 40
1.308996938995747
 40
-0.2617993877991494
 40
1.832595714594046
  0
TABLESTYLE
  5
B844
102
{ACAD_XDICTIONARY
360
B87C
102
}
102
{ACAD_REACTORS
330
B843
102
}
330
B843
100
AcDbTableStyle
  3
Standard
 70
     0
 71
     0
 40
0.06
 41
0.06
280
     0
281
     0
  7
STANDARD
140
0.18
170
     2
 62
     0
 63
     7
283
     0
274
    -2
284
     1
 64
     0
275
    -2
285
     1
 65
     0
276
    -2
286
     1
 66
     0
277
    -2
287
     1
 67
     0
278
    -2
288
     1
 68
     0
279
    -2
289
     1
 69
     0
  7
STANDARD
140
0.25
170
     5
 62
     0
 63
     7
283
     0
274
    -2
284
     1
 64
     0
275
    -2
285
     1
 65
     0
276
    -2
286
     1
 66
     0
277
    -2
287
     1
 67
     0
278
    -2
288
     1
 68
     0
279
    -2
289
     1
 69
     0
  7
STANDARD
140
0.18
170
     5
 62
     0
 63
     7
283
     0
274
    -2
284
     1
 64
     0
275
    -2
285
     1
 65
     0
276
    -2
286
     1
 66
     0
277
    -2
287
     1
 67
     0
278
    -2
288
     1
 68
     0
279
    -2
289
     1
 69
     0
  0
VISUALSTYLE
  5
B82F
102
{ACAD_XDICTIONARY
360
B88D
102
}
102
{ACAD_REACTORS
330
B829
102
}
330
B829
100
AcDbVisualStyle
  2
2dWireframe
 70
     4
 71
     0
 72
     2
 73
     0
 90
        0
 40
-0.6
 41
-30.0
 62
     5
 63
     7
 74
     1
 91
        4
 64
     7
 65
   257
 75
     1
175
     1
 42
1.0
 92
        0
 66
   257
 43
1.0
 76
     1
 77
     6
 78
     2
 67
     7
 79
     5
170
     0
171
     0
290
     0
174
     0
 93
        1
 44
0.0
173
     0
291
     0
 45
0.0
1001
ACAD
1000
AcDbSavedByObjectVersion
1070
     0
  0
VISUALSTYLE
  5
B82E
102
{ACAD_XDICTIONARY
360
B88B
102
}
102
{ACAD_REACTORS
330
B829
102
}
330
B829
100
AcDbVisualStyle
  2
Basic
 70
     7
 71
     1
 72
     0
 73
     1
 90
        0
 40
-0.6
 41
-30.0
 62
     5
 63
     7
 74
     0
 91
        4
 64
     7
 65
   257
 75
     1
175
     1
 42
1.0
 92
        8
 66
     7
 43
1.0
 76
     1
 77
     6
 78
     2
 67
     7
 79
     5
170
     0
171
     0
290
     0
174
     0
 93
        1
 44
0.0
173
     0
291
     1
 45
0.0
1001
ACAD
1000
AcDbSavedByObjectVersion
1070
     0
  0
VISUALSTYLE
  5
B835
102
{ACAD_XDICTIONARY
360
B899
102
}
102
{ACAD_REACTORS
330
B829
102
}
330
B829
100
AcDbVisualStyle
  2
Brighten
 70
    12
 71
     2
 72
     2
 73
     0
 90
        0
 40
-0.6
 41
-30.0
 62
     5
 63
     7
 74
     1
 91
        4
 64
     7
 65
   257
 75
     1
175
     1
 42
1.0
 92
        8
 66
     7
 43
1.0
 76
     1
 77
     6
 78
     2
 67
     7
 79
     5
170
     0
171
     0
290
     0
174
     0
 93
        1
 44
50.0
173
     0
291
     1
 45
0.0
1001
ACAD
1000
AcDbSavedByObjectVersion
1070
     0
  0
VISUALSTYLE
  5
B839
102
{ACAD_XDICTIONARY
360
B8A1
102
}
102
{ACAD_REACTORS
330
B829
102
}
330
B829
100
AcDbVisualStyle
  2
ColorChange
 70
    16
 71
     2
 72
     2
 73
     3
 90
        0
 40
-0.6
 41
-30.0
 62
     5
 63
     8
 74
     1
 91
        4
 64
     7
 65
   257
 75
     1
175
     1
 42
1.0
 92
        8
 66
     8
 43
1.0
 76
     1
 77
     6
 78
     2
 67
     7
 79
     5
170
     0
171
     0
290
     0
174
     0
 93
        1
 44
0.0
173
     0
291
     1
 45
0.0
1001
ACAD
1000
AcDbSavedByObjectVersion
1070
     0
  0
VISUALSTYLE
  5
B832
102
{ACAD_XDICTIONARY
360
B893
102
}
102
{ACAD_REACTORS
330
B829
102
}
330
B829
100
AcDbVisualStyle
  2
Conceptual
 70
     9
 71
     3
 72
     2
 73
     0
 90
        0
 40
-0.6
 41
-30.0
 62
     5
 63
     7
 74
     2
 91
        2
 64
     7
 65
   257
 75
     1
175
     1
 42
179.0
 92
        8
 66
     7
 43
1.0
 76
     1
 77
     6
 78
     2
 67
     7
 79
     3
170
     0
171
     0
290
     0
174
     0
 93
        1
 44
0.0
173
     0
291
     0
 45
0.0
1001
ACAD
1000
AcDbSavedByObjectVersion
1070
     0
  0
VISUALSTYLE
  5
B834
102
{ACAD_XDICTIONARY
360
B897
102
}
102
{ACAD_REACTORS
330
B829
102
}
330
B829
100
AcDbVisualStyle
  2
Dim
 70
    11
 71
     2
 72
     2
 73
     0
 90
        0
 40
-0.6
 41
-30.0
 62
     5
 63
     7
 74
     1
 91
        4
 64
     7
 65
   257
 75
     1
175
     1
 42
1.0
 92
        8
 66
     7
 43
1.0
 76
     1
 77
     6
 78
     2
 67
     7
 79
     5
170
     0
171
     0
290
     0
174
     0
 93
        1
 44
-50.0
173
     0
291
     1
 45
0.0
1001
ACAD
1000
AcDbSavedByObjectVersion
1070
     0
  0
VISUALSTYLE
  5
B841
102
{ACAD_XDICTIONARY
360
B8B1
102
}
102
{ACAD_REACTORS
330
B829
102
}
330
B829
100
AcDbVisualStyle
  2
EdgeColorOff
 70
    22
 71
     2
 72
     2
 73
     0
 90
        0
 40
-0.6
 41
-30.0
 62
     5
 63
     7
 74
     1
 91
        4
 64
     7
 65
   257
 75
     1
175
     1
 42
1.0
 92
        8
 66
     7
 43
1.0
 76
     1
 77
     6
 78
     2
 67
     7
 79
     5
170
     0
171
     0
290
     0
174
     0
 93
        1
 44
0.0
173
     0
291
     1
 45
0.0
1001
ACAD
1000
AcDbSavedByObjectVersion
1070
     0
  0
VISUALSTYLE
  5
B838
102
{ACAD_XDICTIONARY
360
B89F
102
}
102
{ACAD_REACTORS
330
B829
102
}
330
B829
100
AcDbVisualStyle
  2
Facepattern
 70
    15
 71
     2
 72
     2
 73
     0
 90
        0
 40
-0.6
 41
-30.0
 62
     5
 63
     7
 74
     1
 91
        4
 64
     7
 65
   257
 75
     1
175
     1
 42
1.0
 92
        8
 66
     7
 43
1.0
 76
     1
 77
     6
 78
     2
 67
     7
 79
     5
170
     0
171
     0
290
     0
174
     0
 93
        1
 44
0.0
173
     0
291
     1
 45
0.0
1001
ACAD
1000
AcDbSavedByObjectVersion
1070
     0
  0
VISUALSTYLE
  5
B82A
102
{ACAD_XDICTIONARY
360
B883
102
}
102
{ACAD_REACTORS
330
B829
102
}
330
B829
100
AcDbVisualStyle
  2
Flat
 70
     0
 71
     2
 72
     1
 73
     1
 90
        2
 40
-0.6
 41
30.0
 62
     5
 63
     7
 74
     0
 91
        0
 64
     7
 65
   257
 75
     1
175
     1
 42
1.0
 92
        8
 66
     7
 43
1.0
 76
     1
 77
     6
 78
     2
 67
     7
 79
     5
170
     0
171
     0
290
     0
174
     0
 93
       13
 44
0.0
173
     0
291
     1
 45
0.0
1001
ACAD
1000
AcDbSavedByObjectVersion
1070
     0
  0
VISUALSTYLE
  5
B82B
102
{ACAD_XDICTIONARY
360
B885
102
}
102
{ACAD_REACTORS
330
B829
102
}
330
B829
100
AcDbVisualStyle
  2
FlatWithEdges
 70
     1
 71
     2
 72
     1
 73
     1
 90
        2
 40
-0.6
 41
30.0
 62
     5
 63
     7
 74
     1
 91
        0
 64
     7
 65
   257
 75
     1
175
     1
 42
1.0
 92
        0
 66
   257
 43
1.0
 76
     1
 77
     6
 78
     2
 67
     7
 79
     5
170
     0
171
     0
290
     0
174
     0
 93
       13
 44
0.0
173
     0
291
     1
 45
0.0
1001
ACAD
1000
AcDbSavedByObjectVersion
1070
     0
  0
VISUALSTYLE
  5
B82C
102
{ACAD_XDICTIONARY
360
B887
102
}
102
{ACAD_REACTORS
330
B829
102
}
330
B829
100
AcDbVisualStyle
  2
Gouraud
 70
     2
 71
     2
 72
     2
 73
     1
 90
        2
 40
-0.6
 41
30.0
 62
     5
 63
     7
 74
     0
 91
        0
 64
     7
 65
   257
 75
     1
175
     1
 42
1.0
 92
        0
 66
     7
 43
1.0
 76
     1
 77
     6
 78
     2
 67
     7
 79
     5
170
     0
171
     0
290
     0
174
     0
 93
       13
 44
0.0
173
     0
291
     1
 45
0.0
1001
ACAD
1000
AcDbSavedByObjectVersion
1070
     0
  0
VISUALSTYLE
  5
B82D
102
{ACAD_XDICTIONARY
360
B889
102
}
102
{ACAD_REACTORS
330
B829
102
}
330
B829
100
AcDbVisualStyle
  2
GouraudWithEdges
 70
     3
 71
     2
 72
     2
 73
     1
 90
        2
 40
-0.6
 41
30.0
 62
     5
 63
     7
 74
     1
 91
        0
 64
     7
 65
   257
 75
     1
175
     1
 42
1.0
 92
        0
 66
   257
 43
1.0
 76
     1
 77
     6
 78
     2
 67
     7
 79
     5
170
     0
171
     0
290
     0
174
     0
 93
       13
 44
0.0
173
     0
291
     1
 45
0.0
1001
ACAD
1000
AcDbSavedByObjectVersion
1070
     0
  0
VISUALSTYLE
  5
B831
102
{ACAD_XDICTIONARY
360
B891
102
}
102
{ACAD_REACTORS
330
B829
102
}
330
B829
100
AcDbVisualStyle
  2
Hidden
 70
     6
 71
     1
 72
     2
 73
     2
 90
        0
 40
-0.6
 41
-30.0
 62
     5
 63
     7
 74
     2
 91
        2
 64
     7
 65
   257
 75
     2
175
     1
 42
40.0
 92
        0
 66
   257
 43
1.0
 76
     1
 77
     6
 78
     2
 67
     7
 79
     3
170
     0
171
     0
290
     0
174
     0
 93
        1
 44
0.0
173
     0
291
     0
 45
0.0
1001
ACAD
1000
AcDbSavedByObjectVersion
1070
     0
  0
VISUALSTYLE
  5
B83F
102
{ACAD_XDICTIONARY
360
B8AD
102
}
102
{ACAD_REACTORS
330
B829
102
}
330
B829
100
AcDbVisualStyle
  2
JitterOff
 70
    20
 71
     2
 72
     2
 73
     0
 90
        0
 40
-0.6
 41
-30.0
 62
     5
 63
     7
 74
     1
 91
        4
 64
     7
 65
   257
 75
     1
175
     1
 42
1.0
 92
       10
 66
     7
 43
1.0
 76
     1
 77
     6
 78
     2
 67
     7
 79
     5
170
     0
171
     0
290
     0
174
     0
 93
        1
 44
0.0
173
     0
291
     1
 45
0.0
1001
ACAD
1000
AcDbSavedByObjectVersion
1070
     0
  0
VISUALSTYLE
  5
B837
102
{ACAD_XDICTIONARY
360
B89D
102
}
102
{ACAD_REACTORS
330
B829
102
}
330
B829
100
AcDbVisualStyle
  2
Linepattern
 70
    14
 71
     2
 72
     2
 73
     0
 90
        0
 40
-0.6
 41
-30.0
 62
     5
 63
     7
 74
     1
 91
        4
 64
     7
 65
   257
 75
     7
175
     7
 42
1.0
 92
        8
 66
     7
 43
1.0
 76
     1
 77
     6
 78
     2
 67
     7
 79
     5
170
     0
171
     0
290
     0
174
     0
 93
        1
 44
0.0
173
     0
291
     1
 45
0.0
1001
ACAD
1000
AcDbSavedByObjectVersion
1070
     0
  0
VISUALSTYLE
  5
B840
102
{ACAD_XDICTIONARY
360
B8AF
102
}
102
{ACAD_REACTORS
330
B829
102
}
330
B829
100
AcDbVisualStyle
  2
OverhangOff
 70
    21
 71
     2
 72
     2
 73
     0
 90
        0
 40
-0.6
 41
-30.0
 62
     5
 63
     7
 74
     1
 91
        4
 64
     7
 65
   257
 75
     1
175
     1
 42
1.0
 92
        9
 66
     7
 43
1.0
 76
     1
 77
     6
 78
     2
 67
     7
 79
     5
170
     0
171
     0
290
     0
174
     0
 93
        1
 44
0.0
173
     0
291
     1
 45
0.0
1001
ACAD
1000
AcDbSavedByObjectVersion
1070
     0
  0
VISUALSTYLE
  5
B833
102
{ACAD_XDICTIONARY
360
B895
102
}
102
{ACAD_REACTORS
330
B829
102
}
330
B829
100
AcDbVisualStyle
  2
Realistic
 70
     8
 71
     2
 72
     3
 73
     0
 90
        2
 40
-0.6
 41
30.0
 62
     5
 63
     7
 74
     0
 91
        0
 64
     7
 65
   257
 75
     1
175
     1
 42
1.0
 92
        8
 66
   257
 43
1.0
 76
     1
 77
     6
 78
     2
 67
     7
 79
     3
170
     0
171
     0
290
     0
174
     0
 93
       13
 44
0.0
173
     0
291
     0
 45
0.0
1001
ACAD
1000
AcDbSavedByObjectVersion
1070
     0
  0
VISUALSTYLE
  5
B83E
102
{ACAD_XDICTIONARY
360
B8AB
102
}
102
{ACAD_REACTORS
330
B829
102
}
330
B829
100
AcDbVisualStyle
  2
Shaded
 70
    27
 71
     2
 72
     2
 73
     1
 90
        2
 40
-0.6
 41
30.0
 62
     5
 63
     7
 74
     0
 91
        4
 64
     7
 65
   257
 75
     1
175
     1
 42
1.0
 92
        8
 66
   257
 43
1.0
 76
     1
 77
     6
 78
     2
 67
     8
 79
     3
170
     0
171
     0
290
     0
174
     0
 93
        5
 44
0.0
173
     0
291
     0
 45
0.0
1001
ACAD
1000
AcDbSavedByObjectVersion
1070
     0
  0
VISUALSTYLE
  5
B83D
102
{ACAD_XDICTIONARY
360
B8A9
102
}
102
{ACAD_REACTORS
330
B829
102
}
330
B829
100
AcDbVisualStyle
  2
Shaded with edges
 70
    26
 71
     2
 72
     2
 73
     1
 90
        2
 40
-0.6
 41
30.0
 62
     5
 63
     7
 74
     1
 91
       10
 64
     7
 65
   257
 75
     2
175
     1
 42
1.0
 92
        8
 66
   257
 43
1.0
 76
     1
 77
     6
 78
     2
 67
     7
 79
     3
170
     0
171
     0
290
     0
174
     0
 93
        5
 44
0.0
173
     0
291
     0
 45
0.0
1001
ACAD
1000
AcDbSavedByObjectVersion
1070
     0
  0
VISUALSTYLE
  5
B83A
102
{ACAD_XDICTIONARY
360
B8A3
102
}
102
{ACAD_REACTORS
330
B829
102
}
330
B829
100
AcDbVisualStyle
  2
Shades of Gray
 70
    23
 71
     2
 72
     2
 73
     3
 90
        0
 40
-0.6
 41
-30.0
 62
     5
 63
     7
 74
     2
 91
        2
 64
     7
 65
     7
 75
     1
175
     1
 42
40.0
 92
        8
 66
     7
 43
1.0
 76
     1
 77
     6
 78
     2
 67
     7
 79
     3
170
     0
171
     0
290
     0
174
     0
 93
        1
 44
0.0
173
     0
291
     0
 45
0.0
1001
ACAD
1000
AcDbSavedByObjectVersion
1070
     0
  0
VISUALSTYLE
  5
B83B
102
{ACAD_XDICTIONARY
360
B8A5
102
}
102
{ACAD_REACTORS
330
B829
102
}
330
B829
100
AcDbVisualStyle
  2
Sketchy
 70
    24
 71
     1
 72
     2
 73
     2
 90
        0
 40
-0.6
 41
-30.0
 62
     5
 63
     7
 74
     2
 91
        2
 64
     7
 65
     7
 75
     1
175
     1
 42
40.0
 92
       11
 66
     7
 43
1.0
 76
     1
 77
     6
 78
     2
 67
     7
 79
     6
170
     0
171
     0
290
     0
174
     0
 93
        1
 44
0.0
173
     0
291
     0
 45
0.0
1001
ACAD
1000
AcDbSavedByObjectVersion
1070
     0
  0
VISUALSTYLE
  5
B836
102
{ACAD_XDICTIONARY
360
B89B
102
}
102
{ACAD_REACTORS
330
B829
102
}
330
B829
100
AcDbVisualStyle
  2
Thicken
 70
    13
 71
     2
 72
     2
 73
     0
 90
        0
 40
-0.6
 41
-30.0
 62
     5
 63
     7
 74
     1
 91
        4
 64
     7
 65
   257
 75
     1
175
     1
 42
1.0
 92
       12
 66
     7
 43
1.0
 76
     1
 77
     6
 78
     2
 67
     7
 79
     5
170
     0
171
     0
290
     0
174
     0
 93
        1
 44
0.0
173
     0
291
     1
 45
0.0
1001
ACAD
1000
AcDbSavedByObjectVersion
1070
     0
  0
VISUALSTYLE
  5
B830
102
{ACAD_XDICTIONARY
360
B88F
102
}
102
{ACAD_REACTORS
330
B829
102
}
330
B829
100
AcDbVisualStyle
  2
Wireframe
 70
     5
 71
     0
 72
     2
 73
     0
 90
        0
 40
-0.6
 41
-30.0
 62
     5
 63
     7
 74
     1
 91
        4
 64
     7
 65
   257
 75
     1
175
     1
 42
1.0
 92
        0
 66
   257
 43
1.0
 76
     1
 77
     6
 78
     2
 67
     7
 79
     3
170
     0
171
     0
290
     0
174
     0
 93
        1
 44
0.0
173
     0
291
     0
 45
0.0
1001
ACAD
1000
AcDbSavedByObjectVersion
1070
     0
  0
VISUALSTYLE
  5
B83C
102
{ACAD_XDICTIONARY
360
B8A7
102
}
102
{ACAD_REACTORS
330
B829
102
}
330
B829
100
AcDbVisualStyle
  2
X-Ray
 70
    25
 71
     2
 72
     2
 73
     1
 90
        1
 40
0.5
 41
-30.0
 62
     5
 63
     7
 74
     1
 91
        0
 64
     7
 65
   257
 75
     1
175
     1
 42
1.0
 92
        8
 66
     7
 43
1.0
 76
     1
 77
     6
 78
     2
 67
     7
 79
     3
170
     0
171
     0
290
     0
174
     0
 93
       13
 44
0.0
173
     0
291
     0
 45
0.0
1001
ACAD
1000
AcDbSavedByObjectVersion
1070
     0
  0
DICTIONARYVAR
  5
B876
102
{ACAD_REACTORS
330
B871
102
}
330
B871
100
DictionaryVariables
280
     0
  1
1:1
  0
DICTIONARYVAR
  5
B873
102
{ACAD_REACTORS
330
B871
102
}
330
B871
100
DictionaryVariables
280
     0
  1
STANDARD
  0
DICTIONARYVAR
  5
B872
102
{ACAD_REACTORS
330
B871
102
}
330
B871
100
DictionaryVariables
280
     0
  1
STANDARD
  0
DICTIONARYVAR
  5
B874
102
{ACAD_REACTORS
330
B871
102
}
330
B871
100
DictionaryVariables
280
     0
  1
Imperial24
  0
DICTIONARYVAR
  5
B875
102
{ACAD_REACTORS
330
B871
102
}
330
B871
100
DictionaryVariables
280
     0
  1
Imperial24
  0
DICTIONARYVAR
  5
B879
102
{ACAD_REACTORS
330
B871
102
}
330
B871
100
DictionaryVariables
280
     0
  1
1
  0
DICTIONARYVAR
  5
B878
102
{ACAD_REACTORS
330
B871
102
}
330
B871
100
DictionaryVariables
280
     0
  1
0
  0
DICTIONARYVAR
  5
B877
102
{ACAD_REACTORS
330
B871
102
}
330
B871
100
DictionaryVariables
280
     0
  1
127
  0
DICTIONARYVAR
  5
B87A
102
{ACAD_REACTORS
330
B871
102
}
330
B871
100
DictionaryVariables
280
     0
  1
2
  0
DICTIONARY
  5
B8B7
330
B85C
100
AcDbDictionary
280
     1
281
     1
  3
ACAD_XREC_ROUNDTRIP
360
B8B8
  0
DICTIONARY
  5
B8B9
330
B85D
100
AcDbDictionary
280
     1
281
     1
  3
ACAD_XREC_ROUNDTRIP
360
B8BA
  0
DICTIONARY
  5
B8BB
330
B85E
100
AcDbDictionary
280
     1
281
     1
  3
ACAD_XREC_ROUNDTRIP
360
B8BC
  0
DICTIONARY
  5
B81A
330
B819
100
AcDbDictionary
280
     1
281
     1
  3
ACAD_XREC_ROUNDTRIP
360
B881
  3
BUMPTILE
360
B81C
  3
DIFFUSETILE
360
B81B
  3
OPACITYTILE
360
B81F
  3
REFLECTIONTILE
360
B81E
  3
REFRACTIONTILE
360
B820
  3
SPECULARTILE
360
B81D
  0
DICTIONARY
  5
B812
330
B811
100
AcDbDictionary
280
     1
281
     1
  3
ACAD_XREC_ROUNDTRIP
360
B880
  3
BUMPTILE
360
B814
  3
DIFFUSETILE
360
B813
  3
OPACITYTILE
360
B817
  3
REFLECTIONTILE
360
B816
  3
REFRACTIONTILE
360
B818
  3
SPECULARTILE
360
B815
  0
DICTIONARY
  5
B822
330
B821
100
AcDbDictionary
280
     1
281
     1
  3
ACAD_XREC_ROUNDTRIP
360
B882
  3
BUMPTILE
360
B824
  3
DIFFUSETILE
360
B823
  3
OPACITYTILE
360
B827
  3
REFLECTIONTILE
360
B826
  3
REFRACTIONTILE
360
B828
  3
SPECULARTILE
360
B825
  0
DICTIONARY
  5
B8B5
330
B85A
100
AcDbDictionary
280
     1
281
     1
  3
ACAD_XREC_ROUNDTRIP
360
B8B6
  0
DICTIONARY
  5
B87C
330
B844
100
AcDbDictionary
280
     1
281
     1
  3
ACAD_ROUNDTRIP_2008_TABLESTYLE_CELLSTYLEMAP
360
B87D
  3
ACAD_XREC_ROUNDTRIP
360
B8B3
  0
DICTIONARY
  5
B88D
330
B82F
100
AcDbDictionary
280
     1
281
     1
  3
ACAD_XREC_ROUNDTRIP
360
B88E
  0
DICTIONARY
  5
B88B
330
B82E
100
AcDbDictionary
280
     1
281
     1
  3
ACAD_XREC_ROUNDTRIP
360
B88C
  0
DICTIONARY
  5
B899
330
B835
100
AcDbDictionary
280
     1
281
     1
  3
ACAD_XREC_ROUNDTRIP
360
B89A
  0
DICTIONARY
  5
B8A1
330
B839
100
AcDbDictionary
280
     1
281
     1
  3
ACAD_XREC_ROUNDTRIP
360
B8A2
  0
DICTIONARY
  5
B893
330
B832
100
AcDbDictionary
280
     1
281
     1
  3
ACAD_XREC_ROUNDTRIP
360
B894
  0
DICTIONARY
  5
B897
330
B834
100
AcDbDictionary
280
     1
281
     1
  3
ACAD_XREC_ROUNDTRIP
360
B898
  0
DICTIONARY
  5
B8B1
330
B841
100
AcDbDictionary
280
     1
281
     1
  3
ACAD_XREC_ROUNDTRIP
360
B8B2
  0
DICTIONARY
  5
B89F
330
B838
100
AcDbDictionary
280
     1
281
     1
  3
ACAD_XREC_ROUNDTRIP
360
B8A0
  0
DICTIONARY
  5
B883
330
B82A
100
AcDbDictionary
280
     1
281
     1
  3
ACAD_XREC_ROUNDTRIP
360
B884
  0
DICTIONARY
  5
B885
330
B82B
100
AcDbDictionary
280
     1
281
     1
  3
ACAD_XREC_ROUNDTRIP
360
B886
  0
DICTIONARY
  5
B887
330
B82C
100
AcDbDictionary
280
     1
281
     1
  3
ACAD_XREC_ROUNDTRIP
360
B888
  0
DICTIONARY
  5
B889
330
B82D
100
AcDbDictionary
280
     1
281
     1
  3
ACAD_XREC_ROUNDTRIP
360
B88A
  0
DICTIONARY
  5
B891
330
B831
100
AcDbDictionary
280
     1
281
     1
  3
ACAD_XREC_ROUNDTRIP
360
B892
  0
DICTIONARY
  5
B8AD
330
B83F
100
AcDbDictionary
280
     1
281
     1
  3
ACAD_XREC_ROUNDTRIP
360
B8AE
  0
DICTIONARY
  5
B89D
330
B837
100
AcDbDictionary
280
     1
281
     1
  3
ACAD_XREC_ROUNDTRIP
360
B89E
  0
DICTIONARY
  5
B8AF
330
B840
100
AcDbDictionary
280
     1
281
     1
  3
ACAD_XREC_ROUNDTRIP
360
B8B0
  0
DICTIONARY
  5
B895
330
B833
100
AcDbDictionary
280
     1
281
     1
  3
ACAD_XREC_ROUNDTRIP
360
B896
  0
DICTIONARY
  5
B8AB
330
B83E
100
AcDbDictionary
280
     1
281
     1
  3
ACAD_XREC_ROUNDTRIP
360
B8AC
  0
DICTIONARY
  5
B8A9
330
B83D
100
AcDbDictionary
280
     1
281
     1
  3
ACAD_XREC_ROUNDTRIP
360
B8AA
  0
DICTIONARY
  5
B8A3
330
B83A
100
AcDbDictionary
280
     1
281
     1
  3
ACAD_XREC_ROUNDTRIP
360
B8A4
  0
DICTIONARY
  5
B8A5
330
B83B
100
AcDbDictionary
280
     1
281
     1
  3
ACAD_XREC_ROUNDTRIP
360
B8A6
  0
DICTIONARY
  5
B89B
330
B836
100
AcDbDictionary
280
     1
281
     1
  3
ACAD_XREC_ROUNDTRIP
360
B89C
  0
DICTIONARY
  5
B88F
330
B830
100
AcDbDictionary
280
     1
281
     1
  3
ACAD_XREC_ROUNDTRIP
360
B890
  0
DICTIONARY
  5
B8A7
330
B83C
100
AcDbDictionary
280
     1
281
     1
  3
ACAD_XREC_ROUNDTRIP
360
B8A8
  0
XRECORD
  5
B8B8
102
{ACAD_REACTORS
330
B8B7
102
}
330
B8B7
100
AcDbXrecord
280
     1
102
DISPLAYNAME
  1
Imperial24
102
FLAGS
 90
        0
  0
XRECORD
  5
B8BA
102
{ACAD_REACTORS
330
B8B9
102
}
330
B8B9
100
AcDbXrecord
280
     1
102
SHADEPLOT
 70
     0
102
SHADEPLOTRESLEVEL
 70
     2
102
SHADEPLOTCUSTOMDPI
 70
   300
  0
XRECORD
  5
B8BC
102
{ACAD_REACTORS
330
B8BB
102
}
330
B8BB
100
AcDbXrecord
280
     1
102
SHADEPLOT
 70
     0
102
SHADEPLOTRESLEVEL
 70
     2
102
SHADEPLOTCUSTOMDPI
 70
   300
  0
XRECORD
  5
B881
102
{ACAD_REACTORS
330
B81A
102
}
330
B81A
100
AcDbXrecord
280
     1
102
MATERIAL
148
0.0
149
0.0
149
0.0
 93
        0
 94
      127
282
     0
 72
     0
 77
     0
171
     0
175
     0
179
     0
273
     0
  0
XRECORD
  5
B81C
102
{ACAD_REACTORS
330
B81A
102
}
330
B81A
100
AcDbXrecord
280
     1
270
     1
271
     1
  0
XRECORD
  5
B81B
102
{ACAD_REACTORS
330
B81A
102
}
330
B81A
100
AcDbXrecord
280
     1
270
     1
271
     1
  0
XRECORD
  5
B81F
102
{ACAD_REACTORS
330
B81A
102
}
330
B81A
100
AcDbXrecord
280
     1
270
     1
271
     1
  0
XRECORD
  5
B81E
102
{ACAD_REACTORS
330
B81A
102
}
330
B81A
100
AcDbXrecord
280
     1
270
     1
271
     1
  0
XRECORD
  5
B820
102
{ACAD_REACTORS
330
B81A
102
}
330
B81A
100
AcDbXrecord
280
     1
270
     1
271
     1
  0
XRECORD
  5
B81D
102
{ACAD_REACTORS
330
B81A
102
}
330
B81A
100
AcDbXrecord
280
     1
270
     1
271
     1
  0
XRECORD
  5
B880
102
{ACAD_REACTORS
330
B812
102
}
330
B812
100
AcDbXrecord
280
     1
102
MATERIAL
148
0.0
149
0.0
149
0.0
 93
        0
 94
      127
282
     0
 72
     0
 77
     0
171
     0
175
     0
179
     0
273
     0
  0
XRECORD
  5
B814
102
{ACAD_REACTORS
330
B812
102
}
330
B812
100
AcDbXrecord
280
     1
270
     1
271
     1
  0
XRECORD
  5
B813
102
{ACAD_REACTORS
330
B812
102
}
330
B812
100
AcDbXrecord
280
     1
270
     1
271
     1
  0
XRECORD
  5
B817
102
{ACAD_REACTORS
330
B812
102
}
330
B812
100
AcDbXrecord
280
     1
270
     1
271
     1
  0
XRECORD
  5
B816
102
{ACAD_REACTORS
330
B812
102
}
330
B812
100
AcDbXrecord
280
     1
270
     1
271
     1
  0
XRECORD
  5
B818
102
{ACAD_REACTORS
330
B812
102
}
330
B812
100
AcDbXrecord
280
     1
270
     1
271
     1
  0
XRECORD
  5
B815
102
{ACAD_REACTORS
330
B812
102
}
330
B812
100
AcDbXrecord
280
     1
270
     1
271
     1
  0
XRECORD
  5
B882
102
{ACAD_REACTORS
330
B822
102
}
330
B822
100
AcDbXrecord
280
     1
102
MATERIAL
148
0.0
149
0.0
149
0.0
 93
        0
 94
      127
282
     0
 72
     0
 77
     0
171
     0
175
     0
179
     0
273
     0
  0
XRECORD
  5
B824
102
{ACAD_REACTORS
330
B822
102
}
330
B822
100
AcDbXrecord
280
     1
270
     1
271
     1
  0
XRECORD
  5
B823
102
{ACAD_REACTORS
330
B822
102
}
330
B822
100
AcDbXrecord
280
     1
270
     1
271
     1
  0
XRECORD
  5
B827
102
{ACAD_REACTORS
330
B822
102
}
330
B822
100
AcDbXrecord
280
     1
270
     1
271
     1
  0
XRECORD
  5
B826
102
{ACAD_REACTORS
330
B822
102
}
330
B822
100
AcDbXrecord
280
     1
270
     1
271
     1
  0
XRECORD
  5
B828
102
{ACAD_REACTORS
330
B822
102
}
330
B822
100
AcDbXrecord
280
     1
270
     1
271
     1
  0
XRECORD
  5
B825
102
{ACAD_REACTORS
330
B822
102
}
330
B822
100
AcDbXrecord
280
     1
270
     1
271
     1
  0
XRECORD
  5
B8B6
102
{ACAD_REACTORS
330
B8B5
102
}
330
B8B5
100
AcDbXrecord
280
     1
102
DISPLAYNAME
  1
Imperial24
102
FLAGS
 90
        0
  0
CELLSTYLEMAP
  5
B87D
102
{ACAD_REACTORS
330
B87C
102
}
330
B87C
100
AcDbCellStyleMap
 90
        3
300
CELLSTYLE
  1
TABLEFORMAT_BEGIN
 90
        5
170
     1
 91
        0
 92
    32768
 62
   257
 93
        1
300
CONTENTFORMAT
  1
CONTENTFORMAT_BEGIN
 90
        0
 91
        0
 92
      512
 93
        0
300

 40
0.0
140
1.0
 94
        5
 62
     0
340
B50C
144
0.25
309
CONTENTFORMAT_END
171
     0
 94
        0
309
TABLEFORMAT_END
  1
CELLSTYLE_BEGIN
 90
        1
 91
        1
300
_TITLE
309
CELLSTYLE_END
300
CELLSTYLE
  1
TABLEFORMAT_BEGIN
 90
        5
170
     1
 91
        0
 92
        0
 62
   257
 93
        1
300
CONTENTFORMAT
  1
CONTENTFORMAT_BEGIN
 90
        0
 91
        0
 92
      512
 93
        0
300

 40
0.0
140
1.0
 94
        5
 62
     0
340
B50C
144
0.18
309
CONTENTFORMAT_END
171
     0
 94
        0
309
TABLEFORMAT_END
  1
CELLSTYLE_BEGIN
 90
        2
 91
        1
300
_HEADER
309
CELLSTYLE_END
300
CELLSTYLE
  1
TABLEFORMAT_BEGIN
 90
        5
170
     1
 91
        0
 92
        0
 62
   257
 93
        1
300
CONTENTFORMAT
  1
CONTENTFORMAT_BEGIN
 90
        0
 91
        0
 92
      512
 93
        0
300

 40
0.0
140
1.0
 94
        2
 62
     0
340
B50C
144
0.18
309
CONTENTFORMAT_END
171
     0
 94
        0
309
TABLEFORMAT_END
  1
CELLSTYLE_BEGIN
 90
        3
 91
        2
300
_DATA
309
CELLSTYLE_END
  0
XRECORD
  5
B8B3
102
{ACAD_REACTORS
330
B87C
102
}
330
B87C
100
AcDbXrecord
280
     1
102
ACAD_ROUNDTRIP_PRE2007_TABLESTYLE
 90
      512
 91
        0
  1

 92
      512
 93
        0
  2

 94
      512
 95
        0
  3

  0
XRECORD
  5
B88E
102
{ACAD_REACTORS
330
B88D
102
}
330
B88D
100
AcDbXrecord
280
     1
102
RTVSPost2010Prop28
280
     1
102
RTVSPost2010PropOp28
 70
     1
102
RTVSPost2010Prop29
280
     1
102
RTVSPost2010PropOp29
 70
     1
102
RTVSPost2010Prop30
280
     0
102
RTVSPost2010PropOp30
 70
     1
102
RTVSPost2010Prop31
280
     0
102
RTVSPost2010PropOp31
 70
     1
102
RTVSPost2010Prop32
280
     0
102
RTVSPost2010PropOp32
 70
     1
102
RTVSPost2010Prop33
280
     0
102
RTVSPost2010PropOp33
 70
     1
102
RTVSPost2010Prop34
280
     0
102
RTVSPost2010PropOp34
 70
     1
102
RTVSPost2010Prop35
280
     0
102
RTVSPost2010PropOp35
 70
     1
102
RTVSPost2010Prop36
280
     0
102
RTVSPost2010PropOp36
 70
     1
102
RTVSPost2010Prop37
 90
       50
102
RTVSPost2010PropOp37
 70
     1
102
RTVSPost2010Prop38
140
0.0
102
RTVSPost2010PropOp38
 70
     1
102
RTVSPost2010Prop39
140
1.0
102
RTVSPost2010PropOp39
 70
     1
102
RTVSPost2010Prop40
 90
        0
102
RTVSPost2010PropOp40
 70
     1
102
RTVSPost2010Prop41ColorIndex
 90
       18
102
RTVSPost2010Prop41ColorRGB
 90
        0
102
RTVSPost2010PropOp41
 70
     1
102
RTVSPost2010Prop42
 90
       50
102
RTVSPost2010PropOp42
 70
     1
102
RTVSPost2010Prop43
 90
        3
102
RTVSPost2010PropOp43
 70
     1
102
RTVSPost2010Prop44ColorIndex
 90
        5
102
RTVSPost2010Prop44ColorRGB
 90
      255
102
RTVSPost2010PropOp44
 70
     1
102
RTVSPost2010Prop45
280
     0
102
RTVSPost2010PropOp45
 70
     1
102
RTVSPost2010Prop46
 90
       50
102
RTVSPost2010PropOp46
 70
     1
102
RTVSPost2010Prop47
 90
       50
102
RTVSPost2010PropOp47
 70
     1
102
RTVSPost2010Prop48
 90
       50
102
RTVSPost2010PropOp48
 70
     1
102
RTVSPost2010Prop49
280
     0
102
RTVSPost2010PropOp49
 70
     1
102
RTVSPost2010Prop50
 90
       50
102
RTVSPost2010PropOp50
 70
     1
102
RTVSPost2010Prop51ColorIndex
 90
      256
102
RTVSPost2010Prop51ColorRGB
 90
-16777216
102
RTVSPost2010PropOp51
 70
     0
102
RTVSPost2010Prop52
140
1.0
102
RTVSPost2010PropOp52
 70
     0
102
RTVSPost2010Prop53
 90
        2
102
RTVSPost2010PropOp53
 70
     1
102
RTVSPost2010Prop54
  1
strokes_ogs.tif
102
RTVSPost2010PropOp54
 70
     1
102
RTVSPost2010Prop55
280
     0
102
RTVSPost2010PropOp55
 70
     1
102
RTVSPost2010Prop56
140
1.0
102
RTVSPost2010PropOp56
 70
     1
102
RTVSPost2010Prop57
140
1.0
102
RTVSPost2010PropOp57
 70
     1
102
RTVSPropertyOp0
 70
     1
102
RTVSPropertyOp1
 70
     1
102
RTVSPropertyOp2
 70
     1
102
RTVSPropertyOp3
 70
     1
102
RTVSPropertyOp4
 70
     1
102
RTVSPropertyOp5
 70
     1
102
RTVSPropertyOp6
 70
     1
102
RTVSPropertyOp7
 70
     1
102
RTVSPropertyOp8
 70
     1
102
RTVSPropertyOp9
 70
     1
102
RTVSPropertyOp10
 70
     1
102
RTVSPropertyOp11
 70
     1
102
RTVSPropertyOp12
 70
     1
102
RTVSPropertyOp13
 70
     1
102
RTVSPropertyOp14
 70
     1
102
RTVSPropertyOp15
 70
     1
102
RTVSPropertyOp16
 70
     1
102
RTVSPropertyOp17
 70
     1
102
RTVSPropertyOp18
 70
     1
102
RTVSPropertyOp19
 70
     1
102
RTVSPropertyOp20
 70
     1
102
RTVSPropertyOp21
 70
     1
102
RTVSPropertyOp22
 70
     1
102
RTVSPropertyOp23
 70
     1
102
RTVSPropertyOp24
 70
     1
102
RTVSPropertyOp25
 70
     1
102
RTVSPropertyOp26
 70
     1
102
RTVSPropertyOp27
 70
     1
102
RTVSPropertyOp28
 70
     1
102
RTVSPropertyOp29
 70
     1
102
RTVSPropertyOp30
 70
     1
102
RTVSPropertyOp31
 70
     1
102
RTVSPropertyOp32
 70
     1
102
RTVSPropertyOp33
 70
     1
102
RTVSPropertyOp34
 70
     1
102
RTVSPropertyOp35
 70
     1
102
RTVSPropertyOp36
 70
     1
102
RTVSPropertyOp37
 70
     1
102
RTVSPropertyOp38
 70
     1
102
RTVSPropertyOp39
 70
     1
102
RTVSPropertyOp40
 70
     1
102
RTVSPropertyOp41
 70
     1
102
RTVSPropertyOp42
 70
     1
102
RTVSPropertyOp43
 70
     1
102
RTVSPropertyOp44
 70
     1
102
RTVSPropertyOp45
 70
     1
102
RTVSPropertyOp46
 70
     1
102
RTVSPropertyOp47
 70
     1
102
RTVSPropertyOp48
 70
     1
102
RTVSPropertyOp49
 70
     1
102
RTVSPropertyOp50
 70
     1
102
RTVSPropertyOp51
 70
     0
102
RTVSPropertyOp52
 70
     0
102
RTVSPropertyOp53
 70
     1
102
RTVSPropertyOp54
 70
     1
102
RTVSPropertyOp55
 70
     1
102
RTVSPropertyOp56
 70
     1
102
RTVSPropertyOp57
 70
     1
102
RTVSPropertyOp58
 70
     1
102
RTVSPropertyOp59
 70
     1
102
RTVSPropertyOp60
 70
     1
102
RTVSPropertyOp61
 70
     1
102
RTVSPropertyOp62
 70
     1
  0
XRECORD
  5
B88C
102
{ACAD_REACTORS
330
B88B
102
}
330
B88B
100
AcDbXrecord
280
     1
102
RTVSPost2010Prop28
280
     0
102
RTVSPost2010PropOp28
 70
     1
102
RTVSPost2010Prop29
280
     1
102
RTVSPost2010PropOp29
 70
     1
102
RTVSPost2010Prop30
280
     1
102
RTVSPost2010PropOp30
 70
     1
102
RTVSPost2010Prop31
280
     0
102
RTVSPost2010PropOp31
 70
     1
102
RTVSPost2010Prop32
280
     0
102
RTVSPost2010PropOp32
 70
     1
102
RTVSPost2010Prop33
280
     0
102
RTVSPost2010PropOp33
 70
     1
102
RTVSPost2010Prop34
280
     0
102
RTVSPost2010PropOp34
 70
     1
102
RTVSPost2010Prop35
280
     0
102
RTVSPost2010PropOp35
 70
     1
102
RTVSPost2010Prop36
280
     0
102
RTVSPost2010PropOp36
 70
     1
102
RTVSPost2010Prop37
 90
       50
102
RTVSPost2010PropOp37
 70
     1
102
RTVSPost2010Prop38
140
0.0
102
RTVSPost2010PropOp38
 70
     1
102
RTVSPost2010Prop39
140
1.0
102
RTVSPost2010PropOp39
 70
     1
102
RTVSPost2010Prop40
 90
        0
102
RTVSPost2010PropOp40
 70
     1
102
RTVSPost2010Prop41ColorIndex
 90
       18
102
RTVSPost2010Prop41ColorRGB
 90
        0
102
RTVSPost2010PropOp41
 70
     1
102
RTVSPost2010Prop42
 90
       50
102
RTVSPost2010PropOp42
 70
     1
102
RTVSPost2010Prop43
 90
        3
102
RTVSPost2010PropOp43
 70
     1
102
RTVSPost2010Prop44ColorIndex
 90
        5
102
RTVSPost2010Prop44ColorRGB
 90
      255
102
RTVSPost2010PropOp44
 70
     1
102
RTVSPost2010Prop45
280
     0
102
RTVSPost2010PropOp45
 70
     1
102
RTVSPost2010Prop46
 90
       50
102
RTVSPost2010PropOp46
 70
     1
102
RTVSPost2010Prop47
 90
       50
102
RTVSPost2010PropOp47
 70
     1
102
RTVSPost2010Prop48
 90
       50
102
RTVSPost2010PropOp48
 70
     1
102
RTVSPost2010Prop49
280
     0
102
RTVSPost2010PropOp49
 70
     1
102
RTVSPost2010Prop50
 90
       50
102
RTVSPost2010PropOp50
 70
     1
102
RTVSPost2010Prop51ColorIndex
 90
      256
102
RTVSPost2010Prop51ColorRGB
 90
-16777216
102
RTVSPost2010PropOp51
 70
     0
102
RTVSPost2010Prop52
140
1.0
102
RTVSPost2010PropOp52
 70
     0
102
RTVSPost2010Prop53
 90
        2
102
RTVSPost2010PropOp53
 70
     1
102
RTVSPost2010Prop54
  1
strokes_ogs.tif
102
RTVSPost2010PropOp54
 70
     1
102
RTVSPost2010Prop55
280
     0
102
RTVSPost2010PropOp55
 70
     1
102
RTVSPost2010Prop56
140
1.0
102
RTVSPost2010PropOp56
 70
     1
102
RTVSPost2010Prop57
140
1.0
102
RTVSPost2010PropOp57
 70
     1
102
RTVSPropertyOp0
 70
     1
102
RTVSPropertyOp1
 70
     1
102
RTVSPropertyOp2
 70
     1
102
RTVSPropertyOp3
 70
     1
102
RTVSPropertyOp4
 70
     1
102
RTVSPropertyOp5
 70
     1
102
RTVSPropertyOp6
 70
     1
102
RTVSPropertyOp7
 70
     1
102
RTVSPropertyOp8
 70
     1
102
RTVSPropertyOp9
 70
     1
102
RTVSPropertyOp10
 70
     1
102
RTVSPropertyOp11
 70
     1
102
RTVSPropertyOp12
 70
     1
102
RTVSPropertyOp13
 70
     1
102
RTVSPropertyOp14
 70
     1
102
RTVSPropertyOp15
 70
     1
102
RTVSPropertyOp16
 70
     1
102
RTVSPropertyOp17
 70
     1
102
RTVSPropertyOp18
 70
     1
102
RTVSPropertyOp19
 70
     1
102
RTVSPropertyOp20
 70
     1
102
RTVSPropertyOp21
 70
     1
102
RTVSPropertyOp22
 70
     1
102
RTVSPropertyOp23
 70
     1
102
RTVSPropertyOp24
 70
     1
102
RTVSPropertyOp25
 70
     1
102
RTVSPropertyOp26
 70
     1
102
RTVSPropertyOp27
 70
     1
102
RTVSPropertyOp28
 70
     1
102
RTVSPropertyOp29
 70
     1
102
RTVSPropertyOp30
 70
     1
102
RTVSPropertyOp31
 70
     1
102
RTVSPropertyOp32
 70
     1
102
RTVSPropertyOp33
 70
     1
102
RTVSPropertyOp34
 70
     1
102
RTVSPropertyOp35
 70
     1
102
RTVSPropertyOp36
 70
     1
102
RTVSPropertyOp37
 70
     1
102
RTVSPropertyOp38
 70
     1
102
RTVSPropertyOp39
 70
     1
102
RTVSPropertyOp40
 70
     1
102
RTVSPropertyOp41
 70
     1
102
RTVSPropertyOp42
 70
     1
102
RTVSPropertyOp43
 70
     1
102
RTVSPropertyOp44
 70
     1
102
RTVSPropertyOp45
 70
     1
102
RTVSPropertyOp46
 70
     1
102
RTVSPropertyOp47
 70
     1
102
RTVSPropertyOp48
 70
     1
102
RTVSPropertyOp49
 70
     1
102
RTVSPropertyOp50
 70
     1
102
RTVSPropertyOp51
 70
     0
102
RTVSPropertyOp52
 70
     0
102
RTVSPropertyOp53
 70
     1
102
RTVSPropertyOp54
 70
     1
102
RTVSPropertyOp55
 70
     1
102
RTVSPropertyOp56
 70
     1
102
RTVSPropertyOp57
 70
     1
102
RTVSPropertyOp58
 70
     1
102
RTVSPropertyOp59
 70
     1
102
RTVSPropertyOp60
 70
     1
102
RTVSPropertyOp61
 70
     1
102
RTVSPropertyOp62
 70
     1
  0
XRECORD
  5
B89A
102
{ACAD_REACTORS
330
B899
102
}
330
B899
100
AcDbXrecord
280
     1
102
RTVSPost2010Prop28
280
     0
102
RTVSPost2010PropOp28
 70
     1
102
RTVSPost2010Prop29
280
     1
102
RTVSPost2010PropOp29
 70
     1
102
RTVSPost2010Prop30
280
     1
102
RTVSPost2010PropOp30
 70
     1
102
RTVSPost2010Prop31
280
     0
102
RTVSPost2010PropOp31
 70
     1
102
RTVSPost2010Prop32
280
     0
102
RTVSPost2010PropOp32
 70
     1
102
RTVSPost2010Prop33
280
     0
102
RTVSPost2010PropOp33
 70
     1
102
RTVSPost2010Prop34
280
     0
102
RTVSPost2010PropOp34
 70
     1
102
RTVSPost2010Prop35
280
     0
102
RTVSPost2010PropOp35
 70
     1
102
RTVSPost2010Prop36
280
     0
102
RTVSPost2010PropOp36
 70
     1
102
RTVSPost2010Prop37
 90
       50
102
RTVSPost2010PropOp37
 70
     1
102
RTVSPost2010Prop38
140
0.0
102
RTVSPost2010PropOp38
 70
     1
102
RTVSPost2010Prop39
140
1.0
102
RTVSPost2010PropOp39
 70
     1
102
RTVSPost2010Prop40
 90
        0
102
RTVSPost2010PropOp40
 70
     1
102
RTVSPost2010Prop41ColorIndex
 90
       18
102
RTVSPost2010Prop41ColorRGB
 90
        0
102
RTVSPost2010PropOp41
 70
     1
102
RTVSPost2010Prop42
 90
       50
102
RTVSPost2010PropOp42
 70
     1
102
RTVSPost2010Prop43
 90
        3
102
RTVSPost2010PropOp43
 70
     1
102
RTVSPost2010Prop44ColorIndex
 90
        5
102
RTVSPost2010Prop44ColorRGB
 90
      255
102
RTVSPost2010PropOp44
 70
     1
102
RTVSPost2010Prop45
280
     0
102
RTVSPost2010PropOp45
 70
     1
102
RTVSPost2010Prop46
 90
       50
102
RTVSPost2010PropOp46
 70
     1
102
RTVSPost2010Prop47
 90
       50
102
RTVSPost2010PropOp47
 70
     1
102
RTVSPost2010Prop48
 90
       50
102
RTVSPost2010PropOp48
 70
     1
102
RTVSPost2010Prop49
280
     0
102
RTVSPost2010PropOp49
 70
     1
102
RTVSPost2010Prop50
 90
       50
102
RTVSPost2010PropOp50
 70
     1
102
RTVSPost2010Prop51ColorIndex
 90
      256
102
RTVSPost2010Prop51ColorRGB
 90
-16777216
102
RTVSPost2010PropOp51
 70
     0
102
RTVSPost2010Prop52
140
1.0
102
RTVSPost2010PropOp52
 70
     0
102
RTVSPost2010Prop53
 90
        2
102
RTVSPost2010PropOp53
 70
     1
102
RTVSPost2010Prop54
  1
strokes_ogs.tif
102
RTVSPost2010PropOp54
 70
     1
102
RTVSPost2010Prop55
280
     0
102
RTVSPost2010PropOp55
 70
     1
102
RTVSPost2010Prop56
140
1.0
102
RTVSPost2010PropOp56
 70
     1
102
RTVSPost2010Prop57
140
1.0
102
RTVSPost2010PropOp57
 70
     1
102
RTVSPropertyOp0
 70
     1
102
RTVSPropertyOp1
 70
     1
102
RTVSPropertyOp2
 70
     1
102
RTVSPropertyOp3
 70
     1
102
RTVSPropertyOp4
 70
     1
102
RTVSPropertyOp5
 70
     1
102
RTVSPropertyOp6
 70
     1
102
RTVSPropertyOp7
 70
     1
102
RTVSPropertyOp8
 70
     1
102
RTVSPropertyOp9
 70
     1
102
RTVSPropertyOp10
 70
     1
102
RTVSPropertyOp11
 70
     1
102
RTVSPropertyOp12
 70
     1
102
RTVSPropertyOp13
 70
     1
102
RTVSPropertyOp14
 70
     1
102
RTVSPropertyOp15
 70
     1
102
RTVSPropertyOp16
 70
     1
102
RTVSPropertyOp17
 70
     1
102
RTVSPropertyOp18
 70
     1
102
RTVSPropertyOp19
 70
     1
102
RTVSPropertyOp20
 70
     1
102
RTVSPropertyOp21
 70
     1
102
RTVSPropertyOp22
 70
     1
102
RTVSPropertyOp23
 70
     1
102
RTVSPropertyOp24
 70
     1
102
RTVSPropertyOp25
 70
     1
102
RTVSPropertyOp26
 70
     1
102
RTVSPropertyOp27
 70
     1
102
RTVSPropertyOp28
 70
     1
102
RTVSPropertyOp29
 70
     1
102
RTVSPropertyOp30
 70
     1
102
RTVSPropertyOp31
 70
     1
102
RTVSPropertyOp32
 70
     1
102
RTVSPropertyOp33
 70
     1
102
RTVSPropertyOp34
 70
     1
102
RTVSPropertyOp35
 70
     1
102
RTVSPropertyOp36
 70
     1
102
RTVSPropertyOp37
 70
     1
102
RTVSPropertyOp38
 70
     1
102
RTVSPropertyOp39
 70
     1
102
RTVSPropertyOp40
 70
     1
102
RTVSPropertyOp41
 70
     1
102
RTVSPropertyOp42
 70
     1
102
RTVSPropertyOp43
 70
     1
102
RTVSPropertyOp44
 70
     1
102
RTVSPropertyOp45
 70
     1
102
RTVSPropertyOp46
 70
     1
102
RTVSPropertyOp47
 70
     1
102
RTVSPropertyOp48
 70
     1
102
RTVSPropertyOp49
 70
     1
102
RTVSPropertyOp50
 70
     1
102
RTVSPropertyOp51
 70
     0
102
RTVSPropertyOp52
 70
     0
102
RTVSPropertyOp53
 70
     1
102
RTVSPropertyOp54
 70
     1
102
RTVSPropertyOp55
 70
     1
102
RTVSPropertyOp56
 70
     1
102
RTVSPropertyOp57
 70
     1
102
RTVSPropertyOp58
 70
     1
102
RTVSPropertyOp59
 70
     1
102
RTVSPropertyOp60
 70
     1
102
RTVSPropertyOp61
 70
     1
102
RTVSPropertyOp62
 70
     1
  0
XRECORD
  5
B8A2
102
{ACAD_REACTORS
330
B8A1
102
}
330
B8A1
100
AcDbXrecord
280
     1
102
RTVSPost2010Prop28
280
     0
102
RTVSPost2010PropOp28
 70
     1
102
RTVSPost2010Prop29
280
     1
102
RTVSPost2010PropOp29
 70
     1
102
RTVSPost2010Prop30
280
     1
102
RTVSPost2010PropOp30
 70
     1
102
RTVSPost2010Prop31
280
     0
102
RTVSPost2010PropOp31
 70
     1
102
RTVSPost2010Prop32
280
     0
102
RTVSPost2010PropOp32
 70
     1
102
RTVSPost2010Prop33
280
     0
102
RTVSPost2010PropOp33
 70
     1
102
RTVSPost2010Prop34
280
     0
102
RTVSPost2010PropOp34
 70
     1
102
RTVSPost2010Prop35
280
     0
102
RTVSPost2010PropOp35
 70
     1
102
RTVSPost2010Prop36
280
     0
102
RTVSPost2010PropOp36
 70
     1
102
RTVSPost2010Prop37
 90
       50
102
RTVSPost2010PropOp37
 70
     1
102
RTVSPost2010Prop38
140
0.0
102
RTVSPost2010PropOp38
 70
     1
102
RTVSPost2010Prop39
140
1.0
102
RTVSPost2010PropOp39
 70
     1
102
RTVSPost2010Prop40
 90
        0
102
RTVSPost2010PropOp40
 70
     1
102
RTVSPost2010Prop41ColorIndex
 90
       18
102
RTVSPost2010Prop41ColorRGB
 90
        0
102
RTVSPost2010PropOp41
 70
     1
102
RTVSPost2010Prop42
 90
       50
102
RTVSPost2010PropOp42
 70
     1
102
RTVSPost2010Prop43
 90
        3
102
RTVSPost2010PropOp43
 70
     1
102
RTVSPost2010Prop44ColorIndex
 90
        5
102
RTVSPost2010Prop44ColorRGB
 90
      255
102
RTVSPost2010PropOp44
 70
     1
102
RTVSPost2010Prop45
280
     0
102
RTVSPost2010PropOp45
 70
     1
102
RTVSPost2010Prop46
 90
       50
102
RTVSPost2010PropOp46
 70
     1
102
RTVSPost2010Prop47
 90
       50
102
RTVSPost2010PropOp47
 70
     1
102
RTVSPost2010Prop48
 90
       50
102
RTVSPost2010PropOp48
 70
     1
102
RTVSPost2010Prop49
280
     0
102
RTVSPost2010PropOp49
 70
     1
102
RTVSPost2010Prop50
 90
       50
102
RTVSPost2010PropOp50
 70
     1
102
RTVSPost2010Prop51ColorIndex
 90
      256
102
RTVSPost2010Prop51ColorRGB
 90
-16777216
102
RTVSPost2010PropOp51
 70
     0
102
RTVSPost2010Prop52
140
1.0
102
RTVSPost2010PropOp52
 70
     0
102
RTVSPost2010Prop53
 90
        2
102
RTVSPost2010PropOp53
 70
     1
102
RTVSPost2010Prop54
  1
strokes_ogs.tif
102
RTVSPost2010PropOp54
 70
     1
102
RTVSPost2010Prop55
280
     0
102
RTVSPost2010PropOp55
 70
     1
102
RTVSPost2010Prop56
140
1.0
102
RTVSPost2010PropOp56
 70
     1
102
RTVSPost2010Prop57
140
1.0
102
RTVSPost2010PropOp57
 70
     1
102
RTVSPropertyOp0
 70
     1
102
RTVSPropertyOp1
 70
     1
102
RTVSPropertyOp2
 70
     1
102
RTVSPropertyOp3
 70
     1
102
RTVSPropertyOp4
 70
     1
102
RTVSPropertyOp5
 70
     1
102
RTVSPropertyOp6
 70
     1
102
RTVSPropertyOp7
 70
     1
102
RTVSPropertyOp8
 70
     1
102
RTVSPropertyOp9
 70
     1
102
RTVSPropertyOp10
 70
     1
102
RTVSPropertyOp11
 70
     1
102
RTVSPropertyOp12
 70
     1
102
RTVSPropertyOp13
 70
     1
102
RTVSPropertyOp14
 70
     1
102
RTVSPropertyOp15
 70
     1
102
RTVSPropertyOp16
 70
     1
102
RTVSPropertyOp17
 70
     1
102
RTVSPropertyOp18
 70
     1
102
RTVSPropertyOp19
 70
     1
102
RTVSPropertyOp20
 70
     1
102
RTVSPropertyOp21
 70
     1
102
RTVSPropertyOp22
 70
     1
102
RTVSPropertyOp23
 70
     1
102
RTVSPropertyOp24
 70
     1
102
RTVSPropertyOp25
 70
     1
102
RTVSPropertyOp26
 70
     1
102
RTVSPropertyOp27
 70
     1
102
RTVSPropertyOp28
 70
     1
102
RTVSPropertyOp29
 70
     1
102
RTVSPropertyOp30
 70
     1
102
RTVSPropertyOp31
 70
     1
102
RTVSPropertyOp32
 70
     1
102
RTVSPropertyOp33
 70
     1
102
RTVSPropertyOp34
 70
     1
102
RTVSPropertyOp35
 70
     1
102
RTVSPropertyOp36
 70
     1
102
RTVSPropertyOp37
 70
     1
102
RTVSPropertyOp38
 70
     1
102
RTVSPropertyOp39
 70
     1
102
RTVSPropertyOp40
 70
     1
102
RTVSPropertyOp41
 70
     1
102
RTVSPropertyOp42
 70
     1
102
RTVSPropertyOp43
 70
     1
102
RTVSPropertyOp44
 70
     1
102
RTVSPropertyOp45
 70
     1
102
RTVSPropertyOp46
 70
     1
102
RTVSPropertyOp47
 70
     1
102
RTVSPropertyOp48
 70
     1
102
RTVSPropertyOp49
 70
     1
102
RTVSPropertyOp50
 70
     1
102
RTVSPropertyOp51
 70
     0
102
RTVSPropertyOp52
 70
     0
102
RTVSPropertyOp53
 70
     1
102
RTVSPropertyOp54
 70
     1
102
RTVSPropertyOp55
 70
     1
102
RTVSPropertyOp56
 70
     1
102
RTVSPropertyOp57
 70
     1
102
RTVSPropertyOp58
 70
     1
102
RTVSPropertyOp59
 70
     1
102
RTVSPropertyOp60
 70
     1
102
RTVSPropertyOp61
 70
     1
102
RTVSPropertyOp62
 70
     1
  0
XRECORD
  5
B894
102
{ACAD_REACTORS
330
B893
102
}
330
B893
100
AcDbXrecord
280
     1
102
RTVSPost2010Prop28
280
     0
102
RTVSPost2010PropOp28
 70
     1
102
RTVSPost2010Prop29
280
     1
102
RTVSPost2010PropOp29
 70
     1
102
RTVSPost2010Prop30
280
     1
102
RTVSPost2010PropOp30
 70
     1
102
RTVSPost2010Prop31
280
     0
102
RTVSPost2010PropOp31
 70
     1
102
RTVSPost2010Prop32
280
     0
102
RTVSPost2010PropOp32
 70
     1
102
RTVSPost2010Prop33
280
     0
102
RTVSPost2010PropOp33
 70
     1
102
RTVSPost2010Prop34
280
     0
102
RTVSPost2010PropOp34
 70
     1
102
RTVSPost2010Prop35
280
     0
102
RTVSPost2010PropOp35
 70
     1
102
RTVSPost2010Prop36
280
     0
102
RTVSPost2010PropOp36
 70
     1
102
RTVSPost2010Prop37
 90
       50
102
RTVSPost2010PropOp37
 70
     1
102
RTVSPost2010Prop38
140
0.0
102
RTVSPost2010PropOp38
 70
     1
102
RTVSPost2010Prop39
140
1.0
102
RTVSPost2010PropOp39
 70
     1
102
RTVSPost2010Prop40
 90
        0
102
RTVSPost2010PropOp40
 70
     1
102
RTVSPost2010Prop41ColorIndex
 90
       18
102
RTVSPost2010Prop41ColorRGB
 90
        0
102
RTVSPost2010PropOp41
 70
     1
102
RTVSPost2010Prop42
 90
       50
102
RTVSPost2010PropOp42
 70
     1
102
RTVSPost2010Prop43
 90
        3
102
RTVSPost2010PropOp43
 70
     1
102
RTVSPost2010Prop44ColorIndex
 90
        5
102
RTVSPost2010Prop44ColorRGB
 90
      255
102
RTVSPost2010PropOp44
 70
     1
102
RTVSPost2010Prop45
280
     0
102
RTVSPost2010PropOp45
 70
     1
102
RTVSPost2010Prop46
 90
       50
102
RTVSPost2010PropOp46
 70
     1
102
RTVSPost2010Prop47
 90
       50
102
RTVSPost2010PropOp47
 70
     1
102
RTVSPost2010Prop48
 90
       50
102
RTVSPost2010PropOp48
 70
     1
102
RTVSPost2010Prop49
280
     0
102
RTVSPost2010PropOp49
 70
     1
102
RTVSPost2010Prop50
 90
       50
102
RTVSPost2010PropOp50
 70
     1
102
RTVSPost2010Prop51ColorIndex
 90
      256
102
RTVSPost2010Prop51ColorRGB
 90
-16777216
102
RTVSPost2010PropOp51
 70
     0
102
RTVSPost2010Prop52
140
1.0
102
RTVSPost2010PropOp52
 70
     0
102
RTVSPost2010Prop53
 90
        2
102
RTVSPost2010PropOp53
 70
     1
102
RTVSPost2010Prop54
  1
strokes_ogs.tif
102
RTVSPost2010PropOp54
 70
     1
102
RTVSPost2010Prop55
280
     0
102
RTVSPost2010PropOp55
 70
     1
102
RTVSPost2010Prop56
140
1.0
102
RTVSPost2010PropOp56
 70
     1
102
RTVSPost2010Prop57
140
1.0
102
RTVSPost2010PropOp57
 70
     1
102
RTVSPropertyOp0
 70
     1
102
RTVSPropertyOp1
 70
     1
102
RTVSPropertyOp2
 70
     1
102
RTVSPropertyOp3
 70
     1
102
RTVSPropertyOp4
 70
     1
102
RTVSPropertyOp5
 70
     1
102
RTVSPropertyOp6
 70
     1
102
RTVSPropertyOp7
 70
     1
102
RTVSPropertyOp8
 70
     1
102
RTVSPropertyOp9
 70
     1
102
RTVSPropertyOp10
 70
     1
102
RTVSPropertyOp11
 70
     1
102
RTVSPropertyOp12
 70
     1
102
RTVSPropertyOp13
 70
     1
102
RTVSPropertyOp14
 70
     1
102
RTVSPropertyOp15
 70
     1
102
RTVSPropertyOp16
 70
     1
102
RTVSPropertyOp17
 70
     1
102
RTVSPropertyOp18
 70
     1
102
RTVSPropertyOp19
 70
     1
102
RTVSPropertyOp20
 70
     1
102
RTVSPropertyOp21
 70
     1
102
RTVSPropertyOp22
 70
     1
102
RTVSPropertyOp23
 70
     1
102
RTVSPropertyOp24
 70
     1
102
RTVSPropertyOp25
 70
     1
102
RTVSPropertyOp26
 70
     1
102
RTVSPropertyOp27
 70
     1
102
RTVSPropertyOp28
 70
     1
102
RTVSPropertyOp29
 70
     1
102
RTVSPropertyOp30
 70
     1
102
RTVSPropertyOp31
 70
     1
102
RTVSPropertyOp32
 70
     1
102
RTVSPropertyOp33
 70
     1
102
RTVSPropertyOp34
 70
     1
102
RTVSPropertyOp35
 70
     1
102
RTVSPropertyOp36
 70
     1
102
RTVSPropertyOp37
 70
     1
102
RTVSPropertyOp38
 70
     1
102
RTVSPropertyOp39
 70
     1
102
RTVSPropertyOp40
 70
     1
102
RTVSPropertyOp41
 70
     1
102
RTVSPropertyOp42
 70
     1
102
RTVSPropertyOp43
 70
     1
102
RTVSPropertyOp44
 70
     1
102
RTVSPropertyOp45
 70
     1
102
RTVSPropertyOp46
 70
     1
102
RTVSPropertyOp47
 70
     1
102
RTVSPropertyOp48
 70
     1
102
RTVSPropertyOp49
 70
     1
102
RTVSPropertyOp50
 70
     1
102
RTVSPropertyOp51
 70
     0
102
RTVSPropertyOp52
 70
     0
102
RTVSPropertyOp53
 70
     1
102
RTVSPropertyOp54
 70
     1
102
RTVSPropertyOp55
 70
     1
102
RTVSPropertyOp56
 70
     1
102
RTVSPropertyOp57
 70
     1
102
RTVSPropertyOp58
 70
     1
102
RTVSPropertyOp59
 70
     1
102
RTVSPropertyOp60
 70
     1
102
RTVSPropertyOp61
 70
     1
102
RTVSPropertyOp62
 70
     1
  0
XRECORD
  5
B898
102
{ACAD_REACTORS
330
B897
102
}
330
B897
100
AcDbXrecord
280
     1
102
RTVSPost2010Prop28
280
     0
102
RTVSPost2010PropOp28
 70
     1
102
RTVSPost2010Prop29
280
     1
102
RTVSPost2010PropOp29
 70
     1
102
RTVSPost2010Prop30
280
     1
102
RTVSPost2010PropOp30
 70
     1
102
RTVSPost2010Prop31
280
     0
102
RTVSPost2010PropOp31
 70
     1
102
RTVSPost2010Prop32
280
     0
102
RTVSPost2010PropOp32
 70
     1
102
RTVSPost2010Prop33
280
     0
102
RTVSPost2010PropOp33
 70
     1
102
RTVSPost2010Prop34
280
     0
102
RTVSPost2010PropOp34
 70
     1
102
RTVSPost2010Prop35
280
     0
102
RTVSPost2010PropOp35
 70
     1
102
RTVSPost2010Prop36
280
     0
102
RTVSPost2010PropOp36
 70
     1
102
RTVSPost2010Prop37
 90
       50
102
RTVSPost2010PropOp37
 70
     1
102
RTVSPost2010Prop38
140
0.0
102
RTVSPost2010PropOp38
 70
     1
102
RTVSPost2010Prop39
140
1.0
102
RTVSPost2010PropOp39
 70
     1
102
RTVSPost2010Prop40
 90
        0
102
RTVSPost2010PropOp40
 70
     1
102
RTVSPost2010Prop41ColorIndex
 90
       18
102
RTVSPost2010Prop41ColorRGB
 90
        0
102
RTVSPost2010PropOp41
 70
     1
102
RTVSPost2010Prop42
 90
       50
102
RTVSPost2010PropOp42
 70
     1
102
RTVSPost2010Prop43
 90
        3
102
RTVSPost2010PropOp43
 70
     1
102
RTVSPost2010Prop44ColorIndex
 90
        5
102
RTVSPost2010Prop44ColorRGB
 90
      255
102
RTVSPost2010PropOp44
 70
     1
102
RTVSPost2010Prop45
280
     0
102
RTVSPost2010PropOp45
 70
     1
102
RTVSPost2010Prop46
 90
       50
102
RTVSPost2010PropOp46
 70
     1
102
RTVSPost2010Prop47
 90
       50
102
RTVSPost2010PropOp47
 70
     1
102
RTVSPost2010Prop48
 90
       50
102
RTVSPost2010PropOp48
 70
     1
102
RTVSPost2010Prop49
280
     0
102
RTVSPost2010PropOp49
 70
     1
102
RTVSPost2010Prop50
 90
       50
102
RTVSPost2010PropOp50
 70
     1
102
RTVSPost2010Prop51ColorIndex
 90
      256
102
RTVSPost2010Prop51ColorRGB
 90
-16777216
102
RTVSPost2010PropOp51
 70
     0
102
RTVSPost2010Prop52
140
1.0
102
RTVSPost2010PropOp52
 70
     0
102
RTVSPost2010Prop53
 90
        2
102
RTVSPost2010PropOp53
 70
     1
102
RTVSPost2010Prop54
  1
strokes_ogs.tif
102
RTVSPost2010PropOp54
 70
     1
102
RTVSPost2010Prop55
280
     0
102
RTVSPost2010PropOp55
 70
     1
102
RTVSPost2010Prop56
140
1.0
102
RTVSPost2010PropOp56
 70
     1
102
RTVSPost2010Prop57
140
1.0
102
RTVSPost2010PropOp57
 70
     1
102
RTVSPropertyOp0
 70
     1
102
RTVSPropertyOp1
 70
     1
102
RTVSPropertyOp2
 70
     1
102
RTVSPropertyOp3
 70
     1
102
RTVSPropertyOp4
 70
     1
102
RTVSPropertyOp5
 70
     1
102
RTVSPropertyOp6
 70
     1
102
RTVSPropertyOp7
 70
     1
102
RTVSPropertyOp8
 70
     1
102
RTVSPropertyOp9
 70
     1
102
RTVSPropertyOp10
 70
     1
102
RTVSPropertyOp11
 70
     1
102
RTVSPropertyOp12
 70
     1
102
RTVSPropertyOp13
 70
     1
102
RTVSPropertyOp14
 70
     1
102
RTVSPropertyOp15
 70
     1
102
RTVSPropertyOp16
 70
     1
102
RTVSPropertyOp17
 70
     1
102
RTVSPropertyOp18
 70
     1
102
RTVSPropertyOp19
 70
     1
102
RTVSPropertyOp20
 70
     1
102
RTVSPropertyOp21
 70
     1
102
RTVSPropertyOp22
 70
     1
102
RTVSPropertyOp23
 70
     1
102
RTVSPropertyOp24
 70
     1
102
RTVSPropertyOp25
 70
     1
102
RTVSPropertyOp26
 70
     1
102
RTVSPropertyOp27
 70
     1
102
RTVSPropertyOp28
 70
     1
102
RTVSPropertyOp29
 70
     1
102
RTVSPropertyOp30
 70
     1
102
RTVSPropertyOp31
 70
     1
102
RTVSPropertyOp32
 70
     1
102
RTVSPropertyOp33
 70
     1
102
RTVSPropertyOp34
 70
     1
102
RTVSPropertyOp35
 70
     1
102
RTVSPropertyOp36
 70
     1
102
RTVSPropertyOp37
 70
     1
102
RTVSPropertyOp38
 70
     1
102
RTVSPropertyOp39
 70
     1
102
RTVSPropertyOp40
 70
     1
102
RTVSPropertyOp41
 70
     1
102
RTVSPropertyOp42
 70
     1
102
RTVSPropertyOp43
 70
     1
102
RTVSPropertyOp44
 70
     1
102
RTVSPropertyOp45
 70
     1
102
RTVSPropertyOp46
 70
     1
102
RTVSPropertyOp47
 70
     1
102
RTVSPropertyOp48
 70
     1
102
RTVSPropertyOp49
 70
     1
102
RTVSPropertyOp50
 70
     1
102
RTVSPropertyOp51
 70
     0
102
RTVSPropertyOp52
 70
     0
102
RTVSPropertyOp53
 70
     1
102
RTVSPropertyOp54
 70
     1
102
RTVSPropertyOp55
 70
     1
102
RTVSPropertyOp56
 70
     1
102
RTVSPropertyOp57
 70
     1
102
RTVSPropertyOp58
 70
     1
102
RTVSPropertyOp59
 70
     1
102
RTVSPropertyOp60
 70
     1
102
RTVSPropertyOp61
 70
     1
102
RTVSPropertyOp62
 70
     1
  0
XRECORD
  5
B8B2
102
{ACAD_REACTORS
330
B8B1
102
}
330
B8B1
100
AcDbXrecord
280
     1
102
RTVSPost2010Prop28
280
     0
102
RTVSPost2010PropOp28
 70
     1
102
RTVSPost2010Prop29
280
     1
102
RTVSPost2010PropOp29
 70
     1
102
RTVSPost2010Prop30
280
     1
102
RTVSPost2010PropOp30
 70
     1
102
RTVSPost2010Prop31
280
     0
102
RTVSPost2010PropOp31
 70
     1
102
RTVSPost2010Prop32
280
     0
102
RTVSPost2010PropOp32
 70
     1
102
RTVSPost2010Prop33
280
     0
102
RTVSPost2010PropOp33
 70
     1
102
RTVSPost2010Prop34
280
     0
102
RTVSPost2010PropOp34
 70
     1
102
RTVSPost2010Prop35
280
     0
102
RTVSPost2010PropOp35
 70
     1
102
RTVSPost2010Prop36
280
     0
102
RTVSPost2010PropOp36
 70
     1
102
RTVSPost2010Prop37
 90
       50
102
RTVSPost2010PropOp37
 70
     0
102
RTVSPost2010Prop38
140
0.0
102
RTVSPost2010PropOp38
 70
     0
102
RTVSPost2010Prop39
140
1.0
102
RTVSPost2010PropOp39
 70
     0
102
RTVSPost2010Prop40
 90
        0
102
RTVSPost2010PropOp40
 70
     0
102
RTVSPost2010Prop41ColorIndex
 90
       18
102
RTVSPost2010Prop41ColorRGB
 90
        0
102
RTVSPost2010PropOp41
 70
     0
102
RTVSPost2010Prop42
 90
       50
102
RTVSPost2010PropOp42
 70
     0
102
RTVSPost2010Prop43
 90
        3
102
RTVSPost2010PropOp43
 70
     0
102
RTVSPost2010Prop44ColorIndex
 90
        5
102
RTVSPost2010Prop44ColorRGB
 90
      255
102
RTVSPost2010PropOp44
 70
     0
102
RTVSPost2010Prop45
280
     0
102
RTVSPost2010PropOp45
 70
     1
102
RTVSPost2010Prop46
 90
       50
102
RTVSPost2010PropOp46
 70
     0
102
RTVSPost2010Prop47
 90
       50
102
RTVSPost2010PropOp47
 70
     0
102
RTVSPost2010Prop48
 90
       50
102
RTVSPost2010PropOp48
 70
     0
102
RTVSPost2010Prop49
280
     0
102
RTVSPost2010PropOp49
 70
     1
102
RTVSPost2010Prop50
 90
       50
102
RTVSPost2010PropOp50
 70
     0
102
RTVSPost2010Prop51ColorIndex
 90
      256
102
RTVSPost2010Prop51ColorRGB
 90
-16777216
102
RTVSPost2010PropOp51
 70
     0
102
RTVSPost2010Prop52
140
1.0
102
RTVSPost2010PropOp52
 70
     0
102
RTVSPost2010Prop53
 90
        2
102
RTVSPost2010PropOp53
 70
     0
102
RTVSPost2010Prop54
  1
strokes_ogs.tif
102
RTVSPost2010PropOp54
 70
     0
102
RTVSPost2010Prop55
280
     0
102
RTVSPost2010PropOp55
 70
     1
102
RTVSPost2010Prop56
140
1.0
102
RTVSPost2010PropOp56
 70
     0
102
RTVSPost2010Prop57
140
1.0
102
RTVSPost2010PropOp57
 70
     0
102
RTVSPropertyOp0
 70
     0
102
RTVSPropertyOp1
 70
     0
102
RTVSPropertyOp2
 70
     0
102
RTVSPropertyOp3
 70
     0
102
RTVSPropertyOp4
 70
     0
102
RTVSPropertyOp5
 70
     0
102
RTVSPropertyOp6
 70
     0
102
RTVSPropertyOp7
 70
     0
102
RTVSPropertyOp8
 70
     0
102
RTVSPropertyOp9
 70
     0
102
RTVSPropertyOp10
 70
     0
102
RTVSPropertyOp11
 70
     0
102
RTVSPropertyOp12
 70
     0
102
RTVSPropertyOp13
 70
     0
102
RTVSPropertyOp14
 70
     2
102
RTVSPropertyOp15
 70
     0
102
RTVSPropertyOp16
 70
     0
102
RTVSPropertyOp17
 70
     0
102
RTVSPropertyOp18
 70
     0
102
RTVSPropertyOp19
 70
     0
102
RTVSPropertyOp20
 70
     0
102
RTVSPropertyOp21
 70
     0
102
RTVSPropertyOp22
 70
     0
102
RTVSPropertyOp23
 70
     0
102
RTVSPropertyOp24
 70
     0
102
RTVSPropertyOp25
 70
     0
102
RTVSPropertyOp26
 70
     0
102
RTVSPropertyOp27
 70
     0
102
RTVSPropertyOp28
 70
     1
102
RTVSPropertyOp29
 70
     1
102
RTVSPropertyOp30
 70
     1
102
RTVSPropertyOp31
 70
     1
102
RTVSPropertyOp32
 70
     1
102
RTVSPropertyOp33
 70
     1
102
RTVSPropertyOp34
 70
     1
102
RTVSPropertyOp35
 70
     1
102
RTVSPropertyOp36
 70
     1
102
RTVSPropertyOp37
 70
     0
102
RTVSPropertyOp38
 70
     0
102
RTVSPropertyOp39
 70
     0
102
RTVSPropertyOp40
 70
     0
102
RTVSPropertyOp41
 70
     0
102
RTVSPropertyOp42
 70
     0
102
RTVSPropertyOp43
 70
     0
102
RTVSPropertyOp44
 70
     0
102
RTVSPropertyOp45
 70
     1
102
RTVSPropertyOp46
 70
     0
102
RTVSPropertyOp47
 70
     0
102
RTVSPropertyOp48
 70
     0
102
RTVSPropertyOp49
 70
     1
102
RTVSPropertyOp50
 70
     0
102
RTVSPropertyOp51
 70
     0
102
RTVSPropertyOp52
 70
     0
102
RTVSPropertyOp53
 70
     0
102
RTVSPropertyOp54
 70
     0
102
RTVSPropertyOp55
 70
     1
102
RTVSPropertyOp56
 70
     0
102
RTVSPropertyOp57
 70
     0
102
RTVSPropertyOp58
 70
     0
102
RTVSPropertyOp59
 70
     0
102
RTVSPropertyOp60
 70
     0
102
RTVSPropertyOp61
 70
     0
102
RTVSPropertyOp62
 70
     0
  0
XRECORD
  5
B8A0
102
{ACAD_REACTORS
330
B89F
102
}
330
B89F
100
AcDbXrecord
280
     1
102
RTVSPost2010Prop28
280
     0
102
RTVSPost2010PropOp28
 70
     1
102
RTVSPost2010Prop29
280
     1
102
RTVSPost2010PropOp29
 70
     1
102
RTVSPost2010Prop30
280
     1
102
RTVSPost2010PropOp30
 70
     1
102
RTVSPost2010Prop31
280
     0
102
RTVSPost2010PropOp31
 70
     1
102
RTVSPost2010Prop32
280
     0
102
RTVSPost2010PropOp32
 70
     1
102
RTVSPost2010Prop33
280
     0
102
RTVSPost2010PropOp33
 70
     1
102
RTVSPost2010Prop34
280
     0
102
RTVSPost2010PropOp34
 70
     1
102
RTVSPost2010Prop35
280
     0
102
RTVSPost2010PropOp35
 70
     1
102
RTVSPost2010Prop36
280
     0
102
RTVSPost2010PropOp36
 70
     1
102
RTVSPost2010Prop37
 90
       50
102
RTVSPost2010PropOp37
 70
     1
102
RTVSPost2010Prop38
140
0.0
102
RTVSPost2010PropOp38
 70
     1
102
RTVSPost2010Prop39
140
1.0
102
RTVSPost2010PropOp39
 70
     1
102
RTVSPost2010Prop40
 90
        0
102
RTVSPost2010PropOp40
 70
     1
102
RTVSPost2010Prop41ColorIndex
 90
       18
102
RTVSPost2010Prop41ColorRGB
 90
        0
102
RTVSPost2010PropOp41
 70
     1
102
RTVSPost2010Prop42
 90
       50
102
RTVSPost2010PropOp42
 70
     1
102
RTVSPost2010Prop43
 90
        3
102
RTVSPost2010PropOp43
 70
     1
102
RTVSPost2010Prop44ColorIndex
 90
        5
102
RTVSPost2010Prop44ColorRGB
 90
      255
102
RTVSPost2010PropOp44
 70
     1
102
RTVSPost2010Prop45
280
     0
102
RTVSPost2010PropOp45
 70
     1
102
RTVSPost2010Prop46
 90
       50
102
RTVSPost2010PropOp46
 70
     1
102
RTVSPost2010Prop47
 90
       50
102
RTVSPost2010PropOp47
 70
     1
102
RTVSPost2010Prop48
 90
       50
102
RTVSPost2010PropOp48
 70
     1
102
RTVSPost2010Prop49
280
     0
102
RTVSPost2010PropOp49
 70
     1
102
RTVSPost2010Prop50
 90
       50
102
RTVSPost2010PropOp50
 70
     1
102
RTVSPost2010Prop51ColorIndex
 90
      256
102
RTVSPost2010Prop51ColorRGB
 90
-16777216
102
RTVSPost2010PropOp51
 70
     0
102
RTVSPost2010Prop52
140
1.0
102
RTVSPost2010PropOp52
 70
     0
102
RTVSPost2010Prop53
 90
        2
102
RTVSPost2010PropOp53
 70
     1
102
RTVSPost2010Prop54
  1
strokes_ogs.tif
102
RTVSPost2010PropOp54
 70
     1
102
RTVSPost2010Prop55
280
     0
102
RTVSPost2010PropOp55
 70
     1
102
RTVSPost2010Prop56
140
1.0
102
RTVSPost2010PropOp56
 70
     1
102
RTVSPost2010Prop57
140
1.0
102
RTVSPost2010PropOp57
 70
     1
102
RTVSPropertyOp0
 70
     1
102
RTVSPropertyOp1
 70
     1
102
RTVSPropertyOp2
 70
     1
102
RTVSPropertyOp3
 70
     1
102
RTVSPropertyOp4
 70
     1
102
RTVSPropertyOp5
 70
     1
102
RTVSPropertyOp6
 70
     1
102
RTVSPropertyOp7
 70
     1
102
RTVSPropertyOp8
 70
     1
102
RTVSPropertyOp9
 70
     1
102
RTVSPropertyOp10
 70
     1
102
RTVSPropertyOp11
 70
     1
102
RTVSPropertyOp12
 70
     1
102
RTVSPropertyOp13
 70
     1
102
RTVSPropertyOp14
 70
     1
102
RTVSPropertyOp15
 70
     1
102
RTVSPropertyOp16
 70
     1
102
RTVSPropertyOp17
 70
     1
102
RTVSPropertyOp18
 70
     1
102
RTVSPropertyOp19
 70
     1
102
RTVSPropertyOp20
 70
     1
102
RTVSPropertyOp21
 70
     1
102
RTVSPropertyOp22
 70
     1
102
RTVSPropertyOp23
 70
     1
102
RTVSPropertyOp24
 70
     1
102
RTVSPropertyOp25
 70
     1
102
RTVSPropertyOp26
 70
     1
102
RTVSPropertyOp27
 70
     1
102
RTVSPropertyOp28
 70
     1
102
RTVSPropertyOp29
 70
     1
102
RTVSPropertyOp30
 70
     1
102
RTVSPropertyOp31
 70
     1
102
RTVSPropertyOp32
 70
     1
102
RTVSPropertyOp33
 70
     1
102
RTVSPropertyOp34
 70
     1
102
RTVSPropertyOp35
 70
     1
102
RTVSPropertyOp36
 70
     1
102
RTVSPropertyOp37
 70
     1
102
RTVSPropertyOp38
 70
     1
102
RTVSPropertyOp39
 70
     1
102
RTVSPropertyOp40
 70
     1
102
RTVSPropertyOp41
 70
     1
102
RTVSPropertyOp42
 70
     1
102
RTVSPropertyOp43
 70
     1
102
RTVSPropertyOp44
 70
     1
102
RTVSPropertyOp45
 70
     1
102
RTVSPropertyOp46
 70
     1
102
RTVSPropertyOp47
 70
     1
102
RTVSPropertyOp48
 70
     1
102
RTVSPropertyOp49
 70
     1
102
RTVSPropertyOp50
 70
     1
102
RTVSPropertyOp51
 70
     0
102
RTVSPropertyOp52
 70
     0
102
RTVSPropertyOp53
 70
     1
102
RTVSPropertyOp54
 70
     1
102
RTVSPropertyOp55
 70
     1
102
RTVSPropertyOp56
 70
     1
102
RTVSPropertyOp57
 70
     1
102
RTVSPropertyOp58
 70
     1
102
RTVSPropertyOp59
 70
     1
102
RTVSPropertyOp60
 70
     1
102
RTVSPropertyOp61
 70
     1
102
RTVSPropertyOp62
 70
     1
  0
XRECORD
  5
B884
102
{ACAD_REACTORS
330
B883
102
}
330
B883
100
AcDbXrecord
280
     1
102
RTVSPost2010Prop28
280
     0
102
RTVSPost2010PropOp28
 70
     1
102
RTVSPost2010Prop29
280
     1
102
RTVSPost2010PropOp29
 70
     1
102
RTVSPost2010Prop30
280
     1
102
RTVSPost2010PropOp30
 70
     1
102
RTVSPost2010Prop31
280
     0
102
RTVSPost2010PropOp31
 70
     1
102
RTVSPost2010Prop32
280
     0
102
RTVSPost2010PropOp32
 70
     1
102
RTVSPost2010Prop33
280
     0
102
RTVSPost2010PropOp33
 70
     1
102
RTVSPost2010Prop34
280
     0
102
RTVSPost2010PropOp34
 70
     1
102
RTVSPost2010Prop35
280
     0
102
RTVSPost2010PropOp35
 70
     1
102
RTVSPost2010Prop36
280
     0
102
RTVSPost2010PropOp36
 70
     1
102
RTVSPost2010Prop37
 90
       50
102
RTVSPost2010PropOp37
 70
     1
102
RTVSPost2010Prop38
140
0.0
102
RTVSPost2010PropOp38
 70
     1
102
RTVSPost2010Prop39
140
1.0
102
RTVSPost2010PropOp39
 70
     1
102
RTVSPost2010Prop40
 90
        0
102
RTVSPost2010PropOp40
 70
     1
102
RTVSPost2010Prop41ColorIndex
 90
       18
102
RTVSPost2010Prop41ColorRGB
 90
        0
102
RTVSPost2010PropOp41
 70
     1
102
RTVSPost2010Prop42
 90
       50
102
RTVSPost2010PropOp42
 70
     1
102
RTVSPost2010Prop43
 90
        3
102
RTVSPost2010PropOp43
 70
     1
102
RTVSPost2010Prop44ColorIndex
 90
        5
102
RTVSPost2010Prop44ColorRGB
 90
      255
102
RTVSPost2010PropOp44
 70
     1
102
RTVSPost2010Prop45
280
     0
102
RTVSPost2010PropOp45
 70
     1
102
RTVSPost2010Prop46
 90
       50
102
RTVSPost2010PropOp46
 70
     1
102
RTVSPost2010Prop47
 90
       50
102
RTVSPost2010PropOp47
 70
     1
102
RTVSPost2010Prop48
 90
       50
102
RTVSPost2010PropOp48
 70
     1
102
RTVSPost2010Prop49
280
     0
102
RTVSPost2010PropOp49
 70
     1
102
RTVSPost2010Prop50
 90
       50
102
RTVSPost2010PropOp50
 70
     1
102
RTVSPost2010Prop51ColorIndex
 90
      256
102
RTVSPost2010Prop51ColorRGB
 90
-16777216
102
RTVSPost2010PropOp51
 70
     0
102
RTVSPost2010Prop52
140
1.0
102
RTVSPost2010PropOp52
 70
     0
102
RTVSPost2010Prop53
 90
        2
102
RTVSPost2010PropOp53
 70
     1
102
RTVSPost2010Prop54
  1
strokes_ogs.tif
102
RTVSPost2010PropOp54
 70
     1
102
RTVSPost2010Prop55
280
     0
102
RTVSPost2010PropOp55
 70
     1
102
RTVSPost2010Prop56
140
1.0
102
RTVSPost2010PropOp56
 70
     1
102
RTVSPost2010Prop57
140
1.0
102
RTVSPost2010PropOp57
 70
     1
102
RTVSPropertyOp0
 70
     1
102
RTVSPropertyOp1
 70
     1
102
RTVSPropertyOp2
 70
     1
102
RTVSPropertyOp3
 70
     1
102
RTVSPropertyOp4
 70
     1
102
RTVSPropertyOp5
 70
     1
102
RTVSPropertyOp6
 70
     1
102
RTVSPropertyOp7
 70
     1
102
RTVSPropertyOp8
 70
     1
102
RTVSPropertyOp9
 70
     1
102
RTVSPropertyOp10
 70
     1
102
RTVSPropertyOp11
 70
     1
102
RTVSPropertyOp12
 70
     1
102
RTVSPropertyOp13
 70
     1
102
RTVSPropertyOp14
 70
     1
102
RTVSPropertyOp15
 70
     1
102
RTVSPropertyOp16
 70
     1
102
RTVSPropertyOp17
 70
     1
102
RTVSPropertyOp18
 70
     1
102
RTVSPropertyOp19
 70
     1
102
RTVSPropertyOp20
 70
     1
102
RTVSPropertyOp21
 70
     1
102
RTVSPropertyOp22
 70
     1
102
RTVSPropertyOp23
 70
     1
102
RTVSPropertyOp24
 70
     1
102
RTVSPropertyOp25
 70
     1
102
RTVSPropertyOp26
 70
     1
102
RTVSPropertyOp27
 70
     1
102
RTVSPropertyOp28
 70
     1
102
RTVSPropertyOp29
 70
     1
102
RTVSPropertyOp30
 70
     1
102
RTVSPropertyOp31
 70
     1
102
RTVSPropertyOp32
 70
     1
102
RTVSPropertyOp33
 70
     1
102
RTVSPropertyOp34
 70
     1
102
RTVSPropertyOp35
 70
     1
102
RTVSPropertyOp36
 70
     1
102
RTVSPropertyOp37
 70
     1
102
RTVSPropertyOp38
 70
     1
102
RTVSPropertyOp39
 70
     1
102
RTVSPropertyOp40
 70
     1
102
RTVSPropertyOp41
 70
     1
102
RTVSPropertyOp42
 70
     1
102
RTVSPropertyOp43
 70
     1
102
RTVSPropertyOp44
 70
     1
102
RTVSPropertyOp45
 70
     1
102
RTVSPropertyOp46
 70
     1
102
RTVSPropertyOp47
 70
     1
102
RTVSPropertyOp48
 70
     1
102
RTVSPropertyOp49
 70
     1
102
RTVSPropertyOp50
 70
     1
102
RTVSPropertyOp51
 70
     0
102
RTVSPropertyOp52
 70
     0
102
RTVSPropertyOp53
 70
     1
102
RTVSPropertyOp54
 70
     1
102
RTVSPropertyOp55
 70
     1
102
RTVSPropertyOp56
 70
     1
102
RTVSPropertyOp57
 70
     1
102
RTVSPropertyOp58
 70
     1
102
RTVSPropertyOp59
 70
     1
102
RTVSPropertyOp60
 70
     1
102
RTVSPropertyOp61
 70
     1
102
RTVSPropertyOp62
 70
     1
  0
XRECORD
  5
B886
102
{ACAD_REACTORS
330
B885
102
}
330
B885
100
AcDbXrecord
280
     1
102
RTVSPost2010Prop28
280
     0
102
RTVSPost2010PropOp28
 70
     1
102
RTVSPost2010Prop29
280
     1
102
RTVSPost2010PropOp29
 70
     1
102
RTVSPost2010Prop30
280
     1
102
RTVSPost2010PropOp30
 70
     1
102
RTVSPost2010Prop31
280
     0
102
RTVSPost2010PropOp31
 70
     1
102
RTVSPost2010Prop32
280
     0
102
RTVSPost2010PropOp32
 70
     1
102
RTVSPost2010Prop33
280
     0
102
RTVSPost2010PropOp33
 70
     1
102
RTVSPost2010Prop34
280
     0
102
RTVSPost2010PropOp34
 70
     1
102
RTVSPost2010Prop35
280
     0
102
RTVSPost2010PropOp35
 70
     1
102
RTVSPost2010Prop36
280
     0
102
RTVSPost2010PropOp36
 70
     1
102
RTVSPost2010Prop37
 90
       50
102
RTVSPost2010PropOp37
 70
     1
102
RTVSPost2010Prop38
140
0.0
102
RTVSPost2010PropOp38
 70
     1
102
RTVSPost2010Prop39
140
1.0
102
RTVSPost2010PropOp39
 70
     1
102
RTVSPost2010Prop40
 90
        0
102
RTVSPost2010PropOp40
 70
     1
102
RTVSPost2010Prop41ColorIndex
 90
       18
102
RTVSPost2010Prop41ColorRGB
 90
        0
102
RTVSPost2010PropOp41
 70
     1
102
RTVSPost2010Prop42
 90
       50
102
RTVSPost2010PropOp42
 70
     1
102
RTVSPost2010Prop43
 90
        3
102
RTVSPost2010PropOp43
 70
     1
102
RTVSPost2010Prop44ColorIndex
 90
        5
102
RTVSPost2010Prop44ColorRGB
 90
      255
102
RTVSPost2010PropOp44
 70
     1
102
RTVSPost2010Prop45
280
     0
102
RTVSPost2010PropOp45
 70
     1
102
RTVSPost2010Prop46
 90
       50
102
RTVSPost2010PropOp46
 70
     1
102
RTVSPost2010Prop47
 90
       50
102
RTVSPost2010PropOp47
 70
     1
102
RTVSPost2010Prop48
 90
       50
102
RTVSPost2010PropOp48
 70
     1
102
RTVSPost2010Prop49
280
     0
102
RTVSPost2010PropOp49
 70
     1
102
RTVSPost2010Prop50
 90
       50
102
RTVSPost2010PropOp50
 70
     1
102
RTVSPost2010Prop51ColorIndex
 90
      256
102
RTVSPost2010Prop51ColorRGB
 90
-16777216
102
RTVSPost2010PropOp51
 70
     0
102
RTVSPost2010Prop52
140
1.0
102
RTVSPost2010PropOp52
 70
     0
102
RTVSPost2010Prop53
 90
        2
102
RTVSPost2010PropOp53
 70
     1
102
RTVSPost2010Prop54
  1
strokes_ogs.tif
102
RTVSPost2010PropOp54
 70
     1
102
RTVSPost2010Prop55
280
     0
102
RTVSPost2010PropOp55
 70
     1
102
RTVSPost2010Prop56
140
1.0
102
RTVSPost2010PropOp56
 70
     1
102
RTVSPost2010Prop57
140
1.0
102
RTVSPost2010PropOp57
 70
     1
102
RTVSPropertyOp0
 70
     1
102
RTVSPropertyOp1
 70
     1
102
RTVSPropertyOp2
 70
     1
102
RTVSPropertyOp3
 70
     1
102
RTVSPropertyOp4
 70
     1
102
RTVSPropertyOp5
 70
     1
102
RTVSPropertyOp6
 70
     1
102
RTVSPropertyOp7
 70
     1
102
RTVSPropertyOp8
 70
     1
102
RTVSPropertyOp9
 70
     1
102
RTVSPropertyOp10
 70
     1
102
RTVSPropertyOp11
 70
     1
102
RTVSPropertyOp12
 70
     1
102
RTVSPropertyOp13
 70
     1
102
RTVSPropertyOp14
 70
     1
102
RTVSPropertyOp15
 70
     1
102
RTVSPropertyOp16
 70
     1
102
RTVSPropertyOp17
 70
     1
102
RTVSPropertyOp18
 70
     1
102
RTVSPropertyOp19
 70
     1
102
RTVSPropertyOp20
 70
     1
102
RTVSPropertyOp21
 70
     1
102
RTVSPropertyOp22
 70
     1
102
RTVSPropertyOp23
 70
     1
102
RTVSPropertyOp24
 70
     1
102
RTVSPropertyOp25
 70
     1
102
RTVSPropertyOp26
 70
     1
102
RTVSPropertyOp27
 70
     1
102
RTVSPropertyOp28
 70
     1
102
RTVSPropertyOp29
 70
     1
102
RTVSPropertyOp30
 70
     1
102
RTVSPropertyOp31
 70
     1
102
RTVSPropertyOp32
 70
     1
102
RTVSPropertyOp33
 70
     1
102
RTVSPropertyOp34
 70
     1
102
RTVSPropertyOp35
 70
     1
102
RTVSPropertyOp36
 70
     1
102
RTVSPropertyOp37
 70
     1
102
RTVSPropertyOp38
 70
     1
102
RTVSPropertyOp39
 70
     1
102
RTVSPropertyOp40
 70
     1
102
RTVSPropertyOp41
 70
     1
102
RTVSPropertyOp42
 70
     1
102
RTVSPropertyOp43
 70
     1
102
RTVSPropertyOp44
 70
     1
102
RTVSPropertyOp45
 70
     1
102
RTVSPropertyOp46
 70
     1
102
RTVSPropertyOp47
 70
     1
102
RTVSPropertyOp48
 70
     1
102
RTVSPropertyOp49
 70
     1
102
RTVSPropertyOp50
 70
     1
102
RTVSPropertyOp51
 70
     0
102
RTVSPropertyOp52
 70
     0
102
RTVSPropertyOp53
 70
     1
102
RTVSPropertyOp54
 70
     1
102
RTVSPropertyOp55
 70
     1
102
RTVSPropertyOp56
 70
     1
102
RTVSPropertyOp57
 70
     1
102
RTVSPropertyOp58
 70
     1
102
RTVSPropertyOp59
 70
     1
102
RTVSPropertyOp60
 70
     1
102
RTVSPropertyOp61
 70
     1
102
RTVSPropertyOp62
 70
     1
  0
XRECORD
  5
B888
102
{ACAD_REACTORS
330
B887
102
}
330
B887
100
AcDbXrecord
280
     1
102
RTVSPost2010Prop28
280
     0
102
RTVSPost2010PropOp28
 70
     1
102
RTVSPost2010Prop29
280
     1
102
RTVSPost2010PropOp29
 70
     1
102
RTVSPost2010Prop30
280
     1
102
RTVSPost2010PropOp30
 70
     1
102
RTVSPost2010Prop31
280
     0
102
RTVSPost2010PropOp31
 70
     1
102
RTVSPost2010Prop32
280
     0
102
RTVSPost2010PropOp32
 70
     1
102
RTVSPost2010Prop33
280
     0
102
RTVSPost2010PropOp33
 70
     1
102
RTVSPost2010Prop34
280
     0
102
RTVSPost2010PropOp34
 70
     1
102
RTVSPost2010Prop35
280
     0
102
RTVSPost2010PropOp35
 70
     1
102
RTVSPost2010Prop36
280
     0
102
RTVSPost2010PropOp36
 70
     1
102
RTVSPost2010Prop37
 90
       50
102
RTVSPost2010PropOp37
 70
     1
102
RTVSPost2010Prop38
140
0.0
102
RTVSPost2010PropOp38
 70
     1
102
RTVSPost2010Prop39
140
1.0
102
RTVSPost2010PropOp39
 70
     1
102
RTVSPost2010Prop40
 90
        0
102
RTVSPost2010PropOp40
 70
     1
102
RTVSPost2010Prop41ColorIndex
 90
       18
102
RTVSPost2010Prop41ColorRGB
 90
        0
102
RTVSPost2010PropOp41
 70
     1
102
RTVSPost2010Prop42
 90
       50
102
RTVSPost2010PropOp42
 70
     1
102
RTVSPost2010Prop43
 90
        3
102
RTVSPost2010PropOp43
 70
     1
102
RTVSPost2010Prop44ColorIndex
 90
        5
102
RTVSPost2010Prop44ColorRGB
 90
      255
102
RTVSPost2010PropOp44
 70
     1
102
RTVSPost2010Prop45
280
     0
102
RTVSPost2010PropOp45
 70
     1
102
RTVSPost2010Prop46
 90
       50
102
RTVSPost2010PropOp46
 70
     1
102
RTVSPost2010Prop47
 90
       50
102
RTVSPost2010PropOp47
 70
     1
102
RTVSPost2010Prop48
 90
       50
102
RTVSPost2010PropOp48
 70
     1
102
RTVSPost2010Prop49
280
     0
102
RTVSPost2010PropOp49
 70
     1
102
RTVSPost2010Prop50
 90
       50
102
RTVSPost2010PropOp50
 70
     1
102
RTVSPost2010Prop51ColorIndex
 90
      256
102
RTVSPost2010Prop51ColorRGB
 90
-16777216
102
RTVSPost2010PropOp51
 70
     0
102
RTVSPost2010Prop52
140
1.0
102
RTVSPost2010PropOp52
 70
     0
102
RTVSPost2010Prop53
 90
        2
102
RTVSPost2010PropOp53
 70
     1
102
RTVSPost2010Prop54
  1
strokes_ogs.tif
102
RTVSPost2010PropOp54
 70
     1
102
RTVSPost2010Prop55
280
     0
102
RTVSPost2010PropOp55
 70
     1
102
RTVSPost2010Prop56
140
1.0
102
RTVSPost2010PropOp56
 70
     1
102
RTVSPost2010Prop57
140
1.0
102
RTVSPost2010PropOp57
 70
     1
102
RTVSPropertyOp0
 70
     1
102
RTVSPropertyOp1
 70
     1
102
RTVSPropertyOp2
 70
     1
102
RTVSPropertyOp3
 70
     1
102
RTVSPropertyOp4
 70
     1
102
RTVSPropertyOp5
 70
     1
102
RTVSPropertyOp6
 70
     1
102
RTVSPropertyOp7
 70
     1
102
RTVSPropertyOp8
 70
     1
102
RTVSPropertyOp9
 70
     1
102
RTVSPropertyOp10
 70
     1
102
RTVSPropertyOp11
 70
     1
102
RTVSPropertyOp12
 70
     1
102
RTVSPropertyOp13
 70
     1
102
RTVSPropertyOp14
 70
     1
102
RTVSPropertyOp15
 70
     1
102
RTVSPropertyOp16
 70
     1
102
RTVSPropertyOp17
 70
     1
102
RTVSPropertyOp18
 70
     1
102
RTVSPropertyOp19
 70
     1
102
RTVSPropertyOp20
 70
     1
102
RTVSPropertyOp21
 70
     1
102
RTVSPropertyOp22
 70
     1
102
RTVSPropertyOp23
 70
     1
102
RTVSPropertyOp24
 70
     1
102
RTVSPropertyOp25
 70
     1
102
RTVSPropertyOp26
 70
     1
102
RTVSPropertyOp27
 70
     1
102
RTVSPropertyOp28
 70
     1
102
RTVSPropertyOp29
 70
     1
102
RTVSPropertyOp30
 70
     1
102
RTVSPropertyOp31
 70
     1
102
RTVSPropertyOp32
 70
     1
102
RTVSPropertyOp33
 70
     1
102
RTVSPropertyOp34
 70
     1
102
RTVSPropertyOp35
 70
     1
102
RTVSPropertyOp36
 70
     1
102
RTVSPropertyOp37
 70
     1
102
RTVSPropertyOp38
 70
     1
102
RTVSPropertyOp39
 70
     1
102
RTVSPropertyOp40
 70
     1
102
RTVSPropertyOp41
 70
     1
102
RTVSPropertyOp42
 70
     1
102
RTVSPropertyOp43
 70
     1
102
RTVSPropertyOp44
 70
     1
102
RTVSPropertyOp45
 70
     1
102
RTVSPropertyOp46
 70
     1
102
RTVSPropertyOp47
 70
     1
102
RTVSPropertyOp48
 70
     1
102
RTVSPropertyOp49
 70
     1
102
RTVSPropertyOp50
 70
     1
102
RTVSPropertyOp51
 70
     0
102
RTVSPropertyOp52
 70
     0
102
RTVSPropertyOp53
 70
     1
102
RTVSPropertyOp54
 70
     1
102
RTVSPropertyOp55
 70
     1
102
RTVSPropertyOp56
 70
     1
102
RTVSPropertyOp57
 70
     1
102
RTVSPropertyOp58
 70
     1
102
RTVSPropertyOp59
 70
     1
102
RTVSPropertyOp60
 70
     1
102
RTVSPropertyOp61
 70
     1
102
RTVSPropertyOp62
 70
     1
  0
XRECORD
  5
B88A
102
{ACAD_REACTORS
330
B889
102
}
330
B889
100
AcDbXrecord
280
     1
102
RTVSPost2010Prop28
280
     0
102
RTVSPost2010PropOp28
 70
     1
102
RTVSPost2010Prop29
280
     1
102
RTVSPost2010PropOp29
 70
     1
102
RTVSPost2010Prop30
280
     1
102
RTVSPost2010PropOp30
 70
     1
102
RTVSPost2010Prop31
280
     0
102
RTVSPost2010PropOp31
 70
     1
102
RTVSPost2010Prop32
280
     0
102
RTVSPost2010PropOp32
 70
     1
102
RTVSPost2010Prop33
280
     0
102
RTVSPost2010PropOp33
 70
     1
102
RTVSPost2010Prop34
280
     0
102
RTVSPost2010PropOp34
 70
     1
102
RTVSPost2010Prop35
280
     0
102
RTVSPost2010PropOp35
 70
     1
102
RTVSPost2010Prop36
280
     0
102
RTVSPost2010PropOp36
 70
     1
102
RTVSPost2010Prop37
 90
       50
102
RTVSPost2010PropOp37
 70
     1
102
RTVSPost2010Prop38
140
0.0
102
RTVSPost2010PropOp38
 70
     1
102
RTVSPost2010Prop39
140
1.0
102
RTVSPost2010PropOp39
 70
     1
102
RTVSPost2010Prop40
 90
        0
102
RTVSPost2010PropOp40
 70
     1
102
RTVSPost2010Prop41ColorIndex
 90
       18
102
RTVSPost2010Prop41ColorRGB
 90
        0
102
RTVSPost2010PropOp41
 70
     1
102
RTVSPost2010Prop42
 90
       50
102
RTVSPost2010PropOp42
 70
     1
102
RTVSPost2010Prop43
 90
        3
102
RTVSPost2010PropOp43
 70
     1
102
RTVSPost2010Prop44ColorIndex
 90
        5
102
RTVSPost2010Prop44ColorRGB
 90
      255
102
RTVSPost2010PropOp44
 70
     1
102
RTVSPost2010Prop45
280
     0
102
RTVSPost2010PropOp45
 70
     1
102
RTVSPost2010Prop46
 90
       50
102
RTVSPost2010PropOp46
 70
     1
102
RTVSPost2010Prop47
 90
       50
102
RTVSPost2010PropOp47
 70
     1
102
RTVSPost2010Prop48
 90
       50
102
RTVSPost2010PropOp48
 70
     1
102
RTVSPost2010Prop49
280
     0
102
RTVSPost2010PropOp49
 70
     1
102
RTVSPost2010Prop50
 90
       50
102
RTVSPost2010PropOp50
 70
     1
102
RTVSPost2010Prop51ColorIndex
 90
      256
102
RTVSPost2010Prop51ColorRGB
 90
-16777216
102
RTVSPost2010PropOp51
 70
     0
102
RTVSPost2010Prop52
140
1.0
102
RTVSPost2010PropOp52
 70
     0
102
RTVSPost2010Prop53
 90
        2
102
RTVSPost2010PropOp53
 70
     1
102
RTVSPost2010Prop54
  1
strokes_ogs.tif
102
RTVSPost2010PropOp54
 70
     1
102
RTVSPost2010Prop55
280
     0
102
RTVSPost2010PropOp55
 70
     1
102
RTVSPost2010Prop56
140
1.0
102
RTVSPost2010PropOp56
 70
     1
102
RTVSPost2010Prop57
140
1.0
102
RTVSPost2010PropOp57
 70
     1
102
RTVSPropertyOp0
 70
     1
102
RTVSPropertyOp1
 70
     1
102
RTVSPropertyOp2
 70
     1
102
RTVSPropertyOp3
 70
     1
102
RTVSPropertyOp4
 70
     1
102
RTVSPropertyOp5
 70
     1
102
RTVSPropertyOp6
 70
     1
102
RTVSPropertyOp7
 70
     1
102
RTVSPropertyOp8
 70
     1
102
RTVSPropertyOp9
 70
     1
102
RTVSPropertyOp10
 70
     1
102
RTVSPropertyOp11
 70
     1
102
RTVSPropertyOp12
 70
     1
102
RTVSPropertyOp13
 70
     1
102
RTVSPropertyOp14
 70
     1
102
RTVSPropertyOp15
 70
     1
102
RTVSPropertyOp16
 70
     1
102
RTVSPropertyOp17
 70
     1
102
RTVSPropertyOp18
 70
     1
102
RTVSPropertyOp19
 70
     1
102
RTVSPropertyOp20
 70
     1
102
RTVSPropertyOp21
 70
     1
102
RTVSPropertyOp22
 70
     1
102
RTVSPropertyOp23
 70
     1
102
RTVSPropertyOp24
 70
     1
102
RTVSPropertyOp25
 70
     1
102
RTVSPropertyOp26
 70
     1
102
RTVSPropertyOp27
 70
     1
102
RTVSPropertyOp28
 70
     1
102
RTVSPropertyOp29
 70
     1
102
RTVSPropertyOp30
 70
     1
102
RTVSPropertyOp31
 70
     1
102
RTVSPropertyOp32
 70
     1
102
RTVSPropertyOp33
 70
     1
102
RTVSPropertyOp34
 70
     1
102
RTVSPropertyOp35
 70
     1
102
RTVSPropertyOp36
 70
     1
102
RTVSPropertyOp37
 70
     1
102
RTVSPropertyOp38
 70
     1
102
RTVSPropertyOp39
 70
     1
102
RTVSPropertyOp40
 70
     1
102
RTVSPropertyOp41
 70
     1
102
RTVSPropertyOp42
 70
     1
102
RTVSPropertyOp43
 70
     1
102
RTVSPropertyOp44
 70
     1
102
RTVSPropertyOp45
 70
     1
102
RTVSPropertyOp46
 70
     1
102
RTVSPropertyOp47
 70
     1
102
RTVSPropertyOp48
 70
     1
102
RTVSPropertyOp49
 70
     1
102
RTVSPropertyOp50
 70
     1
102
RTVSPropertyOp51
 70
     0
102
RTVSPropertyOp52
 70
     0
102
RTVSPropertyOp53
 70
     1
102
RTVSPropertyOp54
 70
     1
102
RTVSPropertyOp55
 70
     1
102
RTVSPropertyOp56
 70
     1
102
RTVSPropertyOp57
 70
     1
102
RTVSPropertyOp58
 70
     1
102
RTVSPropertyOp59
 70
     1
102
RTVSPropertyOp60
 70
     1
102
RTVSPropertyOp61
 70
     1
102
RTVSPropertyOp62
 70
     1
  0
XRECORD
  5
B892
102
{ACAD_REACTORS
330
B891
102
}
330
B891
100
AcDbXrecord
280
     1
102
RTVSPost2010Prop28
280
     0
102
RTVSPost2010PropOp28
 70
     1
102
RTVSPost2010Prop29
280
     1
102
RTVSPost2010PropOp29
 70
     1
102
RTVSPost2010Prop30
280
     1
102
RTVSPost2010PropOp30
 70
     1
102
RTVSPost2010Prop31
280
     0
102
RTVSPost2010PropOp31
 70
     1
102
RTVSPost2010Prop32
280
     0
102
RTVSPost2010PropOp32
 70
     1
102
RTVSPost2010Prop33
280
     0
102
RTVSPost2010PropOp33
 70
     1
102
RTVSPost2010Prop34
280
     0
102
RTVSPost2010PropOp34
 70
     1
102
RTVSPost2010Prop35
280
     0
102
RTVSPost2010PropOp35
 70
     1
102
RTVSPost2010Prop36
280
     0
102
RTVSPost2010PropOp36
 70
     1
102
RTVSPost2010Prop37
 90
       50
102
RTVSPost2010PropOp37
 70
     1
102
RTVSPost2010Prop38
140
0.0
102
RTVSPost2010PropOp38
 70
     1
102
RTVSPost2010Prop39
140
1.0
102
RTVSPost2010PropOp39
 70
     1
102
RTVSPost2010Prop40
 90
        0
102
RTVSPost2010PropOp40
 70
     1
102
RTVSPost2010Prop41ColorIndex
 90
       18
102
RTVSPost2010Prop41ColorRGB
 90
        0
102
RTVSPost2010PropOp41
 70
     1
102
RTVSPost2010Prop42
 90
       50
102
RTVSPost2010PropOp42
 70
     1
102
RTVSPost2010Prop43
 90
        3
102
RTVSPost2010PropOp43
 70
     1
102
RTVSPost2010Prop44ColorIndex
 90
        5
102
RTVSPost2010Prop44ColorRGB
 90
      255
102
RTVSPost2010PropOp44
 70
     1
102
RTVSPost2010Prop45
280
     0
102
RTVSPost2010PropOp45
 70
     1
102
RTVSPost2010Prop46
 90
       50
102
RTVSPost2010PropOp46
 70
     1
102
RTVSPost2010Prop47
 90
       50
102
RTVSPost2010PropOp47
 70
     1
102
RTVSPost2010Prop48
 90
       50
102
RTVSPost2010PropOp48
 70
     1
102
RTVSPost2010Prop49
280
     0
102
RTVSPost2010PropOp49
 70
     1
102
RTVSPost2010Prop50
 90
       50
102
RTVSPost2010PropOp50
 70
     1
102
RTVSPost2010Prop51ColorIndex
 90
      256
102
RTVSPost2010Prop51ColorRGB
 90
-16777216
102
RTVSPost2010PropOp51
 70
     0
102
RTVSPost2010Prop52
140
1.0
102
RTVSPost2010PropOp52
 70
     0
102
RTVSPost2010Prop53
 90
        2
102
RTVSPost2010PropOp53
 70
     1
102
RTVSPost2010Prop54
  1
strokes_ogs.tif
102
RTVSPost2010PropOp54
 70
     1
102
RTVSPost2010Prop55
280
     0
102
RTVSPost2010PropOp55
 70
     1
102
RTVSPost2010Prop56
140
1.0
102
RTVSPost2010PropOp56
 70
     1
102
RTVSPost2010Prop57
140
1.0
102
RTVSPost2010PropOp57
 70
     1
102
RTVSPropertyOp0
 70
     1
102
RTVSPropertyOp1
 70
     1
102
RTVSPropertyOp2
 70
     1
102
RTVSPropertyOp3
 70
     1
102
RTVSPropertyOp4
 70
     1
102
RTVSPropertyOp5
 70
     1
102
RTVSPropertyOp6
 70
     1
102
RTVSPropertyOp7
 70
     1
102
RTVSPropertyOp8
 70
     1
102
RTVSPropertyOp9
 70
     1
102
RTVSPropertyOp10
 70
     1
102
RTVSPropertyOp11
 70
     1
102
RTVSPropertyOp12
 70
     1
102
RTVSPropertyOp13
 70
     1
102
RTVSPropertyOp14
 70
     1
102
RTVSPropertyOp15
 70
     1
102
RTVSPropertyOp16
 70
     1
102
RTVSPropertyOp17
 70
     1
102
RTVSPropertyOp18
 70
     1
102
RTVSPropertyOp19
 70
     1
102
RTVSPropertyOp20
 70
     1
102
RTVSPropertyOp21
 70
     1
102
RTVSPropertyOp22
 70
     1
102
RTVSPropertyOp23
 70
     1
102
RTVSPropertyOp24
 70
     1
102
RTVSPropertyOp25
 70
     1
102
RTVSPropertyOp26
 70
     1
102
RTVSPropertyOp27
 70
     1
102
RTVSPropertyOp28
 70
     1
102
RTVSPropertyOp29
 70
     1
102
RTVSPropertyOp30
 70
     1
102
RTVSPropertyOp31
 70
     1
102
RTVSPropertyOp32
 70
     1
102
RTVSPropertyOp33
 70
     1
102
RTVSPropertyOp34
 70
     1
102
RTVSPropertyOp35
 70
     1
102
RTVSPropertyOp36
 70
     1
102
RTVSPropertyOp37
 70
     1
102
RTVSPropertyOp38
 70
     1
102
RTVSPropertyOp39
 70
     1
102
RTVSPropertyOp40
 70
     1
102
RTVSPropertyOp41
 70
     1
102
RTVSPropertyOp42
 70
     1
102
RTVSPropertyOp43
 70
     1
102
RTVSPropertyOp44
 70
     1
102
RTVSPropertyOp45
 70
     1
102
RTVSPropertyOp46
 70
     1
102
RTVSPropertyOp47
 70
     1
102
RTVSPropertyOp48
 70
     1
102
RTVSPropertyOp49
 70
     1
102
RTVSPropertyOp50
 70
     1
102
RTVSPropertyOp51
 70
     0
102
RTVSPropertyOp52
 70
     0
102
RTVSPropertyOp53
 70
     1
102
RTVSPropertyOp54
 70
     1
102
RTVSPropertyOp55
 70
     1
102
RTVSPropertyOp56
 70
     1
102
RTVSPropertyOp57
 70
     1
102
RTVSPropertyOp58
 70
     1
102
RTVSPropertyOp59
 70
     1
102
RTVSPropertyOp60
 70
     1
102
RTVSPropertyOp61
 70
     1
102
RTVSPropertyOp62
 70
     1
  0
XRECORD
  5
B8AE
102
{ACAD_REACTORS
330
B8AD
102
}
330
B8AD
100
AcDbXrecord
280
     1
102
RTVSPost2010Prop28
280
     0
102
RTVSPost2010PropOp28
 70
     1
102
RTVSPost2010Prop29
280
     1
102
RTVSPost2010PropOp29
 70
     1
102
RTVSPost2010Prop30
280
     1
102
RTVSPost2010PropOp30
 70
     1
102
RTVSPost2010Prop31
280
     0
102
RTVSPost2010PropOp31
 70
     1
102
RTVSPost2010Prop32
280
     0
102
RTVSPost2010PropOp32
 70
     1
102
RTVSPost2010Prop33
280
     0
102
RTVSPost2010PropOp33
 70
     1
102
RTVSPost2010Prop34
280
     0
102
RTVSPost2010PropOp34
 70
     1
102
RTVSPost2010Prop35
280
     0
102
RTVSPost2010PropOp35
 70
     1
102
RTVSPost2010Prop36
280
     0
102
RTVSPost2010PropOp36
 70
     1
102
RTVSPost2010Prop37
 90
       50
102
RTVSPost2010PropOp37
 70
     0
102
RTVSPost2010Prop38
140
0.0
102
RTVSPost2010PropOp38
 70
     0
102
RTVSPost2010Prop39
140
1.0
102
RTVSPost2010PropOp39
 70
     0
102
RTVSPost2010Prop40
 90
        0
102
RTVSPost2010PropOp40
 70
     0
102
RTVSPost2010Prop41ColorIndex
 90
       18
102
RTVSPost2010Prop41ColorRGB
 90
        0
102
RTVSPost2010PropOp41
 70
     0
102
RTVSPost2010Prop42
 90
       50
102
RTVSPost2010PropOp42
 70
     0
102
RTVSPost2010Prop43
 90
        3
102
RTVSPost2010PropOp43
 70
     0
102
RTVSPost2010Prop44ColorIndex
 90
        5
102
RTVSPost2010Prop44ColorRGB
 90
      255
102
RTVSPost2010PropOp44
 70
     0
102
RTVSPost2010Prop45
280
     0
102
RTVSPost2010PropOp45
 70
     1
102
RTVSPost2010Prop46
 90
       50
102
RTVSPost2010PropOp46
 70
     0
102
RTVSPost2010Prop47
 90
       50
102
RTVSPost2010PropOp47
 70
     0
102
RTVSPost2010Prop48
 90
       50
102
RTVSPost2010PropOp48
 70
     0
102
RTVSPost2010Prop49
280
     0
102
RTVSPost2010PropOp49
 70
     1
102
RTVSPost2010Prop50
 90
       50
102
RTVSPost2010PropOp50
 70
     0
102
RTVSPost2010Prop51ColorIndex
 90
      256
102
RTVSPost2010Prop51ColorRGB
 90
-16777216
102
RTVSPost2010PropOp51
 70
     0
102
RTVSPost2010Prop52
140
1.0
102
RTVSPost2010PropOp52
 70
     0
102
RTVSPost2010Prop53
 90
        2
102
RTVSPost2010PropOp53
 70
     0
102
RTVSPost2010Prop54
  1
strokes_ogs.tif
102
RTVSPost2010PropOp54
 70
     0
102
RTVSPost2010Prop55
280
     0
102
RTVSPost2010PropOp55
 70
     1
102
RTVSPost2010Prop56
140
1.0
102
RTVSPost2010PropOp56
 70
     0
102
RTVSPost2010Prop57
140
1.0
102
RTVSPost2010PropOp57
 70
     0
102
RTVSPropertyOp0
 70
     0
102
RTVSPropertyOp1
 70
     0
102
RTVSPropertyOp2
 70
     0
102
RTVSPropertyOp3
 70
     0
102
RTVSPropertyOp4
 70
     0
102
RTVSPropertyOp5
 70
     0
102
RTVSPropertyOp6
 70
     0
102
RTVSPropertyOp7
 70
     0
102
RTVSPropertyOp8
 70
     0
102
RTVSPropertyOp9
 70
     0
102
RTVSPropertyOp10
 70
     0
102
RTVSPropertyOp11
 70
     0
102
RTVSPropertyOp12
 70
     0
102
RTVSPropertyOp13
 70
     0
102
RTVSPropertyOp14
 70
     2
102
RTVSPropertyOp15
 70
     0
102
RTVSPropertyOp16
 70
     0
102
RTVSPropertyOp17
 70
     0
102
RTVSPropertyOp18
 70
     0
102
RTVSPropertyOp19
 70
     0
102
RTVSPropertyOp20
 70
     0
102
RTVSPropertyOp21
 70
     0
102
RTVSPropertyOp22
 70
     0
102
RTVSPropertyOp23
 70
     0
102
RTVSPropertyOp24
 70
     0
102
RTVSPropertyOp25
 70
     0
102
RTVSPropertyOp26
 70
     0
102
RTVSPropertyOp27
 70
     0
102
RTVSPropertyOp28
 70
     1
102
RTVSPropertyOp29
 70
     1
102
RTVSPropertyOp30
 70
     1
102
RTVSPropertyOp31
 70
     1
102
RTVSPropertyOp32
 70
     1
102
RTVSPropertyOp33
 70
     1
102
RTVSPropertyOp34
 70
     1
102
RTVSPropertyOp35
 70
     1
102
RTVSPropertyOp36
 70
     1
102
RTVSPropertyOp37
 70
     0
102
RTVSPropertyOp38
 70
     0
102
RTVSPropertyOp39
 70
     0
102
RTVSPropertyOp40
 70
     0
102
RTVSPropertyOp41
 70
     0
102
RTVSPropertyOp42
 70
     0
102
RTVSPropertyOp43
 70
     0
102
RTVSPropertyOp44
 70
     0
102
RTVSPropertyOp45
 70
     1
102
RTVSPropertyOp46
 70
     0
102
RTVSPropertyOp47
 70
     0
102
RTVSPropertyOp48
 70
     0
102
RTVSPropertyOp49
 70
     1
102
RTVSPropertyOp50
 70
     0
102
RTVSPropertyOp51
 70
     0
102
RTVSPropertyOp52
 70
     0
102
RTVSPropertyOp53
 70
     0
102
RTVSPropertyOp54
 70
     0
102
RTVSPropertyOp55
 70
     1
102
RTVSPropertyOp56
 70
     0
102
RTVSPropertyOp57
 70
     0
102
RTVSPropertyOp58
 70
     0
102
RTVSPropertyOp59
 70
     0
102
RTVSPropertyOp60
 70
     0
102
RTVSPropertyOp61
 70
     0
102
RTVSPropertyOp62
 70
     0
  0
XRECORD
  5
B89E
102
{ACAD_REACTORS
330
B89D
102
}
330
B89D
100
AcDbXrecord
280
     1
102
RTVSPost2010Prop28
280
     0
102
RTVSPost2010PropOp28
 70
     1
102
RTVSPost2010Prop29
280
     1
102
RTVSPost2010PropOp29
 70
     1
102
RTVSPost2010Prop30
280
     1
102
RTVSPost2010PropOp30
 70
     1
102
RTVSPost2010Prop31
280
     0
102
RTVSPost2010PropOp31
 70
     1
102
RTVSPost2010Prop32
280
     0
102
RTVSPost2010PropOp32
 70
     1
102
RTVSPost2010Prop33
280
     0
102
RTVSPost2010PropOp33
 70
     1
102
RTVSPost2010Prop34
280
     0
102
RTVSPost2010PropOp34
 70
     1
102
RTVSPost2010Prop35
280
     0
102
RTVSPost2010PropOp35
 70
     1
102
RTVSPost2010Prop36
280
     0
102
RTVSPost2010PropOp36
 70
     1
102
RTVSPost2010Prop37
 90
       50
102
RTVSPost2010PropOp37
 70
     1
102
RTVSPost2010Prop38
140
0.0
102
RTVSPost2010PropOp38
 70
     1
102
RTVSPost2010Prop39
140
1.0
102
RTVSPost2010PropOp39
 70
     1
102
RTVSPost2010Prop40
 90
        0
102
RTVSPost2010PropOp40
 70
     1
102
RTVSPost2010Prop41ColorIndex
 90
       18
102
RTVSPost2010Prop41ColorRGB
 90
        0
102
RTVSPost2010PropOp41
 70
     1
102
RTVSPost2010Prop42
 90
       50
102
RTVSPost2010PropOp42
 70
     1
102
RTVSPost2010Prop43
 90
        3
102
RTVSPost2010PropOp43
 70
     1
102
RTVSPost2010Prop44ColorIndex
 90
        5
102
RTVSPost2010Prop44ColorRGB
 90
      255
102
RTVSPost2010PropOp44
 70
     1
102
RTVSPost2010Prop45
280
     0
102
RTVSPost2010PropOp45
 70
     1
102
RTVSPost2010Prop46
 90
       50
102
RTVSPost2010PropOp46
 70
     1
102
RTVSPost2010Prop47
 90
       50
102
RTVSPost2010PropOp47
 70
     1
102
RTVSPost2010Prop48
 90
       50
102
RTVSPost2010PropOp48
 70
     1
102
RTVSPost2010Prop49
280
     0
102
RTVSPost2010PropOp49
 70
     1
102
RTVSPost2010Prop50
 90
       50
102
RTVSPost2010PropOp50
 70
     1
102
RTVSPost2010Prop51ColorIndex
 90
      256
102
RTVSPost2010Prop51ColorRGB
 90
-16777216
102
RTVSPost2010PropOp51
 70
     0
102
RTVSPost2010Prop52
140
1.0
102
RTVSPost2010PropOp52
 70
     0
102
RTVSPost2010Prop53
 90
        2
102
RTVSPost2010PropOp53
 70
     1
102
RTVSPost2010Prop54
  1
strokes_ogs.tif
102
RTVSPost2010PropOp54
 70
     1
102
RTVSPost2010Prop55
280
     0
102
RTVSPost2010PropOp55
 70
     1
102
RTVSPost2010Prop56
140
1.0
102
RTVSPost2010PropOp56
 70
     1
102
RTVSPost2010Prop57
140
1.0
102
RTVSPost2010PropOp57
 70
     1
102
RTVSPropertyOp0
 70
     1
102
RTVSPropertyOp1
 70
     1
102
RTVSPropertyOp2
 70
     1
102
RTVSPropertyOp3
 70
     1
102
RTVSPropertyOp4
 70
     1
102
RTVSPropertyOp5
 70
     1
102
RTVSPropertyOp6
 70
     1
102
RTVSPropertyOp7
 70
     1
102
RTVSPropertyOp8
 70
     1
102
RTVSPropertyOp9
 70
     1
102
RTVSPropertyOp10
 70
     1
102
RTVSPropertyOp11
 70
     1
102
RTVSPropertyOp12
 70
     1
102
RTVSPropertyOp13
 70
     1
102
RTVSPropertyOp14
 70
     1
102
RTVSPropertyOp15
 70
     1
102
RTVSPropertyOp16
 70
     1
102
RTVSPropertyOp17
 70
     1
102
RTVSPropertyOp18
 70
     1
102
RTVSPropertyOp19
 70
     1
102
RTVSPropertyOp20
 70
     1
102
RTVSPropertyOp21
 70
     1
102
RTVSPropertyOp22
 70
     1
102
RTVSPropertyOp23
 70
     1
102
RTVSPropertyOp24
 70
     1
102
RTVSPropertyOp25
 70
     1
102
RTVSPropertyOp26
 70
     1
102
RTVSPropertyOp27
 70
     1
102
RTVSPropertyOp28
 70
     1
102
RTVSPropertyOp29
 70
     1
102
RTVSPropertyOp30
 70
     1
102
RTVSPropertyOp31
 70
     1
102
RTVSPropertyOp32
 70
     1
102
RTVSPropertyOp33
 70
     1
102
RTVSPropertyOp34
 70
     1
102
RTVSPropertyOp35
 70
     1
102
RTVSPropertyOp36
 70
     1
102
RTVSPropertyOp37
 70
     1
102
RTVSPropertyOp38
 70
     1
102
RTVSPropertyOp39
 70
     1
102
RTVSPropertyOp40
 70
     1
102
RTVSPropertyOp41
 70
     1
102
RTVSPropertyOp42
 70
     1
102
RTVSPropertyOp43
 70
     1
102
RTVSPropertyOp44
 70
     1
102
RTVSPropertyOp45
 70
     1
102
RTVSPropertyOp46
 70
     1
102
RTVSPropertyOp47
 70
     1
102
RTVSPropertyOp48
 70
     1
102
RTVSPropertyOp49
 70
     1
102
RTVSPropertyOp50
 70
     1
102
RTVSPropertyOp51
 70
     0
102
RTVSPropertyOp52
 70
     0
102
RTVSPropertyOp53
 70
     1
102
RTVSPropertyOp54
 70
     1
102
RTVSPropertyOp55
 70
     1
102
RTVSPropertyOp56
 70
     1
102
RTVSPropertyOp57
 70
     1
102
RTVSPropertyOp58
 70
     1
102
RTVSPropertyOp59
 70
     1
102
RTVSPropertyOp60
 70
     1
102
RTVSPropertyOp61
 70
     1
102
RTVSPropertyOp62
 70
     1
  0
XRECORD
  5
B8B0
102
{ACAD_REACTORS
330
B8AF
102
}
330
B8AF
100
AcDbXrecord
280
     1
102
RTVSPost2010Prop28
280
     0
102
RTVSPost2010PropOp28
 70
     1
102
RTVSPost2010Prop29
280
     1
102
RTVSPost2010PropOp29
 70
     1
102
RTVSPost2010Prop30
280
     1
102
RTVSPost2010PropOp30
 70
     1
102
RTVSPost2010Prop31
280
     0
102
RTVSPost2010PropOp31
 70
     1
102
RTVSPost2010Prop32
280
     0
102
RTVSPost2010PropOp32
 70
     1
102
RTVSPost2010Prop33
280
     0
102
RTVSPost2010PropOp33
 70
     1
102
RTVSPost2010Prop34
280
     0
102
RTVSPost2010PropOp34
 70
     1
102
RTVSPost2010Prop35
280
     0
102
RTVSPost2010PropOp35
 70
     1
102
RTVSPost2010Prop36
280
     0
102
RTVSPost2010PropOp36
 70
     1
102
RTVSPost2010Prop37
 90
       50
102
RTVSPost2010PropOp37
 70
     0
102
RTVSPost2010Prop38
140
0.0
102
RTVSPost2010PropOp38
 70
     0
102
RTVSPost2010Prop39
140
1.0
102
RTVSPost2010PropOp39
 70
     0
102
RTVSPost2010Prop40
 90
        0
102
RTVSPost2010PropOp40
 70
     0
102
RTVSPost2010Prop41ColorIndex
 90
       18
102
RTVSPost2010Prop41ColorRGB
 90
        0
102
RTVSPost2010PropOp41
 70
     0
102
RTVSPost2010Prop42
 90
       50
102
RTVSPost2010PropOp42
 70
     0
102
RTVSPost2010Prop43
 90
        3
102
RTVSPost2010PropOp43
 70
     0
102
RTVSPost2010Prop44ColorIndex
 90
        5
102
RTVSPost2010Prop44ColorRGB
 90
      255
102
RTVSPost2010PropOp44
 70
     0
102
RTVSPost2010Prop45
280
     0
102
RTVSPost2010PropOp45
 70
     1
102
RTVSPost2010Prop46
 90
       50
102
RTVSPost2010PropOp46
 70
     0
102
RTVSPost2010Prop47
 90
       50
102
RTVSPost2010PropOp47
 70
     0
102
RTVSPost2010Prop48
 90
       50
102
RTVSPost2010PropOp48
 70
     0
102
RTVSPost2010Prop49
280
     0
102
RTVSPost2010PropOp49
 70
     1
102
RTVSPost2010Prop50
 90
       50
102
RTVSPost2010PropOp50
 70
     0
102
RTVSPost2010Prop51ColorIndex
 90
      256
102
RTVSPost2010Prop51ColorRGB
 90
-16777216
102
RTVSPost2010PropOp51
 70
     0
102
RTVSPost2010Prop52
140
1.0
102
RTVSPost2010PropOp52
 70
     0
102
RTVSPost2010Prop53
 90
        2
102
RTVSPost2010PropOp53
 70
     0
102
RTVSPost2010Prop54
  1
strokes_ogs.tif
102
RTVSPost2010PropOp54
 70
     0
102
RTVSPost2010Prop55
280
     0
102
RTVSPost2010PropOp55
 70
     1
102
RTVSPost2010Prop56
140
1.0
102
RTVSPost2010PropOp56
 70
     0
102
RTVSPost2010Prop57
140
1.0
102
RTVSPost2010PropOp57
 70
     0
102
RTVSPropertyOp0
 70
     0
102
RTVSPropertyOp1
 70
     0
102
RTVSPropertyOp2
 70
     0
102
RTVSPropertyOp3
 70
     0
102
RTVSPropertyOp4
 70
     0
102
RTVSPropertyOp5
 70
     0
102
RTVSPropertyOp6
 70
     0
102
RTVSPropertyOp7
 70
     0
102
RTVSPropertyOp8
 70
     0
102
RTVSPropertyOp9
 70
     0
102
RTVSPropertyOp10
 70
     0
102
RTVSPropertyOp11
 70
     0
102
RTVSPropertyOp12
 70
     0
102
RTVSPropertyOp13
 70
     0
102
RTVSPropertyOp14
 70
     2
102
RTVSPropertyOp15
 70
     0
102
RTVSPropertyOp16
 70
     0
102
RTVSPropertyOp17
 70
     0
102
RTVSPropertyOp18
 70
     0
102
RTVSPropertyOp19
 70
     0
102
RTVSPropertyOp20
 70
     0
102
RTVSPropertyOp21
 70
     0
102
RTVSPropertyOp22
 70
     0
102
RTVSPropertyOp23
 70
     0
102
RTVSPropertyOp24
 70
     0
102
RTVSPropertyOp25
 70
     0
102
RTVSPropertyOp26
 70
     0
102
RTVSPropertyOp27
 70
     0
102
RTVSPropertyOp28
 70
     1
102
RTVSPropertyOp29
 70
     1
102
RTVSPropertyOp30
 70
     1
102
RTVSPropertyOp31
 70
     1
102
RTVSPropertyOp32
 70
     1
102
RTVSPropertyOp33
 70
     1
102
RTVSPropertyOp34
 70
     1
102
RTVSPropertyOp35
 70
     1
102
RTVSPropertyOp36
 70
     1
102
RTVSPropertyOp37
 70
     0
102
RTVSPropertyOp38
 70
     0
102
RTVSPropertyOp39
 70
     0
102
RTVSPropertyOp40
 70
     0
102
RTVSPropertyOp41
 70
     0
102
RTVSPropertyOp42
 70
     0
102
RTVSPropertyOp43
 70
     0
102
RTVSPropertyOp44
 70
     0
102
RTVSPropertyOp45
 70
     1
102
RTVSPropertyOp46
 70
     0
102
RTVSPropertyOp47
 70
     0
102
RTVSPropertyOp48
 70
     0
102
RTVSPropertyOp49
 70
     1
102
RTVSPropertyOp50
 70
     0
102
RTVSPropertyOp51
 70
     0
102
RTVSPropertyOp52
 70
     0
102
RTVSPropertyOp53
 70
     0
102
RTVSPropertyOp54
 70
     0
102
RTVSPropertyOp55
 70
     1
102
RTVSPropertyOp56
 70
     0
102
RTVSPropertyOp57
 70
     0
102
RTVSPropertyOp58
 70
     0
102
RTVSPropertyOp59
 70
     0
102
RTVSPropertyOp60
 70
     0
102
RTVSPropertyOp61
 70
     0
102
RTVSPropertyOp62
 70
     0
  0
XRECORD
  5
B896
102
{ACAD_REACTORS
330
B895
102
}
330
B895
100
AcDbXrecord
280
     1
102
RTVSPost2010Prop28
280
     0
102
RTVSPost2010PropOp28
 70
     1
102
RTVSPost2010Prop29
280
     1
102
RTVSPost2010PropOp29
 70
     1
102
RTVSPost2010Prop30
280
     1
102
RTVSPost2010PropOp30
 70
     1
102
RTVSPost2010Prop31
280
     0
102
RTVSPost2010PropOp31
 70
     1
102
RTVSPost2010Prop32
280
     0
102
RTVSPost2010PropOp32
 70
     1
102
RTVSPost2010Prop33
280
     0
102
RTVSPost2010PropOp33
 70
     1
102
RTVSPost2010Prop34
280
     0
102
RTVSPost2010PropOp34
 70
     1
102
RTVSPost2010Prop35
280
     0
102
RTVSPost2010PropOp35
 70
     1
102
RTVSPost2010Prop36
280
     0
102
RTVSPost2010PropOp36
 70
     1
102
RTVSPost2010Prop37
 90
       50
102
RTVSPost2010PropOp37
 70
     1
102
RTVSPost2010Prop38
140
0.0
102
RTVSPost2010PropOp38
 70
     1
102
RTVSPost2010Prop39
140
1.0
102
RTVSPost2010PropOp39
 70
     1
102
RTVSPost2010Prop40
 90
        0
102
RTVSPost2010PropOp40
 70
     1
102
RTVSPost2010Prop41ColorIndex
 90
       18
102
RTVSPost2010Prop41ColorRGB
 90
        0
102
RTVSPost2010PropOp41
 70
     1
102
RTVSPost2010Prop42
 90
       50
102
RTVSPost2010PropOp42
 70
     1
102
RTVSPost2010Prop43
 90
        3
102
RTVSPost2010PropOp43
 70
     1
102
RTVSPost2010Prop44ColorIndex
 90
        5
102
RTVSPost2010Prop44ColorRGB
 90
      255
102
RTVSPost2010PropOp44
 70
     1
102
RTVSPost2010Prop45
280
     0
102
RTVSPost2010PropOp45
 70
     1
102
RTVSPost2010Prop46
 90
       50
102
RTVSPost2010PropOp46
 70
     1
102
RTVSPost2010Prop47
 90
       50
102
RTVSPost2010PropOp47
 70
     1
102
RTVSPost2010Prop48
 90
       50
102
RTVSPost2010PropOp48
 70
     1
102
RTVSPost2010Prop49
280
     0
102
RTVSPost2010PropOp49
 70
     1
102
RTVSPost2010Prop50
 90
       50
102
RTVSPost2010PropOp50
 70
     1
102
RTVSPost2010Prop51ColorIndex
 90
      256
102
RTVSPost2010Prop51ColorRGB
 90
-16777216
102
RTVSPost2010PropOp51
 70
     0
102
RTVSPost2010Prop52
140
1.0
102
RTVSPost2010PropOp52
 70
     0
102
RTVSPost2010Prop53
 90
        2
102
RTVSPost2010PropOp53
 70
     1
102
RTVSPost2010Prop54
  1
strokes_ogs.tif
102
RTVSPost2010PropOp54
 70
     1
102
RTVSPost2010Prop55
280
     0
102
RTVSPost2010PropOp55
 70
     1
102
RTVSPost2010Prop56
140
1.0
102
RTVSPost2010PropOp56
 70
     1
102
RTVSPost2010Prop57
140
1.0
102
RTVSPost2010PropOp57
 70
     1
102
RTVSPropertyOp0
 70
     1
102
RTVSPropertyOp1
 70
     1
102
RTVSPropertyOp2
 70
     1
102
RTVSPropertyOp3
 70
     1
102
RTVSPropertyOp4
 70
     1
102
RTVSPropertyOp5
 70
     1
102
RTVSPropertyOp6
 70
     1
102
RTVSPropertyOp7
 70
     1
102
RTVSPropertyOp8
 70
     1
102
RTVSPropertyOp9
 70
     1
102
RTVSPropertyOp10
 70
     1
102
RTVSPropertyOp11
 70
     1
102
RTVSPropertyOp12
 70
     1
102
RTVSPropertyOp13
 70
     1
102
RTVSPropertyOp14
 70
     1
102
RTVSPropertyOp15
 70
     1
102
RTVSPropertyOp16
 70
     1
102
RTVSPropertyOp17
 70
     1
102
RTVSPropertyOp18
 70
     1
102
RTVSPropertyOp19
 70
     1
102
RTVSPropertyOp20
 70
     1
102
RTVSPropertyOp21
 70
     1
102
RTVSPropertyOp22
 70
     1
102
RTVSPropertyOp23
 70
     1
102
RTVSPropertyOp24
 70
     1
102
RTVSPropertyOp25
 70
     1
102
RTVSPropertyOp26
 70
     1
102
RTVSPropertyOp27
 70
     1
102
RTVSPropertyOp28
 70
     1
102
RTVSPropertyOp29
 70
     1
102
RTVSPropertyOp30
 70
     1
102
RTVSPropertyOp31
 70
     1
102
RTVSPropertyOp32
 70
     1
102
RTVSPropertyOp33
 70
     1
102
RTVSPropertyOp34
 70
     1
102
RTVSPropertyOp35
 70
     1
102
RTVSPropertyOp36
 70
     1
102
RTVSPropertyOp37
 70
     1
102
RTVSPropertyOp38
 70
     1
102
RTVSPropertyOp39
 70
     1
102
RTVSPropertyOp40
 70
     1
102
RTVSPropertyOp41
 70
     1
102
RTVSPropertyOp42
 70
     1
102
RTVSPropertyOp43
 70
     1
102
RTVSPropertyOp44
 70
     1
102
RTVSPropertyOp45
 70
     1
102
RTVSPropertyOp46
 70
     1
102
RTVSPropertyOp47
 70
     1
102
RTVSPropertyOp48
 70
     1
102
RTVSPropertyOp49
 70
     1
102
RTVSPropertyOp50
 70
     1
102
RTVSPropertyOp51
 70
     0
102
RTVSPropertyOp52
 70
     0
102
RTVSPropertyOp53
 70
     1
102
RTVSPropertyOp54
 70
     1
102
RTVSPropertyOp55
 70
     1
102
RTVSPropertyOp56
 70
     1
102
RTVSPropertyOp57
 70
     1
102
RTVSPropertyOp58
 70
     1
102
RTVSPropertyOp59
 70
     1
102
RTVSPropertyOp60
 70
     1
102
RTVSPropertyOp61
 70
     1
102
RTVSPropertyOp62
 70
     1
  0
XRECORD
  5
B8AC
102
{ACAD_REACTORS
330
B8AB
102
}
330
B8AB
100
AcDbXrecord
280
     1
102
RTVSPost2010Prop28
280
     0
102
RTVSPost2010PropOp28
 70
     1
102
RTVSPost2010Prop29
280
     1
102
RTVSPost2010PropOp29
 70
     1
102
RTVSPost2010Prop30
280
     1
102
RTVSPost2010PropOp30
 70
     1
102
RTVSPost2010Prop31
280
     0
102
RTVSPost2010PropOp31
 70
     1
102
RTVSPost2010Prop32
280
     0
102
RTVSPost2010PropOp32
 70
     1
102
RTVSPost2010Prop33
280
     0
102
RTVSPost2010PropOp33
 70
     1
102
RTVSPost2010Prop34
280
     0
102
RTVSPost2010PropOp34
 70
     1
102
RTVSPost2010Prop35
280
     0
102
RTVSPost2010PropOp35
 70
     1
102
RTVSPost2010Prop36
280
     0
102
RTVSPost2010PropOp36
 70
     1
102
RTVSPost2010Prop37
 90
       50
102
RTVSPost2010PropOp37
 70
     1
102
RTVSPost2010Prop38
140
0.0
102
RTVSPost2010PropOp38
 70
     1
102
RTVSPost2010Prop39
140
1.0
102
RTVSPost2010PropOp39
 70
     1
102
RTVSPost2010Prop40
 90
        0
102
RTVSPost2010PropOp40
 70
     1
102
RTVSPost2010Prop41ColorIndex
 90
       18
102
RTVSPost2010Prop41ColorRGB
 90
        0
102
RTVSPost2010PropOp41
 70
     1
102
RTVSPost2010Prop42
 90
       50
102
RTVSPost2010PropOp42
 70
     1
102
RTVSPost2010Prop43
 90
        3
102
RTVSPost2010PropOp43
 70
     1
102
RTVSPost2010Prop44ColorIndex
 90
        5
102
RTVSPost2010Prop44ColorRGB
 90
      255
102
RTVSPost2010PropOp44
 70
     1
102
RTVSPost2010Prop45
280
     0
102
RTVSPost2010PropOp45
 70
     1
102
RTVSPost2010Prop46
 90
       50
102
RTVSPost2010PropOp46
 70
     1
102
RTVSPost2010Prop47
 90
       50
102
RTVSPost2010PropOp47
 70
     1
102
RTVSPost2010Prop48
 90
       50
102
RTVSPost2010PropOp48
 70
     1
102
RTVSPost2010Prop49
280
     0
102
RTVSPost2010PropOp49
 70
     1
102
RTVSPost2010Prop50
 90
       50
102
RTVSPost2010PropOp50
 70
     1
102
RTVSPost2010Prop51ColorIndex
 90
      256
102
RTVSPost2010Prop51ColorRGB
 90
-16777216
102
RTVSPost2010PropOp51
 70
     0
102
RTVSPost2010Prop52
140
1.0
102
RTVSPost2010PropOp52
 70
     0
102
RTVSPost2010Prop53
 90
        2
102
RTVSPost2010PropOp53
 70
     1
102
RTVSPost2010Prop54
  1
strokes_ogs.tif
102
RTVSPost2010PropOp54
 70
     1
102
RTVSPost2010Prop55
280
     0
102
RTVSPost2010PropOp55
 70
     1
102
RTVSPost2010Prop56
140
1.0
102
RTVSPost2010PropOp56
 70
     1
102
RTVSPost2010Prop57
140
1.0
102
RTVSPost2010PropOp57
 70
     1
102
RTVSPropertyOp0
 70
     1
102
RTVSPropertyOp1
 70
     1
102
RTVSPropertyOp2
 70
     1
102
RTVSPropertyOp3
 70
     1
102
RTVSPropertyOp4
 70
     1
102
RTVSPropertyOp5
 70
     1
102
RTVSPropertyOp6
 70
     1
102
RTVSPropertyOp7
 70
     1
102
RTVSPropertyOp8
 70
     1
102
RTVSPropertyOp9
 70
     1
102
RTVSPropertyOp10
 70
     1
102
RTVSPropertyOp11
 70
     1
102
RTVSPropertyOp12
 70
     1
102
RTVSPropertyOp13
 70
     1
102
RTVSPropertyOp14
 70
     1
102
RTVSPropertyOp15
 70
     1
102
RTVSPropertyOp16
 70
     1
102
RTVSPropertyOp17
 70
     1
102
RTVSPropertyOp18
 70
     1
102
RTVSPropertyOp19
 70
     1
102
RTVSPropertyOp20
 70
     1
102
RTVSPropertyOp21
 70
     1
102
RTVSPropertyOp22
 70
     1
102
RTVSPropertyOp23
 70
     1
102
RTVSPropertyOp24
 70
     1
102
RTVSPropertyOp25
 70
     1
102
RTVSPropertyOp26
 70
     1
102
RTVSPropertyOp27
 70
     1
102
RTVSPropertyOp28
 70
     1
102
RTVSPropertyOp29
 70
     1
102
RTVSPropertyOp30
 70
     1
102
RTVSPropertyOp31
 70
     1
102
RTVSPropertyOp32
 70
     1
102
RTVSPropertyOp33
 70
     1
102
RTVSPropertyOp34
 70
     1
102
RTVSPropertyOp35
 70
     1
102
RTVSPropertyOp36
 70
     1
102
RTVSPropertyOp37
 70
     1
102
RTVSPropertyOp38
 70
     1
102
RTVSPropertyOp39
 70
     1
102
RTVSPropertyOp40
 70
     1
102
RTVSPropertyOp41
 70
     1
102
RTVSPropertyOp42
 70
     1
102
RTVSPropertyOp43
 70
     1
102
RTVSPropertyOp44
 70
     1
102
RTVSPropertyOp45
 70
     1
102
RTVSPropertyOp46
 70
     1
102
RTVSPropertyOp47
 70
     1
102
RTVSPropertyOp48
 70
     1
102
RTVSPropertyOp49
 70
     1
102
RTVSPropertyOp50
 70
     1
102
RTVSPropertyOp51
 70
     0
102
RTVSPropertyOp52
 70
     0
102
RTVSPropertyOp53
 70
     1
102
RTVSPropertyOp54
 70
     1
102
RTVSPropertyOp55
 70
     1
102
RTVSPropertyOp56
 70
     1
102
RTVSPropertyOp57
 70
     1
102
RTVSPropertyOp58
 70
     1
102
RTVSPropertyOp59
 70
     1
102
RTVSPropertyOp60
 70
     1
102
RTVSPropertyOp61
 70
     1
102
RTVSPropertyOp62
 70
     1
  0
XRECORD
  5
B8AA
102
{ACAD_REACTORS
330
B8A9
102
}
330
B8A9
100
AcDbXrecord
280
     1
102
RTVSPost2010Prop28
280
     0
102
RTVSPost2010PropOp28
 70
     1
102
RTVSPost2010Prop29
280
     1
102
RTVSPost2010PropOp29
 70
     1
102
RTVSPost2010Prop30
280
     1
102
RTVSPost2010PropOp30
 70
     1
102
RTVSPost2010Prop31
280
     0
102
RTVSPost2010PropOp31
 70
     1
102
RTVSPost2010Prop32
280
     0
102
RTVSPost2010PropOp32
 70
     1
102
RTVSPost2010Prop33
280
     0
102
RTVSPost2010PropOp33
 70
     1
102
RTVSPost2010Prop34
280
     0
102
RTVSPost2010PropOp34
 70
     1
102
RTVSPost2010Prop35
280
     0
102
RTVSPost2010PropOp35
 70
     1
102
RTVSPost2010Prop36
280
     0
102
RTVSPost2010PropOp36
 70
     1
102
RTVSPost2010Prop37
 90
       50
102
RTVSPost2010PropOp37
 70
     1
102
RTVSPost2010Prop38
140
0.0
102
RTVSPost2010PropOp38
 70
     1
102
RTVSPost2010Prop39
140
1.0
102
RTVSPost2010PropOp39
 70
     1
102
RTVSPost2010Prop40
 90
        0
102
RTVSPost2010PropOp40
 70
     1
102
RTVSPost2010Prop41ColorIndex
 90
       18
102
RTVSPost2010Prop41ColorRGB
 90
        0
102
RTVSPost2010PropOp41
 70
     1
102
RTVSPost2010Prop42
 90
       50
102
RTVSPost2010PropOp42
 70
     1
102
RTVSPost2010Prop43
 90
        3
102
RTVSPost2010PropOp43
 70
     1
102
RTVSPost2010Prop44ColorIndex
 90
        5
102
RTVSPost2010Prop44ColorRGB
 90
      255
102
RTVSPost2010PropOp44
 70
     1
102
RTVSPost2010Prop45
280
     0
102
RTVSPost2010PropOp45
 70
     1
102
RTVSPost2010Prop46
 90
       50
102
RTVSPost2010PropOp46
 70
     1
102
RTVSPost2010Prop47
 90
       50
102
RTVSPost2010PropOp47
 70
     1
102
RTVSPost2010Prop48
 90
       50
102
RTVSPost2010PropOp48
 70
     1
102
RTVSPost2010Prop49
280
     0
102
RTVSPost2010PropOp49
 70
     1
102
RTVSPost2010Prop50
 90
       50
102
RTVSPost2010PropOp50
 70
     1
102
RTVSPost2010Prop51ColorIndex
 90
      256
102
RTVSPost2010Prop51ColorRGB
 90
-16777216
102
RTVSPost2010PropOp51
 70
     0
102
RTVSPost2010Prop52
140
1.0
102
RTVSPost2010PropOp52
 70
     0
102
RTVSPost2010Prop53
 90
        2
102
RTVSPost2010PropOp53
 70
     1
102
RTVSPost2010Prop54
  1
strokes_ogs.tif
102
RTVSPost2010PropOp54
 70
     1
102
RTVSPost2010Prop55
280
     0
102
RTVSPost2010PropOp55
 70
     1
102
RTVSPost2010Prop56
140
1.0
102
RTVSPost2010PropOp56
 70
     1
102
RTVSPost2010Prop57
140
1.0
102
RTVSPost2010PropOp57
 70
     1
102
RTVSPropertyOp0
 70
     1
102
RTVSPropertyOp1
 70
     1
102
RTVSPropertyOp2
 70
     1
102
RTVSPropertyOp3
 70
     1
102
RTVSPropertyOp4
 70
     1
102
RTVSPropertyOp5
 70
     1
102
RTVSPropertyOp6
 70
     1
102
RTVSPropertyOp7
 70
     1
102
RTVSPropertyOp8
 70
     1
102
RTVSPropertyOp9
 70
     1
102
RTVSPropertyOp10
 70
     1
102
RTVSPropertyOp11
 70
     1
102
RTVSPropertyOp12
 70
     1
102
RTVSPropertyOp13
 70
     1
102
RTVSPropertyOp14
 70
     1
102
RTVSPropertyOp15
 70
     1
102
RTVSPropertyOp16
 70
     1
102
RTVSPropertyOp17
 70
     1
102
RTVSPropertyOp18
 70
     1
102
RTVSPropertyOp19
 70
     1
102
RTVSPropertyOp20
 70
     1
102
RTVSPropertyOp21
 70
     1
102
RTVSPropertyOp22
 70
     1
102
RTVSPropertyOp23
 70
     1
102
RTVSPropertyOp24
 70
     1
102
RTVSPropertyOp25
 70
     1
102
RTVSPropertyOp26
 70
     1
102
RTVSPropertyOp27
 70
     1
102
RTVSPropertyOp28
 70
     1
102
RTVSPropertyOp29
 70
     1
102
RTVSPropertyOp30
 70
     1
102
RTVSPropertyOp31
 70
     1
102
RTVSPropertyOp32
 70
     1
102
RTVSPropertyOp33
 70
     1
102
RTVSPropertyOp34
 70
     1
102
RTVSPropertyOp35
 70
     1
102
RTVSPropertyOp36
 70
     1
102
RTVSPropertyOp37
 70
     1
102
RTVSPropertyOp38
 70
     1
102
RTVSPropertyOp39
 70
     1
102
RTVSPropertyOp40
 70
     1
102
RTVSPropertyOp41
 70
     1
102
RTVSPropertyOp42
 70
     1
102
RTVSPropertyOp43
 70
     1
102
RTVSPropertyOp44
 70
     1
102
RTVSPropertyOp45
 70
     1
102
RTVSPropertyOp46
 70
     1
102
RTVSPropertyOp47
 70
     1
102
RTVSPropertyOp48
 70
     1
102
RTVSPropertyOp49
 70
     1
102
RTVSPropertyOp50
 70
     1
102
RTVSPropertyOp51
 70
     0
102
RTVSPropertyOp52
 70
     0
102
RTVSPropertyOp53
 70
     1
102
RTVSPropertyOp54
 70
     1
102
RTVSPropertyOp55
 70
     1
102
RTVSPropertyOp56
 70
     1
102
RTVSPropertyOp57
 70
     1
102
RTVSPropertyOp58
 70
     1
102
RTVSPropertyOp59
 70
     1
102
RTVSPropertyOp60
 70
     1
102
RTVSPropertyOp61
 70
     1
102
RTVSPropertyOp62
 70
     1
  0
XRECORD
  5
B8A4
102
{ACAD_REACTORS
330
B8A3
102
}
330
B8A3
100
AcDbXrecord
280
     1
102
RTVSPost2010Prop28
280
     0
102
RTVSPost2010PropOp28
 70
     1
102
RTVSPost2010Prop29
280
     1
102
RTVSPost2010PropOp29
 70
     1
102
RTVSPost2010Prop30
280
     1
102
RTVSPost2010PropOp30
 70
     1
102
RTVSPost2010Prop31
280
     0
102
RTVSPost2010PropOp31
 70
     1
102
RTVSPost2010Prop32
280
     0
102
RTVSPost2010PropOp32
 70
     1
102
RTVSPost2010Prop33
280
     0
102
RTVSPost2010PropOp33
 70
     1
102
RTVSPost2010Prop34
280
     0
102
RTVSPost2010PropOp34
 70
     1
102
RTVSPost2010Prop35
280
     0
102
RTVSPost2010PropOp35
 70
     1
102
RTVSPost2010Prop36
280
     0
102
RTVSPost2010PropOp36
 70
     1
102
RTVSPost2010Prop37
 90
       50
102
RTVSPost2010PropOp37
 70
     1
102
RTVSPost2010Prop38
140
0.0
102
RTVSPost2010PropOp38
 70
     1
102
RTVSPost2010Prop39
140
1.0
102
RTVSPost2010PropOp39
 70
     1
102
RTVSPost2010Prop40
 90
        0
102
RTVSPost2010PropOp40
 70
     1
102
RTVSPost2010Prop41ColorIndex
 90
       18
102
RTVSPost2010Prop41ColorRGB
 90
        0
102
RTVSPost2010PropOp41
 70
     1
102
RTVSPost2010Prop42
 90
       50
102
RTVSPost2010PropOp42
 70
     1
102
RTVSPost2010Prop43
 90
        3
102
RTVSPost2010PropOp43
 70
     1
102
RTVSPost2010Prop44ColorIndex
 90
        5
102
RTVSPost2010Prop44ColorRGB
 90
      255
102
RTVSPost2010PropOp44
 70
     1
102
RTVSPost2010Prop45
280
     0
102
RTVSPost2010PropOp45
 70
     1
102
RTVSPost2010Prop46
 90
       50
102
RTVSPost2010PropOp46
 70
     1
102
RTVSPost2010Prop47
 90
       50
102
RTVSPost2010PropOp47
 70
     1
102
RTVSPost2010Prop48
 90
       50
102
RTVSPost2010PropOp48
 70
     1
102
RTVSPost2010Prop49
280
     0
102
RTVSPost2010PropOp49
 70
     1
102
RTVSPost2010Prop50
 90
       50
102
RTVSPost2010PropOp50
 70
     1
102
RTVSPost2010Prop51ColorIndex
 90
      256
102
RTVSPost2010Prop51ColorRGB
 90
-16777216
102
RTVSPost2010PropOp51
 70
     0
102
RTVSPost2010Prop52
140
1.0
102
RTVSPost2010PropOp52
 70
     0
102
RTVSPost2010Prop53
 90
        2
102
RTVSPost2010PropOp53
 70
     1
102
RTVSPost2010Prop54
  1
strokes_ogs.tif
102
RTVSPost2010PropOp54
 70
     1
102
RTVSPost2010Prop55
280
     0
102
RTVSPost2010PropOp55
 70
     1
102
RTVSPost2010Prop56
140
1.0
102
RTVSPost2010PropOp56
 70
     1
102
RTVSPost2010Prop57
140
1.0
102
RTVSPost2010PropOp57
 70
     1
102
RTVSPropertyOp0
 70
     1
102
RTVSPropertyOp1
 70
     1
102
RTVSPropertyOp2
 70
     1
102
RTVSPropertyOp3
 70
     1
102
RTVSPropertyOp4
 70
     1
102
RTVSPropertyOp5
 70
     1
102
RTVSPropertyOp6
 70
     1
102
RTVSPropertyOp7
 70
     1
102
RTVSPropertyOp8
 70
     1
102
RTVSPropertyOp9
 70
     1
102
RTVSPropertyOp10
 70
     1
102
RTVSPropertyOp11
 70
     1
102
RTVSPropertyOp12
 70
     1
102
RTVSPropertyOp13
 70
     1
102
RTVSPropertyOp14
 70
     1
102
RTVSPropertyOp15
 70
     1
102
RTVSPropertyOp16
 70
     1
102
RTVSPropertyOp17
 70
     1
102
RTVSPropertyOp18
 70
     1
102
RTVSPropertyOp19
 70
     1
102
RTVSPropertyOp20
 70
     1
102
RTVSPropertyOp21
 70
     1
102
RTVSPropertyOp22
 70
     1
102
RTVSPropertyOp23
 70
     1
102
RTVSPropertyOp24
 70
     1
102
RTVSPropertyOp25
 70
     1
102
RTVSPropertyOp26
 70
     1
102
RTVSPropertyOp27
 70
     1
102
RTVSPropertyOp28
 70
     1
102
RTVSPropertyOp29
 70
     1
102
RTVSPropertyOp30
 70
     1
102
RTVSPropertyOp31
 70
     1
102
RTVSPropertyOp32
 70
     1
102
RTVSPropertyOp33
 70
     1
102
RTVSPropertyOp34
 70
     1
102
RTVSPropertyOp35
 70
     1
102
RTVSPropertyOp36
 70
     1
102
RTVSPropertyOp37
 70
     1
102
RTVSPropertyOp38
 70
     1
102
RTVSPropertyOp39
 70
     1
102
RTVSPropertyOp40
 70
     1
102
RTVSPropertyOp41
 70
     1
102
RTVSPropertyOp42
 70
     1
102
RTVSPropertyOp43
 70
     1
102
RTVSPropertyOp44
 70
     1
102
RTVSPropertyOp45
 70
     1
102
RTVSPropertyOp46
 70
     1
102
RTVSPropertyOp47
 70
     1
102
RTVSPropertyOp48
 70
     1
102
RTVSPropertyOp49
 70
     1
102
RTVSPropertyOp50
 70
     1
102
RTVSPropertyOp51
 70
     0
102
RTVSPropertyOp52
 70
     0
102
RTVSPropertyOp53
 70
     1
102
RTVSPropertyOp54
 70
     1
102
RTVSPropertyOp55
 70
     1
102
RTVSPropertyOp56
 70
     1
102
RTVSPropertyOp57
 70
     1
102
RTVSPropertyOp58
 70
     1
102
RTVSPropertyOp59
 70
     1
102
RTVSPropertyOp60
 70
     1
102
RTVSPropertyOp61
 70
     1
102
RTVSPropertyOp62
 70
     1
  0
XRECORD
  5
B8A6
102
{ACAD_REACTORS
330
B8A5
102
}
330
B8A5
100
AcDbXrecord
280
     1
102
RTVSPost2010Prop28
280
     0
102
RTVSPost2010PropOp28
 70
     1
102
RTVSPost2010Prop29
280
     1
102
RTVSPost2010PropOp29
 70
     1
102
RTVSPost2010Prop30
280
     1
102
RTVSPost2010PropOp30
 70
     1
102
RTVSPost2010Prop31
280
     0
102
RTVSPost2010PropOp31
 70
     1
102
RTVSPost2010Prop32
280
     0
102
RTVSPost2010PropOp32
 70
     1
102
RTVSPost2010Prop33
280
     0
102
RTVSPost2010PropOp33
 70
     1
102
RTVSPost2010Prop34
280
     0
102
RTVSPost2010PropOp34
 70
     1
102
RTVSPost2010Prop35
280
     0
102
RTVSPost2010PropOp35
 70
     1
102
RTVSPost2010Prop36
280
     0
102
RTVSPost2010PropOp36
 70
     1
102
RTVSPost2010Prop37
 90
       50
102
RTVSPost2010PropOp37
 70
     1
102
RTVSPost2010Prop38
140
0.0
102
RTVSPost2010PropOp38
 70
     1
102
RTVSPost2010Prop39
140
1.0
102
RTVSPost2010PropOp39
 70
     1
102
RTVSPost2010Prop40
 90
        0
102
RTVSPost2010PropOp40
 70
     1
102
RTVSPost2010Prop41ColorIndex
 90
       18
102
RTVSPost2010Prop41ColorRGB
 90
        0
102
RTVSPost2010PropOp41
 70
     1
102
RTVSPost2010Prop42
 90
       50
102
RTVSPost2010PropOp42
 70
     1
102
RTVSPost2010Prop43
 90
        3
102
RTVSPost2010PropOp43
 70
     1
102
RTVSPost2010Prop44ColorIndex
 90
        5
102
RTVSPost2010Prop44ColorRGB
 90
      255
102
RTVSPost2010PropOp44
 70
     1
102
RTVSPost2010Prop45
280
     0
102
RTVSPost2010PropOp45
 70
     1
102
RTVSPost2010Prop46
 90
       50
102
RTVSPost2010PropOp46
 70
     1
102
RTVSPost2010Prop47
 90
       50
102
RTVSPost2010PropOp47
 70
     1
102
RTVSPost2010Prop48
 90
       50
102
RTVSPost2010PropOp48
 70
     1
102
RTVSPost2010Prop49
280
     0
102
RTVSPost2010PropOp49
 70
     1
102
RTVSPost2010Prop50
 90
       50
102
RTVSPost2010PropOp50
 70
     1
102
RTVSPost2010Prop51ColorIndex
 90
      256
102
RTVSPost2010Prop51ColorRGB
 90
-16777216
102
RTVSPost2010PropOp51
 70
     0
102
RTVSPost2010Prop52
140
1.0
102
RTVSPost2010PropOp52
 70
     0
102
RTVSPost2010Prop53
 90
        2
102
RTVSPost2010PropOp53
 70
     1
102
RTVSPost2010Prop54
  1
strokes_ogs.tif
102
RTVSPost2010PropOp54
 70
     1
102
RTVSPost2010Prop55
280
     0
102
RTVSPost2010PropOp55
 70
     1
102
RTVSPost2010Prop56
140
1.0
102
RTVSPost2010PropOp56
 70
     1
102
RTVSPost2010Prop57
140
1.0
102
RTVSPost2010PropOp57
 70
     1
102
RTVSPropertyOp0
 70
     1
102
RTVSPropertyOp1
 70
     1
102
RTVSPropertyOp2
 70
     1
102
RTVSPropertyOp3
 70
     1
102
RTVSPropertyOp4
 70
     1
102
RTVSPropertyOp5
 70
     1
102
RTVSPropertyOp6
 70
     1
102
RTVSPropertyOp7
 70
     1
102
RTVSPropertyOp8
 70
     1
102
RTVSPropertyOp9
 70
     1
102
RTVSPropertyOp10
 70
     1
102
RTVSPropertyOp11
 70
     1
102
RTVSPropertyOp12
 70
     1
102
RTVSPropertyOp13
 70
     1
102
RTVSPropertyOp14
 70
     1
102
RTVSPropertyOp15
 70
     1
102
RTVSPropertyOp16
 70
     1
102
RTVSPropertyOp17
 70
     1
102
RTVSPropertyOp18
 70
     1
102
RTVSPropertyOp19
 70
     1
102
RTVSPropertyOp20
 70
     1
102
RTVSPropertyOp21
 70
     1
102
RTVSPropertyOp22
 70
     1
102
RTVSPropertyOp23
 70
     1
102
RTVSPropertyOp24
 70
     1
102
RTVSPropertyOp25
 70
     1
102
RTVSPropertyOp26
 70
     1
102
RTVSPropertyOp27
 70
     1
102
RTVSPropertyOp28
 70
     1
102
RTVSPropertyOp29
 70
     1
102
RTVSPropertyOp30
 70
     1
102
RTVSPropertyOp31
 70
     1
102
RTVSPropertyOp32
 70
     1
102
RTVSPropertyOp33
 70
     1
102
RTVSPropertyOp34
 70
     1
102
RTVSPropertyOp35
 70
     1
102
RTVSPropertyOp36
 70
     1
102
RTVSPropertyOp37
 70
     1
102
RTVSPropertyOp38
 70
     1
102
RTVSPropertyOp39
 70
     1
102
RTVSPropertyOp40
 70
     1
102
RTVSPropertyOp41
 70
     1
102
RTVSPropertyOp42
 70
     1
102
RTVSPropertyOp43
 70
     1
102
RTVSPropertyOp44
 70
     1
102
RTVSPropertyOp45
 70
     1
102
RTVSPropertyOp46
 70
     1
102
RTVSPropertyOp47
 70
     1
102
RTVSPropertyOp48
 70
     1
102
RTVSPropertyOp49
 70
     1
102
RTVSPropertyOp50
 70
     1
102
RTVSPropertyOp51
 70
     0
102
RTVSPropertyOp52
 70
     0
102
RTVSPropertyOp53
 70
     1
102
RTVSPropertyOp54
 70
     1
102
RTVSPropertyOp55
 70
     1
102
RTVSPropertyOp56
 70
     1
102
RTVSPropertyOp57
 70
     1
102
RTVSPropertyOp58
 70
     1
102
RTVSPropertyOp59
 70
     1
102
RTVSPropertyOp60
 70
     1
102
RTVSPropertyOp61
 70
     1
102
RTVSPropertyOp62
 70
     1
  0
XRECORD
  5
B89C
102
{ACAD_REACTORS
330
B89B
102
}
330
B89B
100
AcDbXrecord
280
     1
102
RTVSPost2010Prop28
280
     0
102
RTVSPost2010PropOp28
 70
     1
102
RTVSPost2010Prop29
280
     1
102
RTVSPost2010PropOp29
 70
     1
102
RTVSPost2010Prop30
280
     1
102
RTVSPost2010PropOp30
 70
     1
102
RTVSPost2010Prop31
280
     0
102
RTVSPost2010PropOp31
 70
     1
102
RTVSPost2010Prop32
280
     0
102
RTVSPost2010PropOp32
 70
     1
102
RTVSPost2010Prop33
280
     0
102
RTVSPost2010PropOp33
 70
     1
102
RTVSPost2010Prop34
280
     0
102
RTVSPost2010PropOp34
 70
     1
102
RTVSPost2010Prop35
280
     0
102
RTVSPost2010PropOp35
 70
     1
102
RTVSPost2010Prop36
280
     0
102
RTVSPost2010PropOp36
 70
     1
102
RTVSPost2010Prop37
 90
       50
102
RTVSPost2010PropOp37
 70
     1
102
RTVSPost2010Prop38
140
0.0
102
RTVSPost2010PropOp38
 70
     1
102
RTVSPost2010Prop39
140
1.0
102
RTVSPost2010PropOp39
 70
     1
102
RTVSPost2010Prop40
 90
        0
102
RTVSPost2010PropOp40
 70
     1
102
RTVSPost2010Prop41ColorIndex
 90
       18
102
RTVSPost2010Prop41ColorRGB
 90
        0
102
RTVSPost2010PropOp41
 70
     1
102
RTVSPost2010Prop42
 90
       50
102
RTVSPost2010PropOp42
 70
     1
102
RTVSPost2010Prop43
 90
        3
102
RTVSPost2010PropOp43
 70
     1
102
RTVSPost2010Prop44ColorIndex
 90
        5
102
RTVSPost2010Prop44ColorRGB
 90
      255
102
RTVSPost2010PropOp44
 70
     1
102
RTVSPost2010Prop45
280
     0
102
RTVSPost2010PropOp45
 70
     1
102
RTVSPost2010Prop46
 90
       50
102
RTVSPost2010PropOp46
 70
     1
102
RTVSPost2010Prop47
 90
       50
102
RTVSPost2010PropOp47
 70
     1
102
RTVSPost2010Prop48
 90
       50
102
RTVSPost2010PropOp48
 70
     1
102
RTVSPost2010Prop49
280
     0
102
RTVSPost2010PropOp49
 70
     1
102
RTVSPost2010Prop50
 90
       50
102
RTVSPost2010PropOp50
 70
     1
102
RTVSPost2010Prop51ColorIndex
 90
      256
102
RTVSPost2010Prop51ColorRGB
 90
-16777216
102
RTVSPost2010PropOp51
 70
     0
102
RTVSPost2010Prop52
140
1.0
102
RTVSPost2010PropOp52
 70
     0
102
RTVSPost2010Prop53
 90
        2
102
RTVSPost2010PropOp53
 70
     1
102
RTVSPost2010Prop54
  1
strokes_ogs.tif
102
RTVSPost2010PropOp54
 70
     1
102
RTVSPost2010Prop55
280
     0
102
RTVSPost2010PropOp55
 70
     1
102
RTVSPost2010Prop56
140
1.0
102
RTVSPost2010PropOp56
 70
     1
102
RTVSPost2010Prop57
140
1.0
102
RTVSPost2010PropOp57
 70
     1
102
RTVSPropertyOp0
 70
     1
102
RTVSPropertyOp1
 70
     1
102
RTVSPropertyOp2
 70
     1
102
RTVSPropertyOp3
 70
     1
102
RTVSPropertyOp4
 70
     1
102
RTVSPropertyOp5
 70
     1
102
RTVSPropertyOp6
 70
     1
102
RTVSPropertyOp7
 70
     1
102
RTVSPropertyOp8
 70
     1
102
RTVSPropertyOp9
 70
     1
102
RTVSPropertyOp10
 70
     1
102
RTVSPropertyOp11
 70
     1
102
RTVSPropertyOp12
 70
     1
102
RTVSPropertyOp13
 70
     1
102
RTVSPropertyOp14
 70
     1
102
RTVSPropertyOp15
 70
     1
102
RTVSPropertyOp16
 70
     1
102
RTVSPropertyOp17
 70
     1
102
RTVSPropertyOp18
 70
     1
102
RTVSPropertyOp19
 70
     1
102
RTVSPropertyOp20
 70
     1
102
RTVSPropertyOp21
 70
     1
102
RTVSPropertyOp22
 70
     1
102
RTVSPropertyOp23
 70
     1
102
RTVSPropertyOp24
 70
     1
102
RTVSPropertyOp25
 70
     1
102
RTVSPropertyOp26
 70
     1
102
RTVSPropertyOp27
 70
     1
102
RTVSPropertyOp28
 70
     1
102
RTVSPropertyOp29
 70
     1
102
RTVSPropertyOp30
 70
     1
102
RTVSPropertyOp31
 70
     1
102
RTVSPropertyOp32
 70
     1
102
RTVSPropertyOp33
 70
     1
102
RTVSPropertyOp34
 70
     1
102
RTVSPropertyOp35
 70
     1
102
RTVSPropertyOp36
 70
     1
102
RTVSPropertyOp37
 70
     1
102
RTVSPropertyOp38
 70
     1
102
RTVSPropertyOp39
 70
     1
102
RTVSPropertyOp40
 70
     1
102
RTVSPropertyOp41
 70
     1
102
RTVSPropertyOp42
 70
     1
102
RTVSPropertyOp43
 70
     1
102
RTVSPropertyOp44
 70
     1
102
RTVSPropertyOp45
 70
     1
102
RTVSPropertyOp46
 70
     1
102
RTVSPropertyOp47
 70
     1
102
RTVSPropertyOp48
 70
     1
102
RTVSPropertyOp49
 70
     1
102
RTVSPropertyOp50
 70
     1
102
RTVSPropertyOp51
 70
     0
102
RTVSPropertyOp52
 70
     0
102
RTVSPropertyOp53
 70
     1
102
RTVSPropertyOp54
 70
     1
102
RTVSPropertyOp55
 70
     1
102
RTVSPropertyOp56
 70
     1
102
RTVSPropertyOp57
 70
     1
102
RTVSPropertyOp58
 70
     1
102
RTVSPropertyOp59
 70
     1
102
RTVSPropertyOp60
 70
     1
102
RTVSPropertyOp61
 70
     1
102
RTVSPropertyOp62
 70
     1
  0
XRECORD
  5
B890
102
{ACAD_REACTORS
330
B88F
102
}
330
B88F
100
AcDbXrecord
280
     1
102
RTVSPost2010Prop28
280
     0
102
RTVSPost2010PropOp28
 70
     1
102
RTVSPost2010Prop29
280
     1
102
RTVSPost2010PropOp29
 70
     1
102
RTVSPost2010Prop30
280
     1
102
RTVSPost2010PropOp30
 70
     1
102
RTVSPost2010Prop31
280
     0
102
RTVSPost2010PropOp31
 70
     1
102
RTVSPost2010Prop32
280
     0
102
RTVSPost2010PropOp32
 70
     1
102
RTVSPost2010Prop33
280
     0
102
RTVSPost2010PropOp33
 70
     1
102
RTVSPost2010Prop34
280
     0
102
RTVSPost2010PropOp34
 70
     1
102
RTVSPost2010Prop35
280
     0
102
RTVSPost2010PropOp35
 70
     1
102
RTVSPost2010Prop36
280
     0
102
RTVSPost2010PropOp36
 70
     1
102
RTVSPost2010Prop37
 90
       50
102
RTVSPost2010PropOp37
 70
     1
102
RTVSPost2010Prop38
140
0.0
102
RTVSPost2010PropOp38
 70
     1
102
RTVSPost2010Prop39
140
1.0
102
RTVSPost2010PropOp39
 70
     1
102
RTVSPost2010Prop40
 90
        0
102
RTVSPost2010PropOp40
 70
     1
102
RTVSPost2010Prop41ColorIndex
 90
       18
102
RTVSPost2010Prop41ColorRGB
 90
        0
102
RTVSPost2010PropOp41
 70
     1
102
RTVSPost2010Prop42
 90
       50
102
RTVSPost2010PropOp42
 70
     1
102
RTVSPost2010Prop43
 90
        3
102
RTVSPost2010PropOp43
 70
     1
102
RTVSPost2010Prop44ColorIndex
 90
        5
102
RTVSPost2010Prop44ColorRGB
 90
      255
102
RTVSPost2010PropOp44
 70
     1
102
RTVSPost2010Prop45
280
     0
102
RTVSPost2010PropOp45
 70
     1
102
RTVSPost2010Prop46
 90
       50
102
RTVSPost2010PropOp46
 70
     1
102
RTVSPost2010Prop47
 90
       50
102
RTVSPost2010PropOp47
 70
     1
102
RTVSPost2010Prop48
 90
       50
102
RTVSPost2010PropOp48
 70
     1
102
RTVSPost2010Prop49
280
     0
102
RTVSPost2010PropOp49
 70
     1
102
RTVSPost2010Prop50
 90
       50
102
RTVSPost2010PropOp50
 70
     1
102
RTVSPost2010Prop51ColorIndex
 90
      256
102
RTVSPost2010Prop51ColorRGB
 90
-16777216
102
RTVSPost2010PropOp51
 70
     0
102
RTVSPost2010Prop52
140
1.0
102
RTVSPost2010PropOp52
 70
     0
102
RTVSPost2010Prop53
 90
        2
102
RTVSPost2010PropOp53
 70
     1
102
RTVSPost2010Prop54
  1
strokes_ogs.tif
102
RTVSPost2010PropOp54
 70
     1
102
RTVSPost2010Prop55
280
     0
102
RTVSPost2010PropOp55
 70
     1
102
RTVSPost2010Prop56
140
1.0
102
RTVSPost2010PropOp56
 70
     1
102
RTVSPost2010Prop57
140
1.0
102
RTVSPost2010PropOp57
 70
     1
102
RTVSPropertyOp0
 70
     1
102
RTVSPropertyOp1
 70
     1
102
RTVSPropertyOp2
 70
     1
102
RTVSPropertyOp3
 70
     1
102
RTVSPropertyOp4
 70
     1
102
RTVSPropertyOp5
 70
     1
102
RTVSPropertyOp6
 70
     1
102
RTVSPropertyOp7
 70
     1
102
RTVSPropertyOp8
 70
     1
102
RTVSPropertyOp9
 70
     1
102
RTVSPropertyOp10
 70
     1
102
RTVSPropertyOp11
 70
     1
102
RTVSPropertyOp12
 70
     1
102
RTVSPropertyOp13
 70
     1
102
RTVSPropertyOp14
 70
     1
102
RTVSPropertyOp15
 70
     1
102
RTVSPropertyOp16
 70
     1
102
RTVSPropertyOp17
 70
     1
102
RTVSPropertyOp18
 70
     1
102
RTVSPropertyOp19
 70
     1
102
RTVSPropertyOp20
 70
     1
102
RTVSPropertyOp21
 70
     1
102
RTVSPropertyOp22
 70
     1
102
RTVSPropertyOp23
 70
     1
102
RTVSPropertyOp24
 70
     1
102
RTVSPropertyOp25
 70
     1
102
RTVSPropertyOp26
 70
     1
102
RTVSPropertyOp27
 70
     1
102
RTVSPropertyOp28
 70
     1
102
RTVSPropertyOp29
 70
     1
102
RTVSPropertyOp30
 70
     1
102
RTVSPropertyOp31
 70
     1
102
RTVSPropertyOp32
 70
     1
102
RTVSPropertyOp33
 70
     1
102
RTVSPropertyOp34
 70
     1
102
RTVSPropertyOp35
 70
     1
102
RTVSPropertyOp36
 70
     1
102
RTVSPropertyOp37
 70
     1
102
RTVSPropertyOp38
 70
     1
102
RTVSPropertyOp39
 70
     1
102
RTVSPropertyOp40
 70
     1
102
RTVSPropertyOp41
 70
     1
102
RTVSPropertyOp42
 70
     1
102
RTVSPropertyOp43
 70
     1
102
RTVSPropertyOp44
 70
     1
102
RTVSPropertyOp45
 70
     1
102
RTVSPropertyOp46
 70
     1
102
RTVSPropertyOp47
 70
     1
102
RTVSPropertyOp48
 70
     1
102
RTVSPropertyOp49
 70
     1
102
RTVSPropertyOp50
 70
     1
102
RTVSPropertyOp51
 70
     0
102
RTVSPropertyOp52
 70
     0
102
RTVSPropertyOp53
 70
     1
102
RTVSPropertyOp54
 70
     1
102
RTVSPropertyOp55
 70
     1
102
RTVSPropertyOp56
 70
     1
102
RTVSPropertyOp57
 70
     1
102
RTVSPropertyOp58
 70
     1
102
RTVSPropertyOp59
 70
     1
102
RTVSPropertyOp60
 70
     1
102
RTVSPropertyOp61
 70
     1
102
RTVSPropertyOp62
 70
     1
  0
XRECORD
  5
B8A8
102
{ACAD_REACTORS
330
B8A7
102
}
330
B8A7
100
AcDbXrecord
280
     1
102
RTVSPost2010Prop28
280
     0
102
RTVSPost2010PropOp28
 70
     1
102
RTVSPost2010Prop29
280
     1
102
RTVSPost2010PropOp29
 70
     1
102
RTVSPost2010Prop30
280
     1
102
RTVSPost2010PropOp30
 70
     1
102
RTVSPost2010Prop31
280
     0
102
RTVSPost2010PropOp31
 70
     1
102
RTVSPost2010Prop32
280
     0
102
RTVSPost2010PropOp32
 70
     1
102
RTVSPost2010Prop33
280
     0
102
RTVSPost2010PropOp33
 70
     1
102
RTVSPost2010Prop34
280
     0
102
RTVSPost2010PropOp34
 70
     1
102
RTVSPost2010Prop35
280
     0
102
RTVSPost2010PropOp35
 70
     1
102
RTVSPost2010Prop36
280
     0
102
RTVSPost2010PropOp36
 70
     1
102
RTVSPost2010Prop37
 90
       50
102
RTVSPost2010PropOp37
 70
     1
102
RTVSPost2010Prop38
140
0.0
102
RTVSPost2010PropOp38
 70
     1
102
RTVSPost2010Prop39
140
1.0
102
RTVSPost2010PropOp39
 70
     1
102
RTVSPost2010Prop40
 90
        0
102
RTVSPost2010PropOp40
 70
     1
102
RTVSPost2010Prop41ColorIndex
 90
       18
102
RTVSPost2010Prop41ColorRGB
 90
        0
102
RTVSPost2010PropOp41
 70
     1
102
RTVSPost2010Prop42
 90
       50
102
RTVSPost2010PropOp42
 70
     1
102
RTVSPost2010Prop43
 90
        3
102
RTVSPost2010PropOp43
 70
     1
102
RTVSPost2010Prop44ColorIndex
 90
        5
102
RTVSPost2010Prop44ColorRGB
 90
      255
102
RTVSPost2010PropOp44
 70
     1
102
RTVSPost2010Prop45
280
     0
102
RTVSPost2010PropOp45
 70
     1
102
RTVSPost2010Prop46
 90
       50
102
RTVSPost2010PropOp46
 70
     1
102
RTVSPost2010Prop47
 90
       50
102
RTVSPost2010PropOp47
 70
     1
102
RTVSPost2010Prop48
 90
       50
102
RTVSPost2010PropOp48
 70
     1
102
RTVSPost2010Prop49
280
     0
102
RTVSPost2010PropOp49
 70
     1
102
RTVSPost2010Prop50
 90
       50
102
RTVSPost2010PropOp50
 70
     1
102
RTVSPost2010Prop51ColorIndex
 90
      256
102
RTVSPost2010Prop51ColorRGB
 90
-16777216
102
RTVSPost2010PropOp51
 70
     0
102
RTVSPost2010Prop52
140
1.0
102
RTVSPost2010PropOp52
 70
     0
102
RTVSPost2010Prop53
 90
        2
102
RTVSPost2010PropOp53
 70
     1
102
RTVSPost2010Prop54
  1
strokes_ogs.tif
102
RTVSPost2010PropOp54
 70
     1
102
RTVSPost2010Prop55
280
     0
102
RTVSPost2010PropOp55
 70
     1
102
RTVSPost2010Prop56
140
1.0
102
RTVSPost2010PropOp56
 70
     1
102
RTVSPost2010Prop57
140
1.0
102
RTVSPost2010PropOp57
 70
     1
102
RTVSPropertyOp0
 70
     1
102
RTVSPropertyOp1
 70
     1
102
RTVSPropertyOp2
 70
     1
102
RTVSPropertyOp3
 70
     1
102
RTVSPropertyOp4
 70
     1
102
RTVSPropertyOp5
 70
     1
102
RTVSPropertyOp6
 70
     1
102
RTVSPropertyOp7
 70
     1
102
RTVSPropertyOp8
 70
     1
102
RTVSPropertyOp9
 70
     1
102
RTVSPropertyOp10
 70
     1
102
RTVSPropertyOp11
 70
     1
102
RTVSPropertyOp12
 70
     1
102
RTVSPropertyOp13
 70
     1
102
RTVSPropertyOp14
 70
     1
102
RTVSPropertyOp15
 70
     1
102
RTVSPropertyOp16
 70
     1
102
RTVSPropertyOp17
 70
     1
102
RTVSPropertyOp18
 70
     1
102
RTVSPropertyOp19
 70
     1
102
RTVSPropertyOp20
 70
     1
102
RTVSPropertyOp21
 70
     1
102
RTVSPropertyOp22
 70
     1
102
RTVSPropertyOp23
 70
     1
102
RTVSPropertyOp24
 70
     1
102
RTVSPropertyOp25
 70
     1
102
RTVSPropertyOp26
 70
     1
102
RTVSPropertyOp27
 70
     1
102
RTVSPropertyOp28
 70
     1
102
RTVSPropertyOp29
 70
     1
102
RTVSPropertyOp30
 70
     1
102
RTVSPropertyOp31
 70
     1
102
RTVSPropertyOp32
 70
     1
102
RTVSPropertyOp33
 70
     1
102
RTVSPropertyOp34
 70
     1
102
RTVSPropertyOp35
 70
     1
102
RTVSPropertyOp36
 70
     1
102
RTVSPropertyOp37
 70
     1
102
RTVSPropertyOp38
 70
     1
102
RTVSPropertyOp39
 70
     1
102
RTVSPropertyOp40
 70
     1
102
RTVSPropertyOp41
 70
     1
102
RTVSPropertyOp42
 70
     1
102
RTVSPropertyOp43
 70
     1
102
RTVSPropertyOp44
 70
     1
102
RTVSPropertyOp45
 70
     1
102
RTVSPropertyOp46
 70
     1
102
RTVSPropertyOp47
 70
     1
102
RTVSPropertyOp48
 70
     1
102
RTVSPropertyOp49
 70
     1
102
RTVSPropertyOp50
 70
     1
102
RTVSPropertyOp51
 70
     0
102
RTVSPropertyOp52
 70
     0
102
RTVSPropertyOp53
 70
     1
102
RTVSPropertyOp54
 70
     1
102
RTVSPropertyOp55
 70
     1
102
RTVSPropertyOp56
 70
     1
102
RTVSPropertyOp57
 70
     1
102
RTVSPropertyOp58
 70
     1
102
RTVSPropertyOp59
 70
     1
102
RTVSPropertyOp60
 70
     1
102
RTVSPropertyOp61
 70
     1
102
RTVSPropertyOp62
 70
     1
  0
ENDSEC
  0
EOF
