  0
SECTION
  2
HEADER
  9
$ACADVER
  1
AC1015
  9
$ACADMAINTVER
 70
    20
  9
$DWGCODEPAGE
  3
ANSI_932
  9
$INSBASE
 10
0.0
 20
0.0
 30
0.0
  9
$EXTMIN
 10
10.0
 20
9.999999999999998
 30
0.0
  9
$EXTMAX
 10
259.0
 20
246.823513
 30
0.0
  9
$LIMMIN
 10
0.0
 20
0.0
  9
$LIMMAX
 10
396.0
 20
273.0
  9
$ORTHOMODE
 70
     1
  9
$REGENMODE
 70
     1
  9
$FILLMODE
 70
     1
  9
$QTEXTMODE
 70
     0
  9
$MIRRTEXT
 70
     1
  9
$LTSCALE
 40
20.0
  9
$ATTMODE
 70
     1
  9
$TEXTSIZE
 40
5.0
  9
$TRACEWID
 40
1.0
  9
$TEXTSTYLE
  7
STANDARD
  9
$CLAYER
  8
0
  9
$CELTYPE
  6
BYLAYER
  9
$CECOLOR
 62
   256
  9
$CELTSCALE
 40
1.0
  9
$DISPSILH
 70
     0
  9
$DIMSCALE
 40
1.0
  9
$DIMASZ
 40
3.0
  9
$DIMEXO
 40
1.0
  9
$DIMDLI
 40
10.0
  9
$DIMRND
 40
0.0
  9
$DIMDLE
 40
0.0
  9
$DIMEXE
 40
1.0
  9
$DIMTP
 40
0.0
  9
$DIMTM
 40
0.0
  9
$DIMTXT
 40
2.5
  9
$DIMCEN
 40
0.0
  9
$DIMTSZ
 40
0.0
  9
$DIMTOL
 70
     0
  9
$DIMLIM
 70
     0
  9
$DIMTIH
 70
     0
  9
$DIMTOH
 70
     0
  9
$DIMSE1
 70
     0
  9
$DIMSE2
 70
     0
  9
$DIMTAD
 70
     3
  9
$DIMZIN
 70
     8
  9
$DIMBLK
  1

  9
$DIMASO
 70
     1
  9
$DIMSHO
 70
     1
  9
$DIMPOST
  1

  9
$DIMAPOST
  1

  9
$DIMALT
 70
     0
  9
$DIMALTD
 70
     2
  9
$DIMALTF
 40
25.4
  9
$DIMLFAC
 40
1.0
  9
$DIMTOFL
 70
     1
  9
$DIMTVP
 40
0.0
  9
$DIMTIX
 70
     0
  9
$DIMSOXD
 70
     0
  9
$DIMSAH
 70
     1
  9
$DIMBLK1
  1

  9
$DIMBLK2
  1

  9
$DIMSTYLE
  2
STANDARD
  9
$DIMCLRD
 70
     0
  9
$DIMCLRE
 70
     0
  9
$DIMCLRT
 70
     0
  9
$DIMTFAC
 40
1.0
  9
$DIMGAP
 40
1.0
  9
$DIMJUST
 70
     0
  9
$DIMSD1
 70
     0
  9
$DIMSD2
 70
     0
  9
$DIMTOLJ
 70
     1
  9
$DIMTZIN
 70
     0
  9
$DIMALTZ
 70
     0
  9
$DIMALTTZ
 70
     0
  9
$DIMUPT
 70
     0
  9
$DIMDEC
 70
     4
  9
$DIMTDEC
 70
     4
  9
$DIMALTU
 70
     2
  9
$DIMALTTD
 70
     2
  9
$DIMTXSTY
  7
STANDARD
  9
$DIMAUNIT
 70
     0
  9
$DIMADEC
 70
     0
  9
$DIMALTRND
 40
0.0
  9
$DIMAZIN
 70
     0
  9
$DIMDSEP
 70
    46
  9
$DIMATFIT
 70
     3
  9
$DIMFRAC
 70
     0
  9
$DIMLDRBLK
  1

  9
$DIMLUNIT
 70
     2
  9
$DIMLWD
 70
    -2
  9
$DIMLWE
 70
    -2
  9
$DIMTMOVE
 70
     0
  9
$LUNITS
 70
     2
  9
$LUPREC
 70
     4
  9
$SKETCHINC
 40
1.0
  9
$FILLETRAD
 40
0.0
  9
$AUNITS
 70
     0
  9
$AUPREC
 70
     2
  9
$MENU
  1
.
  9
$ELEVATION
 40
0.0
  9
$PELEVATION
 40
0.0
  9
$THICKNESS
 40
0.0
  9
$LIMCHECK
 70
     0
  9
$CHAMFERA
 40
10.0
  9
$CHAMFERB
 40
10.0
  9
$CHAMFERC
 40
0.0
  9
$CHAMFERD
 40
0.0
  9
$SKPOLY
 70
     0
  9
$TDCREATE
 40
2451233.433632870
  9
$TDUCREATE
 40
2451233.058632870
  9
$TDUPDATE
 40
2457192.661972095
  9
$TDUUPDATE
 40
2457192.286972095
  9
$TDINDWG
 40
0.0000111458
  9
$TDUSRTIMER
 40
0.0000106597
  9
$USRTIMER
 70
     1
  9
$ANGBASE
 50
0.0
  9
$ANGDIR
 70
     0
  9
$PDMODE
 70
     0
  9
$PDSIZE
 40
0.0
  9
$PLINEWID
 40
0.0
  9
$SPLFRAME
 70
     0
  9
$SPLINETYPE
 70
     6
  9
$SPLINESEGS
 70
     8
  9
$HANDSEED
  5
BCCD
  9
$SURFTAB1
 70
     6
  9
$SURFTAB2
 70
     6
  9
$SURFTYPE
 70
     6
  9
$SURFU
 70
     6
  9
$SURFV
 70
     6
  9
$UCSBASE
  2

  9
$UCSNAME
  2

  9
$UCSORG
 10
0.0
 20
0.0
 30
0.0
  9
$UCSXDIR
 10
1.0
 20
0.0
 30
0.0
  9
$UCSYDIR
 10
0.0
 20
1.0
 30
0.0
  9
$UCSORTHOREF
  2

  9
$UCSORTHOVIEW
 70
     0
  9
$UCSORGTOP
 10
0.0
 20
0.0
 30
0.0
  9
$UCSORGBOTTOM
 10
0.0
 20
0.0
 30
0.0
  9
$UCSORGLEFT
 10
0.0
 20
0.0
 30
0.0
  9
$UCSORGRIGHT
 10
0.0
 20
0.0
 30
0.0
  9
$UCSORGFRONT
 10
0.0
 20
0.0
 30
0.0
  9
$UCSORGBACK
 10
0.0
 20
0.0
 30
0.0
  9
$PUCSBASE
  2

  9
$PUCSNAME
  2

  9
$PUCSORG
 10
0.0
 20
0.0
 30
0.0
  9
$PUCSXDIR
 10
1.0
 20
0.0
 30
0.0
  9
$PUCSYDIR
 10
0.0
 20
1.0
 30
0.0
  9
$PUCSORTHOREF
  2

  9
$PUCSORTHOVIEW
 70
     0
  9
$PUCSORGTOP
 10
0.0
 20
0.0
 30
0.0
  9
$PUCSORGBOTTOM
 10
0.0
 20
0.0
 30
0.0
  9
$PUCSORGLEFT
 10
0.0
 20
0.0
 30
0.0
  9
$PUCSORGRIGHT
 10
0.0
 20
0.0
 30
0.0
  9
$PUCSORGFRONT
 10
0.0
 20
0.0
 30
0.0
  9
$PUCSORGBACK
 10
0.0
 20
0.0
 30
0.0
  9
$USERI1
 70
     0
  9
$USERI2
 70
     0
  9
$USERI3
 70
     0
  9
$USERI4
 70
     0
  9
$USERI5
 70
     0
  9
$USERR1
 40
0.0
  9
$USERR2
 40
0.0
  9
$USERR3
 40
0.0
  9
$USERR4
 40
0.0
  9
$USERR5
 40
0.0
  9
$WORLDVIEW
 70
     1
  9
$SHADEDGE
 70
     3
  9
$SHADEDIF
 70
    70
  9
$TILEMODE
 70
     1
  9
$MAXACTVP
 70
    16
  9
$PINSBASE
 10
0.0
 20
0.0
 30
0.0
  9
$PLIMCHECK
 70
     0
  9
$PEXTMIN
 10
1.000000000000000E+20
 20
1.000000000000000E+20
 30
1.000000000000000E+20
  9
$PEXTMAX
 10
-1.000000000000000E+20
 20
-1.000000000000000E+20
 30
-1.000000000000000E+20
  9
$PLIMMIN
 10
0.0
 20
0.0
  9
$PLIMMAX
 10
420.0
 20
297.0
  9
$UNITMODE
 70
     0
  9
$VISRETAIN
 70
     0
  9
$PLINEGEN
 70
     0
  9
$PSLTSCALE
 70
     0
  9
$TREEDEPTH
 70
  3020
  9
$CMLSTYLE
  2
STANDARD
  9
$CMLJUST
 70
     0
  9
$CMLSCALE
 40
1.0
  9
$PROXYGRAPHICS
 70
     1
  9
$MEASUREMENT
 70
     0
  9
$CELWEIGHT
370
    -1
  9
$ENDCAPS
280
     0
  9
$JOINSTYLE
280
     0
  9
$LWDISPLAY
290
     0
  9
$INSUNITS
 70
     0
  9
$HYPERLINKBASE
  1

  9
$STYLESHEET
  1

  9
$XEDIT
290
     1
  9
$CEPSNTYPE
380
     0
  9
$PSTYLEMODE
290
     1
  9
$FINGERPRINTGUID
  2
{E11F3931-53F3-4252-988D-B896D44C1607}
  9
$VERSIONGUID
  2
{2E76132C-6BA3-431F-8C74-B891BA127A22}
  9
$EXTNAMES
290
     1
  9
$PSVPSCALE
 40
0.0
  9
$OLESTARTUP
290
     0
  0
ENDSEC
  0
SECTION
  2
CLASSES
  0
CLASS
  1
ACDBDICTIONARYWDFLT
  2
AcDbDictionaryWithDefault
  3
ObjectDBX Classes
 90
        0
280
     0
281
     0
  0
CLASS
  1
ACDBPLACEHOLDER
  2
AcDbPlaceHolder
  3
ObjectDBX Classes
 90
        0
280
     0
281
     0
  0
CLASS
  1
LAYOUT
  2
AcDbLayout
  3
ObjectDBX Classes
 90
        0
280
     0
281
     0
  0
CLASS
  1
DICTIONARYVAR
  2
AcDbDictionaryVar
  3
ObjectDBX Classes
 90
        0
280
     0
281
     0
  0
CLASS
  1
MATERIAL
  2
AcDbMaterial
  3
ObjectDBX Classes
 90
     1153
280
     0
281
     0
  0
CLASS
  1
VISUALSTYLE
  2
AcDbVisualStyle
  3
ObjectDBX Classes
 90
     4095
280
     0
281
     0
  0
CLASS
  1
TABLESTYLE
  2
AcDbTableStyle
  3
ObjectDBX Classes
 90
     4095
280
     0
281
     0
  0
CLASS
  1
SCALE
  2
AcDbScale
  3
ObjectDBX Classes
 90
     1153
280
     0
281
     0
  0
CLASS
  1
MLEADERSTYLE
  2
AcDbMLeaderStyle
  3
ACDB_MLEADERSTYLE_CLASS
 90
     4095
280
     0
281
     0
  0
CLASS
  1
ACDBSECTIONVIEWSTYLE
  2
AcDbSectionViewStyle
  3
ObjectDBX Classes
 90
     1025
280
     0
281
     0
  0
CLASS
  1
ACDBDETAILVIEWSTYLE
  2
AcDbDetailViewStyle
  3
ObjectDBX Classes
 90
     1025
280
     0
281
     0
  0
CLASS
  1
CELLSTYLEMAP
  2
AcDbCellStyleMap
  3
ObjectDBX Classes
 90
     1152
280
     0
281
     0
  0
ENDSEC
  0
SECTION
  2
TABLES
  0
TABLE
  2
VPORT
  5
BA3C
330
0
100
AcDbSymbolTable
 70
     1
  0
VPORT
  5
BC16
330
BA3C
100
AcDbSymbolTableRecord
100
AcDbViewportTableRecord
  2
*ACTIVE
 70
     0
 10
0.0
 20
0.0
 11
1.0
 21
1.0
 12
206.2425931802827
 22
128.4082266393911
 13
0.0
 23
0.0
 14
10.0
 24
10.0
 15
10.0
 25
10.0
 16
0.0
 26
0.0
 36
1.0
 17
0.0
 27
0.0
 37
0.0
 40
239.4868924800099
 41
1.899603698811096
 42
50.0
 43
0.0
 44
0.0
 50
0.0
 51
0.0
 71
     0
 72
   100
 73
     1
 74
     0
 75
     0
 76
     0
 77
     0
 78
     0
281
     0
 65
     1
110
0.0
120
0.0
130
0.0
111
1.0
121
0.0
131
0.0
112
0.0
122
1.0
132
0.0
 79
     0
146
0.0
1001
ACAD_NAV_VCDISPLAY
1070
     3
  0
ENDTAB
  0
TABLE
  2
LTYPE
  5
BA39
330
0
100
AcDbSymbolTable
 70
     4
  0
LTYPE
  5
BA47
330
BA39
100
AcDbSymbolTableRecord
100
AcDbLinetypeTableRecord
  2
BYBLOCK
 70
     0
  3

 72
    65
 73
     0
 40
0.0
  0
LTYPE
  5
BA48
330
BA39
100
AcDbSymbolTableRecord
100
AcDbLinetypeTableRecord
  2
BYLAYER
 70
     0
  3

 72
    65
 73
     0
 40
0.0
  0
LTYPE
  5
BA49
330
BA39
100
AcDbSymbolTableRecord
100
AcDbLinetypeTableRecord
  2
CONTINUOUS
 70
     0
  3
Solid line
 72
    65
 73
     0
 40
0.0
  0
LTYPE
  5
BA57
330
BA39
100
AcDbSymbolTableRecord
100
AcDbLinetypeTableRecord
  2
DASHED
 70
     0
  3
__ __ __ __ __ __ __ __ __ __ __ __ __ __ __ __
 72
    65
 73
     2
 40
0.75
 49
0.5
 74
     0
 49
-0.25
 74
     0
  0
LTYPE
  5
BA58
330
BA39
100
AcDbSymbolTableRecord
100
AcDbLinetypeTableRecord
  2
CENTER
 70
     0
  3
____ _ ____ _ ____ _ ____ _ ____ _ ____ _ ____ 
 72
    65
 73
     4
 40
2.0
 49
1.25
 74
     0
 49
-0.25
 74
     0
 49
0.25
 74
     0
 49
-0.25
 74
     0
  0
LTYPE
  5
BA59
330
BA39
100
AcDbSymbolTableRecord
100
AcDbLinetypeTableRecord
  2
PHANTOM
 70
     0
  3
______  __  __  ______  __  __  ______  __  __ 
 72
    65
 73
     6
 40
2.5
 49
1.25
 74
     0
 49
-0.25
 74
     0
 49
0.25
 74
     0
 49
-0.25
 74
     0
 49
0.25
 74
     0
 49
-0.25
 74
     0
  0
ENDTAB
  0
TABLE
  2
LAYER
  5
BA36
330
0
100
AcDbSymbolTable
 70
     8
  0
LAYER
  5
BA44
102
{ACAD_XDICTIONARY
360
BC71
102
}
330
BA36
100
AcDbSymbolTableRecord
100
AcDbLayerTableRecord
  2
0
 70
     0
 62
     7
  6
CONTINUOUS
370
    -3
390
BC1F
  0
LAYER
  5
BA5A
102
{ACAD_XDICTIONARY
360
BC73
102
}
330
BA36
100
AcDbSymbolTableRecord
100
AcDbLayerTableRecord
  2
4
 70
     0
 62
     1
  6
CENTER
370
    -3
390
BC1F
  0
LAYER
  5
BA5B
102
{ACAD_XDICTIONARY
360
BC75
102
}
330
BA36
100
AcDbSymbolTableRecord
100
AcDbLayerTableRecord
  2
5
 70
     0
 62
     6
  6
PHANTOM
370
    -3
390
BC1F
  0
LAYER
  5
BA5C
102
{ACAD_XDICTIONARY
360
BC77
102
}
330
BA36
100
AcDbSymbolTableRecord
100
AcDbLayerTableRecord
  2
1
 70
     0
 62
     7
  6
CONTINUOUS
370
    -3
390
BC1F
  0
LAYER
  5
BA5D
102
{ACAD_XDICTIONARY
360
BC79
102
}
330
BA36
100
AcDbSymbolTableRecord
100
AcDbLayerTableRecord
  2
2
 70
     0
 62
     4
  6
CONTINUOUS
370
    -3
390
BC1F
  0
LAYER
  5
BA5E
102
{ACAD_XDICTIONARY
360
BC7B
102
}
330
BA36
100
AcDbSymbolTableRecord
100
AcDbLayerTableRecord
  2
3
 70
     0
 62
     2
  6
DASHED
370
    -3
390
BC1F
  0
LAYER
  5
BA5F
102
{ACAD_XDICTIONARY
360
BC7D
102
}
330
BA36
100
AcDbSymbolTableRecord
100
AcDbLayerTableRecord
  2
6
 70
     0
 62
     5
  6
CONTINUOUS
370
    -3
390
BC1F
  0
LAYER
  5
BA60
102
{ACAD_XDICTIONARY
360
BC7F
102
}
330
BA36
100
AcDbSymbolTableRecord
100
AcDbLayerTableRecord
  2
7
 70
     0
 62
     3
  6
CONTINUOUS
370
    -3
390
BC1F
  0
ENDTAB
  0
TABLE
  2
STYLE
  5
BA37
330
0
100
AcDbSymbolTable
 70
     1
  0
STYLE
  5
BA45
330
BA37
100
AcDbSymbolTableRecord
100
AcDbTextStyleTableRecord
  2
STANDARD
 70
     0
 40
0.0
 41
1.0
 50
0.0
 71
     0
 42
5.0
  3
txt
  4

  0
ENDTAB
  0
TABLE
  2
VIEW
  5
BA3A
330
0
100
AcDbSymbolTable
 70
     0
  0
ENDTAB
  0
TABLE
  2
UCS
  5
BA3B
330
0
100
AcDbSymbolTable
 70
     0
  0
ENDTAB
  0
TABLE
  2
APPID
  5
BA3D
330
0
100
AcDbSymbolTable
 70
     3
  0
APPID
  5
BA46
330
BA3D
100
AcDbSymbolTableRecord
100
AcDbRegAppTableRecord
  2
ACAD
 70
     0
  0
APPID
  5
BC8B
330
BA3D
100
AcDbSymbolTableRecord
100
AcDbRegAppTableRecord
  2
ACAD_NAV_VCDISPLAY
 70
     0
  0
APPID
  5
BCC4
330
BA3D
100
AcDbSymbolTableRecord
100
AcDbRegAppTableRecord
  2
ACAD_MLEADERVER
 70
     0
  0
ENDTAB
  0
TABLE
  2
DIMSTYLE
  5
BA3E
330
0
100
AcDbSymbolTable
 70
     1
100
AcDbDimStyleTable
 71
     0
  0
DIMSTYLE
105
BA62
330
BA3E
100
AcDbSymbolTableRecord
100
AcDbDimStyleTableRecord
  2
STANDARD
 70
     0
 41
3.0
 42
1.0
 43
10.0
 44
1.0
 73
     0
 74
     0
 77
     3
 78
     8
140
2.5
141
0.0
147
1.0
172
     1
173
     1
284
     8
285
     8
286
     8
340
BA45
  0
ENDTAB
  0
TABLE
  2
BLOCK_RECORD
  5
BA35
330
0
100
AcDbSymbolTable
 70
     0
  0
BLOCK_RECORD
  5
BA52
102
{ACAD_XDICTIONARY
360
BC19
102
}
330
BA35
100
AcDbSymbolTableRecord
100
AcDbBlockTableRecord
  2
*MODEL_SPACE
340
BC6D
  0
BLOCK_RECORD
  5
BA4E
102
{ACAD_XDICTIONARY
360
BC17
102
}
330
BA35
100
AcDbSymbolTableRecord
100
AcDbBlockTableRecord
  2
*PAPER_SPACE
340
BC6E
  0
ENDTAB
  0
ENDSEC
  0
SECTION
  2
BLOCKS
  0
BLOCK
  5
BA53
330
BA52
100
AcDbEntity
  8
0
100
AcDbBlockBegin
  2
*MODEL_SPACE
 70
     0
 10
0.0
 20
0.0
 30
0.0
  3
*MODEL_SPACE
  1

  0
ENDBLK
  5
BA54
330
BA52
100
AcDbEntity
  8
0
100
AcDbBlockEnd
  0
BLOCK
  5
BA4F
330
BA4E
100
AcDbEntity
 67
     1
  8
0
100
AcDbBlockBegin
  2
*PAPER_SPACE
 70
     0
 10
0.0
 20
0.0
 30
0.0
  3
*PAPER_SPACE
  1

  0
ENDBLK
  5
BA50
330
BA4E
100
AcDbEntity
 67
     1
  8
0
100
AcDbBlockEnd
  0
ENDSEC
  0
SECTION
  2
ENTITIES
  0
TEXT
  5
BA6A
330
BA52
100
AcDbEntity
  8
7
  6
Continuous
100
AcDbText
 10
10.0
 20
18.0
 30
0.0
 40
3.0
  1
TYPE No.TM-232-2
100
AcDbText
  0
TEXT
  5
BA6B
330
BA52
100
AcDbEntity
  8
7
  6
Continuous
100
AcDbText
 10
10.0
 20
26.0
 30
0.0
 40
3.0
  1
CODE No.6025
100
AcDbText
  0
TEXT
  5
BA6C
330
BA52
100
AcDbEntity
  8
1
  6
Continuous
100
AcDbText
 10
10.0
 20
10.0
 30
0.0
 40
1.399999999999999
  1
LAYER
100
AcDbText
  0
TEXT
  5
BA6D
330
BA52
100
AcDbEntity
  8
1
  6
Continuous
100
AcDbText
 10
17.97951099999998
 20
10.04873699999998
 30
0.0
 40
1.399999999999999
  1
1
100
AcDbText
  0
TEXT
  5
BA6E
330
BA52
100
AcDbEntity
  8
7
  6
Continuous
100
AcDbText
 10
29.97951099999999
 20
10.04873699999998
 30
0.0
 40
1.399999999999999
  1
7
100
AcDbText
  0
TEXT
  5
BA6F
330
BA52
100
AcDbEntity
  8
4
  6
CENTER
100
AcDbText
 10
23.97951099999999
 20
10.04873699999998
 30
0.0
 40
1.399999999999999
  1
4
100
AcDbText
  0
TEXT
  5
BA70
330
BA52
100
AcDbEntity
  8
3
  6
DASHED
100
AcDbText
 10
21.979511
 20
10.04873699999998
 30
0.0
 40
1.399999999999999
  1
3
100
AcDbText
  0
TEXT
  5
BA71
330
BA52
100
AcDbEntity
  8
2
  6
Continuous
100
AcDbText
 10
19.97951099999999
 20
10.04873699999998
 30
0.0
 40
1.399999999999999
  1
2
100
AcDbText
  0
TEXT
  5
BA72
330
BA52
100
AcDbEntity
  8
6
  6
Continuous
100
AcDbText
 10
27.979511
 20
10.04873699999998
 30
0.0
 40
1.399999999999999
  1
6
100
AcDbText
  0
TEXT
  5
BA73
330
BA52
100
AcDbEntity
  8
5
  6
PHANTOM
100
AcDbText
 10
25.97951099999999
 20
10.04873699999998
 30
0.0
 40
1.399999999999999
  1
5
100
AcDbText
  0
LINE
  5
BA74
330
BA52
100
AcDbEntity
  8
1
  6
Continuous
100
AcDbLine
 10
203.0
 20
119.0
 30
0.0
 11
103.0
 21
119.0
 31
0.0
  0
LINE
  5
BA75
330
BA52
100
AcDbEntity
  8
1
  6
Continuous
100
AcDbLine
 10
103.0
 20
119.0
 30
0.0
 11
103.0
 21
115.15
 31
0.0
  0
LINE
  5
BA76
330
BA52
100
AcDbEntity
  8
1
  6
Continuous
100
AcDbLine
 10
103.0
 20
99.0
 30
0.0
 11
203.0
 21
99.0
 31
0.0
  0
LINE
  5
BA77
330
BA52
100
AcDbEntity
  8
1
  6
Continuous
100
AcDbLine
 10
203.0
 20
99.0
 30
0.0
 11
203.0
 21
119.0
 31
0.0
  0
LINE
  5
BA78
330
BA52
100
AcDbEntity
  8
1
  6
Continuous
100
AcDbLine
 10
203.0
 20
100.477962
 30
0.0
 11
103.0
 21
100.477962
 31
0.0
  0
LINE
  5
BA79
330
BA52
100
AcDbEntity
  8
1
  6
Continuous
100
AcDbLine
 10
103.0
 20
101.3273349999999
 30
0.0
 11
203.0
 21
101.3273349999999
 31
0.0
  0
LINE
  5
BA7A
330
BA52
100
AcDbEntity
  8
1
  6
Continuous
100
AcDbLine
 10
203.0
 20
116.6726649999999
 30
0.0
 11
103.0
 21
116.6726649999999
 31
0.0
  0
LINE
  5
BA7B
330
BA52
100
AcDbEntity
  8
1
  6
Continuous
100
AcDbLine
 10
103.0
 20
117.522038
 30
0.0
 11
203.0
 21
117.522038
 31
0.0
  0
LINE
  5
BA7C
330
BA52
100
AcDbEntity
  8
3
  6
DASHED
100
AcDbLine
 10
103.0
 20
115.15
 30
0.0
 11
103.0
 21
102.8499999999998
 31
0.0
  0
LINE
  5
BA7D
330
BA52
100
AcDbEntity
  8
1
  6
Continuous
100
AcDbLine
 10
103.0
 20
102.8499999999998
 30
0.0
 11
103.0
 21
99.0
 31
0.0
  0
LINE
  5
BA7E
330
BA52
100
AcDbEntity
  8
1
  6
Continuous
100
AcDbLine
 10
199.5
 20
102.687466
 30
0.0
 11
199.5
 21
115.312534
 31
0.0
  0
LINE
  5
BA7F
330
BA52
100
AcDbEntity
  8
4
  6
CENTER
100
AcDbLine
 10
75.0
 20
109.0
 30
0.0
 11
206.0
 21
109.0
 31
0.0
  0
LINE
  5
BA80
330
BA52
100
AcDbEntity
  8
1
  6
Continuous
100
AcDbLine
 10
178.0
 20
115.15
 30
0.0
 11
78.0
 21
115.15
 31
0.0
  0
LINE
  5
BA81
330
BA52
100
AcDbEntity
  8
1
  6
Continuous
100
AcDbLine
 10
78.0
 20
115.15
 30
0.0
 11
78.0
 21
102.8499999999998
 31
0.0
  0
LINE
  5
BA82
330
BA52
100
AcDbEntity
  8
1
  6
Continuous
100
AcDbLine
 10
78.0
 20
102.8499999999998
 30
0.0
 11
178.0
 21
102.8499999999998
 31
0.0
  0
LINE
  5
BA83
330
BA52
100
AcDbEntity
  8
1
  6
Continuous
100
AcDbLine
 10
178.0
 20
102.8499999999998
 30
0.0
 11
178.0
 21
115.15
 31
0.0
  0
LINE
  5
BA84
330
BA52
100
AcDbEntity
  8
1
  6
Continuous
100
AcDbLine
 10
106.4999999999999
 20
116.1795
 30
0.0
 11
106.4999999999999
 21
115.15
 31
0.0
  0
LINE
  5
BA85
330
BA52
100
AcDbEntity
  8
1
  6
Continuous
100
AcDbLine
 10
114.5
 20
115.6795
 30
0.0
 11
114.5
 21
116.1795
 31
0.0
  0
LINE
  5
BA86
330
BA52
100
AcDbEntity
  8
1
  6
Continuous
100
AcDbLine
 10
106.4999999999999
 20
115.6795
 30
0.0
 11
114.5
 21
115.6795
 31
0.0
  0
LINE
  5
BA87
330
BA52
100
AcDbEntity
  8
1
  6
Continuous
100
AcDbLine
 10
106.4999999999999
 20
116.1795
 30
0.0
 11
114.5
 21
116.1795
 31
0.0
  0
LINE
  5
BA88
330
BA52
100
AcDbEntity
  8
1
  6
Continuous
100
AcDbLine
 10
106.4999999999999
 20
101.8205
 30
0.0
 11
106.4999999999999
 21
102.8499999999998
 31
0.0
  0
ARC
  5
BA89
330
BA52
100
AcDbEntity
  8
1
  6
Continuous
100
AcDbCircle
 10
115.5
 20
102.3204999999999
 30
0.0
 40
1.0
100
AcDbArc
 50
0.0
 51
31.97167800000001
  0
LINE
  5
BA8A
330
BA52
100
AcDbEntity
  8
1
  6
Continuous
100
AcDbLine
 10
114.5
 20
102.3204999999999
 30
0.0
 11
114.5
 21
101.8205
 31
0.0
  0
LINE
  5
BA8B
330
BA52
100
AcDbEntity
  8
1
  6
Continuous
100
AcDbLine
 10
106.4999999999999
 20
102.3204999999999
 30
0.0
 11
114.5
 21
102.3204999999999
 31
0.0
  0
LINE
  5
BA8C
330
BA52
100
AcDbEntity
  8
1
  6
Continuous
100
AcDbLine
 10
106.4999999999999
 20
101.8205
 30
0.0
 11
114.5
 21
101.8205
 31
0.0
  0
ARC
  5
BA8D
330
BA52
100
AcDbEntity
  8
1
  6
Continuous
100
AcDbCircle
 10
115.5
 20
115.6795
 30
0.0
 40
1.0
100
AcDbArc
 50
180.0
 51
211.9716779999999
  0
LINE
  5
BA8E
330
BA52
100
AcDbEntity
  8
1
  6
Continuous
100
AcDbLine
 10
124.5
 20
115.6795
 30
0.0
 11
124.5
 21
116.1795
 31
0.0
  0
LINE
  5
BA8F
330
BA52
100
AcDbEntity
  8
1
  6
Continuous
100
AcDbLine
 10
116.5
 20
115.6795
 30
0.0
 11
124.5
 21
115.6795
 31
0.0
  0
LINE
  5
BA90
330
BA52
100
AcDbEntity
  8
1
  6
Continuous
100
AcDbLine
 10
116.5
 20
116.1795
 30
0.0
 11
124.5
 21
116.1795
 31
0.0
  0
LINE
  5
BA91
330
BA52
100
AcDbEntity
  8
1
  6
Continuous
100
AcDbLine
 10
124.5
 20
102.3204999999999
 30
0.0
 11
124.5
 21
101.8205
 31
0.0
  0
LINE
  5
BA92
330
BA52
100
AcDbEntity
  8
1
  6
Continuous
100
AcDbLine
 10
116.5
 20
102.3204999999999
 30
0.0
 11
124.5
 21
102.3204999999999
 31
0.0
  0
LINE
  5
BA93
330
BA52
100
AcDbEntity
  8
1
  6
Continuous
100
AcDbLine
 10
116.5
 20
101.8205
 30
0.0
 11
124.5
 21
101.8205
 31
0.0
  0
LINE
  5
BA94
330
BA52
100
AcDbEntity
  8
1
  6
Continuous
100
AcDbLine
 10
116.5
 20
116.1795
 30
0.0
 11
116.5
 21
115.6795
 31
0.0
  0
LINE
  5
BA95
330
BA52
100
AcDbEntity
  8
1
  6
Continuous
100
AcDbLine
 10
116.5
 20
101.8205
 30
0.0
 11
116.5
 21
102.3204999999999
 31
0.0
  0
ARC
  5
BA96
330
BA52
100
AcDbEntity
  8
1
  6
Continuous
100
AcDbCircle
 10
125.5
 20
102.3204999999999
 30
0.0
 40
1.0
100
AcDbArc
 50
0.0
 51
31.97167800000001
  0
LINE
  5
BA97
330
BA52
100
AcDbEntity
  8
1
  6
Continuous
100
AcDbLine
 10
134.4999999999998
 20
115.6795
 30
0.0
 11
134.4999999999998
 21
116.1795
 31
0.0
  0
LINE
  5
BA98
330
BA52
100
AcDbEntity
  8
1
  6
Continuous
100
AcDbLine
 10
126.5
 20
115.6795
 30
0.0
 11
134.4999999999998
 21
115.6795
 31
0.0
  0
LINE
  5
BA99
330
BA52
100
AcDbEntity
  8
1
  6
Continuous
100
AcDbLine
 10
126.5
 20
116.1795
 30
0.0
 11
134.4999999999998
 21
116.1795
 31
0.0
  0
LINE
  5
BA9A
330
BA52
100
AcDbEntity
  8
1
  6
Continuous
100
AcDbLine
 10
134.4999999999998
 20
102.3204999999999
 30
0.0
 11
134.4999999999998
 21
101.8205
 31
0.0
  0
LINE
  5
BA9B
330
BA52
100
AcDbEntity
  8
1
  6
Continuous
100
AcDbLine
 10
126.5
 20
102.3204999999999
 30
0.0
 11
134.4999999999998
 21
102.3204999999999
 31
0.0
  0
LINE
  5
BA9C
330
BA52
100
AcDbEntity
  8
1
  6
Continuous
100
AcDbLine
 10
126.5
 20
101.8205
 30
0.0
 11
134.4999999999998
 21
101.8205
 31
0.0
  0
LINE
  5
BA9D
330
BA52
100
AcDbEntity
  8
1
  6
Continuous
100
AcDbLine
 10
126.5
 20
116.1795
 30
0.0
 11
126.5
 21
115.6795
 31
0.0
  0
ARC
  5
BA9E
330
BA52
100
AcDbEntity
  8
1
  6
Continuous
100
AcDbCircle
 10
125.5
 20
115.6795
 30
0.0
 40
1.0
100
AcDbArc
 50
180.0
 51
211.9716779999999
  0
LINE
  5
BA9F
330
BA52
100
AcDbEntity
  8
1
  6
Continuous
100
AcDbLine
 10
126.5
 20
101.8205
 30
0.0
 11
126.5
 21
102.3204999999999
 31
0.0
  0
ARC
  5
BAA0
330
BA52
100
AcDbEntity
  8
1
  6
Continuous
100
AcDbCircle
 10
135.4999999999998
 20
102.3204999999999
 30
0.0
 40
1.0
100
AcDbArc
 50
0.0
 51
31.97167800000001
  0
LINE
  5
BAA1
330
BA52
100
AcDbEntity
  8
1
  6
Continuous
100
AcDbLine
 10
144.5
 20
115.6795
 30
0.0
 11
144.5
 21
116.1795
 31
0.0
  0
LINE
  5
BAA2
330
BA52
100
AcDbEntity
  8
1
  6
Continuous
100
AcDbLine
 10
136.4999999999998
 20
115.6795
 30
0.0
 11
144.5
 21
115.6795
 31
0.0
  0
LINE
  5
BAA3
330
BA52
100
AcDbEntity
  8
1
  6
Continuous
100
AcDbLine
 10
136.4999999999998
 20
116.1795
 30
0.0
 11
144.5
 21
116.1795
 31
0.0
  0
LINE
  5
BAA4
330
BA52
100
AcDbEntity
  8
1
  6
Continuous
100
AcDbLine
 10
144.5
 20
102.3204999999999
 30
0.0
 11
144.5
 21
101.8205
 31
0.0
  0
LINE
  5
BAA5
330
BA52
100
AcDbEntity
  8
1
  6
Continuous
100
AcDbLine
 10
136.4999999999998
 20
102.3204999999999
 30
0.0
 11
144.5
 21
102.3204999999999
 31
0.0
  0
LINE
  5
BAA6
330
BA52
100
AcDbEntity
  8
1
  6
Continuous
100
AcDbLine
 10
136.4999999999998
 20
101.8205
 30
0.0
 11
144.5
 21
101.8205
 31
0.0
  0
LINE
  5
BAA7
330
BA52
100
AcDbEntity
  8
1
  6
Continuous
100
AcDbLine
 10
136.4999999999998
 20
116.1795
 30
0.0
 11
136.4999999999998
 21
115.6795
 31
0.0
  0
ARC
  5
BAA8
330
BA52
100
AcDbEntity
  8
1
  6
Continuous
100
AcDbCircle
 10
135.4999999999998
 20
115.6795
 30
0.0
 40
1.0
100
AcDbArc
 50
180.0
 51
211.9716779999999
  0
LINE
  5
BAA9
330
BA52
100
AcDbEntity
  8
1
  6
Continuous
100
AcDbLine
 10
136.4999999999998
 20
101.8205
 30
0.0
 11
136.4999999999998
 21
102.3204999999999
 31
0.0
  0
ARC
  5
BAAA
330
BA52
100
AcDbEntity
  8
1
  6
Continuous
100
AcDbCircle
 10
145.5
 20
102.3204999999999
 30
0.0
 40
1.0
100
AcDbArc
 50
0.0
 51
31.97167800000001
  0
ARC
  5
BAAB
330
BA52
100
AcDbEntity
  8
1
  6
Continuous
100
AcDbCircle
 10
145.5
 20
115.6795
 30
0.0
 40
1.0
100
AcDbArc
 50
180.0
 51
211.9716779999999
  0
LINE
  5
BAAC
330
BA52
100
AcDbEntity
  8
1
  6
Continuous
100
AcDbLine
 10
146.5
 20
115.6795
 30
0.0
 11
146.5
 21
116.1795
 31
0.0
  0
LINE
  5
BAAD
330
BA52
100
AcDbEntity
  8
1
  6
Continuous
100
AcDbLine
 10
146.5
 20
115.6795
 30
0.0
 11
154.4999999999998
 21
115.6795
 31
0.0
  0
LINE
  5
BAAE
330
BA52
100
AcDbEntity
  8
1
  6
Continuous
100
AcDbLine
 10
146.5
 20
116.1795
 30
0.0
 11
154.4999999999998
 21
116.1795
 31
0.0
  0
LINE
  5
BAAF
330
BA52
100
AcDbEntity
  8
1
  6
Continuous
100
AcDbLine
 10
146.5
 20
102.3204999999999
 30
0.0
 11
146.5
 21
101.8205
 31
0.0
  0
LINE
  5
BAB0
330
BA52
100
AcDbEntity
  8
1
  6
Continuous
100
AcDbLine
 10
146.5
 20
102.3204999999999
 30
0.0
 11
154.4999999999998
 21
102.3204999999999
 31
0.0
  0
LINE
  5
BAB1
330
BA52
100
AcDbEntity
  8
1
  6
Continuous
100
AcDbLine
 10
146.5
 20
101.8205
 30
0.0
 11
154.4999999999998
 21
101.8205
 31
0.0
  0
LINE
  5
BAB2
330
BA52
100
AcDbEntity
  8
4
  6
CENTER
100
AcDbLine
 10
88.0
 20
111.510153
 30
0.0
 11
88.0
 21
106.4500409999999
 31
0.0
  0
CIRCLE
  5
BAB3
330
BA52
100
AcDbEntity
  8
1
  6
Continuous
100
AcDbCircle
 10
88.0
 20
109.0
 30
0.0
 40
1.6
  0
LINE
  5
BAB4
330
BA52
100
AcDbEntity
  8
4
  6
CENTER
100
AcDbLine
 10
113.0
 20
111.510153
 30
0.0
 11
113.0
 21
106.6676799999999
 31
0.0
  0
LINE
  5
BAB5
330
BA52
100
AcDbEntity
  8
4
  6
CENTER
100
AcDbLine
 10
98.0
 20
112.5999999999998
 30
0.0
 11
98.0
 21
105.4
 31
0.0
  0
CIRCLE
  5
BAB6
330
BA52
100
AcDbEntity
  8
1
  6
Continuous
100
AcDbCircle
 10
98.0
 20
109.0
 30
0.0
 40
2.149999999999999
  0
LINE
  5
BAB7
330
BA52
100
AcDbEntity
  8
4
  6
CENTER
100
AcDbLine
 10
123.0
 20
112.5999999999998
 30
0.0
 11
123.0
 21
105.4
 31
0.0
  0
LINE
  5
BAB8
330
BA52
100
AcDbEntity
  8
4
  6
CENTER
100
AcDbLine
 10
168.0
 20
111.401334
 30
0.0
 11
168.0
 21
106.4500409999999
 31
0.0
  0
CIRCLE
  5
BAB9
330
BA52
100
AcDbEntity
  8
1
  6
Continuous
100
AcDbCircle
 10
168.0
 20
109.0
 30
0.0
 40
1.6
  0
LINE
  5
BABA
330
BA52
100
AcDbEntity
  8
4
  6
CENTER
100
AcDbLine
 10
158.0
 20
112.5999999999998
 30
0.0
 11
158.0
 21
105.4
 31
0.0
  0
CIRCLE
  5
BABB
330
BA52
100
AcDbEntity
  8
1
  6
Continuous
100
AcDbCircle
 10
158.0
 20
109.0
 30
0.0
 40
2.149999999999999
  0
LINE
  5
BABC
330
BA52
100
AcDbEntity
  8
4
  6
CENTER
100
AcDbLine
 10
193.0
 20
111.510153
 30
0.0
 11
193.0
 21
106.504451
 31
0.0
  0
CIRCLE
  5
BABD
330
BA52
100
AcDbEntity
  8
1
  6
Continuous
100
AcDbCircle
 10
193.0
 20
109.0
 30
0.0
 40
1.6
  0
LINE
  5
BABE
330
BA52
100
AcDbEntity
  8
4
  6
CENTER
100
AcDbLine
 10
183.0
 20
112.5999999999998
 30
0.0
 11
183.0
 21
105.4
 31
0.0
  0
LINE
  5
BABF
330
BA52
100
AcDbEntity
  8
1
  6
Continuous
100
AcDbLine
 10
27.32991699999999
 20
115.4900789999999
 30
0.0
 11
32.20000000000001
 21
116.1795
 31
0.0
  0
LINE
  5
BAC0
330
BA52
100
AcDbEntity
  8
1
  6
Continuous
100
AcDbLine
 10
27.4
 20
115.0
 30
0.0
 11
32.20000000000001
 21
115.6795
 31
0.0
  0
LINE
  5
BAC1
330
BA52
100
AcDbEntity
  8
1
  6
Continuous
100
AcDbLine
 10
30.943724
 20
116.6726649999999
 30
0.0
 11
32.078071
 21
117.522038
 31
0.0
  0
ARC
  5
BAC2
330
BA52
100
AcDbEntity
  8
1
  6
Continuous
100
AcDbCircle
 10
31.49104
 20
113.6410399999999
 30
0.0
 40
1.50896
100
AcDbArc
 50
0.0
 51
130.0162919999999
  0
LINE
  5
BAC3
330
BA52
100
AcDbEntity
  8
4
  6
CENTER
100
AcDbLine
 10
22.0
 20
109.0
 30
0.0
 11
36.0
 21
109.0
 31
0.0
  0
ARC
  5
BAC4
330
BA52
100
AcDbEntity
  8
1
  6
Continuous
100
AcDbCircle
 10
29.5
 20
116.0125
 30
0.0
 40
2.987499999999998
100
AcDbArc
 50
30.350252
 51
132.8834129999999
  0
ARC
  5
BAC5
330
BA52
100
AcDbEntity
  8
1
  6
Continuous
100
AcDbCircle
 10
29.5
 20
116.0125
 30
0.0
 40
1.587499999999999
100
AcDbArc
 50
214.550104
 51
341.5646869999999
  0
ARC
  5
BAC6
330
BA52
100
AcDbEntity
  8
1
  6
Continuous
100
AcDbCircle
 10
27.4
 20
114.995015
 30
0.0
 40
0.5
100
AcDbArc
 50
98.05739500000001
 51
180.0
  0
ARC
  5
BAC7
330
BA52
100
AcDbEntity
  8
1
  6
Continuous
100
AcDbCircle
 10
28.9
 20
112.3144609999999
 30
0.0
 40
0.5
100
AcDbArc
 50
0.0
 51
59.45939499999999
  0
LINE
  5
BAC8
330
BA52
100
AcDbEntity
  8
1
  6
Continuous
100
AcDbLine
 10
28.1
 20
112.786461
 30
0.0
 11
28.9
 21
112.3144609999999
 31
0.0
  0
LINE
  5
BAC9
330
BA52
100
AcDbEntity
  8
1
  6
Continuous
100
AcDbLine
 10
28.079209
 20
113.3792659999999
 30
0.0
 11
29.15407399999999
 21
112.745096
 31
0.0
  0
LINE
  5
BACA
330
BA52
100
AcDbEntity
  8
1
  6
Continuous
100
AcDbLine
 10
27.4
 20
115.0
 30
0.0
 11
27.4
 21
114.572051
 31
0.0
  0
LINE
  5
BACB
330
BA52
100
AcDbEntity
  8
1
  6
Continuous
100
AcDbLine
 10
26.89999999999999
 20
114.995015
 30
0.0
 11
26.89999999999999
 21
114.878509
 31
0.0
  0
LINE
  5
BACC
330
BA52
100
AcDbEntity
  8
1
  6
Continuous
100
AcDbLine
 10
28.9
 20
112.3144609999999
 30
0.0
 11
28.9
 21
105.6855389999999
 31
0.0
  0
LINE
  5
BACD
330
BA52
100
AcDbEntity
  8
1
  6
Continuous
100
AcDbLine
 10
29.39999999999999
 20
112.3144609999999
 30
0.0
 11
29.39999999999999
 21
105.6855389999999
 31
0.0
  0
LINE
  5
BACE
330
BA52
100
AcDbEntity
  8
1
  6
Continuous
100
AcDbLine
 10
27.700075
 20
114.265053
 30
0.0
 11
28.36098699999999
 21
114.9066949999999
 31
0.0
  0
ARC
  5
BACF
330
BA52
100
AcDbEntity
  8
1
  6
Continuous
100
AcDbCircle
 10
31.49104
 20
113.6410399999999
 30
0.0
 40
0.30896
100
AcDbArc
 50
0.0
 51
130.0162919999999
  0
ARC
  5
BAD0
330
BA52
100
AcDbEntity
  8
1
  6
Continuous
100
AcDbCircle
 10
29.5
 20
116.0125
 30
0.0
 40
2.7875
100
AcDbArc
 50
237.8779199999999
 51
310.0162919999998
  0
ARC
  5
BAD1
330
BA52
100
AcDbEntity
  8
1
  6
Continuous
100
AcDbCircle
 10
26.89999999999999
 20
115.0819889999998
 30
0.0
 40
1.9
100
AcDbArc
 50
132.8834129999999
 51
202.591431
  0
LINE
  5
BAD2
330
BA52
100
AcDbEntity
  8
1
  6
Continuous
100
AcDbLine
 10
25.607033
 20
116.474195
 30
0.0
 11
27.46698
 21
118.201561
 31
0.0
  0
LINE
  5
BAD3
330
BA52
100
AcDbEntity
  8
1
  6
Continuous
100
AcDbLine
 10
26.807986
 20
115.678904
 30
0.0
 11
28.41969199999999
 21
117.1757249999999
 31
0.0
  0
ARC
  5
BAD4
330
BA52
100
AcDbEntity
  8
1
  6
Continuous
100
AcDbCircle
 10
29.5
 20
116.0125
 30
0.0
 40
1.587499999999999
100
AcDbArc
 50
0.343152
 51
195.7716379999999
  0
LINE
  5
BAD5
330
BA52
100
AcDbEntity
  8
1
  6
Continuous
100
AcDbLine
 10
31.8
 20
113.6410399999999
 30
0.0
 11
31.8
 21
104.35896
 31
0.0
  0
LINE
  5
BAD6
330
BA52
100
AcDbEntity
  8
1
  6
Continuous
100
AcDbLine
 10
26.4
 20
113.558824
 30
0.0
 11
26.4
 21
104.441176
 31
0.0
  0
LINE
  5
BAD7
330
BA52
100
AcDbEntity
  8
1
  6
Continuous
100
AcDbLine
 10
25.0
 20
115.0819889999998
 30
0.0
 11
25.0
 21
102.9180109999998
 31
0.0
  0
LINE
  5
BAD8
330
BA52
100
AcDbEntity
  8
1
  6
Continuous
100
AcDbLine
 10
32.20000000000001
 20
116.1795
 30
0.0
 11
32.20000000000001
 21
115.6795
 31
0.0
  0
LINE
  5
BAD9
330
BA52
100
AcDbEntity
  8
1
  6
Continuous
100
AcDbLine
 10
33.0
 20
113.6410399999999
 30
0.0
 11
33.0
 21
104.35896
 31
0.0
  0
ARC
  5
BADA
330
BA52
100
AcDbEntity
  8
1
  6
Continuous
100
AcDbCircle
 10
110.4999999999999
 20
116.0125
 30
0.0
 40
1.587499999999999
100
AcDbArc
 50
192.1085089999999
 51
212.9090519999999
  0
ARC
  5
BADB
330
BA52
100
AcDbEntity
  8
1
  6
Continuous
100
AcDbCircle
 10
110.4999999999999
 20
116.0125
 30
0.0
 40
1.587499999999999
100
AcDbArc
 50
6.038508
 51
24.57297999999999
  0
ARC
  5
BADC
330
BA52
100
AcDbEntity
  8
1
  6
Continuous
100
AcDbCircle
 10
110.4999999999999
 20
116.0125
 30
0.0
 40
1.587499999999999
100
AcDbArc
 50
155.4270199999999
 51
173.9614919999999
  0
ARC
  5
BADD
330
BA52
100
AcDbEntity
  8
1
  6
Continuous
100
AcDbCircle
 10
110.4999999999999
 20
116.0125
 30
0.0
 40
1.587499999999999
100
AcDbArc
 50
327.090948
 51
347.8914909999998
  0
ARC
  5
BADE
330
BA52
100
AcDbEntity
  8
1
  6
Continuous
100
AcDbCircle
 10
145.5
 20
115.6795
 30
0.0
 40
1.0
100
AcDbArc
 50
328.028322
 51
0.0
  0
ARC
  5
BADF
330
BA52
100
AcDbEntity
  8
1
  6
Continuous
100
AcDbCircle
 10
135.4999999999998
 20
115.6795
 30
0.0
 40
1.0
100
AcDbArc
 50
328.028322
 51
0.0
  0
ARC
  5
BAE0
330
BA52
100
AcDbEntity
  8
1
  6
Continuous
100
AcDbCircle
 10
125.5
 20
115.6795
 30
0.0
 40
1.0
100
AcDbArc
 50
328.028322
 51
0.0
  0
ARC
  5
BAE1
330
BA52
100
AcDbEntity
  8
1
  6
Continuous
100
AcDbCircle
 10
115.5
 20
115.6795
 30
0.0
 40
1.0
100
AcDbArc
 50
328.028322
 51
0.0
  0
ARC
  5
BAE2
330
BA52
100
AcDbEntity
  8
1
  6
Continuous
100
AcDbCircle
 10
115.5
 20
102.3204999999999
 30
0.0
 40
1.0
100
AcDbArc
 50
148.028322
 51
180.0
  0
ARC
  5
BAE3
330
BA52
100
AcDbEntity
  8
1
  6
Continuous
100
AcDbCircle
 10
125.5
 20
102.3204999999999
 30
0.0
 40
1.0
100
AcDbArc
 50
148.028322
 51
180.0
  0
ARC
  5
BAE4
330
BA52
100
AcDbEntity
  8
1
  6
Continuous
100
AcDbCircle
 10
135.4999999999998
 20
102.3204999999999
 30
0.0
 40
1.0
100
AcDbArc
 50
148.028322
 51
180.0
  0
ARC
  5
BAE5
330
BA52
100
AcDbEntity
  8
1
  6
Continuous
100
AcDbCircle
 10
145.5
 20
102.3204999999999
 30
0.0
 40
1.0
100
AcDbArc
 50
148.028322
 51
180.0
  0
ARC
  5
BAE6
330
BA52
100
AcDbEntity
  8
1
  6
Continuous
100
AcDbCircle
 10
120.5
 20
116.0125
 30
0.0
 40
1.587499999999999
100
AcDbArc
 50
192.1085089999999
 51
212.9090519999999
  0
ARC
  5
BAE7
330
BA52
100
AcDbEntity
  8
1
  6
Continuous
100
AcDbCircle
 10
120.5
 20
116.0125
 30
0.0
 40
1.587499999999999
100
AcDbArc
 50
155.4270199999999
 51
173.9614919999999
  0
ARC
  5
BAE8
330
BA52
100
AcDbEntity
  8
1
  6
Continuous
100
AcDbCircle
 10
120.5
 20
116.0125
 30
0.0
 40
1.587499999999999
100
AcDbArc
 50
6.038508
 51
24.57297999999999
  0
ARC
  5
BAE9
330
BA52
100
AcDbEntity
  8
1
  6
Continuous
100
AcDbCircle
 10
120.5
 20
116.0125
 30
0.0
 40
1.587499999999999
100
AcDbArc
 50
327.090948
 51
347.8914909999998
  0
ARC
  5
BAEA
330
BA52
100
AcDbEntity
  8
1
  6
Continuous
100
AcDbCircle
 10
130.4999999999998
 20
116.0125
 30
0.0
 40
1.587499999999999
100
AcDbArc
 50
192.1085089999999
 51
212.9090519999999
  0
ARC
  5
BAEB
330
BA52
100
AcDbEntity
  8
1
  6
Continuous
100
AcDbCircle
 10
130.4999999999998
 20
116.0125
 30
0.0
 40
1.587499999999999
100
AcDbArc
 50
155.4270199999999
 51
173.9614919999999
  0
ARC
  5
BAEC
330
BA52
100
AcDbEntity
  8
1
  6
Continuous
100
AcDbCircle
 10
130.4999999999998
 20
116.0125
 30
0.0
 40
1.587499999999999
100
AcDbArc
 50
6.038508
 51
24.57297999999999
  0
ARC
  5
BAED
330
BA52
100
AcDbEntity
  8
1
  6
Continuous
100
AcDbCircle
 10
130.4999999999998
 20
116.0125
 30
0.0
 40
1.587499999999999
100
AcDbArc
 50
327.090948
 51
347.8914909999998
  0
ARC
  5
BAEE
330
BA52
100
AcDbEntity
  8
1
  6
Continuous
100
AcDbCircle
 10
140.5
 20
116.0125
 30
0.0
 40
1.587499999999999
100
AcDbArc
 50
327.090948
 51
347.8914909999998
  0
ARC
  5
BAEF
330
BA52
100
AcDbEntity
  8
1
  6
Continuous
100
AcDbCircle
 10
140.5
 20
116.0125
 30
0.0
 40
1.587499999999999
100
AcDbArc
 50
6.038508
 51
24.57297999999999
  0
ARC
  5
BAF0
330
BA52
100
AcDbEntity
  8
1
  6
Continuous
100
AcDbCircle
 10
140.5
 20
116.0125
 30
0.0
 40
1.587499999999999
100
AcDbArc
 50
155.4270199999999
 51
173.9614919999999
  0
ARC
  5
BAF1
330
BA52
100
AcDbEntity
  8
1
  6
Continuous
100
AcDbCircle
 10
140.5
 20
116.0125
 30
0.0
 40
1.587499999999999
100
AcDbArc
 50
192.1085089999999
 51
212.9090519999999
  0
ARC
  5
BAF2
330
BA52
100
AcDbEntity
  8
1
  6
Continuous
100
AcDbCircle
 10
150.5
 20
116.0125
 30
0.0
 40
1.587499999999999
100
AcDbArc
 50
192.1085089999999
 51
212.9090519999999
  0
ARC
  5
BAF3
330
BA52
100
AcDbEntity
  8
1
  6
Continuous
100
AcDbCircle
 10
150.5
 20
116.0125
 30
0.0
 40
1.587499999999999
100
AcDbArc
 50
155.4270199999999
 51
173.9614919999999
  0
ARC
  5
BAF4
330
BA52
100
AcDbEntity
  8
1
  6
Continuous
100
AcDbCircle
 10
150.5
 20
116.0125
 30
0.0
 40
1.587499999999999
100
AcDbArc
 50
6.038508
 51
24.57297999999999
  0
ARC
  5
BAF5
330
BA52
100
AcDbEntity
  8
1
  6
Continuous
100
AcDbCircle
 10
150.5
 20
116.0125
 30
0.0
 40
1.587499999999999
100
AcDbArc
 50
327.090948
 51
347.8914909999998
  0
ARC
  5
BAF6
330
BA52
100
AcDbEntity
  8
1
  6
Continuous
100
AcDbCircle
 10
150.5
 20
101.9875
 30
0.0
 40
1.587499999999999
100
AcDbArc
 50
12.108509
 51
32.909052
  0
ARC
  5
BAF7
330
BA52
100
AcDbEntity
  8
1
  6
Continuous
100
AcDbCircle
 10
150.5
 20
101.9875
 30
0.0
 40
1.587499999999999
100
AcDbArc
 50
335.4270200000001
 51
353.9614919999999
  0
ARC
  5
BAF8
330
BA52
100
AcDbEntity
  8
1
  6
Continuous
100
AcDbCircle
 10
150.5
 20
101.9875
 30
0.0
 40
1.587499999999999
100
AcDbArc
 50
186.038508
 51
204.57298
  0
ARC
  5
BAF9
330
BA52
100
AcDbEntity
  8
1
  6
Continuous
100
AcDbCircle
 10
150.5
 20
101.9875
 30
0.0
 40
1.587499999999999
100
AcDbArc
 50
147.0909479999999
 51
167.891491
  0
ARC
  5
BAFA
330
BA52
100
AcDbEntity
  8
1
  6
Continuous
100
AcDbCircle
 10
140.5
 20
101.9875
 30
0.0
 40
1.587499999999999
100
AcDbArc
 50
147.0909479999999
 51
167.891491
  0
ARC
  5
BAFB
330
BA52
100
AcDbEntity
  8
1
  6
Continuous
100
AcDbCircle
 10
140.5
 20
101.9875
 30
0.0
 40
1.587499999999999
100
AcDbArc
 50
186.038508
 51
204.57298
  0
ARC
  5
BAFC
330
BA52
100
AcDbEntity
  8
1
  6
Continuous
100
AcDbCircle
 10
140.5
 20
101.9875
 30
0.0
 40
1.587499999999999
100
AcDbArc
 50
335.4270200000001
 51
353.9614919999999
  0
ARC
  5
BAFD
330
BA52
100
AcDbEntity
  8
1
  6
Continuous
100
AcDbCircle
 10
140.5
 20
101.9875
 30
0.0
 40
1.587499999999999
100
AcDbArc
 50
12.108509
 51
32.909052
  0
ARC
  5
BAFE
330
BA52
100
AcDbEntity
  8
1
  6
Continuous
100
AcDbCircle
 10
130.4999999999998
 20
101.9875
 30
0.0
 40
1.587499999999999
100
AcDbArc
 50
12.108509
 51
32.909052
  0
ARC
  5
BAFF
330
BA52
100
AcDbEntity
  8
1
  6
Continuous
100
AcDbCircle
 10
130.4999999999998
 20
101.9875
 30
0.0
 40
1.587499999999999
100
AcDbArc
 50
335.4270200000001
 51
353.9614919999999
  0
ARC
  5
BB00
330
BA52
100
AcDbEntity
  8
1
  6
Continuous
100
AcDbCircle
 10
130.4999999999998
 20
101.9875
 30
0.0
 40
1.587499999999999
100
AcDbArc
 50
186.038508
 51
204.57298
  0
ARC
  5
BB01
330
BA52
100
AcDbEntity
  8
1
  6
Continuous
100
AcDbCircle
 10
130.4999999999998
 20
101.9875
 30
0.0
 40
1.587499999999999
100
AcDbArc
 50
147.0909479999999
 51
167.891491
  0
ARC
  5
BB02
330
BA52
100
AcDbEntity
  8
1
  6
Continuous
100
AcDbCircle
 10
120.5
 20
101.9875
 30
0.0
 40
1.587499999999999
100
AcDbArc
 50
12.108509
 51
32.909052
  0
ARC
  5
BB03
330
BA52
100
AcDbEntity
  8
1
  6
Continuous
100
AcDbCircle
 10
120.5
 20
101.9875
 30
0.0
 40
1.587499999999999
100
AcDbArc
 50
335.4270200000001
 51
353.9614919999999
  0
ARC
  5
BB04
330
BA52
100
AcDbEntity
  8
1
  6
Continuous
100
AcDbCircle
 10
120.5
 20
101.9875
 30
0.0
 40
1.587499999999999
100
AcDbArc
 50
186.038508
 51
204.57298
  0
ARC
  5
BB05
330
BA52
100
AcDbEntity
  8
1
  6
Continuous
100
AcDbCircle
 10
120.5
 20
101.9875
 30
0.0
 40
1.587499999999999
100
AcDbArc
 50
147.0909479999999
 51
167.891491
  0
ARC
  5
BB06
330
BA52
100
AcDbEntity
  8
1
  6
Continuous
100
AcDbCircle
 10
110.4999999999999
 20
101.9875
 30
0.0
 40
1.587499999999999
100
AcDbArc
 50
147.0909479999999
 51
167.891491
  0
ARC
  5
BB07
330
BA52
100
AcDbEntity
  8
1
  6
Continuous
100
AcDbCircle
 10
110.4999999999999
 20
101.9875
 30
0.0
 40
1.587499999999999
100
AcDbArc
 50
186.038508
 51
204.57298
  0
ARC
  5
BB08
330
BA52
100
AcDbEntity
  8
1
  6
Continuous
100
AcDbCircle
 10
110.4999999999999
 20
101.9875
 30
0.0
 40
1.587499999999999
100
AcDbArc
 50
335.4270200000001
 51
353.9614919999999
  0
ARC
  5
BB09
330
BA52
100
AcDbEntity
  8
1
  6
Continuous
100
AcDbCircle
 10
110.4999999999999
 20
101.9875
 30
0.0
 40
1.587499999999999
100
AcDbArc
 50
12.108509
 51
32.909052
  0
LINE
  5
BB0A
330
BA52
100
AcDbEntity
  8
1
  6
Continuous
100
AcDbLine
 10
28.1
 20
113.0989589999999
 30
0.0
 11
28.1
 21
104.9010409999999
 31
0.0
  0
LINE
  5
BB0B
330
BA52
100
AcDbEntity
  8
1
  6
Continuous
100
AcDbLine
 10
26.69999999999999
 20
113.0989589999999
 30
0.0
 11
26.69999999999999
 21
104.9010409999999
 31
0.0
  0
LINE
  5
BB0C
330
BA52
100
AcDbEntity
  8
1
  6
Continuous
100
AcDbLine
 10
25.0
 20
114.3
 30
0.0
 11
26.433944
 21
113.540853
 31
0.0
  0
ARC
  5
BB0D
330
BA52
100
AcDbEntity
  8
1
  6
Continuous
100
AcDbCircle
 10
25.60742499999999
 20
114.5441689999999
 30
0.0
 40
0.5
100
AcDbArc
 50
202.591431
 51
242.102729
  0
ARC
  5
BB0E
330
BA52
100
AcDbEntity
  8
1
  6
Continuous
100
AcDbCircle
 10
26.2
 20
113.0989589999999
 30
0.0
 40
0.5
100
AcDbArc
 50
0.0
 51
62.10272899999999
  0
ARC
  5
BB0F
330
BA52
100
AcDbEntity
  8
1
  6
Continuous
100
AcDbCircle
 10
26.2
 20
113.0989589999999
 30
0.0
 40
1.9
100
AcDbArc
 50
0.0
 51
62.10272899999999
  0
LINE
  5
BB10
330
BA52
100
AcDbEntity
  8
1
  6
Continuous
100
AcDbLine
 10
26.91429600000001
 20
114.87064
 30
0.0
 11
27.088987
 21
114.778156
 31
0.0
  0
ARC
  5
BB11
330
BA52
100
AcDbEntity
  8
1
  6
Continuous
100
AcDbCircle
 10
27.14824
 20
115.312534
 30
0.0
 40
0.5
100
AcDbArc
 50
132.8834129999999
 51
242.102729
  0
ARC
  5
BB12
330
BA52
100
AcDbEntity
  8
1
  6
Continuous
100
AcDbCircle
 10
27.14824
 20
102.687466
 30
0.0
 40
0.5
100
AcDbArc
 50
117.8972709999999
 51
227.116587
  0
LINE
  5
BB13
330
BA52
100
AcDbEntity
  8
1
  6
Continuous
100
AcDbLine
 10
26.807986
 20
102.3210959999999
 30
0.0
 11
28.41969199999999
 21
100.8242749999999
 31
0.0
  0
LINE
  5
BB14
330
BA52
100
AcDbEntity
  8
1
  6
Continuous
100
AcDbLine
 10
25.607033
 20
101.525805
 30
0.0
 11
27.46698
 21
99.798439
 31
0.0
  0
ARC
  5
BB15
330
BA52
100
AcDbEntity
  8
1
  6
Continuous
100
AcDbCircle
 10
27.4
 20
103.0049849999999
 30
0.0
 40
0.5
100
AcDbArc
 50
180.0
 51
261.9426049999999
  0
ARC
  5
BB16
330
BA52
100
AcDbEntity
  8
1
  6
Continuous
100
AcDbCircle
 10
26.2
 20
104.9010409999999
 30
0.0
 40
0.5
100
AcDbArc
 50
297.8972709999998
 51
0.0
  0
LINE
  5
BB17
330
BA52
100
AcDbEntity
  8
1
  6
Continuous
100
AcDbLine
 10
25.0
 20
103.7
 30
0.0
 11
26.433944
 21
104.459147
 31
0.0
  0
ARC
  5
BB18
330
BA52
100
AcDbEntity
  8
1
  6
Continuous
100
AcDbCircle
 10
25.60742499999999
 20
103.4558309999999
 30
0.0
 40
0.5
100
AcDbArc
 50
117.8972709999999
 51
157.4085689999998
  0
ARC
  5
BB19
330
BA52
100
AcDbEntity
  8
1
  6
Continuous
100
AcDbCircle
 10
26.89999999999999
 20
102.9180109999998
 30
0.0
 40
1.9
100
AcDbArc
 50
157.4085689999998
 51
227.116587
  0
LINE
  5
BB1A
330
BA52
100
AcDbEntity
  8
1
  6
Continuous
100
AcDbLine
 10
28.1
 20
105.2135389999999
 30
0.0
 11
28.9
 21
105.6855389999999
 31
0.0
  0
LINE
  5
BB1B
330
BA52
100
AcDbEntity
  8
1
  6
Continuous
100
AcDbLine
 10
27.700075
 20
103.7349469999999
 30
0.0
 11
28.36098699999999
 21
103.093305
 31
0.0
  0
ARC
  5
BB1C
330
BA52
100
AcDbEntity
  8
1
  6
Continuous
100
AcDbCircle
 10
29.5
 20
101.9875
 30
0.0
 40
2.7875
100
AcDbArc
 50
49.983708
 51
122.12208
  0
LINE
  5
BB1D
330
BA52
100
AcDbEntity
  8
1
  6
Continuous
100
AcDbLine
 10
28.079209
 20
104.620734
 30
0.0
 11
29.15407399999999
 21
105.254904
 31
0.0
  0
LINE
  5
BB1E
330
BA52
100
AcDbEntity
  8
1
  6
Continuous
100
AcDbLine
 10
27.4
 20
103.0
 30
0.0
 11
27.4
 21
103.427949
 31
0.0
  0
LINE
  5
BB1F
330
BA52
100
AcDbEntity
  8
1
  6
Continuous
100
AcDbLine
 10
26.89999999999999
 20
103.0049849999999
 30
0.0
 11
26.89999999999999
 21
103.121491
 31
0.0
  0
LINE
  5
BB20
330
BA52
100
AcDbEntity
  8
1
  6
Continuous
100
AcDbLine
 10
26.91429600000001
 20
103.1293599999999
 30
0.0
 11
27.088987
 21
103.2218439999998
 31
0.0
  0
ARC
  5
BB21
330
BA52
100
AcDbEntity
  8
1
  6
Continuous
100
AcDbCircle
 10
26.2
 20
104.9010409999999
 30
0.0
 40
1.9
100
AcDbArc
 50
297.8972709999998
 51
0.0
  0
ARC
  5
BB22
330
BA52
100
AcDbEntity
  8
1
  6
Continuous
100
AcDbCircle
 10
31.49104
 20
104.35896
 30
0.0
 40
0.30896
100
AcDbArc
 50
229.983708
 51
0.0
  0
ARC
  5
BB23
330
BA52
100
AcDbEntity
  8
1
  6
Continuous
100
AcDbCircle
 10
31.49104
 20
104.35896
 30
0.0
 40
1.50896
100
AcDbArc
 50
229.983708
 51
0.0
  0
ARC
  5
BB24
330
BA52
100
AcDbEntity
  8
1
  6
Continuous
100
AcDbCircle
 10
28.9
 20
105.6855389999999
 30
0.0
 40
0.5
100
AcDbArc
 50
300.5406049999999
 51
0.0
  0
LINE
  5
BB25
330
BA52
100
AcDbEntity
  8
1
  6
Continuous
100
AcDbLine
 10
32.20000000000001
 20
101.8205
 30
0.0
 11
32.20000000000001
 21
102.3204999999999
 31
0.0
  0
ARC
  5
BB26
330
BA52
100
AcDbEntity
  8
1
  6
Continuous
100
AcDbCircle
 10
29.5
 20
101.9875
 30
0.0
 40
1.587499999999999
100
AcDbArc
 50
164.228362
 51
359.656848
  0
ARC
  5
BB27
330
BA52
100
AcDbEntity
  8
1
  6
Continuous
100
AcDbCircle
 10
29.5
 20
101.9875
 30
0.0
 40
1.587499999999999
100
AcDbArc
 50
18.435313
 51
145.449896
  0
ARC
  5
BB28
330
BA52
100
AcDbEntity
  8
1
  6
Continuous
100
AcDbCircle
 10
29.5
 20
101.9875
 30
0.0
 40
2.987499999999998
100
AcDbArc
 50
227.116587
 51
329.6497479999998
  0
LINE
  5
BB29
330
BA52
100
AcDbEntity
  8
1
  6
Continuous
100
AcDbLine
 10
30.943724
 20
101.3273349999999
 30
0.0
 11
32.078071
 21
100.477962
 31
0.0
  0
LINE
  5
BB2A
330
BA52
100
AcDbEntity
  8
1
  6
Continuous
100
AcDbLine
 10
27.4
 20
103.0
 30
0.0
 11
32.20000000000001
 21
102.3204999999999
 31
0.0
  0
LINE
  5
BB2B
330
BA52
100
AcDbEntity
  8
1
  6
Continuous
100
AcDbLine
 10
27.32991699999999
 20
102.509921
 30
0.0
 11
32.20000000000001
 21
101.8205
 31
0.0
  0
LINE
  5
BB2C
330
BA52
100
AcDbEntity
  8
1
  6
Continuous
100
AcDbLine
 10
203.0
 20
114.2429139999999
 30
0.0
 11
199.5
 21
114.2429139999999
 31
0.0
  0
LINE
  5
BB2D
330
BA52
100
AcDbEntity
  8
1
  6
Continuous
100
AcDbLine
 10
203.0
 20
115.312534
 30
0.0
 11
199.5
 21
115.312534
 31
0.0
  0
LINE
  5
BB2E
330
BA52
100
AcDbEntity
  8
1
  6
Continuous
100
AcDbLine
 10
203.0
 20
102.687466
 30
0.0
 11
199.5
 21
102.687466
 31
0.0
  0
LINE
  5
BB2F
330
BA52
100
AcDbEntity
  8
1
  6
Continuous
100
AcDbLine
 10
203.0
 20
103.7570859999999
 30
0.0
 11
199.5
 21
103.7570859999999
 31
0.0
  0
LINE
  5
BB30
330
BA52
100
AcDbEntity
  8
1
  6
Continuous
100
AcDbLine
 10
252.8999999999999
 20
113.0989589999999
 30
0.0
 11
252.8999999999999
 21
104.9010409999999
 31
0.0
  0
LINE
  5
BB31
330
BA52
100
AcDbEntity
  8
1
  6
Continuous
100
AcDbLine
 10
254.5999999999999
 20
113.558824
 30
0.0
 11
254.5999999999999
 21
104.441176
 31
0.0
  0
LINE
  5
BB32
330
BA52
100
AcDbEntity
  8
1
  6
Continuous
100
AcDbLine
 10
254.3
 20
113.0989589999999
 30
0.0
 11
254.3
 21
104.9010409999999
 31
0.0
  0
LINE
  5
BB33
330
BA52
100
AcDbEntity
  8
1
  6
Continuous
100
AcDbLine
 10
256.0
 20
115.0819889999998
 30
0.0
 11
256.0
 21
102.9180109999998
 31
0.0
  0
LINE
  5
BB34
330
BA52
100
AcDbEntity
  8
1
  6
Continuous
100
AcDbLine
 10
248.0
 20
113.6410399999999
 30
0.0
 11
248.0
 21
104.35896
 31
0.0
  0
LINE
  5
BB35
330
BA52
100
AcDbEntity
  8
1
  6
Continuous
100
AcDbLine
 10
249.1999999999999
 20
113.6410399999999
 30
0.0
 11
249.1999999999999
 21
104.35896
 31
0.0
  0
LINE
  5
BB36
330
BA52
100
AcDbEntity
  8
1
  6
Continuous
100
AcDbLine
 10
251.6
 20
112.3144609999999
 30
0.0
 11
251.6
 21
105.6855389999999
 31
0.0
  0
LINE
  5
BB37
330
BA52
100
AcDbEntity
  8
1
  6
Continuous
100
AcDbLine
 10
252.0999999999999
 20
112.3144609999999
 30
0.0
 11
252.0999999999999
 21
105.6855389999999
 31
0.0
  0
ARC
  5
BB38
330
BA52
100
AcDbEntity
  8
1
  6
Continuous
100
AcDbCircle
 10
253.6
 20
103.0049849999999
 30
0.0
 40
0.5
100
AcDbArc
 50
278.0573949999999
 51
0.0
  0
LINE
  5
BB39
330
BA52
100
AcDbEntity
  8
1
  6
Continuous
100
AcDbLine
 10
255.392967
 20
101.525805
 30
0.0
 11
253.53302
 21
99.798439
 31
0.0
  0
LINE
  5
BB3A
330
BA52
100
AcDbEntity
  8
1
  6
Continuous
100
AcDbLine
 10
254.192014
 20
102.3210959999999
 30
0.0
 11
252.580308
 21
100.8242749999999
 31
0.0
  0
ARC
  5
BB3B
330
BA52
100
AcDbEntity
  8
1
  6
Continuous
100
AcDbCircle
 10
253.85176
 20
102.687466
 30
0.0
 40
0.5
100
AcDbArc
 50
312.8834129999999
 51
62.10272899999999
  0
LINE
  5
BB3C
330
BA52
100
AcDbEntity
  8
1
  6
Continuous
100
AcDbLine
 10
256.0
 20
103.7
 30
0.0
 11
254.5660559999999
 21
104.459147
 31
0.0
  0
ARC
  5
BB3D
330
BA52
100
AcDbEntity
  8
1
  6
Continuous
100
AcDbCircle
 10
254.0999999999999
 20
102.9180109999998
 30
0.0
 40
1.9
100
AcDbArc
 50
312.8834129999999
 51
22.591431
  0
ARC
  5
BB3E
330
BA52
100
AcDbEntity
  8
1
  6
Continuous
100
AcDbCircle
 10
255.3925749999999
 20
103.4558309999999
 30
0.0
 40
0.5
100
AcDbArc
 50
22.591431
 51
62.10272899999999
  0
ARC
  5
BB3F
330
BA52
100
AcDbEntity
  8
1
  6
Continuous
100
AcDbCircle
 10
254.8
 20
104.9010409999999
 30
0.0
 40
0.5
100
AcDbArc
 50
180.0
 51
242.102729
  0
LINE
  5
BB40
330
BA52
100
AcDbEntity
  8
1
  6
Continuous
100
AcDbLine
 10
253.670083
 20
102.509921
 30
0.0
 11
248.7999999999999
 21
101.8205
 31
0.0
  0
LINE
  5
BB41
330
BA52
100
AcDbEntity
  8
1
  6
Continuous
100
AcDbLine
 10
253.6
 20
103.0
 30
0.0
 11
248.7999999999999
 21
102.3204999999999
 31
0.0
  0
LINE
  5
BB42
330
BA52
100
AcDbEntity
  8
1
  6
Continuous
100
AcDbLine
 10
250.0562759999999
 20
101.3273349999999
 30
0.0
 11
248.921929
 21
100.477962
 31
0.0
  0
ARC
  5
BB43
330
BA52
100
AcDbEntity
  8
1
  6
Continuous
100
AcDbCircle
 10
251.5
 20
101.9875
 30
0.0
 40
2.987499999999998
100
AcDbArc
 50
210.350252
 51
312.8834129999999
  0
ARC
  5
BB44
330
BA52
100
AcDbEntity
  8
1
  6
Continuous
100
AcDbCircle
 10
251.5
 20
101.9875
 30
0.0
 40
1.587499999999999
100
AcDbArc
 50
34.55010399999999
 51
161.5646869999999
  0
ARC
  5
BB45
330
BA52
100
AcDbEntity
  8
1
  6
Continuous
100
AcDbCircle
 10
251.5
 20
101.9875
 30
0.0
 40
1.587499999999999
100
AcDbArc
 50
180.343152
 51
15.771638
  0
LINE
  5
BB46
330
BA52
100
AcDbEntity
  8
1
  6
Continuous
100
AcDbLine
 10
248.7999999999999
 20
101.8205
 30
0.0
 11
248.7999999999999
 21
102.3204999999999
 31
0.0
  0
ARC
  5
BB47
330
BA52
100
AcDbEntity
  8
1
  6
Continuous
100
AcDbCircle
 10
252.0999999999999
 20
105.6855389999999
 30
0.0
 40
0.5
100
AcDbArc
 50
180.0
 51
239.459395
  0
ARC
  5
BB48
330
BA52
100
AcDbEntity
  8
1
  6
Continuous
100
AcDbCircle
 10
249.50896
 20
104.35896
 30
0.0
 40
1.50896
100
AcDbArc
 50
180.0
 51
310.0162919999998
  0
ARC
  5
BB49
330
BA52
100
AcDbEntity
  8
1
  6
Continuous
100
AcDbCircle
 10
249.50896
 20
104.35896
 30
0.0
 40
0.30896
100
AcDbArc
 50
180.0
 51
310.0162919999998
  0
ARC
  5
BB4A
330
BA52
100
AcDbEntity
  8
1
  6
Continuous
100
AcDbCircle
 10
254.8
 20
104.9010409999999
 30
0.0
 40
1.9
100
AcDbArc
 50
180.0
 51
242.102729
  0
LINE
  5
BB4B
330
BA52
100
AcDbEntity
  8
1
  6
Continuous
100
AcDbLine
 10
254.085704
 20
103.1293599999999
 30
0.0
 11
253.911013
 21
103.2218439999998
 31
0.0
  0
LINE
  5
BB4C
330
BA52
100
AcDbEntity
  8
1
  6
Continuous
100
AcDbLine
 10
254.0999999999999
 20
103.0049849999999
 30
0.0
 11
254.0999999999999
 21
103.121491
 31
0.0
  0
LINE
  5
BB4D
330
BA52
100
AcDbEntity
  8
1
  6
Continuous
100
AcDbLine
 10
253.6
 20
103.0
 30
0.0
 11
253.6
 21
103.427949
 31
0.0
  0
LINE
  5
BB4E
330
BA52
100
AcDbEntity
  8
1
  6
Continuous
100
AcDbLine
 10
252.920791
 20
104.620734
 30
0.0
 11
251.8459259999999
 21
105.254904
 31
0.0
  0
ARC
  5
BB4F
330
BA52
100
AcDbEntity
  8
1
  6
Continuous
100
AcDbCircle
 10
251.5
 20
101.9875
 30
0.0
 40
2.7875
100
AcDbArc
 50
57.87791999999999
 51
130.0162919999999
  0
LINE
  5
BB50
330
BA52
100
AcDbEntity
  8
1
  6
Continuous
100
AcDbLine
 10
253.299925
 20
103.7349469999999
 30
0.0
 11
252.6390129999998
 21
103.093305
 31
0.0
  0
LINE
  5
BB51
330
BA52
100
AcDbEntity
  8
1
  6
Continuous
100
AcDbLine
 10
252.8999999999999
 20
105.2135389999999
 30
0.0
 11
252.0999999999999
 21
105.6855389999999
 31
0.0
  0
ARC
  5
BB52
330
BA52
100
AcDbEntity
  8
1
  6
Continuous
100
AcDbCircle
 10
253.85176
 20
115.312534
 30
0.0
 40
0.5
100
AcDbArc
 50
297.8972709999998
 51
47.116587
  0
LINE
  5
BB53
330
BA52
100
AcDbEntity
  8
1
  6
Continuous
100
AcDbLine
 10
254.192014
 20
115.678904
 30
0.0
 11
252.580308
 21
117.1757249999999
 31
0.0
  0
LINE
  5
BB54
330
BA52
100
AcDbEntity
  8
4
  6
CENTER
100
AcDbLine
 10
259.0
 20
109.0
 30
0.0
 11
245.0
 21
109.0
 31
0.0
  0
LINE
  5
BB55
330
BA52
100
AcDbEntity
  8
1
  6
Continuous
100
AcDbLine
 10
255.392967
 20
116.474195
 30
0.0
 11
253.53302
 21
118.201561
 31
0.0
  0
ARC
  5
BB56
330
BA52
100
AcDbEntity
  8
1
  6
Continuous
100
AcDbCircle
 10
253.6
 20
114.995015
 30
0.0
 40
0.5
100
AcDbArc
 50
0.0
 51
81.942605
  0
LINE
  5
BB57
330
BA52
100
AcDbEntity
  8
1
  6
Continuous
100
AcDbLine
 10
256.0
 20
114.3
 30
0.0
 11
254.5660559999999
 21
113.540853
 31
0.0
  0
ARC
  5
BB58
330
BA52
100
AcDbEntity
  8
1
  6
Continuous
100
AcDbCircle
 10
254.8
 20
113.0989589999999
 30
0.0
 40
0.5
100
AcDbArc
 50
117.8972709999999
 51
180.0
  0
ARC
  5
BB59
330
BA52
100
AcDbEntity
  8
1
  6
Continuous
100
AcDbCircle
 10
255.3925749999999
 20
114.5441689999999
 30
0.0
 40
0.5
100
AcDbArc
 50
297.8972709999998
 51
337.408569
  0
ARC
  5
BB5A
330
BA52
100
AcDbEntity
  8
1
  6
Continuous
100
AcDbCircle
 10
254.0999999999999
 20
115.0819889999998
 30
0.0
 40
1.9
100
AcDbArc
 50
337.408569
 51
47.116587
  0
LINE
  5
BB5B
330
BA52
100
AcDbEntity
  8
1
  6
Continuous
100
AcDbLine
 10
252.8999999999999
 20
112.786461
 30
0.0
 11
252.0999999999999
 21
112.3144609999999
 31
0.0
  0
LINE
  5
BB5C
330
BA52
100
AcDbEntity
  8
1
  6
Continuous
100
AcDbLine
 10
253.299925
 20
114.265053
 30
0.0
 11
252.6390129999998
 21
114.9066949999999
 31
0.0
  0
ARC
  5
BB5D
330
BA52
100
AcDbEntity
  8
1
  6
Continuous
100
AcDbCircle
 10
251.5
 20
116.0125
 30
0.0
 40
2.7875
100
AcDbArc
 50
229.983708
 51
302.12208
  0
LINE
  5
BB5E
330
BA52
100
AcDbEntity
  8
1
  6
Continuous
100
AcDbLine
 10
252.920791
 20
113.3792659999999
 30
0.0
 11
251.8459259999999
 21
112.745096
 31
0.0
  0
LINE
  5
BB5F
330
BA52
100
AcDbEntity
  8
1
  6
Continuous
100
AcDbLine
 10
253.6
 20
115.0
 30
0.0
 11
253.6
 21
114.572051
 31
0.0
  0
LINE
  5
BB60
330
BA52
100
AcDbEntity
  8
1
  6
Continuous
100
AcDbLine
 10
254.0999999999999
 20
114.995015
 30
0.0
 11
254.0999999999999
 21
114.878509
 31
0.0
  0
LINE
  5
BB61
330
BA52
100
AcDbEntity
  8
1
  6
Continuous
100
AcDbLine
 10
254.085704
 20
114.87064
 30
0.0
 11
253.911013
 21
114.778156
 31
0.0
  0
ARC
  5
BB62
330
BA52
100
AcDbEntity
  8
1
  6
Continuous
100
AcDbCircle
 10
254.8
 20
113.0989589999999
 30
0.0
 40
1.9
100
AcDbArc
 50
117.8972709999999
 51
180.0
  0
ARC
  5
BB63
330
BA52
100
AcDbEntity
  8
1
  6
Continuous
100
AcDbCircle
 10
249.50896
 20
113.6410399999999
 30
0.0
 40
0.30896
100
AcDbArc
 50
49.983708
 51
180.0
  0
ARC
  5
BB64
330
BA52
100
AcDbEntity
  8
1
  6
Continuous
100
AcDbCircle
 10
249.50896
 20
113.6410399999999
 30
0.0
 40
1.50896
100
AcDbArc
 50
49.983708
 51
180.0
  0
ARC
  5
BB65
330
BA52
100
AcDbEntity
  8
1
  6
Continuous
100
AcDbCircle
 10
252.0999999999999
 20
112.3144609999999
 30
0.0
 40
0.5
100
AcDbArc
 50
120.540605
 51
180.0
  0
LINE
  5
BB66
330
BA52
100
AcDbEntity
  8
1
  6
Continuous
100
AcDbLine
 10
248.7999999999999
 20
116.1795
 30
0.0
 11
248.7999999999999
 21
115.6795
 31
0.0
  0
ARC
  5
BB67
330
BA52
100
AcDbEntity
  8
1
  6
Continuous
100
AcDbCircle
 10
251.5
 20
116.0125
 30
0.0
 40
1.587499999999999
100
AcDbArc
 50
344.2283619999998
 51
179.6568479999999
  0
ARC
  5
BB68
330
BA52
100
AcDbEntity
  8
1
  6
Continuous
100
AcDbCircle
 10
251.5
 20
116.0125
 30
0.0
 40
1.587499999999999
100
AcDbArc
 50
198.4353129999999
 51
325.449896
  0
ARC
  5
BB69
330
BA52
100
AcDbEntity
  8
1
  6
Continuous
100
AcDbCircle
 10
251.5
 20
116.0125
 30
0.0
 40
2.987499999999998
100
AcDbArc
 50
47.116587
 51
149.6497479999999
  0
LINE
  5
BB6A
330
BA52
100
AcDbEntity
  8
1
  6
Continuous
100
AcDbLine
 10
250.0562759999999
 20
116.6726649999999
 30
0.0
 11
248.921929
 21
117.522038
 31
0.0
  0
LINE
  5
BB6B
330
BA52
100
AcDbEntity
  8
1
  6
Continuous
100
AcDbLine
 10
253.6
 20
115.0
 30
0.0
 11
248.7999999999999
 21
115.6795
 31
0.0
  0
LINE
  5
BB6C
330
BA52
100
AcDbEntity
  8
1
  6
Continuous
100
AcDbLine
 10
253.670083
 20
115.4900789999999
 30
0.0
 11
248.7999999999999
 21
116.1795
 31
0.0
  0
LINE
  5
BB6D
330
BA52
100
AcDbEntity
  8
1
  6
Continuous
100
AcDbLine
 10
199.5
 20
242.1235129999999
 30
0.0
 11
199.5
 21
231.523513
 31
0.0
  0
LINE
  5
BB6E
330
BA52
100
AcDbEntity
  8
1
  6
Continuous
100
AcDbLine
 10
178.0
 20
49.0
 30
0.0
 11
78.0
 21
49.0
 31
0.0
  0
LINE
  5
BB6F
330
BA52
100
AcDbEntity
  8
1
  6
Continuous
100
AcDbLine
 10
103.0
 20
48.078071
 30
0.0
 11
203.0
 21
48.078071
 31
0.0
  0
LINE
  5
BB70
330
BA52
100
AcDbEntity
  8
1
  6
Continuous
100
AcDbLine
 10
203.0
 20
41.0
 30
0.0
 11
103.0
 21
41.0
 31
0.0
  0
LINE
  5
BB71
330
BA52
100
AcDbEntity
  8
3
  6
DASHED
100
AcDbLine
 10
103.0
 20
43.5
 30
0.0
 11
178.0
 21
43.5
 31
0.0
  0
LINE
  5
BB72
330
BA52
100
AcDbEntity
  8
1
  6
Continuous
100
AcDbLine
 10
154.4999999999998
 20
48.2
 30
0.0
 11
146.5
 21
48.2
 31
0.0
  0
LINE
  5
BB73
330
BA52
100
AcDbEntity
  8
1
  6
Continuous
100
AcDbLine
 10
124.5
 20
48.2
 30
0.0
 11
116.5
 21
48.2
 31
0.0
  0
LINE
  5
BB74
330
BA52
100
AcDbEntity
  8
1
  6
Continuous
100
AcDbLine
 10
103.0
 20
41.0
 30
0.0
 11
103.0
 21
48.078071
 31
0.0
  0
LINE
  5
BB75
330
BA52
100
AcDbEntity
  8
1
  6
Continuous
100
AcDbLine
 10
78.0
 20
43.5
 30
0.0
 11
78.0
 21
49.0
 31
0.0
  0
LINE
  5
BB76
330
BA52
100
AcDbEntity
  8
4
  6
CENTER
100
AcDbLine
 10
88.0
 20
46.766047
 30
0.0
 11
88.0
 21
51.0
 31
0.0
  0
LINE
  5
BB77
330
BA52
100
AcDbEntity
  8
1
  6
Continuous
100
AcDbLine
 10
114.5
 20
48.2
 30
0.0
 11
106.4999999999999
 21
48.2
 31
0.0
  0
LINE
  5
BB78
330
BA52
100
AcDbEntity
  8
1
  6
Continuous
100
AcDbLine
 10
106.4999999999999
 20
48.078071
 30
0.0
 11
106.4999999999999
 21
48.2
 31
0.0
  0
LINE
  5
BB79
330
BA52
100
AcDbEntity
  8
4
  6
CENTER
100
AcDbLine
 10
98.0
 20
46.87486599999998
 30
0.0
 11
98.0
 21
51.0
 31
0.0
  0
LINE
  5
BB7A
330
BA52
100
AcDbEntity
  8
1
  6
Continuous
100
AcDbLine
 10
114.5
 20
48.078071
 30
0.0
 11
114.5
 21
48.2
 31
0.0
  0
LINE
  5
BB7B
330
BA52
100
AcDbEntity
  8
1
  6
Continuous
100
AcDbLine
 10
116.5
 20
48.078071
 30
0.0
 11
116.5
 21
48.2
 31
0.0
  0
LINE
  5
BB7C
330
BA52
100
AcDbEntity
  8
1
  6
Continuous
100
AcDbLine
 10
78.0
 20
43.5
 30
0.0
 11
103.0
 21
43.5
 31
0.0
  0
LINE
  5
BB7D
330
BA52
100
AcDbEntity
  8
4
  6
CENTER
100
AcDbLine
 10
113.0
 20
39.0
 30
0.0
 11
113.0
 21
42.968697
 31
0.0
  0
LINE
  5
BB7E
330
BA52
100
AcDbEntity
  8
1
  6
Continuous
100
AcDbLine
 10
134.4999999999998
 20
48.2
 30
0.0
 11
126.5
 21
48.2
 31
0.0
  0
LINE
  5
BB7F
330
BA52
100
AcDbEntity
  8
1
  6
Continuous
100
AcDbLine
 10
126.5
 20
48.078071
 30
0.0
 11
126.5
 21
48.2
 31
0.0
  0
LINE
  5
BB80
330
BA52
100
AcDbEntity
  8
1
  6
Continuous
100
AcDbLine
 10
124.5
 20
48.078071
 30
0.0
 11
124.5
 21
48.2
 31
0.0
  0
LINE
  5
BB81
330
BA52
100
AcDbEntity
  8
1
  6
Continuous
100
AcDbLine
 10
144.5
 20
48.2
 30
0.0
 11
136.4999999999998
 21
48.2
 31
0.0
  0
LINE
  5
BB82
330
BA52
100
AcDbEntity
  8
1
  6
Continuous
100
AcDbLine
 10
136.4999999999998
 20
48.078071
 30
0.0
 11
136.4999999999998
 21
48.2
 31
0.0
  0
LINE
  5
BB83
330
BA52
100
AcDbEntity
  8
1
  6
Continuous
100
AcDbLine
 10
134.4999999999998
 20
48.078071
 30
0.0
 11
134.4999999999998
 21
48.2
 31
0.0
  0
LINE
  5
BB84
330
BA52
100
AcDbEntity
  8
4
  6
CENTER
100
AcDbLine
 10
158.0
 20
46.87486599999998
 30
0.0
 11
158.0
 21
51.0
 31
0.0
  0
LINE
  5
BB85
330
BA52
100
AcDbEntity
  8
1
  6
Continuous
100
AcDbLine
 10
146.5
 20
48.078071
 30
0.0
 11
146.5
 21
48.2
 31
0.0
  0
LINE
  5
BB86
330
BA52
100
AcDbEntity
  8
1
  6
Continuous
100
AcDbLine
 10
144.5
 20
48.078071
 30
0.0
 11
144.5
 21
48.2
 31
0.0
  0
LINE
  5
BB87
330
BA52
100
AcDbEntity
  8
4
  6
CENTER
100
AcDbLine
 10
168.0
 20
46.87486599999998
 30
0.0
 11
168.0
 21
51.0
 31
0.0
  0
LINE
  5
BB88
330
BA52
100
AcDbEntity
  8
4
  6
CENTER
100
AcDbLine
 10
123.0
 20
39.0
 30
0.0
 11
123.0
 21
42.968697
 31
0.0
  0
LINE
  5
BB89
330
BA52
100
AcDbEntity
  8
1
  6
Continuous
100
AcDbLine
 10
203.0
 20
48.078071
 30
0.0
 11
203.0
 21
41.0
 31
0.0
  0
LINE
  5
BB8A
330
BA52
100
AcDbEntity
  8
3
  6
DASHED
100
AcDbLine
 10
178.0
 20
48.078071
 30
0.0
 11
178.0
 21
43.5
 31
0.0
  0
LINE
  5
BB8B
330
BA52
100
AcDbEntity
  8
1
  6
Continuous
100
AcDbLine
 10
178.0
 20
49.0
 30
0.0
 11
178.0
 21
48.078071
 31
0.0
  0
LINE
  5
BB8C
330
BA52
100
AcDbEntity
  8
1
  6
Continuous
100
AcDbLine
 10
154.4999999999998
 20
48.078071
 30
0.0
 11
154.4999999999998
 21
48.2
 31
0.0
  0
LINE
  5
BB8D
330
BA52
100
AcDbEntity
  8
4
  6
CENTER
100
AcDbLine
 10
183.0
 20
39.0
 30
0.0
 11
183.0
 21
42.968697
 31
0.0
  0
LINE
  5
BB8E
330
BA52
100
AcDbEntity
  8
4
  6
CENTER
100
AcDbLine
 10
193.0
 20
39.0
 30
0.0
 11
193.0
 21
43.13192599999999
 31
0.0
  0
LINE
  5
BB8F
330
BA52
100
AcDbEntity
  8
1
  6
Continuous
100
AcDbLine
 10
199.5
 20
242.1235129999999
 30
0.0
 11
203.0
 21
242.1235129999999
 31
0.0
  0
LINE
  5
BB90
330
BA52
100
AcDbEntity
  8
1
  6
Continuous
100
AcDbLine
 10
199.5
 20
241.223513
 30
0.0
 11
203.0
 21
241.223513
 31
0.0
  0
LINE
  5
BB91
330
BA52
100
AcDbEntity
  8
1
  6
Continuous
100
AcDbLine
 10
199.5
 20
231.523513
 30
0.0
 11
203.0
 21
231.523513
 31
0.0
  0
LINE
  5
BB92
330
BA52
100
AcDbEntity
  8
1
  6
Continuous
100
AcDbLine
 10
199.5
 20
232.4235129999999
 30
0.0
 11
203.0
 21
232.4235129999999
 31
0.0
  0
LINE
  5
BB93
330
BA52
100
AcDbEntity
  8
1
  6
Continuous
100
AcDbLine
 10
106.4999999999999
 20
242.1235129999999
 30
0.0
 11
106.4999999999999
 21
231.523513
 31
0.0
  0
LINE
  5
BB94
330
BA52
100
AcDbEntity
  8
1
  6
Continuous
100
AcDbLine
 10
106.4999999999999
 20
232.4235129999999
 30
0.0
 11
103.0
 21
232.4235129999999
 31
0.0
  0
LINE
  5
BB95
330
BA52
100
AcDbEntity
  8
1
  6
Continuous
100
AcDbLine
 10
106.4999999999999
 20
231.523513
 30
0.0
 11
103.0
 21
231.523513
 31
0.0
  0
LINE
  5
BB96
330
BA52
100
AcDbEntity
  8
1
  6
Continuous
100
AcDbLine
 10
106.4999999999999
 20
242.1235129999999
 30
0.0
 11
103.0
 21
242.1235129999999
 31
0.0
  0
LINE
  5
BB97
330
BA52
100
AcDbEntity
  8
1
  6
Continuous
100
AcDbLine
 10
106.4999999999999
 20
241.223513
 30
0.0
 11
103.0
 21
241.223513
 31
0.0
  0
LINE
  5
BB98
330
BA52
100
AcDbEntity
  8
1
  6
Continuous
100
AcDbLine
 10
78.0
 20
241.048513
 30
0.0
 11
103.0
 21
241.048513
 31
0.0
  0
LINE
  5
BB99
330
BA52
100
AcDbEntity
  8
1
  6
Continuous
100
AcDbLine
 10
78.0
 20
232.5985129999998
 30
0.0
 11
103.0
 21
232.5985129999998
 31
0.0
  0
LINE
  5
BB9A
330
BA52
100
AcDbEntity
  8
3
  6
DASHED
100
AcDbLine
 10
103.0
 20
241.048513
 30
0.0
 11
178.0
 21
241.048513
 31
0.0
  0
LINE
  5
BB9B
330
BA52
100
AcDbEntity
  8
3
  6
DASHED
100
AcDbLine
 10
103.0
 20
232.5985129999998
 30
0.0
 11
178.0
 21
232.5985129999998
 31
0.0
  0
LINE
  5
BB9C
330
BA52
100
AcDbEntity
  8
1
  6
Continuous
100
AcDbLine
 10
164.5
 20
48.2
 30
0.0
 11
156.4999999999998
 21
48.2
 31
0.0
  0
LINE
  5
BB9D
330
BA52
100
AcDbEntity
  8
1
  6
Continuous
100
AcDbLine
 10
156.4999999999998
 20
48.078071
 30
0.0
 11
156.4999999999998
 21
48.2
 31
0.0
  0
LINE
  5
BB9E
330
BA52
100
AcDbEntity
  8
1
  6
Continuous
100
AcDbLine
 10
174.5
 20
48.078071
 30
0.0
 11
174.5
 21
48.2
 31
0.0
  0
LINE
  5
BB9F
330
BA52
100
AcDbEntity
  8
1
  6
Continuous
100
AcDbLine
 10
166.5
 20
48.078071
 30
0.0
 11
166.5
 21
48.2
 31
0.0
  0
LINE
  5
BBA0
330
BA52
100
AcDbEntity
  8
1
  6
Continuous
100
AcDbLine
 10
164.5
 20
48.078071
 30
0.0
 11
164.5
 21
48.2
 31
0.0
  0
LINE
  5
BBA1
330
BA52
100
AcDbEntity
  8
1
  6
Continuous
100
AcDbLine
 10
174.5
 20
48.2
 30
0.0
 11
166.5
 21
48.2
 31
0.0
  0
LINE
  5
BBA2
330
BA52
100
AcDbEntity
  8
1
  6
Continuous
100
AcDbLine
 10
134.4999999999998
 20
169.8
 30
0.0
 11
126.5
 21
169.8
 31
0.0
  0
LINE
  5
BBA3
330
BA52
100
AcDbEntity
  8
3
  6
DASHED
100
AcDbLine
 10
103.0
 20
174.5
 30
0.0
 11
178.0
 21
174.5
 31
0.0
  0
LINE
  5
BBA4
330
BA52
100
AcDbEntity
  8
1
  6
Continuous
100
AcDbLine
 10
203.0
 20
177.0
 30
0.0
 11
103.0
 21
177.0
 31
0.0
  0
LINE
  5
BBA5
330
BA52
100
AcDbEntity
  8
1
  6
Continuous
100
AcDbLine
 10
103.0
 20
169.921929
 30
0.0
 11
203.0
 21
169.921929
 31
0.0
  0
LINE
  5
BBA6
330
BA52
100
AcDbEntity
  8
1
  6
Continuous
100
AcDbLine
 10
178.0
 20
169.0
 30
0.0
 11
78.0
 21
169.0
 31
0.0
  0
LINE
  5
BBA7
330
BA52
100
AcDbEntity
  8
1
  6
Continuous
100
AcDbLine
 10
78.0
 20
174.5
 30
0.0
 11
78.0
 21
169.0
 31
0.0
  0
LINE
  5
BBA8
330
BA52
100
AcDbEntity
  8
1
  6
Continuous
100
AcDbLine
 10
103.0
 20
177.0
 30
0.0
 11
103.0
 21
169.921929
 31
0.0
  0
LINE
  5
BBA9
330
BA52
100
AcDbEntity
  8
1
  6
Continuous
100
AcDbLine
 10
78.0
 20
174.5
 30
0.0
 11
103.0
 21
174.5
 31
0.0
  0
LINE
  5
BBAA
330
BA52
100
AcDbEntity
  8
4
  6
CENTER
100
AcDbLine
 10
123.0
 20
179.0
 30
0.0
 11
123.0
 21
175.031303
 31
0.0
  0
LINE
  5
BBAB
330
BA52
100
AcDbEntity
  8
4
  6
CENTER
100
AcDbLine
 10
113.0
 20
179.0
 30
0.0
 11
113.0
 21
175.031303
 31
0.0
  0
LINE
  5
BBAC
330
BA52
100
AcDbEntity
  8
4
  6
CENTER
100
AcDbLine
 10
88.0
 20
171.233953
 30
0.0
 11
88.0
 21
167.0
 31
0.0
  0
LINE
  5
BBAD
330
BA52
100
AcDbEntity
  8
1
  6
Continuous
100
AcDbLine
 10
114.5
 20
169.8
 30
0.0
 11
106.4999999999999
 21
169.8
 31
0.0
  0
LINE
  5
BBAE
330
BA52
100
AcDbEntity
  8
4
  6
CENTER
100
AcDbLine
 10
98.0
 20
171.125134
 30
0.0
 11
98.0
 21
167.0
 31
0.0
  0
LINE
  5
BBAF
330
BA52
100
AcDbEntity
  8
1
  6
Continuous
100
AcDbLine
 10
106.4999999999999
 20
169.921929
 30
0.0
 11
106.4999999999999
 21
169.8
 31
0.0
  0
LINE
  5
BBB0
330
BA52
100
AcDbEntity
  8
1
  6
Continuous
100
AcDbLine
 10
124.5
 20
169.921929
 30
0.0
 11
124.5
 21
169.8
 31
0.0
  0
LINE
  5
BBB1
330
BA52
100
AcDbEntity
  8
1
  6
Continuous
100
AcDbLine
 10
126.5
 20
169.921929
 30
0.0
 11
126.5
 21
169.8
 31
0.0
  0
LINE
  5
BBB2
330
BA52
100
AcDbEntity
  8
1
  6
Continuous
100
AcDbLine
 10
116.5
 20
169.921929
 30
0.0
 11
116.5
 21
169.8
 31
0.0
  0
LINE
  5
BBB3
330
BA52
100
AcDbEntity
  8
1
  6
Continuous
100
AcDbLine
 10
114.5
 20
169.921929
 30
0.0
 11
114.5
 21
169.8
 31
0.0
  0
LINE
  5
BBB4
330
BA52
100
AcDbEntity
  8
1
  6
Continuous
100
AcDbLine
 10
124.5
 20
169.8
 30
0.0
 11
116.5
 21
169.8
 31
0.0
  0
LINE
  5
BBB5
330
BA52
100
AcDbEntity
  8
3
  6
DASHED
100
AcDbLine
 10
178.0
 20
169.921929
 30
0.0
 11
178.0
 21
174.5
 31
0.0
  0
LINE
  5
BBB6
330
BA52
100
AcDbEntity
  8
4
  6
CENTER
100
AcDbLine
 10
183.0
 20
179.0
 30
0.0
 11
183.0
 21
175.031303
 31
0.0
  0
LINE
  5
BBB7
330
BA52
100
AcDbEntity
  8
1
  6
Continuous
100
AcDbLine
 10
164.5
 20
169.8
 30
0.0
 11
156.4999999999998
 21
169.8
 31
0.0
  0
LINE
  5
BBB8
330
BA52
100
AcDbEntity
  8
1
  6
Continuous
100
AcDbLine
 10
144.5
 20
169.8
 30
0.0
 11
136.4999999999998
 21
169.8
 31
0.0
  0
LINE
  5
BBB9
330
BA52
100
AcDbEntity
  8
1
  6
Continuous
100
AcDbLine
 10
134.4999999999998
 20
169.921929
 30
0.0
 11
134.4999999999998
 21
169.8
 31
0.0
  0
LINE
  5
BBBA
330
BA52
100
AcDbEntity
  8
1
  6
Continuous
100
AcDbLine
 10
136.4999999999998
 20
169.921929
 30
0.0
 11
136.4999999999998
 21
169.8
 31
0.0
  0
LINE
  5
BBBB
330
BA52
100
AcDbEntity
  8
1
  6
Continuous
100
AcDbLine
 10
156.4999999999998
 20
169.921929
 30
0.0
 11
156.4999999999998
 21
169.8
 31
0.0
  0
LINE
  5
BBBC
330
BA52
100
AcDbEntity
  8
1
  6
Continuous
100
AcDbLine
 10
154.4999999999998
 20
169.921929
 30
0.0
 11
154.4999999999998
 21
169.8
 31
0.0
  0
LINE
  5
BBBD
330
BA52
100
AcDbEntity
  8
1
  6
Continuous
100
AcDbLine
 10
144.5
 20
169.921929
 30
0.0
 11
144.5
 21
169.8
 31
0.0
  0
LINE
  5
BBBE
330
BA52
100
AcDbEntity
  8
1
  6
Continuous
100
AcDbLine
 10
146.5
 20
169.921929
 30
0.0
 11
146.5
 21
169.8
 31
0.0
  0
LINE
  5
BBBF
330
BA52
100
AcDbEntity
  8
4
  6
CENTER
100
AcDbLine
 10
158.0
 20
171.125134
 30
0.0
 11
158.0
 21
167.0
 31
0.0
  0
LINE
  5
BBC0
330
BA52
100
AcDbEntity
  8
1
  6
Continuous
100
AcDbLine
 10
154.4999999999998
 20
169.8
 30
0.0
 11
146.5
 21
169.8
 31
0.0
  0
LINE
  5
BBC1
330
BA52
100
AcDbEntity
  8
1
  6
Continuous
100
AcDbLine
 10
174.5
 20
169.8
 30
0.0
 11
166.5
 21
169.8
 31
0.0
  0
LINE
  5
BBC2
330
BA52
100
AcDbEntity
  8
1
  6
Continuous
100
AcDbLine
 10
164.5
 20
169.921929
 30
0.0
 11
164.5
 21
169.8
 31
0.0
  0
LINE
  5
BBC3
330
BA52
100
AcDbEntity
  8
1
  6
Continuous
100
AcDbLine
 10
166.5
 20
169.921929
 30
0.0
 11
166.5
 21
169.8
 31
0.0
  0
LINE
  5
BBC4
330
BA52
100
AcDbEntity
  8
1
  6
Continuous
100
AcDbLine
 10
174.5
 20
169.921929
 30
0.0
 11
174.5
 21
169.8
 31
0.0
  0
LINE
  5
BBC5
330
BA52
100
AcDbEntity
  8
4
  6
CENTER
100
AcDbLine
 10
168.0
 20
171.125134
 30
0.0
 11
168.0
 21
167.0
 31
0.0
  0
LINE
  5
BBC6
330
BA52
100
AcDbEntity
  8
1
  6
Continuous
100
AcDbLine
 10
178.0
 20
169.0
 30
0.0
 11
178.0
 21
169.921929
 31
0.0
  0
LINE
  5
BBC7
330
BA52
100
AcDbEntity
  8
1
  6
Continuous
100
AcDbLine
 10
203.0
 20
169.921929
 30
0.0
 11
203.0
 21
177.0
 31
0.0
  0
LINE
  5
BBC8
330
BA52
100
AcDbEntity
  8
4
  6
CENTER
100
AcDbLine
 10
193.0
 20
179.0
 30
0.0
 11
193.0
 21
174.868074
 31
0.0
  0
LINE
  5
BBC9
330
BA52
100
AcDbEntity
  8
1
  6
Continuous
100
AcDbLine
 10
156.4999999999998
 20
115.6795
 30
0.0
 11
164.5
 21
115.6795
 31
0.0
  0
LINE
  5
BBCA
330
BA52
100
AcDbEntity
  8
1
  6
Continuous
100
AcDbLine
 10
156.4999999999998
 20
116.1795
 30
0.0
 11
164.5
 21
116.1795
 31
0.0
  0
ARC
  5
BBCB
330
BA52
100
AcDbEntity
  8
1
  6
Continuous
100
AcDbCircle
 10
160.4999999999998
 20
116.0125
 30
0.0
 40
1.587499999999999
100
AcDbArc
 50
327.090948
 51
347.8914909999998
  0
ARC
  5
BBCC
330
BA52
100
AcDbEntity
  8
1
  6
Continuous
100
AcDbCircle
 10
160.4999999999998
 20
116.0125
 30
0.0
 40
1.587499999999999
100
AcDbArc
 50
6.038508
 51
24.57297999999999
  0
ARC
  5
BBCD
330
BA52
100
AcDbEntity
  8
1
  6
Continuous
100
AcDbCircle
 10
160.4999999999998
 20
116.0125
 30
0.0
 40
1.587499999999999
100
AcDbArc
 50
155.4270199999999
 51
173.9614919999999
  0
ARC
  5
BBCE
330
BA52
100
AcDbEntity
  8
1
  6
Continuous
100
AcDbCircle
 10
160.4999999999998
 20
116.0125
 30
0.0
 40
1.587499999999999
100
AcDbArc
 50
192.1085089999999
 51
212.9090519999999
  0
LINE
  5
BBCF
330
BA52
100
AcDbEntity
  8
1
  6
Continuous
100
AcDbLine
 10
154.4999999999998
 20
115.6795
 30
0.0
 11
154.4999999999998
 21
116.1795
 31
0.0
  0
LINE
  5
BBD0
330
BA52
100
AcDbEntity
  8
1
  6
Continuous
100
AcDbLine
 10
156.4999999999998
 20
116.1795
 30
0.0
 11
156.4999999999998
 21
115.6795
 31
0.0
  0
ARC
  5
BBD1
330
BA52
100
AcDbEntity
  8
1
  6
Continuous
100
AcDbCircle
 10
155.4999999999998
 20
115.6795
 30
0.0
 40
1.0
100
AcDbArc
 50
180.0
 51
211.9716779999999
  0
ARC
  5
BBD2
330
BA52
100
AcDbEntity
  8
1
  6
Continuous
100
AcDbCircle
 10
155.4999999999998
 20
115.6795
 30
0.0
 40
1.0
100
AcDbArc
 50
328.028322
 51
0.0
  0
LINE
  5
BBD3
330
BA52
100
AcDbEntity
  8
1
  6
Continuous
100
AcDbLine
 10
174.5
 20
116.1795
 30
0.0
 11
174.5
 21
115.15
 31
0.0
  0
LINE
  5
BBD4
330
BA52
100
AcDbEntity
  8
1
  6
Continuous
100
AcDbLine
 10
164.5
 20
115.6795
 30
0.0
 11
164.5
 21
116.1795
 31
0.0
  0
ARC
  5
BBD5
330
BA52
100
AcDbEntity
  8
1
  6
Continuous
100
AcDbCircle
 10
165.5
 20
115.6795
 30
0.0
 40
1.0
100
AcDbArc
 50
180.0
 51
211.9716779999999
  0
LINE
  5
BBD6
330
BA52
100
AcDbEntity
  8
1
  6
Continuous
100
AcDbLine
 10
166.5
 20
115.6795
 30
0.0
 11
166.5
 21
116.1795
 31
0.0
  0
ARC
  5
BBD7
330
BA52
100
AcDbEntity
  8
1
  6
Continuous
100
AcDbCircle
 10
165.5
 20
115.6795
 30
0.0
 40
1.0
100
AcDbArc
 50
328.028322
 51
0.0
  0
ARC
  5
BBD8
330
BA52
100
AcDbEntity
  8
1
  6
Continuous
100
AcDbCircle
 10
170.5
 20
116.0125
 30
0.0
 40
1.587499999999999
100
AcDbArc
 50
192.1085089999999
 51
212.9090519999999
  0
ARC
  5
BBD9
330
BA52
100
AcDbEntity
  8
1
  6
Continuous
100
AcDbCircle
 10
170.5
 20
116.0125
 30
0.0
 40
1.587499999999999
100
AcDbArc
 50
155.4270199999999
 51
173.9614919999999
  0
ARC
  5
BBDA
330
BA52
100
AcDbEntity
  8
1
  6
Continuous
100
AcDbCircle
 10
170.5
 20
116.0125
 30
0.0
 40
1.587499999999999
100
AcDbArc
 50
6.038508
 51
24.57297999999999
  0
ARC
  5
BBDB
330
BA52
100
AcDbEntity
  8
1
  6
Continuous
100
AcDbCircle
 10
170.5
 20
116.0125
 30
0.0
 40
1.587499999999999
100
AcDbArc
 50
327.090948
 51
347.8914909999998
  0
LINE
  5
BBDC
330
BA52
100
AcDbEntity
  8
1
  6
Continuous
100
AcDbLine
 10
166.5
 20
115.6795
 30
0.0
 11
174.5
 21
115.6795
 31
0.0
  0
LINE
  5
BBDD
330
BA52
100
AcDbEntity
  8
1
  6
Continuous
100
AcDbLine
 10
166.5
 20
116.1795
 30
0.0
 11
174.5
 21
116.1795
 31
0.0
  0
LINE
  5
BBDE
330
BA52
100
AcDbEntity
  8
1
  6
Continuous
100
AcDbLine
 10
156.4999999999998
 20
102.3204999999999
 30
0.0
 11
164.5
 21
102.3204999999999
 31
0.0
  0
LINE
  5
BBDF
330
BA52
100
AcDbEntity
  8
1
  6
Continuous
100
AcDbLine
 10
156.4999999999998
 20
101.8205
 30
0.0
 11
164.5
 21
101.8205
 31
0.0
  0
ARC
  5
BBE0
330
BA52
100
AcDbEntity
  8
1
  6
Continuous
100
AcDbCircle
 10
160.4999999999998
 20
101.9875
 30
0.0
 40
1.587499999999999
100
AcDbArc
 50
147.0909479999999
 51
167.891491
  0
ARC
  5
BBE1
330
BA52
100
AcDbEntity
  8
1
  6
Continuous
100
AcDbCircle
 10
160.4999999999998
 20
101.9875
 30
0.0
 40
1.587499999999999
100
AcDbArc
 50
186.038508
 51
204.57298
  0
ARC
  5
BBE2
330
BA52
100
AcDbEntity
  8
1
  6
Continuous
100
AcDbCircle
 10
160.4999999999998
 20
101.9875
 30
0.0
 40
1.587499999999999
100
AcDbArc
 50
335.4270200000001
 51
353.9614919999999
  0
ARC
  5
BBE3
330
BA52
100
AcDbEntity
  8
1
  6
Continuous
100
AcDbCircle
 10
160.4999999999998
 20
101.9875
 30
0.0
 40
1.587499999999999
100
AcDbArc
 50
12.108509
 51
32.909052
  0
LINE
  5
BBE4
330
BA52
100
AcDbEntity
  8
1
  6
Continuous
100
AcDbLine
 10
154.4999999999998
 20
102.3204999999999
 30
0.0
 11
154.4999999999998
 21
101.8205
 31
0.0
  0
ARC
  5
BBE5
330
BA52
100
AcDbEntity
  8
1
  6
Continuous
100
AcDbCircle
 10
155.4999999999998
 20
102.3204999999999
 30
0.0
 40
1.0
100
AcDbArc
 50
0.0
 51
31.97167800000001
  0
LINE
  5
BBE6
330
BA52
100
AcDbEntity
  8
1
  6
Continuous
100
AcDbLine
 10
156.4999999999998
 20
101.8205
 30
0.0
 11
156.4999999999998
 21
102.3204999999999
 31
0.0
  0
ARC
  5
BBE7
330
BA52
100
AcDbEntity
  8
1
  6
Continuous
100
AcDbCircle
 10
155.4999999999998
 20
102.3204999999999
 30
0.0
 40
1.0
100
AcDbArc
 50
148.028322
 51
180.0
  0
LINE
  5
BBE8
330
BA52
100
AcDbEntity
  8
1
  6
Continuous
100
AcDbLine
 10
174.5
 20
101.8205
 30
0.0
 11
174.5
 21
102.8499999999998
 31
0.0
  0
LINE
  5
BBE9
330
BA52
100
AcDbEntity
  8
1
  6
Continuous
100
AcDbLine
 10
164.5
 20
102.3204999999999
 30
0.0
 11
164.5
 21
101.8205
 31
0.0
  0
ARC
  5
BBEA
330
BA52
100
AcDbEntity
  8
1
  6
Continuous
100
AcDbCircle
 10
165.5
 20
102.3204999999999
 30
0.0
 40
1.0
100
AcDbArc
 50
0.0
 51
31.97167800000001
  0
LINE
  5
BBEB
330
BA52
100
AcDbEntity
  8
1
  6
Continuous
100
AcDbLine
 10
166.5
 20
102.3204999999999
 30
0.0
 11
166.5
 21
101.8205
 31
0.0
  0
ARC
  5
BBEC
330
BA52
100
AcDbEntity
  8
1
  6
Continuous
100
AcDbCircle
 10
165.5
 20
102.3204999999999
 30
0.0
 40
1.0
100
AcDbArc
 50
148.028322
 51
180.0
  0
ARC
  5
BBED
330
BA52
100
AcDbEntity
  8
1
  6
Continuous
100
AcDbCircle
 10
170.5
 20
101.9875
 30
0.0
 40
1.587499999999999
100
AcDbArc
 50
12.108509
 51
32.909052
  0
ARC
  5
BBEE
330
BA52
100
AcDbEntity
  8
1
  6
Continuous
100
AcDbCircle
 10
170.5
 20
101.9875
 30
0.0
 40
1.587499999999999
100
AcDbArc
 50
335.4270200000001
 51
353.9614919999999
  0
ARC
  5
BBEF
330
BA52
100
AcDbEntity
  8
1
  6
Continuous
100
AcDbCircle
 10
170.5
 20
101.9875
 30
0.0
 40
1.587499999999999
100
AcDbArc
 50
186.038508
 51
204.57298
  0
ARC
  5
BBF0
330
BA52
100
AcDbEntity
  8
1
  6
Continuous
100
AcDbCircle
 10
170.5
 20
101.9875
 30
0.0
 40
1.587499999999999
100
AcDbArc
 50
147.0909479999999
 51
167.891491
  0
LINE
  5
BBF1
330
BA52
100
AcDbEntity
  8
1
  6
Continuous
100
AcDbLine
 10
166.5
 20
102.3204999999999
 30
0.0
 11
174.5
 21
102.3204999999999
 31
0.0
  0
LINE
  5
BBF2
330
BA52
100
AcDbEntity
  8
1
  6
Continuous
100
AcDbLine
 10
166.5
 20
101.8205
 30
0.0
 11
174.5
 21
101.8205
 31
0.0
  0
LINE
  5
BBF3
330
BA52
100
AcDbEntity
  8
1
  6
Continuous
100
AcDbLine
 10
78.0
 20
242.973513
 30
0.0
 11
103.0
 21
242.973513
 31
0.0
  0
LINE
  5
BBF4
330
BA52
100
AcDbEntity
  8
3
  6
DASHED
100
AcDbLine
 10
178.0
 20
230.6735129999999
 30
0.0
 11
103.0
 21
230.6735129999999
 31
0.0
  0
LINE
  5
BBF5
330
BA52
100
AcDbEntity
  8
4
  6
CENTER
100
AcDbLine
 10
75.0
 20
236.8235129999999
 30
0.0
 11
206.0
 21
236.8235129999999
 31
0.0
  0
LINE
  5
BBF6
330
BA52
100
AcDbEntity
  8
1
  6
Continuous
100
AcDbLine
 10
103.0
 20
246.823513
 30
0.0
 11
203.0
 21
246.823513
 31
0.0
  0
LINE
  5
BBF7
330
BA52
100
AcDbEntity
  8
1
  6
Continuous
100
AcDbLine
 10
203.0
 20
226.8235129999999
 30
0.0
 11
103.0
 21
226.8235129999999
 31
0.0
  0
CIRCLE
  5
BBF8
330
BA52
100
AcDbEntity
  8
1
  6
Continuous
100
AcDbCircle
 10
88.0
 20
236.8235129999999
 30
0.0
 40
1.6
  0
LINE
  5
BBF9
330
BA52
100
AcDbEntity
  8
4
  6
CENTER
100
AcDbLine
 10
88.0
 20
234.3133599999999
 30
0.0
 11
88.0
 21
239.3734719999999
 31
0.0
  0
LINE
  5
BBFA
330
BA52
100
AcDbEntity
  8
1
  6
Continuous
100
AcDbLine
 10
78.0
 20
230.6735129999999
 30
0.0
 11
78.0
 21
242.973513
 31
0.0
  0
LINE
  5
BBFB
330
BA52
100
AcDbEntity
  8
4
  6
CENTER
100
AcDbLine
 10
123.0
 20
233.2235129999999
 30
0.0
 11
123.0
 21
240.4235129999999
 31
0.0
  0
LINE
  5
BBFC
330
BA52
100
AcDbEntity
  8
4
  6
CENTER
100
AcDbLine
 10
113.0
 20
234.3133599999999
 30
0.0
 11
113.0
 21
239.155833
 31
0.0
  0
CIRCLE
  5
BBFD
330
BA52
100
AcDbEntity
  8
1
  6
Continuous
100
AcDbCircle
 10
98.0
 20
236.8235129999999
 30
0.0
 40
2.149999999999999
  0
LINE
  5
BBFE
330
BA52
100
AcDbEntity
  8
4
  6
CENTER
100
AcDbLine
 10
98.0
 20
233.2235129999999
 30
0.0
 11
98.0
 21
240.4235129999999
 31
0.0
  0
LINE
  5
BBFF
330
BA52
100
AcDbEntity
  8
1
  6
Continuous
100
AcDbLine
 10
103.0
 20
226.8235129999999
 30
0.0
 11
103.0
 21
246.823513
 31
0.0
  0
CIRCLE
  5
BC00
330
BA52
100
AcDbEntity
  8
1
  6
Continuous
100
AcDbCircle
 10
193.0
 20
236.8235129999999
 30
0.0
 40
1.6
  0
CIRCLE
  5
BC01
330
BA52
100
AcDbEntity
  8
1
  6
Continuous
100
AcDbCircle
 10
183.0
 20
236.8235129999999
 30
0.0
 40
2.149999999999999
  0
LINE
  5
BC02
330
BA52
100
AcDbEntity
  8
4
  6
CENTER
100
AcDbLine
 10
158.0
 20
233.2235129999999
 30
0.0
 11
158.0
 21
240.4235129999999
 31
0.0
  0
LINE
  5
BC03
330
BA52
100
AcDbEntity
  8
4
  6
CENTER
100
AcDbLine
 10
168.0
 20
234.422179
 30
0.0
 11
168.0
 21
239.3734719999999
 31
0.0
  0
LINE
  5
BC04
330
BA52
100
AcDbEntity
  8
3
  6
DASHED
100
AcDbLine
 10
178.0
 20
242.973513
 30
0.0
 11
178.0
 21
230.6735129999999
 31
0.0
  0
LINE
  5
BC05
330
BA52
100
AcDbEntity
  8
4
  6
CENTER
100
AcDbLine
 10
183.0
 20
233.2235129999999
 30
0.0
 11
183.0
 21
240.4235129999999
 31
0.0
  0
LINE
  5
BC06
330
BA52
100
AcDbEntity
  8
1
  6
Continuous
100
AcDbLine
 10
203.0
 20
246.823513
 30
0.0
 11
203.0
 21
226.8235129999999
 31
0.0
  0
LINE
  5
BC07
330
BA52
100
AcDbEntity
  8
4
  6
CENTER
100
AcDbLine
 10
193.0
 20
234.3133599999999
 30
0.0
 11
193.0
 21
239.3190619999999
 31
0.0
  0
LINE
  5
BC08
330
BA52
100
AcDbEntity
  8
3
  6
DASHED
100
AcDbLine
 10
103.0
 20
242.973513
 30
0.0
 11
178.0
 21
242.973513
 31
0.0
  0
LINE
  5
BC09
330
BA52
100
AcDbEntity
  8
1
  6
Continuous
100
AcDbLine
 10
103.0
 20
230.6735129999999
 30
0.0
 11
78.0
 21
230.6735129999999
 31
0.0
  0
CIRCLE
  5
BC0A
330
BA52
100
AcDbEntity
  8
1
  6
Continuous
100
AcDbCircle
 10
113.0
 20
236.8235129999999
 30
0.0
 40
1.6
  0
CIRCLE
  5
BC0B
330
BA52
100
AcDbEntity
  8
1
  6
Continuous
100
AcDbCircle
 10
123.0
 20
236.8235129999999
 30
0.0
 40
2.149999999999999
  0
CIRCLE
  5
BC0C
330
BA52
100
AcDbEntity
  8
1
  6
Continuous
100
AcDbCircle
 10
183.0
 20
109.0
 30
0.0
 40
2.149999999999999
  0
CIRCLE
  5
BC0D
330
BA52
100
AcDbEntity
  8
5
  6
PHANTOM
100
AcDbCircle
 10
123.0
 20
109.0
 30
0.0
 40
2.149999999999999
  0
CIRCLE
  5
BC0E
330
BA52
100
AcDbEntity
  8
5
  6
PHANTOM
100
AcDbCircle
 10
113.0
 20
109.0
 30
0.0
 40
1.6
  0
LINE
  5
BC0F
330
BA52
100
AcDbEntity
  8
5
  6
PHANTOM
100
AcDbLine
 10
178.0
 20
102.8499999999998
 30
0.0
 11
203.0
 21
102.8499999999998
 31
0.0
  0
LINE
  5
BC10
330
BA52
100
AcDbEntity
  8
5
  6
PHANTOM
100
AcDbLine
 10
203.0
 20
115.15
 30
0.0
 11
178.0
 21
115.15
 31
0.0
  0
ENDSEC
  0
SECTION
  2
OBJECTS
  0
DICTIONARY
  5
BA40
330
0
100
AcDbDictionary
281
     1
  3
ACAD_CIP_PREVIOUS_PRODUCT_INFO
350
BC70
  3
ACAD_COLOR
350
BC52
  3
ACAD_DETAILVIEWSTYLE
350
BC6B
  3
ACAD_GROUP
350
BA41
  3
ACAD_LAYOUT
350
BA4D
  3
ACAD_MATERIAL
350
BC20
  3
ACAD_MLEADERSTYLE
350
BC67
  3
ACAD_MLINESTYLE
350
BA4A
  3
ACAD_PLOTSETTINGS
350
BA4C
  3
ACAD_PLOTSTYLENAME
350
BC1E
  3
ACAD_SCALELIST
350
BC55
  3
ACAD_SECTIONVIEWSTYLE
350
BC69
  3
ACAD_TABLESTYLE
350
BC53
  3
ACAD_VISUALSTYLE
350
BC39
  3
ACDB_RECOMPOSE_DATA
350
BC8E
  3
AcDbVariableDictionary
350
BC81
  3
DWGPROPS
350
BC8F
  0
DICTIONARY
  5
BC71
330
BA44
100
AcDbDictionary
280
     1
281
     1
  3
ADSK_XREC_LAYER_RECONCILED
360
BC72
  0
DICTIONARY
  5
BC73
330
BA5A
100
AcDbDictionary
280
     1
281
     1
  3
ADSK_XREC_LAYER_RECONCILED
360
BC74
  0
DICTIONARY
  5
BC75
330
BA5B
100
AcDbDictionary
280
     1
281
     1
  3
ADSK_XREC_LAYER_RECONCILED
360
BC76
  0
DICTIONARY
  5
BC77
330
BA5C
100
AcDbDictionary
280
     1
281
     1
  3
ADSK_XREC_LAYER_RECONCILED
360
BC78
  0
DICTIONARY
  5
BC79
330
BA5D
100
AcDbDictionary
280
     1
281
     1
  3
ADSK_XREC_LAYER_RECONCILED
360
BC7A
  0
DICTIONARY
  5
BC7B
330
BA5E
100
AcDbDictionary
280
     1
281
     1
  3
ADSK_XREC_LAYER_RECONCILED
360
BC7C
  0
DICTIONARY
  5
BC7D
330
BA5F
100
AcDbDictionary
280
     1
281
     1
  3
ADSK_XREC_LAYER_RECONCILED
360
BC7E
  0
DICTIONARY
  5
BC7F
330
BA60
100
AcDbDictionary
280
     1
281
     1
  3
ADSK_XREC_LAYER_RECONCILED
360
BC80
  0
DICTIONARY
  5
BC19
330
BA52
100
AcDbDictionary
281
     1
  3
ACAD_LAYOUTSELFREF
350
BC1A
  0
DICTIONARY
  5
BC17
330
BA4E
100
AcDbDictionary
281
     1
  3
ACAD_LAYOUTSELFREF
350
BC18
  0
XRECORD
  5
BC70
102
{ACAD_REACTORS
330
BA40
102
}
330
BA40
100
AcDbXrecord
280
     1
300
ACDLT
300
2014
300
ACDLT_F_S
  0
DICTIONARY
  5
BC52
102
{ACAD_REACTORS
330
BA40
102
}
330
BA40
100
AcDbDictionary
281
     1
  0
DICTIONARY
  5
BC6B
102
{ACAD_REACTORS
330
BA40
102
}
330
BA40
100
AcDbDictionary
281
     1
  3
Imperial24
350
BC6C
  0
DICTIONARY
  5
BA41
102
{ACAD_REACTORS
330
BA40
102
}
330
BA40
100
AcDbDictionary
281
     1
  0
DICTIONARY
  5
BA4D
102
{ACAD_REACTORS
330
BA40
102
}
330
BA40
100
AcDbDictionary
281
     1
  3
Model
350
BC6D
  3
レイアウト1
350
BC6E
  0
DICTIONARY
  5
BC20
102
{ACAD_REACTORS
330
BA40
102
}
330
BA40
100
AcDbDictionary
281
     1
  3
ByBlock
350
BC29
  3
ByLayer
350
BC21
  3
Global
350
BC31
  0
DICTIONARY
  5
BC67
102
{ACAD_REACTORS
330
BA40
102
}
330
BA40
100
AcDbDictionary
281
     1
  3
Standard
350
BC68
  0
DICTIONARY
  5
BA4A
102
{ACAD_REACTORS
330
BA40
102
}
330
BA40
100
AcDbDictionary
281
     1
  3
STANDARD
350
BA4B
  0
DICTIONARY
  5
BA4C
102
{ACAD_REACTORS
330
BA40
102
}
330
BA40
100
AcDbDictionary
281
     1
  0
ACDBDICTIONARYWDFLT
  5
BC1E
102
{ACAD_REACTORS
330
BA40
102
}
330
BA40
100
AcDbDictionary
281
     1
  3
Normal
350
BC1F
100
AcDbDictionaryWithDefault
340
BC1F
  0
DICTIONARY
  5
BC55
102
{ACAD_REACTORS
330
BA40
102
}
330
BA40
100
AcDbDictionary
281
     1
  3
A0
350
BC56
  3
A1
350
BC57
  3
A2
350
BC58
  3
A3
350
BC59
  3
A4
350
BC5A
  3
A5
350
BC5B
  3
A6
350
BC5C
  3
A7
350
BC5D
  3
A8
350
BC5E
  3
A9
350
BC5F
  3
B0
350
BC60
  3
B1
350
BC61
  3
B2
350
BC62
  3
B3
350
BC63
  3
B4
350
BC64
  3
B5
350
BC65
  3
B6
350
BC66
  0
DICTIONARY
  5
BC69
102
{ACAD_REACTORS
330
BA40
102
}
330
BA40
100
AcDbDictionary
281
     1
  3
Imperial24
350
BC6A
  0
DICTIONARY
  5
BC53
102
{ACAD_REACTORS
330
BA40
102
}
330
BA40
100
AcDbDictionary
281
     1
  3
Standard
350
BC54
  0
DICTIONARY
  5
BC39
102
{ACAD_REACTORS
330
BA40
102
}
330
BA40
100
AcDbDictionary
281
     1
  3
2dWireframe
350
BC3F
  3
Basic
350
BC3E
  3
Brighten
350
BC45
  3
ColorChange
350
BC49
  3
Conceptual
350
BC42
  3
Dim
350
BC44
  3
EdgeColorOff
350
BC51
  3
Facepattern
350
BC48
  3
Flat
350
BC3A
  3
FlatWithEdges
350
BC3B
  3
Gouraud
350
BC3C
  3
GouraudWithEdges
350
BC3D
  3
Hidden
350
BC41
  3
JitterOff
350
BC4F
  3
Linepattern
350
BC47
  3
OverhangOff
350
BC50
  3
Realistic
350
BC43
  3
Shaded
350
BC4E
  3
Shaded with edges
350
BC4D
  3
Shades of Gray
350
BC4A
  3
Sketchy
350
BC4B
  3
Thicken
350
BC46
  3
Wireframe
350
BC40
  3
X-Ray
350
BC4C
  0
XRECORD
  5
BC8E
102
{ACAD_REACTORS
330
BA40
102
}
330
BA40
100
AcDbXrecord
280
     1
 90
        1
330
BC54
  0
DICTIONARY
  5
BC81
102
{ACAD_REACTORS
330
BA40
102
}
330
BA40
100
AcDbDictionary
281
     1
  3
CANNOSCALE
350
BC86
  3
CMLEADERSTYLE
350
BC83
  3
CTABLESTYLE
350
BC82
  3
CVIEWDETAILSTYLE
350
BC84
  3
CVIEWSECTIONSTYLE
350
BC85
  3
DIMASSOC
350
BC89
  3
INDEXCTL
350
BC88
  3
SORTENTS
350
BC87
  3
XCLIPFRAME
350
BC8A
  0
XRECORD
  5
BC8F
102
{ACAD_REACTORS
330
BA40
102
}
330
BA40
100
AcDbXrecord
280
     1
  1
DWGPROPS COOKIE
  2

  3

  4

  6

  7

  8
Yoshitsune
  9

300
=
301
=
302
=
303
=
304
=
305
=
306
=
307
=
308
=
309
=
 40
0.000010474537037
 41
2451233.43363287
 42
2457192.661972095
  1

 90
        0
  0
XRECORD
  5
BC72
102
{ACAD_REACTORS
330
BC71
102
}
330
BC71
100
AcDbXrecord
280
     1
290
     1
  0
XRECORD
  5
BC74
102
{ACAD_REACTORS
330
BC73
102
}
330
BC73
100
AcDbXrecord
280
     1
290
     1
  0
XRECORD
  5
BC76
102
{ACAD_REACTORS
330
BC75
102
}
330
BC75
100
AcDbXrecord
280
     1
290
     1
  0
XRECORD
  5
BC78
102
{ACAD_REACTORS
330
BC77
102
}
330
BC77
100
AcDbXrecord
280
     1
290
     1
  0
XRECORD
  5
BC7A
102
{ACAD_REACTORS
330
BC79
102
}
330
BC79
100
AcDbXrecord
280
     1
290
     1
  0
XRECORD
  5
BC7C
102
{ACAD_REACTORS
330
BC7B
102
}
330
BC7B
100
AcDbXrecord
280
     1
290
     1
  0
XRECORD
  5
BC7E
102
{ACAD_REACTORS
330
BC7D
102
}
330
BC7D
100
AcDbXrecord
280
     1
290
     1
  0
XRECORD
  5
BC80
102
{ACAD_REACTORS
330
BC7F
102
}
330
BC7F
100
AcDbXrecord
280
     1
290
     1
  0
XRECORD
  5
BC1A
102
{ACAD_REACTORS
330
BC19
102
}
330
BC19
100
AcDbXrecord
280
     1
340
BA52
  0
XRECORD
  5
BC18
102
{ACAD_REACTORS
330
BC17
102
}
330
BC17
100
AcDbXrecord
280
     1
340
BA4E
  0
ACDBDETAILVIEWSTYLE
  5
BC6C
102
{ACAD_XDICTIONARY
360
BCC7
102
}
102
{ACAD_REACTORS
330
BC6B
102
}
330
BC6B
100
AcDbModelDocViewStyle
 70
     0
  3
Imperial24
290
     0
100
AcDbDetailViewStyle
 70
     0
 71
     0
 90
        3
 71
     1
340
BA45
 40
0.24
340
0
 40
0.24
300

 40
0.36
280
     3
 71
     2
340
BA49
 90
       25
 71
     3
340
BA45
 40
0.24
 90
        1
 40
0.75
 90
        1
300
%<\AcVar ViewType \f "%tc1">% %<\AcVar ViewDetailId>%\PSCALE %<\AcVar ViewScale \f "%sn">%
 71
     4
340
BA49
 90
       25
340
BA49
 90
       25
280
     0
  0
LAYOUT
  5
BC6D
102
{ACAD_XDICTIONARY
360
BCC9
102
}
102
{ACAD_REACTORS
330
BA4D
102
}
330
BA4D
100
AcDbPlotSettings
  1

  2
Canon LBP9100C
  4

  6

 40
0.0
 41
0.0
 42
0.0
 43
0.0
 44
0.0
 45
0.0
 46
0.0
 47
0.0
 48
0.0
 49
0.0
140
0.0
141
0.0
142
1.0
143
1.0
 70
  1712
 72
     0
 73
     0
 74
     0
  7

 75
     0
147
1.0
148
0.0
149
0.0
100
AcDbLayout
  1
Model
 70
     1
 71
     0
 10
0.0
 20
0.0
 11
12.0
 21
9.0
 12
0.0
 22
0.0
 32
0.0
 14
0.0
 24
0.0
 34
0.0
 15
0.0
 25
0.0
 35
0.0
146
0.0
 13
0.0
 23
0.0
 33
0.0
 16
1.0
 26
0.0
 36
0.0
 17
0.0
 27
1.0
 37
0.0
 76
     0
330
BA52
331
BC16
  0
LAYOUT
  5
BC6E
102
{ACAD_XDICTIONARY
360
BCCB
102
}
102
{ACAD_REACTORS
330
BA4D
102
}
330
BA4D
100
AcDbPlotSettings
  1

  2
Canon LBP9100C
  4

  6

 40
0.0
 41
0.0
 42
0.0
 43
0.0
 44
0.0
 45
0.0
 46
0.0
 47
0.0
 48
0.0
 49
0.0
140
0.0
141
0.0
142
1.0
143
1.0
 70
   688
 72
     0
 73
     0
 74
     5
  7

 75
    16
147
1.0
148
0.0
149
0.0
100
AcDbLayout
  1
レイアウト1
 70
     0
 71
     1
 10
0.0
 20
0.0
 11
420.0
 21
297.0
 12
0.0
 22
0.0
 32
0.0
 14
1.000000000000000E+20
 24
1.000000000000000E+20
 34
1.000000000000000E+20
 15
-1.000000000000000E+20
 25
-1.000000000000000E+20
 35
-1.000000000000000E+20
146
0.0
 13
0.0
 23
0.0
 33
0.0
 16
1.0
 26
0.0
 36
0.0
 17
0.0
 27
1.0
 37
0.0
 76
     0
330
BA4E
  0
MATERIAL
  5
BC29
102
{ACAD_XDICTIONARY
360
BC2A
102
}
102
{ACAD_REACTORS
330
BC20
102
}
330
BC20
100
AcDbMaterial
  1
ByBlock
 72
     0
 43
0.0208333333333333
 43
0.0
 43
0.0
 43
0.0
 43
0.0
 43
0.0208333333333333
 43
0.0
 43
0.0
 43
0.0
 43
0.0
 43
1.0
 43
0.0
 43
0.0
 43
0.0
 43
0.0
 43
1.0
 77
     0
 47
0.0208333333333333
 47
0.0
 47
0.0
 47
0.0
 47
0.0
 47
0.0208333333333333
 47
0.0
 47
0.0
 47
0.0
 47
0.0
 47
1.0
 47
0.0
 47
0.0
 47
0.0
 47
0.0
 47
1.0
171
     0
 49
0.0208333333333333
 49
0.0
 49
0.0
 49
0.0
 49
0.0
 49
0.0208333333333333
 49
0.0
 49
0.0
 49
0.0
 49
0.0
 49
1.0
 49
0.0
 49
0.0
 49
0.0
 49
0.0
 49
1.0
175
     0
142
0.0208333333333333
142
0.0
142
0.0
142
0.0
142
0.0
142
0.0208333333333333
142
0.0
142
0.0
142
0.0
142
0.0
142
1.0
142
0.0
142
0.0
142
0.0
142
0.0
142
1.0
179
     0
144
0.0208333333333333
144
0.0
144
0.0
144
0.0
144
0.0
144
0.0208333333333333
144
0.0
144
0.0
144
0.0
144
0.0
144
1.0
144
0.0
144
0.0
144
0.0
144
0.0
144
1.0
147
0.0208333333333333
147
0.0
147
0.0
147
0.0
147
0.0
147
0.0208333333333333
147
0.0
147
0.0
147
0.0
147
0.0
147
1.0
147
0.0
147
0.0
147
0.0
147
0.0
147
1.0
  0
MATERIAL
  5
BC21
102
{ACAD_XDICTIONARY
360
BC22
102
}
102
{ACAD_REACTORS
330
BC20
102
}
330
BC20
100
AcDbMaterial
  1
ByLayer
 72
     0
 43
0.0208333333333333
 43
0.0
 43
0.0
 43
0.0
 43
0.0
 43
0.0208333333333333
 43
0.0
 43
0.0
 43
0.0
 43
0.0
 43
1.0
 43
0.0
 43
0.0
 43
0.0
 43
0.0
 43
1.0
 77
     0
 47
0.0208333333333333
 47
0.0
 47
0.0
 47
0.0
 47
0.0
 47
0.0208333333333333
 47
0.0
 47
0.0
 47
0.0
 47
0.0
 47
1.0
 47
0.0
 47
0.0
 47
0.0
 47
0.0
 47
1.0
171
     0
 49
0.0208333333333333
 49
0.0
 49
0.0
 49
0.0
 49
0.0
 49
0.0208333333333333
 49
0.0
 49
0.0
 49
0.0
 49
0.0
 49
1.0
 49
0.0
 49
0.0
 49
0.0
 49
0.0
 49
1.0
175
     0
142
0.0208333333333333
142
0.0
142
0.0
142
0.0
142
0.0
142
0.0208333333333333
142
0.0
142
0.0
142
0.0
142
0.0
142
1.0
142
0.0
142
0.0
142
0.0
142
0.0
142
1.0
179
     0
144
0.0208333333333333
144
0.0
144
0.0
144
0.0
144
0.0
144
0.0208333333333333
144
0.0
144
0.0
144
0.0
144
0.0
144
1.0
144
0.0
144
0.0
144
0.0
144
0.0
144
1.0
147
0.0208333333333333
147
0.0
147
0.0
147
0.0
147
0.0
147
0.0208333333333333
147
0.0
147
0.0
147
0.0
147
0.0
147
1.0
147
0.0
147
0.0
147
0.0
147
0.0
147
1.0
  0
MATERIAL
  5
BC31
102
{ACAD_XDICTIONARY
360
BC32
102
}
102
{ACAD_REACTORS
330
BC20
102
}
330
BC20
100
AcDbMaterial
  1
Global
 72
     0
 43
0.0208333333333333
 43
0.0
 43
0.0
 43
0.0
 43
0.0
 43
0.0208333333333333
 43
0.0
 43
0.0
 43
0.0
 43
0.0
 43
1.0
 43
0.0
 43
0.0
 43
0.0
 43
0.0
 43
1.0
 77
     0
 47
0.0208333333333333
 47
0.0
 47
0.0
 47
0.0
 47
0.0
 47
0.0208333333333333
 47
0.0
 47
0.0
 47
0.0
 47
0.0
 47
1.0
 47
0.0
 47
0.0
 47
0.0
 47
0.0
 47
1.0
171
     0
 49
0.0208333333333333
 49
0.0
 49
0.0
 49
0.0
 49
0.0
 49
0.0208333333333333
 49
0.0
 49
0.0
 49
0.0
 49
0.0
 49
1.0
 49
0.0
 49
0.0
 49
0.0
 49
0.0
 49
1.0
175
     0
142
0.0208333333333333
142
0.0
142
0.0
142
0.0
142
0.0
142
0.0208333333333333
142
0.0
142
0.0
142
0.0
142
0.0
142
1.0
142
0.0
142
0.0
142
0.0
142
0.0
142
1.0
179
     0
144
0.0208333333333333
144
0.0
144
0.0
144
0.0
144
0.0
144
0.0208333333333333
144
0.0
144
0.0
144
0.0
144
0.0
144
1.0
144
0.0
144
0.0
144
0.0
144
0.0
144
1.0
147
0.0208333333333333
147
0.0
147
0.0
147
0.0
147
0.0
147
0.0208333333333333
147
0.0
147
0.0
147
0.0
147
0.0
147
1.0
147
0.0
147
0.0
147
0.0
147
0.0
147
1.0
  0
MLEADERSTYLE
  5
BC68
102
{ACAD_REACTORS
330
BC67
102
}
330
BC67
100
AcDbMLeaderStyle
170
     2
171
     1
172
     0
 90
        2
 40
0.0
 41
0.0
173
     1
 91
-1056964608
340
BA47
 92
       -2
290
     1
 42
0.09
291
     1
 43
0.36
  3
Standard
 44
0.18
300

342
BA45
174
     1
178
     6
175
     1
176
     0
 93
-1056964608
 45
0.18
292
     0
297
     0
 46
0.18
 94
-1056964608
 47
1.0
 49
1.0
140
1.0
293
     1
141
0.0
294
     1
177
     0
142
1.0
295
     0
296
     0
143
0.125
1001
ACAD_MLEADERVER
1070
     2
  0
MLINESTYLE
  5
BA4B
102
{ACAD_REACTORS
330
BA4A
102
}
330
BA4A
100
AcDbMlineStyle
  2
STANDARD
 70
     0
  3

 62
   256
 51
90.0
 52
90.0
 71
     2
 49
0.5
 62
   256
  6
BYLAYER
 49
-0.5
 62
   256
  6
BYLAYER
  0
ACDBPLACEHOLDER
  5
BC1F
102
{ACAD_REACTORS
330
BC1E
102
}
330
BC1E
  0
SCALE
  5
BC56
102
{ACAD_REACTORS
330
BC55
102
}
330
BC55
100
AcDbScale
 70
     0
300
1:1
140
1.0
141
1.0
290
     1
  0
SCALE
  5
BC57
102
{ACAD_REACTORS
330
BC55
102
}
330
BC55
100
AcDbScale
 70
     0
300
1/128" = 1'-0"
140
0.0078125
141
12.0
290
     0
  0
SCALE
  5
BC58
102
{ACAD_REACTORS
330
BC55
102
}
330
BC55
100
AcDbScale
 70
     0
300
1/64" = 1'-0"
140
0.015625
141
12.0
290
     0
  0
SCALE
  5
BC59
102
{ACAD_REACTORS
330
BC55
102
}
330
BC55
100
AcDbScale
 70
     0
300
1/32" = 1'-0"
140
0.03125
141
12.0
290
     0
  0
SCALE
  5
BC5A
102
{ACAD_REACTORS
330
BC55
102
}
330
BC55
100
AcDbScale
 70
     0
300
1/16" = 1'-0"
140
0.0625
141
12.0
290
     0
  0
SCALE
  5
BC5B
102
{ACAD_REACTORS
330
BC55
102
}
330
BC55
100
AcDbScale
 70
     0
300
3/32" = 1'-0"
140
0.09375
141
12.0
290
     0
  0
SCALE
  5
BC5C
102
{ACAD_REACTORS
330
BC55
102
}
330
BC55
100
AcDbScale
 70
     0
300
1/8" = 1'-0"
140
0.125
141
12.0
290
     0
  0
SCALE
  5
BC5D
102
{ACAD_REACTORS
330
BC55
102
}
330
BC55
100
AcDbScale
 70
     0
300
3/16" = 1'-0"
140
0.1875
141
12.0
290
     0
  0
SCALE
  5
BC5E
102
{ACAD_REACTORS
330
BC55
102
}
330
BC55
100
AcDbScale
 70
     0
300
1/4" = 1'-0"
140
0.25
141
12.0
290
     0
  0
SCALE
  5
BC5F
102
{ACAD_REACTORS
330
BC55
102
}
330
BC55
100
AcDbScale
 70
     0
300
3/8" = 1'-0"
140
0.375
141
12.0
290
     0
  0
SCALE
  5
BC60
102
{ACAD_REACTORS
330
BC55
102
}
330
BC55
100
AcDbScale
 70
     0
300
1/2" = 1'-0"
140
0.5
141
12.0
290
     0
  0
SCALE
  5
BC61
102
{ACAD_REACTORS
330
BC55
102
}
330
BC55
100
AcDbScale
 70
     0
300
3/4" = 1'-0"
140
0.75
141
12.0
290
     0
  0
SCALE
  5
BC62
102
{ACAD_REACTORS
330
BC55
102
}
330
BC55
100
AcDbScale
 70
     0
300
1" = 1'-0"
140
1.0
141
12.0
290
     0
  0
SCALE
  5
BC63
102
{ACAD_REACTORS
330
BC55
102
}
330
BC55
100
AcDbScale
 70
     0
300
1-1/2" = 1'-0"
140
1.5
141
12.0
290
     0
  0
SCALE
  5
BC64
102
{ACAD_REACTORS
330
BC55
102
}
330
BC55
100
AcDbScale
 70
     0
300
3" = 1'-0"
140
3.0
141
12.0
290
     0
  0
SCALE
  5
BC65
102
{ACAD_REACTORS
330
BC55
102
}
330
BC55
100
AcDbScale
 70
     0
300
6" = 1'-0"
140
6.0
141
12.0
290
     0
  0
SCALE
  5
BC66
102
{ACAD_REACTORS
330
BC55
102
}
330
BC55
100
AcDbScale
 70
     0
300
1'-0" = 1'-0"
140
12.0
141
12.0
290
     0
  0
ACDBSECTIONVIEWSTYLE
  5
BC6A
102
{ACAD_XDICTIONARY
360
BCC5
102
}
102
{ACAD_REACTORS
330
BC69
102
}
330
BC69
100
AcDbModelDocViewStyle
 70
     0
  3
Imperial24
290
     0
100
AcDbSectionViewStyle
 70
     0
 71
     0
 90
       78
 71
     1
340
BA45
 40
0.24
340
0
340
0
 40
0.24
300
I, O, Q, S, X, Z
 40
0.48
 90
        3
 40
0.18
 90
        1
 71
     2
340
BA49
 90
       25
340
BA49
 90
       50
 40
0.24
 40
0.0
 40
0.24
 71
     3
340
BA45
 40
0.24
 90
        1
 40
0.75
 90
        1
300
%<\AcVar ViewType \f "%tc1">% %<\AcVar ViewSectionStartId>%-%<\AcVar ViewSectionEndId>%\PSCALE %<\AcVar ViewScale \f "%sn">%
 71
     4
300
ANSI31
 40
1.0
 90
        0
290
     0
290
     0
 90
        6
 40
0.0
 40
1.570796326794896
 40
0.2617993877991494
 40
1.308996938995747
 40
-0.2617993877991494
 40
1.832595714594046
  0
TABLESTYLE
  5
BC54
102
{ACAD_XDICTIONARY
360
BC8C
102
}
102
{ACAD_REACTORS
330
BC53
102
}
330
BC53
100
AcDbTableStyle
  3
Standard
 70
     0
 71
     0
 40
0.06
 41
0.06
280
     0
281
     0
  7
STANDARD
140
0.18
170
     2
 62
     0
 63
     7
283
     0
274
    -2
284
     1
 64
     0
275
    -2
285
     1
 65
     0
276
    -2
286
     1
 66
     0
277
    -2
287
     1
 67
     0
278
    -2
288
     1
 68
     0
279
    -2
289
     1
 69
     0
  7
STANDARD
140
0.25
170
     5
 62
     0
 63
     7
283
     0
274
    -2
284
     1
 64
     0
275
    -2
285
     1
 65
     0
276
    -2
286
     1
 66
     0
277
    -2
287
     1
 67
     0
278
    -2
288
     1
 68
     0
279
    -2
289
     1
 69
     0
  7
STANDARD
140
0.18
170
     5
 62
     0
 63
     7
283
     0
274
    -2
284
     1
 64
     0
275
    -2
285
     1
 65
     0
276
    -2
286
     1
 66
     0
277
    -2
287
     1
 67
     0
278
    -2
288
     1
 68
     0
279
    -2
289
     1
 69
     0
  0
VISUALSTYLE
  5
BC3F
102
{ACAD_XDICTIONARY
360
BC9D
102
}
102
{ACAD_REACTORS
330
BC39
102
}
330
BC39
100
AcDbVisualStyle
  2
2dWireframe
 70
     4
 71
     0
 72
     2
 73
     0
 90
        0
 40
-0.6
 41
-30.0
 62
     5
 63
     7
 74
     1
 91
        4
 64
     7
 65
   257
 75
     1
175
     1
 42
1.0
 92
        0
 66
   257
 43
1.0
 76
     1
 77
     6
 78
     2
 67
     7
 79
     5
170
     0
171
     0
290
     0
174
     0
 93
        1
 44
0.0
173
     0
291
     0
 45
0.0
1001
ACAD
1000
AcDbSavedByObjectVersion
1070
     0
  0
VISUALSTYLE
  5
BC3E
102
{ACAD_XDICTIONARY
360
BC9B
102
}
102
{ACAD_REACTORS
330
BC39
102
}
330
BC39
100
AcDbVisualStyle
  2
Basic
 70
     7
 71
     1
 72
     0
 73
     1
 90
        0
 40
-0.6
 41
-30.0
 62
     5
 63
     7
 74
     0
 91
        4
 64
     7
 65
   257
 75
     1
175
     1
 42
1.0
 92
        8
 66
     7
 43
1.0
 76
     1
 77
     6
 78
     2
 67
     7
 79
     5
170
     0
171
     0
290
     0
174
     0
 93
        1
 44
0.0
173
     0
291
     1
 45
0.0
1001
ACAD
1000
AcDbSavedByObjectVersion
1070
     0
  0
VISUALSTYLE
  5
BC45
102
{ACAD_XDICTIONARY
360
BCA9
102
}
102
{ACAD_REACTORS
330
BC39
102
}
330
BC39
100
AcDbVisualStyle
  2
Brighten
 70
    12
 71
     2
 72
     2
 73
     0
 90
        0
 40
-0.6
 41
-30.0
 62
     5
 63
     7
 74
     1
 91
        4
 64
     7
 65
   257
 75
     1
175
     1
 42
1.0
 92
        8
 66
     7
 43
1.0
 76
     1
 77
     6
 78
     2
 67
     7
 79
     5
170
     0
171
     0
290
     0
174
     0
 93
        1
 44
50.0
173
     0
291
     1
 45
0.0
1001
ACAD
1000
AcDbSavedByObjectVersion
1070
     0
  0
VISUALSTYLE
  5
BC49
102
{ACAD_XDICTIONARY
360
BCB1
102
}
102
{ACAD_REACTORS
330
BC39
102
}
330
BC39
100
AcDbVisualStyle
  2
ColorChange
 70
    16
 71
     2
 72
     2
 73
     3
 90
        0
 40
-0.6
 41
-30.0
 62
     5
 63
     8
 74
     1
 91
        4
 64
     7
 65
   257
 75
     1
175
     1
 42
1.0
 92
        8
 66
     8
 43
1.0
 76
     1
 77
     6
 78
     2
 67
     7
 79
     5
170
     0
171
     0
290
     0
174
     0
 93
        1
 44
0.0
173
     0
291
     1
 45
0.0
1001
ACAD
1000
AcDbSavedByObjectVersion
1070
     0
  0
VISUALSTYLE
  5
BC42
102
{ACAD_XDICTIONARY
360
BCA3
102
}
102
{ACAD_REACTORS
330
BC39
102
}
330
BC39
100
AcDbVisualStyle
  2
Conceptual
 70
     9
 71
     3
 72
     2
 73
     0
 90
        0
 40
-0.6
 41
-30.0
 62
     5
 63
     7
 74
     2
 91
        2
 64
     7
 65
   257
 75
     1
175
     1
 42
179.0
 92
        8
 66
     7
 43
1.0
 76
     1
 77
     6
 78
     2
 67
     7
 79
     3
170
     0
171
     0
290
     0
174
     0
 93
        1
 44
0.0
173
     0
291
     0
 45
0.0
1001
ACAD
1000
AcDbSavedByObjectVersion
1070
     0
  0
VISUALSTYLE
  5
BC44
102
{ACAD_XDICTIONARY
360
BCA7
102
}
102
{ACAD_REACTORS
330
BC39
102
}
330
BC39
100
AcDbVisualStyle
  2
Dim
 70
    11
 71
     2
 72
     2
 73
     0
 90
        0
 40
-0.6
 41
-30.0
 62
     5
 63
     7
 74
     1
 91
        4
 64
     7
 65
   257
 75
     1
175
     1
 42
1.0
 92
        8
 66
     7
 43
1.0
 76
     1
 77
     6
 78
     2
 67
     7
 79
     5
170
     0
171
     0
290
     0
174
     0
 93
        1
 44
-50.0
173
     0
291
     1
 45
0.0
1001
ACAD
1000
AcDbSavedByObjectVersion
1070
     0
  0
VISUALSTYLE
  5
BC51
102
{ACAD_XDICTIONARY
360
BCC1
102
}
102
{ACAD_REACTORS
330
BC39
102
}
330
BC39
100
AcDbVisualStyle
  2
EdgeColorOff
 70
    22
 71
     2
 72
     2
 73
     0
 90
        0
 40
-0.6
 41
-30.0
 62
     5
 63
     7
 74
     1
 91
        4
 64
     7
 65
   257
 75
     1
175
     1
 42
1.0
 92
        8
 66
     7
 43
1.0
 76
     1
 77
     6
 78
     2
 67
     7
 79
     5
170
     0
171
     0
290
     0
174
     0
 93
        1
 44
0.0
173
     0
291
     1
 45
0.0
1001
ACAD
1000
AcDbSavedByObjectVersion
1070
     0
  0
VISUALSTYLE
  5
BC48
102
{ACAD_XDICTIONARY
360
BCAF
102
}
102
{ACAD_REACTORS
330
BC39
102
}
330
BC39
100
AcDbVisualStyle
  2
Facepattern
 70
    15
 71
     2
 72
     2
 73
     0
 90
        0
 40
-0.6
 41
-30.0
 62
     5
 63
     7
 74
     1
 91
        4
 64
     7
 65
   257
 75
     1
175
     1
 42
1.0
 92
        8
 66
     7
 43
1.0
 76
     1
 77
     6
 78
     2
 67
     7
 79
     5
170
     0
171
     0
290
     0
174
     0
 93
        1
 44
0.0
173
     0
291
     1
 45
0.0
1001
ACAD
1000
AcDbSavedByObjectVersion
1070
     0
  0
VISUALSTYLE
  5
BC3A
102
{ACAD_XDICTIONARY
360
BC93
102
}
102
{ACAD_REACTORS
330
BC39
102
}
330
BC39
100
AcDbVisualStyle
  2
Flat
 70
     0
 71
     2
 72
     1
 73
     1
 90
        2
 40
-0.6
 41
30.0
 62
     5
 63
     7
 74
     0
 91
        0
 64
     7
 65
   257
 75
     1
175
     1
 42
1.0
 92
        8
 66
     7
 43
1.0
 76
     1
 77
     6
 78
     2
 67
     7
 79
     5
170
     0
171
     0
290
     0
174
     0
 93
       13
 44
0.0
173
     0
291
     1
 45
0.0
1001
ACAD
1000
AcDbSavedByObjectVersion
1070
     0
  0
VISUALSTYLE
  5
BC3B
102
{ACAD_XDICTIONARY
360
BC95
102
}
102
{ACAD_REACTORS
330
BC39
102
}
330
BC39
100
AcDbVisualStyle
  2
FlatWithEdges
 70
     1
 71
     2
 72
     1
 73
     1
 90
        2
 40
-0.6
 41
30.0
 62
     5
 63
     7
 74
     1
 91
        0
 64
     7
 65
   257
 75
     1
175
     1
 42
1.0
 92
        0
 66
   257
 43
1.0
 76
     1
 77
     6
 78
     2
 67
     7
 79
     5
170
     0
171
     0
290
     0
174
     0
 93
       13
 44
0.0
173
     0
291
     1
 45
0.0
1001
ACAD
1000
AcDbSavedByObjectVersion
1070
     0
  0
VISUALSTYLE
  5
BC3C
102
{ACAD_XDICTIONARY
360
BC97
102
}
102
{ACAD_REACTORS
330
BC39
102
}
330
BC39
100
AcDbVisualStyle
  2
Gouraud
 70
     2
 71
     2
 72
     2
 73
     1
 90
        2
 40
-0.6
 41
30.0
 62
     5
 63
     7
 74
     0
 91
        0
 64
     7
 65
   257
 75
     1
175
     1
 42
1.0
 92
        0
 66
     7
 43
1.0
 76
     1
 77
     6
 78
     2
 67
     7
 79
     5
170
     0
171
     0
290
     0
174
     0
 93
       13
 44
0.0
173
     0
291
     1
 45
0.0
1001
ACAD
1000
AcDbSavedByObjectVersion
1070
     0
  0
VISUALSTYLE
  5
BC3D
102
{ACAD_XDICTIONARY
360
BC99
102
}
102
{ACAD_REACTORS
330
BC39
102
}
330
BC39
100
AcDbVisualStyle
  2
GouraudWithEdges
 70
     3
 71
     2
 72
     2
 73
     1
 90
        2
 40
-0.6
 41
30.0
 62
     5
 63
     7
 74
     1
 91
        0
 64
     7
 65
   257
 75
     1
175
     1
 42
1.0
 92
        0
 66
   257
 43
1.0
 76
     1
 77
     6
 78
     2
 67
     7
 79
     5
170
     0
171
     0
290
     0
174
     0
 93
       13
 44
0.0
173
     0
291
     1
 45
0.0
1001
ACAD
1000
AcDbSavedByObjectVersion
1070
     0
  0
VISUALSTYLE
  5
BC41
102
{ACAD_XDICTIONARY
360
BCA1
102
}
102
{ACAD_REACTORS
330
BC39
102
}
330
BC39
100
AcDbVisualStyle
  2
Hidden
 70
     6
 71
     1
 72
     2
 73
     2
 90
        0
 40
-0.6
 41
-30.0
 62
     5
 63
     7
 74
     2
 91
        2
 64
     7
 65
   257
 75
     2
175
     1
 42
40.0
 92
        0
 66
   257
 43
1.0
 76
     1
 77
     6
 78
     2
 67
     7
 79
     3
170
     0
171
     0
290
     0
174
     0
 93
        1
 44
0.0
173
     0
291
     0
 45
0.0
1001
ACAD
1000
AcDbSavedByObjectVersion
1070
     0
  0
VISUALSTYLE
  5
BC4F
102
{ACAD_XDICTIONARY
360
BCBD
102
}
102
{ACAD_REACTORS
330
BC39
102
}
330
BC39
100
AcDbVisualStyle
  2
JitterOff
 70
    20
 71
     2
 72
     2
 73
     0
 90
        0
 40
-0.6
 41
-30.0
 62
     5
 63
     7
 74
     1
 91
        4
 64
     7
 65
   257
 75
     1
175
     1
 42
1.0
 92
       10
 66
     7
 43
1.0
 76
     1
 77
     6
 78
     2
 67
     7
 79
     5
170
     0
171
     0
290
     0
174
     0
 93
        1
 44
0.0
173
     0
291
     1
 45
0.0
1001
ACAD
1000
AcDbSavedByObjectVersion
1070
     0
  0
VISUALSTYLE
  5
BC47
102
{ACAD_XDICTIONARY
360
BCAD
102
}
102
{ACAD_REACTORS
330
BC39
102
}
330
BC39
100
AcDbVisualStyle
  2
Linepattern
 70
    14
 71
     2
 72
     2
 73
     0
 90
        0
 40
-0.6
 41
-30.0
 62
     5
 63
     7
 74
     1
 91
        4
 64
     7
 65
   257
 75
     7
175
     7
 42
1.0
 92
        8
 66
     7
 43
1.0
 76
     1
 77
     6
 78
     2
 67
     7
 79
     5
170
     0
171
     0
290
     0
174
     0
 93
        1
 44
0.0
173
     0
291
     1
 45
0.0
1001
ACAD
1000
AcDbSavedByObjectVersion
1070
     0
  0
VISUALSTYLE
  5
BC50
102
{ACAD_XDICTIONARY
360
BCBF
102
}
102
{ACAD_REACTORS
330
BC39
102
}
330
BC39
100
AcDbVisualStyle
  2
OverhangOff
 70
    21
 71
     2
 72
     2
 73
     0
 90
        0
 40
-0.6
 41
-30.0
 62
     5
 63
     7
 74
     1
 91
        4
 64
     7
 65
   257
 75
     1
175
     1
 42
1.0
 92
        9
 66
     7
 43
1.0
 76
     1
 77
     6
 78
     2
 67
     7
 79
     5
170
     0
171
     0
290
     0
174
     0
 93
        1
 44
0.0
173
     0
291
     1
 45
0.0
1001
ACAD
1000
AcDbSavedByObjectVersion
1070
     0
  0
VISUALSTYLE
  5
BC43
102
{ACAD_XDICTIONARY
360
BCA5
102
}
102
{ACAD_REACTORS
330
BC39
102
}
330
BC39
100
AcDbVisualStyle
  2
Realistic
 70
     8
 71
     2
 72
     3
 73
     0
 90
        2
 40
-0.6
 41
30.0
 62
     5
 63
     7
 74
     0
 91
        0
 64
     7
 65
   257
 75
     1
175
     1
 42
1.0
 92
        8
 66
   257
 43
1.0
 76
     1
 77
     6
 78
     2
 67
     7
 79
     3
170
     0
171
     0
290
     0
174
     0
 93
       13
 44
0.0
173
     0
291
     0
 45
0.0
1001
ACAD
1000
AcDbSavedByObjectVersion
1070
     0
  0
VISUALSTYLE
  5
BC4E
102
{ACAD_XDICTIONARY
360
BCBB
102
}
102
{ACAD_REACTORS
330
BC39
102
}
330
BC39
100
AcDbVisualStyle
  2
Shaded
 70
    27
 71
     2
 72
     2
 73
     1
 90
        2
 40
-0.6
 41
30.0
 62
     5
 63
     7
 74
     0
 91
        4
 64
     7
 65
   257
 75
     1
175
     1
 42
1.0
 92
        8
 66
   257
 43
1.0
 76
     1
 77
     6
 78
     2
 67
     8
 79
     3
170
     0
171
     0
290
     0
174
     0
 93
        5
 44
0.0
173
     0
291
     0
 45
0.0
1001
ACAD
1000
AcDbSavedByObjectVersion
1070
     0
  0
VISUALSTYLE
  5
BC4D
102
{ACAD_XDICTIONARY
360
BCB9
102
}
102
{ACAD_REACTORS
330
BC39
102
}
330
BC39
100
AcDbVisualStyle
  2
Shaded with edges
 70
    26
 71
     2
 72
     2
 73
     1
 90
        2
 40
-0.6
 41
30.0
 62
     5
 63
     7
 74
     1
 91
       10
 64
     7
 65
   257
 75
     2
175
     1
 42
1.0
 92
        8
 66
   257
 43
1.0
 76
     1
 77
     6
 78
     2
 67
     7
 79
     3
170
     0
171
     0
290
     0
174
     0
 93
        5
 44
0.0
173
     0
291
     0
 45
0.0
1001
ACAD
1000
AcDbSavedByObjectVersion
1070
     0
  0
VISUALSTYLE
  5
BC4A
102
{ACAD_XDICTIONARY
360
BCB3
102
}
102
{ACAD_REACTORS
330
BC39
102
}
330
BC39
100
AcDbVisualStyle
  2
Shades of Gray
 70
    23
 71
     2
 72
     2
 73
     3
 90
        0
 40
-0.6
 41
-30.0
 62
     5
 63
     7
 74
     2
 91
        2
 64
     7
 65
     7
 75
     1
175
     1
 42
40.0
 92
        8
 66
     7
 43
1.0
 76
     1
 77
     6
 78
     2
 67
     7
 79
     3
170
     0
171
     0
290
     0
174
     0
 93
        1
 44
0.0
173
     0
291
     0
 45
0.0
1001
ACAD
1000
AcDbSavedByObjectVersion
1070
     0
  0
VISUALSTYLE
  5
BC4B
102
{ACAD_XDICTIONARY
360
BCB5
102
}
102
{ACAD_REACTORS
330
BC39
102
}
330
BC39
100
AcDbVisualStyle
  2
Sketchy
 70
    24
 71
     1
 72
     2
 73
     2
 90
        0
 40
-0.6
 41
-30.0
 62
     5
 63
     7
 74
     2
 91
        2
 64
     7
 65
     7
 75
     1
175
     1
 42
40.0
 92
       11
 66
     7
 43
1.0
 76
     1
 77
     6
 78
     2
 67
     7
 79
     6
170
     0
171
     0
290
     0
174
     0
 93
        1
 44
0.0
173
     0
291
     0
 45
0.0
1001
ACAD
1000
AcDbSavedByObjectVersion
1070
     0
  0
VISUALSTYLE
  5
BC46
102
{ACAD_XDICTIONARY
360
BCAB
102
}
102
{ACAD_REACTORS
330
BC39
102
}
330
BC39
100
AcDbVisualStyle
  2
Thicken
 70
    13
 71
     2
 72
     2
 73
     0
 90
        0
 40
-0.6
 41
-30.0
 62
     5
 63
     7
 74
     1
 91
        4
 64
     7
 65
   257
 75
     1
175
     1
 42
1.0
 92
       12
 66
     7
 43
1.0
 76
     1
 77
     6
 78
     2
 67
     7
 79
     5
170
     0
171
     0
290
     0
174
     0
 93
        1
 44
0.0
173
     0
291
     1
 45
0.0
1001
ACAD
1000
AcDbSavedByObjectVersion
1070
     0
  0
VISUALSTYLE
  5
BC40
102
{ACAD_XDICTIONARY
360
BC9F
102
}
102
{ACAD_REACTORS
330
BC39
102
}
330
BC39
100
AcDbVisualStyle
  2
Wireframe
 70
     5
 71
     0
 72
     2
 73
     0
 90
        0
 40
-0.6
 41
-30.0
 62
     5
 63
     7
 74
     1
 91
        4
 64
     7
 65
   257
 75
     1
175
     1
 42
1.0
 92
        0
 66
   257
 43
1.0
 76
     1
 77
     6
 78
     2
 67
     7
 79
     3
170
     0
171
     0
290
     0
174
     0
 93
        1
 44
0.0
173
     0
291
     0
 45
0.0
1001
ACAD
1000
AcDbSavedByObjectVersion
1070
     0
  0
VISUALSTYLE
  5
BC4C
102
{ACAD_XDICTIONARY
360
BCB7
102
}
102
{ACAD_REACTORS
330
BC39
102
}
330
BC39
100
AcDbVisualStyle
  2
X-Ray
 70
    25
 71
     2
 72
     2
 73
     1
 90
        1
 40
0.5
 41
-30.0
 62
     5
 63
     7
 74
     1
 91
        0
 64
     7
 65
   257
 75
     1
175
     1
 42
1.0
 92
        8
 66
     7
 43
1.0
 76
     1
 77
     6
 78
     2
 67
     7
 79
     3
170
     0
171
     0
290
     0
174
     0
 93
       13
 44
0.0
173
     0
291
     0
 45
0.0
1001
ACAD
1000
AcDbSavedByObjectVersion
1070
     0
  0
DICTIONARYVAR
  5
BC86
102
{ACAD_REACTORS
330
BC81
102
}
330
BC81
100
DictionaryVariables
280
     0
  1
1:1
  0
DICTIONARYVAR
  5
BC83
102
{ACAD_REACTORS
330
BC81
102
}
330
BC81
100
DictionaryVariables
280
     0
  1
STANDARD
  0
DICTIONARYVAR
  5
BC82
102
{ACAD_REACTORS
330
BC81
102
}
330
BC81
100
DictionaryVariables
280
     0
  1
STANDARD
  0
DICTIONARYVAR
  5
BC84
102
{ACAD_REACTORS
330
BC81
102
}
330
BC81
100
DictionaryVariables
280
     0
  1
Imperial24
  0
DICTIONARYVAR
  5
BC85
102
{ACAD_REACTORS
330
BC81
102
}
330
BC81
100
DictionaryVariables
280
     0
  1
Imperial24
  0
DICTIONARYVAR
  5
BC89
102
{ACAD_REACTORS
330
BC81
102
}
330
BC81
100
DictionaryVariables
280
     0
  1
1
  0
DICTIONARYVAR
  5
BC88
102
{ACAD_REACTORS
330
BC81
102
}
330
BC81
100
DictionaryVariables
280
     0
  1
0
  0
DICTIONARYVAR
  5
BC87
102
{ACAD_REACTORS
330
BC81
102
}
330
BC81
100
DictionaryVariables
280
     0
  1
127
  0
DICTIONARYVAR
  5
BC8A
102
{ACAD_REACTORS
330
BC81
102
}
330
BC81
100
DictionaryVariables
280
     0
  1
2
  0
DICTIONARY
  5
BCC7
330
BC6C
100
AcDbDictionary
280
     1
281
     1
  3
ACAD_XREC_ROUNDTRIP
360
BCC8
  0
DICTIONARY
  5
BCC9
330
BC6D
100
AcDbDictionary
280
     1
281
     1
  3
ACAD_XREC_ROUNDTRIP
360
BCCA
  0
DICTIONARY
  5
BCCB
330
BC6E
100
AcDbDictionary
280
     1
281
     1
  3
ACAD_XREC_ROUNDTRIP
360
BCCC
  0
DICTIONARY
  5
BC2A
330
BC29
100
AcDbDictionary
280
     1
281
     1
  3
ACAD_XREC_ROUNDTRIP
360
BC91
  3
BUMPTILE
360
BC2C
  3
DIFFUSETILE
360
BC2B
  3
OPACITYTILE
360
BC2F
  3
REFLECTIONTILE
360
BC2E
  3
REFRACTIONTILE
360
BC30
  3
SPECULARTILE
360
BC2D
  0
DICTIONARY
  5
BC22
330
BC21
100
AcDbDictionary
280
     1
281
     1
  3
ACAD_XREC_ROUNDTRIP
360
BC90
  3
BUMPTILE
360
BC24
  3
DIFFUSETILE
360
BC23
  3
OPACITYTILE
360
BC27
  3
REFLECTIONTILE
360
BC26
  3
REFRACTIONTILE
360
BC28
  3
SPECULARTILE
360
BC25
  0
DICTIONARY
  5
BC32
330
BC31
100
AcDbDictionary
280
     1
281
     1
  3
ACAD_XREC_ROUNDTRIP
360
BC92
  3
BUMPTILE
360
BC34
  3
DIFFUSETILE
360
BC33
  3
OPACITYTILE
360
BC37
  3
REFLECTIONTILE
360
BC36
  3
REFRACTIONTILE
360
BC38
  3
SPECULARTILE
360
BC35
  0
DICTIONARY
  5
BCC5
330
BC6A
100
AcDbDictionary
280
     1
281
     1
  3
ACAD_XREC_ROUNDTRIP
360
BCC6
  0
DICTIONARY
  5
BC8C
330
BC54
100
AcDbDictionary
280
     1
281
     1
  3
ACAD_ROUNDTRIP_2008_TABLESTYLE_CELLSTYLEMAP
360
BC8D
  3
ACAD_XREC_ROUNDTRIP
360
BCC3
  0
DICTIONARY
  5
BC9D
330
BC3F
100
AcDbDictionary
280
     1
281
     1
  3
ACAD_XREC_ROUNDTRIP
360
BC9E
  0
DICTIONARY
  5
BC9B
330
BC3E
100
AcDbDictionary
280
     1
281
     1
  3
ACAD_XREC_ROUNDTRIP
360
BC9C
  0
DICTIONARY
  5
BCA9
330
BC45
100
AcDbDictionary
280
     1
281
     1
  3
ACAD_XREC_ROUNDTRIP
360
BCAA
  0
DICTIONARY
  5
BCB1
330
BC49
100
AcDbDictionary
280
     1
281
     1
  3
ACAD_XREC_ROUNDTRIP
360
BCB2
  0
DICTIONARY
  5
BCA3
330
BC42
100
AcDbDictionary
280
     1
281
     1
  3
ACAD_XREC_ROUNDTRIP
360
BCA4
  0
DICTIONARY
  5
BCA7
330
BC44
100
AcDbDictionary
280
     1
281
     1
  3
ACAD_XREC_ROUNDTRIP
360
BCA8
  0
DICTIONARY
  5
BCC1
330
BC51
100
AcDbDictionary
280
     1
281
     1
  3
ACAD_XREC_ROUNDTRIP
360
BCC2
  0
DICTIONARY
  5
BCAF
330
BC48
100
AcDbDictionary
280
     1
281
     1
  3
ACAD_XREC_ROUNDTRIP
360
BCB0
  0
DICTIONARY
  5
BC93
330
BC3A
100
AcDbDictionary
280
     1
281
     1
  3
ACAD_XREC_ROUNDTRIP
360
BC94
  0
DICTIONARY
  5
BC95
330
BC3B
100
AcDbDictionary
280
     1
281
     1
  3
ACAD_XREC_ROUNDTRIP
360
BC96
  0
DICTIONARY
  5
BC97
330
BC3C
100
AcDbDictionary
280
     1
281
     1
  3
ACAD_XREC_ROUNDTRIP
360
BC98
  0
DICTIONARY
  5
BC99
330
BC3D
100
AcDbDictionary
280
     1
281
     1
  3
ACAD_XREC_ROUNDTRIP
360
BC9A
  0
DICTIONARY
  5
BCA1
330
BC41
100
AcDbDictionary
280
     1
281
     1
  3
ACAD_XREC_ROUNDTRIP
360
BCA2
  0
DICTIONARY
  5
BCBD
330
BC4F
100
AcDbDictionary
280
     1
281
     1
  3
ACAD_XREC_ROUNDTRIP
360
BCBE
  0
DICTIONARY
  5
BCAD
330
BC47
100
AcDbDictionary
280
     1
281
     1
  3
ACAD_XREC_ROUNDTRIP
360
BCAE
  0
DICTIONARY
  5
BCBF
330
BC50
100
AcDbDictionary
280
     1
281
     1
  3
ACAD_XREC_ROUNDTRIP
360
BCC0
  0
DICTIONARY
  5
BCA5
330
BC43
100
AcDbDictionary
280
     1
281
     1
  3
ACAD_XREC_ROUNDTRIP
360
BCA6
  0
DICTIONARY
  5
BCBB
330
BC4E
100
AcDbDictionary
280
     1
281
     1
  3
ACAD_XREC_ROUNDTRIP
360
BCBC
  0
DICTIONARY
  5
BCB9
330
BC4D
100
AcDbDictionary
280
     1
281
     1
  3
ACAD_XREC_ROUNDTRIP
360
BCBA
  0
DICTIONARY
  5
BCB3
330
BC4A
100
AcDbDictionary
280
     1
281
     1
  3
ACAD_XREC_ROUNDTRIP
360
BCB4
  0
DICTIONARY
  5
BCB5
330
BC4B
100
AcDbDictionary
280
     1
281
     1
  3
ACAD_XREC_ROUNDTRIP
360
BCB6
  0
DICTIONARY
  5
BCAB
330
BC46
100
AcDbDictionary
280
     1
281
     1
  3
ACAD_XREC_ROUNDTRIP
360
BCAC
  0
DICTIONARY
  5
BC9F
330
BC40
100
AcDbDictionary
280
     1
281
     1
  3
ACAD_XREC_ROUNDTRIP
360
BCA0
  0
DICTIONARY
  5
BCB7
330
BC4C
100
AcDbDictionary
280
     1
281
     1
  3
ACAD_XREC_ROUNDTRIP
360
BCB8
  0
XRECORD
  5
BCC8
102
{ACAD_REACTORS
330
BCC7
102
}
330
BCC7
100
AcDbXrecord
280
     1
102
DISPLAYNAME
  1
Imperial24
102
FLAGS
 90
        0
  0
XRECORD
  5
BCCA
102
{ACAD_REACTORS
330
BCC9
102
}
330
BCC9
100
AcDbXrecord
280
     1
102
SHADEPLOT
 70
     0
102
SHADEPLOTRESLEVEL
 70
     2
102
SHADEPLOTCUSTOMDPI
 70
   300
  0
XRECORD
  5
BCCC
102
{ACAD_REACTORS
330
BCCB
102
}
330
BCCB
100
AcDbXrecord
280
     1
102
SHADEPLOT
 70
     0
102
SHADEPLOTRESLEVEL
 70
     2
102
SHADEPLOTCUSTOMDPI
 70
   300
  0
XRECORD
  5
BC91
102
{ACAD_REACTORS
330
BC2A
102
}
330
BC2A
100
AcDbXrecord
280
     1
102
MATERIAL
148
0.0
149
0.0
149
0.0
 93
        0
 94
      127
282
     0
 72
     0
 77
     0
171
     0
175
     0
179
     0
273
     0
  0
XRECORD
  5
BC2C
102
{ACAD_REACTORS
330
BC2A
102
}
330
BC2A
100
AcDbXrecord
280
     1
270
     1
271
     1
  0
XRECORD
  5
BC2B
102
{ACAD_REACTORS
330
BC2A
102
}
330
BC2A
100
AcDbXrecord
280
     1
270
     1
271
     1
  0
XRECORD
  5
BC2F
102
{ACAD_REACTORS
330
BC2A
102
}
330
BC2A
100
AcDbXrecord
280
     1
270
     1
271
     1
  0
XRECORD
  5
BC2E
102
{ACAD_REACTORS
330
BC2A
102
}
330
BC2A
100
AcDbXrecord
280
     1
270
     1
271
     1
  0
XRECORD
  5
BC30
102
{ACAD_REACTORS
330
BC2A
102
}
330
BC2A
100
AcDbXrecord
280
     1
270
     1
271
     1
  0
XRECORD
  5
BC2D
102
{ACAD_REACTORS
330
BC2A
102
}
330
BC2A
100
AcDbXrecord
280
     1
270
     1
271
     1
  0
XRECORD
  5
BC90
102
{ACAD_REACTORS
330
BC22
102
}
330
BC22
100
AcDbXrecord
280
     1
102
MATERIAL
148
0.0
149
0.0
149
0.0
 93
        0
 94
      127
282
     0
 72
     0
 77
     0
171
     0
175
     0
179
     0
273
     0
  0
XRECORD
  5
BC24
102
{ACAD_REACTORS
330
BC22
102
}
330
BC22
100
AcDbXrecord
280
     1
270
     1
271
     1
  0
XRECORD
  5
BC23
102
{ACAD_REACTORS
330
BC22
102
}
330
BC22
100
AcDbXrecord
280
     1
270
     1
271
     1
  0
XRECORD
  5
BC27
102
{ACAD_REACTORS
330
BC22
102
}
330
BC22
100
AcDbXrecord
280
     1
270
     1
271
     1
  0
XRECORD
  5
BC26
102
{ACAD_REACTORS
330
BC22
102
}
330
BC22
100
AcDbXrecord
280
     1
270
     1
271
     1
  0
XRECORD
  5
BC28
102
{ACAD_REACTORS
330
BC22
102
}
330
BC22
100
AcDbXrecord
280
     1
270
     1
271
     1
  0
XRECORD
  5
BC25
102
{ACAD_REACTORS
330
BC22
102
}
330
BC22
100
AcDbXrecord
280
     1
270
     1
271
     1
  0
XRECORD
  5
BC92
102
{ACAD_REACTORS
330
BC32
102
}
330
BC32
100
AcDbXrecord
280
     1
102
MATERIAL
148
0.0
149
0.0
149
0.0
 93
        0
 94
      127
282
     0
 72
     0
 77
     0
171
     0
175
     0
179
     0
273
     0
  0
XRECORD
  5
BC34
102
{ACAD_REACTORS
330
BC32
102
}
330
BC32
100
AcDbXrecord
280
     1
270
     1
271
     1
  0
XRECORD
  5
BC33
102
{ACAD_REACTORS
330
BC32
102
}
330
BC32
100
AcDbXrecord
280
     1
270
     1
271
     1
  0
XRECORD
  5
BC37
102
{ACAD_REACTORS
330
BC32
102
}
330
BC32
100
AcDbXrecord
280
     1
270
     1
271
     1
  0
XRECORD
  5
BC36
102
{ACAD_REACTORS
330
BC32
102
}
330
BC32
100
AcDbXrecord
280
     1
270
     1
271
     1
  0
XRECORD
  5
BC38
102
{ACAD_REACTORS
330
BC32
102
}
330
BC32
100
AcDbXrecord
280
     1
270
     1
271
     1
  0
XRECORD
  5
BC35
102
{ACAD_REACTORS
330
BC32
102
}
330
BC32
100
AcDbXrecord
280
     1
270
     1
271
     1
  0
XRECORD
  5
BCC6
102
{ACAD_REACTORS
330
BCC5
102
}
330
BCC5
100
AcDbXrecord
280
     1
102
DISPLAYNAME
  1
Imperial24
102
FLAGS
 90
        0
  0
CELLSTYLEMAP
  5
BC8D
102
{ACAD_REACTORS
330
BC8C
102
}
330
BC8C
100
AcDbCellStyleMap
 90
        3
300
CELLSTYLE
  1
TABLEFORMAT_BEGIN
 90
        5
170
     1
 91
        0
 92
    32768
 62
   257
 93
        1
300
CONTENTFORMAT
  1
CONTENTFORMAT_BEGIN
 90
        0
 91
        0
 92
      512
 93
        0
300

 40
0.0
140
1.0
 94
        5
 62
     0
340
BA45
144
0.25
309
CONTENTFORMAT_END
171
     0
 94
        0
309
TABLEFORMAT_END
  1
CELLSTYLE_BEGIN
 90
        1
 91
        1
300
_TITLE
309
CELLSTYLE_END
300
CELLSTYLE
  1
TABLEFORMAT_BEGIN
 90
        5
170
     1
 91
        0
 92
        0
 62
   257
 93
        1
300
CONTENTFORMAT
  1
CONTENTFORMAT_BEGIN
 90
        0
 91
        0
 92
      512
 93
        0
300

 40
0.0
140
1.0
 94
        5
 62
     0
340
BA45
144
0.18
309
CONTENTFORMAT_END
171
     0
 94
        0
309
TABLEFORMAT_END
  1
CELLSTYLE_BEGIN
 90
        2
 91
        1
300
_HEADER
309
CELLSTYLE_END
300
CELLSTYLE
  1
TABLEFORMAT_BEGIN
 90
        5
170
     1
 91
        0
 92
        0
 62
   257
 93
        1
300
CONTENTFORMAT
  1
CONTENTFORMAT_BEGIN
 90
        0
 91
        0
 92
      512
 93
        0
300

 40
0.0
140
1.0
 94
        2
 62
     0
340
BA45
144
0.18
309
CONTENTFORMAT_END
171
     0
 94
        0
309
TABLEFORMAT_END
  1
CELLSTYLE_BEGIN
 90
        3
 91
        2
300
_DATA
309
CELLSTYLE_END
  0
XRECORD
  5
BCC3
102
{ACAD_REACTORS
330
BC8C
102
}
330
BC8C
100
AcDbXrecord
280
     1
102
ACAD_ROUNDTRIP_PRE2007_TABLESTYLE
 90
      512
 91
        0
  1

 92
      512
 93
        0
  2

 94
      512
 95
        0
  3

  0
XRECORD
  5
BC9E
102
{ACAD_REACTORS
330
BC9D
102
}
330
BC9D
100
AcDbXrecord
280
     1
102
RTVSPost2010Prop28
280
     1
102
RTVSPost2010PropOp28
 70
     1
102
RTVSPost2010Prop29
280
     1
102
RTVSPost2010PropOp29
 70
     1
102
RTVSPost2010Prop30
280
     0
102
RTVSPost2010PropOp30
 70
     1
102
RTVSPost2010Prop31
280
     0
102
RTVSPost2010PropOp31
 70
     1
102
RTVSPost2010Prop32
280
     0
102
RTVSPost2010PropOp32
 70
     1
102
RTVSPost2010Prop33
280
     0
102
RTVSPost2010PropOp33
 70
     1
102
RTVSPost2010Prop34
280
     0
102
RTVSPost2010PropOp34
 70
     1
102
RTVSPost2010Prop35
280
     0
102
RTVSPost2010PropOp35
 70
     1
102
RTVSPost2010Prop36
280
     0
102
RTVSPost2010PropOp36
 70
     1
102
RTVSPost2010Prop37
 90
       50
102
RTVSPost2010PropOp37
 70
     1
102
RTVSPost2010Prop38
140
0.0
102
RTVSPost2010PropOp38
 70
     1
102
RTVSPost2010Prop39
140
1.0
102
RTVSPost2010PropOp39
 70
     1
102
RTVSPost2010Prop40
 90
        0
102
RTVSPost2010PropOp40
 70
     1
102
RTVSPost2010Prop41ColorIndex
 90
       18
102
RTVSPost2010Prop41ColorRGB
 90
        0
102
RTVSPost2010PropOp41
 70
     1
102
RTVSPost2010Prop42
 90
       50
102
RTVSPost2010PropOp42
 70
     1
102
RTVSPost2010Prop43
 90
        3
102
RTVSPost2010PropOp43
 70
     1
102
RTVSPost2010Prop44ColorIndex
 90
        5
102
RTVSPost2010Prop44ColorRGB
 90
      255
102
RTVSPost2010PropOp44
 70
     1
102
RTVSPost2010Prop45
280
     0
102
RTVSPost2010PropOp45
 70
     1
102
RTVSPost2010Prop46
 90
       50
102
RTVSPost2010PropOp46
 70
     1
102
RTVSPost2010Prop47
 90
       50
102
RTVSPost2010PropOp47
 70
     1
102
RTVSPost2010Prop48
 90
       50
102
RTVSPost2010PropOp48
 70
     1
102
RTVSPost2010Prop49
280
     0
102
RTVSPost2010PropOp49
 70
     1
102
RTVSPost2010Prop50
 90
       50
102
RTVSPost2010PropOp50
 70
     1
102
RTVSPost2010Prop51ColorIndex
 90
      256
102
RTVSPost2010Prop51ColorRGB
 90
-16777216
102
RTVSPost2010PropOp51
 70
     0
102
RTVSPost2010Prop52
140
1.0
102
RTVSPost2010PropOp52
 70
     0
102
RTVSPost2010Prop53
 90
        2
102
RTVSPost2010PropOp53
 70
     1
102
RTVSPost2010Prop54
  1
strokes_ogs.tif
102
RTVSPost2010PropOp54
 70
     1
102
RTVSPost2010Prop55
280
     0
102
RTVSPost2010PropOp55
 70
     1
102
RTVSPost2010Prop56
140
1.0
102
RTVSPost2010PropOp56
 70
     1
102
RTVSPost2010Prop57
140
1.0
102
RTVSPost2010PropOp57
 70
     1
102
RTVSPropertyOp0
 70
     1
102
RTVSPropertyOp1
 70
     1
102
RTVSPropertyOp2
 70
     1
102
RTVSPropertyOp3
 70
     1
102
RTVSPropertyOp4
 70
     1
102
RTVSPropertyOp5
 70
     1
102
RTVSPropertyOp6
 70
     1
102
RTVSPropertyOp7
 70
     1
102
RTVSPropertyOp8
 70
     1
102
RTVSPropertyOp9
 70
     1
102
RTVSPropertyOp10
 70
     1
102
RTVSPropertyOp11
 70
     1
102
RTVSPropertyOp12
 70
     1
102
RTVSPropertyOp13
 70
     1
102
RTVSPropertyOp14
 70
     1
102
RTVSPropertyOp15
 70
     1
102
RTVSPropertyOp16
 70
     1
102
RTVSPropertyOp17
 70
     1
102
RTVSPropertyOp18
 70
     1
102
RTVSPropertyOp19
 70
     1
102
RTVSPropertyOp20
 70
     1
102
RTVSPropertyOp21
 70
     1
102
RTVSPropertyOp22
 70
     1
102
RTVSPropertyOp23
 70
     1
102
RTVSPropertyOp24
 70
     1
102
RTVSPropertyOp25
 70
     1
102
RTVSPropertyOp26
 70
     1
102
RTVSPropertyOp27
 70
     1
102
RTVSPropertyOp28
 70
     1
102
RTVSPropertyOp29
 70
     1
102
RTVSPropertyOp30
 70
     1
102
RTVSPropertyOp31
 70
     1
102
RTVSPropertyOp32
 70
     1
102
RTVSPropertyOp33
 70
     1
102
RTVSPropertyOp34
 70
     1
102
RTVSPropertyOp35
 70
     1
102
RTVSPropertyOp36
 70
     1
102
RTVSPropertyOp37
 70
     1
102
RTVSPropertyOp38
 70
     1
102
RTVSPropertyOp39
 70
     1
102
RTVSPropertyOp40
 70
     1
102
RTVSPropertyOp41
 70
     1
102
RTVSPropertyOp42
 70
     1
102
RTVSPropertyOp43
 70
     1
102
RTVSPropertyOp44
 70
     1
102
RTVSPropertyOp45
 70
     1
102
RTVSPropertyOp46
 70
     1
102
RTVSPropertyOp47
 70
     1
102
RTVSPropertyOp48
 70
     1
102
RTVSPropertyOp49
 70
     1
102
RTVSPropertyOp50
 70
     1
102
RTVSPropertyOp51
 70
     0
102
RTVSPropertyOp52
 70
     0
102
RTVSPropertyOp53
 70
     1
102
RTVSPropertyOp54
 70
     1
102
RTVSPropertyOp55
 70
     1
102
RTVSPropertyOp56
 70
     1
102
RTVSPropertyOp57
 70
     1
102
RTVSPropertyOp58
 70
     1
102
RTVSPropertyOp59
 70
     1
102
RTVSPropertyOp60
 70
     1
102
RTVSPropertyOp61
 70
     1
102
RTVSPropertyOp62
 70
     1
  0
XRECORD
  5
BC9C
102
{ACAD_REACTORS
330
BC9B
102
}
330
BC9B
100
AcDbXrecord
280
     1
102
RTVSPost2010Prop28
280
     0
102
RTVSPost2010PropOp28
 70
     1
102
RTVSPost2010Prop29
280
     1
102
RTVSPost2010PropOp29
 70
     1
102
RTVSPost2010Prop30
280
     1
102
RTVSPost2010PropOp30
 70
     1
102
RTVSPost2010Prop31
280
     0
102
RTVSPost2010PropOp31
 70
     1
102
RTVSPost2010Prop32
280
     0
102
RTVSPost2010PropOp32
 70
     1
102
RTVSPost2010Prop33
280
     0
102
RTVSPost2010PropOp33
 70
     1
102
RTVSPost2010Prop34
280
     0
102
RTVSPost2010PropOp34
 70
     1
102
RTVSPost2010Prop35
280
     0
102
RTVSPost2010PropOp35
 70
     1
102
RTVSPost2010Prop36
280
     0
102
RTVSPost2010PropOp36
 70
     1
102
RTVSPost2010Prop37
 90
       50
102
RTVSPost2010PropOp37
 70
     1
102
RTVSPost2010Prop38
140
0.0
102
RTVSPost2010PropOp38
 70
     1
102
RTVSPost2010Prop39
140
1.0
102
RTVSPost2010PropOp39
 70
     1
102
RTVSPost2010Prop40
 90
        0
102
RTVSPost2010PropOp40
 70
     1
102
RTVSPost2010Prop41ColorIndex
 90
       18
102
RTVSPost2010Prop41ColorRGB
 90
        0
102
RTVSPost2010PropOp41
 70
     1
102
RTVSPost2010Prop42
 90
       50
102
RTVSPost2010PropOp42
 70
     1
102
RTVSPost2010Prop43
 90
        3
102
RTVSPost2010PropOp43
 70
     1
102
RTVSPost2010Prop44ColorIndex
 90
        5
102
RTVSPost2010Prop44ColorRGB
 90
      255
102
RTVSPost2010PropOp44
 70
     1
102
RTVSPost2010Prop45
280
     0
102
RTVSPost2010PropOp45
 70
     1
102
RTVSPost2010Prop46
 90
       50
102
RTVSPost2010PropOp46
 70
     1
102
RTVSPost2010Prop47
 90
       50
102
RTVSPost2010PropOp47
 70
     1
102
RTVSPost2010Prop48
 90
       50
102
RTVSPost2010PropOp48
 70
     1
102
RTVSPost2010Prop49
280
     0
102
RTVSPost2010PropOp49
 70
     1
102
RTVSPost2010Prop50
 90
       50
102
RTVSPost2010PropOp50
 70
     1
102
RTVSPost2010Prop51ColorIndex
 90
      256
102
RTVSPost2010Prop51ColorRGB
 90
-16777216
102
RTVSPost2010PropOp51
 70
     0
102
RTVSPost2010Prop52
140
1.0
102
RTVSPost2010PropOp52
 70
     0
102
RTVSPost2010Prop53
 90
        2
102
RTVSPost2010PropOp53
 70
     1
102
RTVSPost2010Prop54
  1
strokes_ogs.tif
102
RTVSPost2010PropOp54
 70
     1
102
RTVSPost2010Prop55
280
     0
102
RTVSPost2010PropOp55
 70
     1
102
RTVSPost2010Prop56
140
1.0
102
RTVSPost2010PropOp56
 70
     1
102
RTVSPost2010Prop57
140
1.0
102
RTVSPost2010PropOp57
 70
     1
102
RTVSPropertyOp0
 70
     1
102
RTVSPropertyOp1
 70
     1
102
RTVSPropertyOp2
 70
     1
102
RTVSPropertyOp3
 70
     1
102
RTVSPropertyOp4
 70
     1
102
RTVSPropertyOp5
 70
     1
102
RTVSPropertyOp6
 70
     1
102
RTVSPropertyOp7
 70
     1
102
RTVSPropertyOp8
 70
     1
102
RTVSPropertyOp9
 70
     1
102
RTVSPropertyOp10
 70
     1
102
RTVSPropertyOp11
 70
     1
102
RTVSPropertyOp12
 70
     1
102
RTVSPropertyOp13
 70
     1
102
RTVSPropertyOp14
 70
     1
102
RTVSPropertyOp15
 70
     1
102
RTVSPropertyOp16
 70
     1
102
RTVSPropertyOp17
 70
     1
102
RTVSPropertyOp18
 70
     1
102
RTVSPropertyOp19
 70
     1
102
RTVSPropertyOp20
 70
     1
102
RTVSPropertyOp21
 70
     1
102
RTVSPropertyOp22
 70
     1
102
RTVSPropertyOp23
 70
     1
102
RTVSPropertyOp24
 70
     1
102
RTVSPropertyOp25
 70
     1
102
RTVSPropertyOp26
 70
     1
102
RTVSPropertyOp27
 70
     1
102
RTVSPropertyOp28
 70
     1
102
RTVSPropertyOp29
 70
     1
102
RTVSPropertyOp30
 70
     1
102
RTVSPropertyOp31
 70
     1
102
RTVSPropertyOp32
 70
     1
102
RTVSPropertyOp33
 70
     1
102
RTVSPropertyOp34
 70
     1
102
RTVSPropertyOp35
 70
     1
102
RTVSPropertyOp36
 70
     1
102
RTVSPropertyOp37
 70
     1
102
RTVSPropertyOp38
 70
     1
102
RTVSPropertyOp39
 70
     1
102
RTVSPropertyOp40
 70
     1
102
RTVSPropertyOp41
 70
     1
102
RTVSPropertyOp42
 70
     1
102
RTVSPropertyOp43
 70
     1
102
RTVSPropertyOp44
 70
     1
102
RTVSPropertyOp45
 70
     1
102
RTVSPropertyOp46
 70
     1
102
RTVSPropertyOp47
 70
     1
102
RTVSPropertyOp48
 70
     1
102
RTVSPropertyOp49
 70
     1
102
RTVSPropertyOp50
 70
     1
102
RTVSPropertyOp51
 70
     0
102
RTVSPropertyOp52
 70
     0
102
RTVSPropertyOp53
 70
     1
102
RTVSPropertyOp54
 70
     1
102
RTVSPropertyOp55
 70
     1
102
RTVSPropertyOp56
 70
     1
102
RTVSPropertyOp57
 70
     1
102
RTVSPropertyOp58
 70
     1
102
RTVSPropertyOp59
 70
     1
102
RTVSPropertyOp60
 70
     1
102
RTVSPropertyOp61
 70
     1
102
RTVSPropertyOp62
 70
     1
  0
XRECORD
  5
BCAA
102
{ACAD_REACTORS
330
BCA9
102
}
330
BCA9
100
AcDbXrecord
280
     1
102
RTVSPost2010Prop28
280
     0
102
RTVSPost2010PropOp28
 70
     1
102
RTVSPost2010Prop29
280
     1
102
RTVSPost2010PropOp29
 70
     1
102
RTVSPost2010Prop30
280
     1
102
RTVSPost2010PropOp30
 70
     1
102
RTVSPost2010Prop31
280
     0
102
RTVSPost2010PropOp31
 70
     1
102
RTVSPost2010Prop32
280
     0
102
RTVSPost2010PropOp32
 70
     1
102
RTVSPost2010Prop33
280
     0
102
RTVSPost2010PropOp33
 70
     1
102
RTVSPost2010Prop34
280
     0
102
RTVSPost2010PropOp34
 70
     1
102
RTVSPost2010Prop35
280
     0
102
RTVSPost2010PropOp35
 70
     1
102
RTVSPost2010Prop36
280
     0
102
RTVSPost2010PropOp36
 70
     1
102
RTVSPost2010Prop37
 90
       50
102
RTVSPost2010PropOp37
 70
     1
102
RTVSPost2010Prop38
140
0.0
102
RTVSPost2010PropOp38
 70
     1
102
RTVSPost2010Prop39
140
1.0
102
RTVSPost2010PropOp39
 70
     1
102
RTVSPost2010Prop40
 90
        0
102
RTVSPost2010PropOp40
 70
     1
102
RTVSPost2010Prop41ColorIndex
 90
       18
102
RTVSPost2010Prop41ColorRGB
 90
        0
102
RTVSPost2010PropOp41
 70
     1
102
RTVSPost2010Prop42
 90
       50
102
RTVSPost2010PropOp42
 70
     1
102
RTVSPost2010Prop43
 90
        3
102
RTVSPost2010PropOp43
 70
     1
102
RTVSPost2010Prop44ColorIndex
 90
        5
102
RTVSPost2010Prop44ColorRGB
 90
      255
102
RTVSPost2010PropOp44
 70
     1
102
RTVSPost2010Prop45
280
     0
102
RTVSPost2010PropOp45
 70
     1
102
RTVSPost2010Prop46
 90
       50
102
RTVSPost2010PropOp46
 70
     1
102
RTVSPost2010Prop47
 90
       50
102
RTVSPost2010PropOp47
 70
     1
102
RTVSPost2010Prop48
 90
       50
102
RTVSPost2010PropOp48
 70
     1
102
RTVSPost2010Prop49
280
     0
102
RTVSPost2010PropOp49
 70
     1
102
RTVSPost2010Prop50
 90
       50
102
RTVSPost2010PropOp50
 70
     1
102
RTVSPost2010Prop51ColorIndex
 90
      256
102
RTVSPost2010Prop51ColorRGB
 90
-16777216
102
RTVSPost2010PropOp51
 70
     0
102
RTVSPost2010Prop52
140
1.0
102
RTVSPost2010PropOp52
 70
     0
102
RTVSPost2010Prop53
 90
        2
102
RTVSPost2010PropOp53
 70
     1
102
RTVSPost2010Prop54
  1
strokes_ogs.tif
102
RTVSPost2010PropOp54
 70
     1
102
RTVSPost2010Prop55
280
     0
102
RTVSPost2010PropOp55
 70
     1
102
RTVSPost2010Prop56
140
1.0
102
RTVSPost2010PropOp56
 70
     1
102
RTVSPost2010Prop57
140
1.0
102
RTVSPost2010PropOp57
 70
     1
102
RTVSPropertyOp0
 70
     1
102
RTVSPropertyOp1
 70
     1
102
RTVSPropertyOp2
 70
     1
102
RTVSPropertyOp3
 70
     1
102
RTVSPropertyOp4
 70
     1
102
RTVSPropertyOp5
 70
     1
102
RTVSPropertyOp6
 70
     1
102
RTVSPropertyOp7
 70
     1
102
RTVSPropertyOp8
 70
     1
102
RTVSPropertyOp9
 70
     1
102
RTVSPropertyOp10
 70
     1
102
RTVSPropertyOp11
 70
     1
102
RTVSPropertyOp12
 70
     1
102
RTVSPropertyOp13
 70
     1
102
RTVSPropertyOp14
 70
     1
102
RTVSPropertyOp15
 70
     1
102
RTVSPropertyOp16
 70
     1
102
RTVSPropertyOp17
 70
     1
102
RTVSPropertyOp18
 70
     1
102
RTVSPropertyOp19
 70
     1
102
RTVSPropertyOp20
 70
     1
102
RTVSPropertyOp21
 70
     1
102
RTVSPropertyOp22
 70
     1
102
RTVSPropertyOp23
 70
     1
102
RTVSPropertyOp24
 70
     1
102
RTVSPropertyOp25
 70
     1
102
RTVSPropertyOp26
 70
     1
102
RTVSPropertyOp27
 70
     1
102
RTVSPropertyOp28
 70
     1
102
RTVSPropertyOp29
 70
     1
102
RTVSPropertyOp30
 70
     1
102
RTVSPropertyOp31
 70
     1
102
RTVSPropertyOp32
 70
     1
102
RTVSPropertyOp33
 70
     1
102
RTVSPropertyOp34
 70
     1
102
RTVSPropertyOp35
 70
     1
102
RTVSPropertyOp36
 70
     1
102
RTVSPropertyOp37
 70
     1
102
RTVSPropertyOp38
 70
     1
102
RTVSPropertyOp39
 70
     1
102
RTVSPropertyOp40
 70
     1
102
RTVSPropertyOp41
 70
     1
102
RTVSPropertyOp42
 70
     1
102
RTVSPropertyOp43
 70
     1
102
RTVSPropertyOp44
 70
     1
102
RTVSPropertyOp45
 70
     1
102
RTVSPropertyOp46
 70
     1
102
RTVSPropertyOp47
 70
     1
102
RTVSPropertyOp48
 70
     1
102
RTVSPropertyOp49
 70
     1
102
RTVSPropertyOp50
 70
     1
102
RTVSPropertyOp51
 70
     0
102
RTVSPropertyOp52
 70
     0
102
RTVSPropertyOp53
 70
     1
102
RTVSPropertyOp54
 70
     1
102
RTVSPropertyOp55
 70
     1
102
RTVSPropertyOp56
 70
     1
102
RTVSPropertyOp57
 70
     1
102
RTVSPropertyOp58
 70
     1
102
RTVSPropertyOp59
 70
     1
102
RTVSPropertyOp60
 70
     1
102
RTVSPropertyOp61
 70
     1
102
RTVSPropertyOp62
 70
     1
  0
XRECORD
  5
BCB2
102
{ACAD_REACTORS
330
BCB1
102
}
330
BCB1
100
AcDbXrecord
280
     1
102
RTVSPost2010Prop28
280
     0
102
RTVSPost2010PropOp28
 70
     1
102
RTVSPost2010Prop29
280
     1
102
RTVSPost2010PropOp29
 70
     1
102
RTVSPost2010Prop30
280
     1
102
RTVSPost2010PropOp30
 70
     1
102
RTVSPost2010Prop31
280
     0
102
RTVSPost2010PropOp31
 70
     1
102
RTVSPost2010Prop32
280
     0
102
RTVSPost2010PropOp32
 70
     1
102
RTVSPost2010Prop33
280
     0
102
RTVSPost2010PropOp33
 70
     1
102
RTVSPost2010Prop34
280
     0
102
RTVSPost2010PropOp34
 70
     1
102
RTVSPost2010Prop35
280
     0
102
RTVSPost2010PropOp35
 70
     1
102
RTVSPost2010Prop36
280
     0
102
RTVSPost2010PropOp36
 70
     1
102
RTVSPost2010Prop37
 90
       50
102
RTVSPost2010PropOp37
 70
     1
102
RTVSPost2010Prop38
140
0.0
102
RTVSPost2010PropOp38
 70
     1
102
RTVSPost2010Prop39
140
1.0
102
RTVSPost2010PropOp39
 70
     1
102
RTVSPost2010Prop40
 90
        0
102
RTVSPost2010PropOp40
 70
     1
102
RTVSPost2010Prop41ColorIndex
 90
       18
102
RTVSPost2010Prop41ColorRGB
 90
        0
102
RTVSPost2010PropOp41
 70
     1
102
RTVSPost2010Prop42
 90
       50
102
RTVSPost2010PropOp42
 70
     1
102
RTVSPost2010Prop43
 90
        3
102
RTVSPost2010PropOp43
 70
     1
102
RTVSPost2010Prop44ColorIndex
 90
        5
102
RTVSPost2010Prop44ColorRGB
 90
      255
102
RTVSPost2010PropOp44
 70
     1
102
RTVSPost2010Prop45
280
     0
102
RTVSPost2010PropOp45
 70
     1
102
RTVSPost2010Prop46
 90
       50
102
RTVSPost2010PropOp46
 70
     1
102
RTVSPost2010Prop47
 90
       50
102
RTVSPost2010PropOp47
 70
     1
102
RTVSPost2010Prop48
 90
       50
102
RTVSPost2010PropOp48
 70
     1
102
RTVSPost2010Prop49
280
     0
102
RTVSPost2010PropOp49
 70
     1
102
RTVSPost2010Prop50
 90
       50
102
RTVSPost2010PropOp50
 70
     1
102
RTVSPost2010Prop51ColorIndex
 90
      256
102
RTVSPost2010Prop51ColorRGB
 90
-16777216
102
RTVSPost2010PropOp51
 70
     0
102
RTVSPost2010Prop52
140
1.0
102
RTVSPost2010PropOp52
 70
     0
102
RTVSPost2010Prop53
 90
        2
102
RTVSPost2010PropOp53
 70
     1
102
RTVSPost2010Prop54
  1
strokes_ogs.tif
102
RTVSPost2010PropOp54
 70
     1
102
RTVSPost2010Prop55
280
     0
102
RTVSPost2010PropOp55
 70
     1
102
RTVSPost2010Prop56
140
1.0
102
RTVSPost2010PropOp56
 70
     1
102
RTVSPost2010Prop57
140
1.0
102
RTVSPost2010PropOp57
 70
     1
102
RTVSPropertyOp0
 70
     1
102
RTVSPropertyOp1
 70
     1
102
RTVSPropertyOp2
 70
     1
102
RTVSPropertyOp3
 70
     1
102
RTVSPropertyOp4
 70
     1
102
RTVSPropertyOp5
 70
     1
102
RTVSPropertyOp6
 70
     1
102
RTVSPropertyOp7
 70
     1
102
RTVSPropertyOp8
 70
     1
102
RTVSPropertyOp9
 70
     1
102
RTVSPropertyOp10
 70
     1
102
RTVSPropertyOp11
 70
     1
102
RTVSPropertyOp12
 70
     1
102
RTVSPropertyOp13
 70
     1
102
RTVSPropertyOp14
 70
     1
102
RTVSPropertyOp15
 70
     1
102
RTVSPropertyOp16
 70
     1
102
RTVSPropertyOp17
 70
     1
102
RTVSPropertyOp18
 70
     1
102
RTVSPropertyOp19
 70
     1
102
RTVSPropertyOp20
 70
     1
102
RTVSPropertyOp21
 70
     1
102
RTVSPropertyOp22
 70
     1
102
RTVSPropertyOp23
 70
     1
102
RTVSPropertyOp24
 70
     1
102
RTVSPropertyOp25
 70
     1
102
RTVSPropertyOp26
 70
     1
102
RTVSPropertyOp27
 70
     1
102
RTVSPropertyOp28
 70
     1
102
RTVSPropertyOp29
 70
     1
102
RTVSPropertyOp30
 70
     1
102
RTVSPropertyOp31
 70
     1
102
RTVSPropertyOp32
 70
     1
102
RTVSPropertyOp33
 70
     1
102
RTVSPropertyOp34
 70
     1
102
RTVSPropertyOp35
 70
     1
102
RTVSPropertyOp36
 70
     1
102
RTVSPropertyOp37
 70
     1
102
RTVSPropertyOp38
 70
     1
102
RTVSPropertyOp39
 70
     1
102
RTVSPropertyOp40
 70
     1
102
RTVSPropertyOp41
 70
     1
102
RTVSPropertyOp42
 70
     1
102
RTVSPropertyOp43
 70
     1
102
RTVSPropertyOp44
 70
     1
102
RTVSPropertyOp45
 70
     1
102
RTVSPropertyOp46
 70
     1
102
RTVSPropertyOp47
 70
     1
102
RTVSPropertyOp48
 70
     1
102
RTVSPropertyOp49
 70
     1
102
RTVSPropertyOp50
 70
     1
102
RTVSPropertyOp51
 70
     0
102
RTVSPropertyOp52
 70
     0
102
RTVSPropertyOp53
 70
     1
102
RTVSPropertyOp54
 70
     1
102
RTVSPropertyOp55
 70
     1
102
RTVSPropertyOp56
 70
     1
102
RTVSPropertyOp57
 70
     1
102
RTVSPropertyOp58
 70
     1
102
RTVSPropertyOp59
 70
     1
102
RTVSPropertyOp60
 70
     1
102
RTVSPropertyOp61
 70
     1
102
RTVSPropertyOp62
 70
     1
  0
XRECORD
  5
BCA4
102
{ACAD_REACTORS
330
BCA3
102
}
330
BCA3
100
AcDbXrecord
280
     1
102
RTVSPost2010Prop28
280
     0
102
RTVSPost2010PropOp28
 70
     1
102
RTVSPost2010Prop29
280
     1
102
RTVSPost2010PropOp29
 70
     1
102
RTVSPost2010Prop30
280
     1
102
RTVSPost2010PropOp30
 70
     1
102
RTVSPost2010Prop31
280
     0
102
RTVSPost2010PropOp31
 70
     1
102
RTVSPost2010Prop32
280
     0
102
RTVSPost2010PropOp32
 70
     1
102
RTVSPost2010Prop33
280
     0
102
RTVSPost2010PropOp33
 70
     1
102
RTVSPost2010Prop34
280
     0
102
RTVSPost2010PropOp34
 70
     1
102
RTVSPost2010Prop35
280
     0
102
RTVSPost2010PropOp35
 70
     1
102
RTVSPost2010Prop36
280
     0
102
RTVSPost2010PropOp36
 70
     1
102
RTVSPost2010Prop37
 90
       50
102
RTVSPost2010PropOp37
 70
     1
102
RTVSPost2010Prop38
140
0.0
102
RTVSPost2010PropOp38
 70
     1
102
RTVSPost2010Prop39
140
1.0
102
RTVSPost2010PropOp39
 70
     1
102
RTVSPost2010Prop40
 90
        0
102
RTVSPost2010PropOp40
 70
     1
102
RTVSPost2010Prop41ColorIndex
 90
       18
102
RTVSPost2010Prop41ColorRGB
 90
        0
102
RTVSPost2010PropOp41
 70
     1
102
RTVSPost2010Prop42
 90
       50
102
RTVSPost2010PropOp42
 70
     1
102
RTVSPost2010Prop43
 90
        3
102
RTVSPost2010PropOp43
 70
     1
102
RTVSPost2010Prop44ColorIndex
 90
        5
102
RTVSPost2010Prop44ColorRGB
 90
      255
102
RTVSPost2010PropOp44
 70
     1
102
RTVSPost2010Prop45
280
     0
102
RTVSPost2010PropOp45
 70
     1
102
RTVSPost2010Prop46
 90
       50
102
RTVSPost2010PropOp46
 70
     1
102
RTVSPost2010Prop47
 90
       50
102
RTVSPost2010PropOp47
 70
     1
102
RTVSPost2010Prop48
 90
       50
102
RTVSPost2010PropOp48
 70
     1
102
RTVSPost2010Prop49
280
     0
102
RTVSPost2010PropOp49
 70
     1
102
RTVSPost2010Prop50
 90
       50
102
RTVSPost2010PropOp50
 70
     1
102
RTVSPost2010Prop51ColorIndex
 90
      256
102
RTVSPost2010Prop51ColorRGB
 90
-16777216
102
RTVSPost2010PropOp51
 70
     0
102
RTVSPost2010Prop52
140
1.0
102
RTVSPost2010PropOp52
 70
     0
102
RTVSPost2010Prop53
 90
        2
102
RTVSPost2010PropOp53
 70
     1
102
RTVSPost2010Prop54
  1
strokes_ogs.tif
102
RTVSPost2010PropOp54
 70
     1
102
RTVSPost2010Prop55
280
     0
102
RTVSPost2010PropOp55
 70
     1
102
RTVSPost2010Prop56
140
1.0
102
RTVSPost2010PropOp56
 70
     1
102
RTVSPost2010Prop57
140
1.0
102
RTVSPost2010PropOp57
 70
     1
102
RTVSPropertyOp0
 70
     1
102
RTVSPropertyOp1
 70
     1
102
RTVSPropertyOp2
 70
     1
102
RTVSPropertyOp3
 70
     1
102
RTVSPropertyOp4
 70
     1
102
RTVSPropertyOp5
 70
     1
102
RTVSPropertyOp6
 70
     1
102
RTVSPropertyOp7
 70
     1
102
RTVSPropertyOp8
 70
     1
102
RTVSPropertyOp9
 70
     1
102
RTVSPropertyOp10
 70
     1
102
RTVSPropertyOp11
 70
     1
102
RTVSPropertyOp12
 70
     1
102
RTVSPropertyOp13
 70
     1
102
RTVSPropertyOp14
 70
     1
102
RTVSPropertyOp15
 70
     1
102
RTVSPropertyOp16
 70
     1
102
RTVSPropertyOp17
 70
     1
102
RTVSPropertyOp18
 70
     1
102
RTVSPropertyOp19
 70
     1
102
RTVSPropertyOp20
 70
     1
102
RTVSPropertyOp21
 70
     1
102
RTVSPropertyOp22
 70
     1
102
RTVSPropertyOp23
 70
     1
102
RTVSPropertyOp24
 70
     1
102
RTVSPropertyOp25
 70
     1
102
RTVSPropertyOp26
 70
     1
102
RTVSPropertyOp27
 70
     1
102
RTVSPropertyOp28
 70
     1
102
RTVSPropertyOp29
 70
     1
102
RTVSPropertyOp30
 70
     1
102
RTVSPropertyOp31
 70
     1
102
RTVSPropertyOp32
 70
     1
102
RTVSPropertyOp33
 70
     1
102
RTVSPropertyOp34
 70
     1
102
RTVSPropertyOp35
 70
     1
102
RTVSPropertyOp36
 70
     1
102
RTVSPropertyOp37
 70
     1
102
RTVSPropertyOp38
 70
     1
102
RTVSPropertyOp39
 70
     1
102
RTVSPropertyOp40
 70
     1
102
RTVSPropertyOp41
 70
     1
102
RTVSPropertyOp42
 70
     1
102
RTVSPropertyOp43
 70
     1
102
RTVSPropertyOp44
 70
     1
102
RTVSPropertyOp45
 70
     1
102
RTVSPropertyOp46
 70
     1
102
RTVSPropertyOp47
 70
     1
102
RTVSPropertyOp48
 70
     1
102
RTVSPropertyOp49
 70
     1
102
RTVSPropertyOp50
 70
     1
102
RTVSPropertyOp51
 70
     0
102
RTVSPropertyOp52
 70
     0
102
RTVSPropertyOp53
 70
     1
102
RTVSPropertyOp54
 70
     1
102
RTVSPropertyOp55
 70
     1
102
RTVSPropertyOp56
 70
     1
102
RTVSPropertyOp57
 70
     1
102
RTVSPropertyOp58
 70
     1
102
RTVSPropertyOp59
 70
     1
102
RTVSPropertyOp60
 70
     1
102
RTVSPropertyOp61
 70
     1
102
RTVSPropertyOp62
 70
     1
  0
XRECORD
  5
BCA8
102
{ACAD_REACTORS
330
BCA7
102
}
330
BCA7
100
AcDbXrecord
280
     1
102
RTVSPost2010Prop28
280
     0
102
RTVSPost2010PropOp28
 70
     1
102
RTVSPost2010Prop29
280
     1
102
RTVSPost2010PropOp29
 70
     1
102
RTVSPost2010Prop30
280
     1
102
RTVSPost2010PropOp30
 70
     1
102
RTVSPost2010Prop31
280
     0
102
RTVSPost2010PropOp31
 70
     1
102
RTVSPost2010Prop32
280
     0
102
RTVSPost2010PropOp32
 70
     1
102
RTVSPost2010Prop33
280
     0
102
RTVSPost2010PropOp33
 70
     1
102
RTVSPost2010Prop34
280
     0
102
RTVSPost2010PropOp34
 70
     1
102
RTVSPost2010Prop35
280
     0
102
RTVSPost2010PropOp35
 70
     1
102
RTVSPost2010Prop36
280
     0
102
RTVSPost2010PropOp36
 70
     1
102
RTVSPost2010Prop37
 90
       50
102
RTVSPost2010PropOp37
 70
     1
102
RTVSPost2010Prop38
140
0.0
102
RTVSPost2010PropOp38
 70
     1
102
RTVSPost2010Prop39
140
1.0
102
RTVSPost2010PropOp39
 70
     1
102
RTVSPost2010Prop40
 90
        0
102
RTVSPost2010PropOp40
 70
     1
102
RTVSPost2010Prop41ColorIndex
 90
       18
102
RTVSPost2010Prop41ColorRGB
 90
        0
102
RTVSPost2010PropOp41
 70
     1
102
RTVSPost2010Prop42
 90
       50
102
RTVSPost2010PropOp42
 70
     1
102
RTVSPost2010Prop43
 90
        3
102
RTVSPost2010PropOp43
 70
     1
102
RTVSPost2010Prop44ColorIndex
 90
        5
102
RTVSPost2010Prop44ColorRGB
 90
      255
102
RTVSPost2010PropOp44
 70
     1
102
RTVSPost2010Prop45
280
     0
102
RTVSPost2010PropOp45
 70
     1
102
RTVSPost2010Prop46
 90
       50
102
RTVSPost2010PropOp46
 70
     1
102
RTVSPost2010Prop47
 90
       50
102
RTVSPost2010PropOp47
 70
     1
102
RTVSPost2010Prop48
 90
       50
102
RTVSPost2010PropOp48
 70
     1
102
RTVSPost2010Prop49
280
     0
102
RTVSPost2010PropOp49
 70
     1
102
RTVSPost2010Prop50
 90
       50
102
RTVSPost2010PropOp50
 70
     1
102
RTVSPost2010Prop51ColorIndex
 90
      256
102
RTVSPost2010Prop51ColorRGB
 90
-16777216
102
RTVSPost2010PropOp51
 70
     0
102
RTVSPost2010Prop52
140
1.0
102
RTVSPost2010PropOp52
 70
     0
102
RTVSPost2010Prop53
 90
        2
102
RTVSPost2010PropOp53
 70
     1
102
RTVSPost2010Prop54
  1
strokes_ogs.tif
102
RTVSPost2010PropOp54
 70
     1
102
RTVSPost2010Prop55
280
     0
102
RTVSPost2010PropOp55
 70
     1
102
RTVSPost2010Prop56
140
1.0
102
RTVSPost2010PropOp56
 70
     1
102
RTVSPost2010Prop57
140
1.0
102
RTVSPost2010PropOp57
 70
     1
102
RTVSPropertyOp0
 70
     1
102
RTVSPropertyOp1
 70
     1
102
RTVSPropertyOp2
 70
     1
102
RTVSPropertyOp3
 70
     1
102
RTVSPropertyOp4
 70
     1
102
RTVSPropertyOp5
 70
     1
102
RTVSPropertyOp6
 70
     1
102
RTVSPropertyOp7
 70
     1
102
RTVSPropertyOp8
 70
     1
102
RTVSPropertyOp9
 70
     1
102
RTVSPropertyOp10
 70
     1
102
RTVSPropertyOp11
 70
     1
102
RTVSPropertyOp12
 70
     1
102
RTVSPropertyOp13
 70
     1
102
RTVSPropertyOp14
 70
     1
102
RTVSPropertyOp15
 70
     1
102
RTVSPropertyOp16
 70
     1
102
RTVSPropertyOp17
 70
     1
102
RTVSPropertyOp18
 70
     1
102
RTVSPropertyOp19
 70
     1
102
RTVSPropertyOp20
 70
     1
102
RTVSPropertyOp21
 70
     1
102
RTVSPropertyOp22
 70
     1
102
RTVSPropertyOp23
 70
     1
102
RTVSPropertyOp24
 70
     1
102
RTVSPropertyOp25
 70
     1
102
RTVSPropertyOp26
 70
     1
102
RTVSPropertyOp27
 70
     1
102
RTVSPropertyOp28
 70
     1
102
RTVSPropertyOp29
 70
     1
102
RTVSPropertyOp30
 70
     1
102
RTVSPropertyOp31
 70
     1
102
RTVSPropertyOp32
 70
     1
102
RTVSPropertyOp33
 70
     1
102
RTVSPropertyOp34
 70
     1
102
RTVSPropertyOp35
 70
     1
102
RTVSPropertyOp36
 70
     1
102
RTVSPropertyOp37
 70
     1
102
RTVSPropertyOp38
 70
     1
102
RTVSPropertyOp39
 70
     1
102
RTVSPropertyOp40
 70
     1
102
RTVSPropertyOp41
 70
     1
102
RTVSPropertyOp42
 70
     1
102
RTVSPropertyOp43
 70
     1
102
RTVSPropertyOp44
 70
     1
102
RTVSPropertyOp45
 70
     1
102
RTVSPropertyOp46
 70
     1
102
RTVSPropertyOp47
 70
     1
102
RTVSPropertyOp48
 70
     1
102
RTVSPropertyOp49
 70
     1
102
RTVSPropertyOp50
 70
     1
102
RTVSPropertyOp51
 70
     0
102
RTVSPropertyOp52
 70
     0
102
RTVSPropertyOp53
 70
     1
102
RTVSPropertyOp54
 70
     1
102
RTVSPropertyOp55
 70
     1
102
RTVSPropertyOp56
 70
     1
102
RTVSPropertyOp57
 70
     1
102
RTVSPropertyOp58
 70
     1
102
RTVSPropertyOp59
 70
     1
102
RTVSPropertyOp60
 70
     1
102
RTVSPropertyOp61
 70
     1
102
RTVSPropertyOp62
 70
     1
  0
XRECORD
  5
BCC2
102
{ACAD_REACTORS
330
BCC1
102
}
330
BCC1
100
AcDbXrecord
280
     1
102
RTVSPost2010Prop28
280
     0
102
RTVSPost2010PropOp28
 70
     1
102
RTVSPost2010Prop29
280
     1
102
RTVSPost2010PropOp29
 70
     1
102
RTVSPost2010Prop30
280
     1
102
RTVSPost2010PropOp30
 70
     1
102
RTVSPost2010Prop31
280
     0
102
RTVSPost2010PropOp31
 70
     1
102
RTVSPost2010Prop32
280
     0
102
RTVSPost2010PropOp32
 70
     1
102
RTVSPost2010Prop33
280
     0
102
RTVSPost2010PropOp33
 70
     1
102
RTVSPost2010Prop34
280
     0
102
RTVSPost2010PropOp34
 70
     1
102
RTVSPost2010Prop35
280
     0
102
RTVSPost2010PropOp35
 70
     1
102
RTVSPost2010Prop36
280
     0
102
RTVSPost2010PropOp36
 70
     1
102
RTVSPost2010Prop37
 90
       50
102
RTVSPost2010PropOp37
 70
     0
102
RTVSPost2010Prop38
140
0.0
102
RTVSPost2010PropOp38
 70
     0
102
RTVSPost2010Prop39
140
1.0
102
RTVSPost2010PropOp39
 70
     0
102
RTVSPost2010Prop40
 90
        0
102
RTVSPost2010PropOp40
 70
     0
102
RTVSPost2010Prop41ColorIndex
 90
       18
102
RTVSPost2010Prop41ColorRGB
 90
        0
102
RTVSPost2010PropOp41
 70
     0
102
RTVSPost2010Prop42
 90
       50
102
RTVSPost2010PropOp42
 70
     0
102
RTVSPost2010Prop43
 90
        3
102
RTVSPost2010PropOp43
 70
     0
102
RTVSPost2010Prop44ColorIndex
 90
        5
102
RTVSPost2010Prop44ColorRGB
 90
      255
102
RTVSPost2010PropOp44
 70
     0
102
RTVSPost2010Prop45
280
     0
102
RTVSPost2010PropOp45
 70
     1
102
RTVSPost2010Prop46
 90
       50
102
RTVSPost2010PropOp46
 70
     0
102
RTVSPost2010Prop47
 90
       50
102
RTVSPost2010PropOp47
 70
     0
102
RTVSPost2010Prop48
 90
       50
102
RTVSPost2010PropOp48
 70
     0
102
RTVSPost2010Prop49
280
     0
102
RTVSPost2010PropOp49
 70
     1
102
RTVSPost2010Prop50
 90
       50
102
RTVSPost2010PropOp50
 70
     0
102
RTVSPost2010Prop51ColorIndex
 90
      256
102
RTVSPost2010Prop51ColorRGB
 90
-16777216
102
RTVSPost2010PropOp51
 70
     0
102
RTVSPost2010Prop52
140
1.0
102
RTVSPost2010PropOp52
 70
     0
102
RTVSPost2010Prop53
 90
        2
102
RTVSPost2010PropOp53
 70
     0
102
RTVSPost2010Prop54
  1
strokes_ogs.tif
102
RTVSPost2010PropOp54
 70
     0
102
RTVSPost2010Prop55
280
     0
102
RTVSPost2010PropOp55
 70
     1
102
RTVSPost2010Prop56
140
1.0
102
RTVSPost2010PropOp56
 70
     0
102
RTVSPost2010Prop57
140
1.0
102
RTVSPost2010PropOp57
 70
     0
102
RTVSPropertyOp0
 70
     0
102
RTVSPropertyOp1
 70
     0
102
RTVSPropertyOp2
 70
     0
102
RTVSPropertyOp3
 70
     0
102
RTVSPropertyOp4
 70
     0
102
RTVSPropertyOp5
 70
     0
102
RTVSPropertyOp6
 70
     0
102
RTVSPropertyOp7
 70
     0
102
RTVSPropertyOp8
 70
     0
102
RTVSPropertyOp9
 70
     0
102
RTVSPropertyOp10
 70
     0
102
RTVSPropertyOp11
 70
     0
102
RTVSPropertyOp12
 70
     0
102
RTVSPropertyOp13
 70
     0
102
RTVSPropertyOp14
 70
     2
102
RTVSPropertyOp15
 70
     0
102
RTVSPropertyOp16
 70
     0
102
RTVSPropertyOp17
 70
     0
102
RTVSPropertyOp18
 70
     0
102
RTVSPropertyOp19
 70
     0
102
RTVSPropertyOp20
 70
     0
102
RTVSPropertyOp21
 70
     0
102
RTVSPropertyOp22
 70
     0
102
RTVSPropertyOp23
 70
     0
102
RTVSPropertyOp24
 70
     0
102
RTVSPropertyOp25
 70
     0
102
RTVSPropertyOp26
 70
     0
102
RTVSPropertyOp27
 70
     0
102
RTVSPropertyOp28
 70
     1
102
RTVSPropertyOp29
 70
     1
102
RTVSPropertyOp30
 70
     1
102
RTVSPropertyOp31
 70
     1
102
RTVSPropertyOp32
 70
     1
102
RTVSPropertyOp33
 70
     1
102
RTVSPropertyOp34
 70
     1
102
RTVSPropertyOp35
 70
     1
102
RTVSPropertyOp36
 70
     1
102
RTVSPropertyOp37
 70
     0
102
RTVSPropertyOp38
 70
     0
102
RTVSPropertyOp39
 70
     0
102
RTVSPropertyOp40
 70
     0
102
RTVSPropertyOp41
 70
     0
102
RTVSPropertyOp42
 70
     0
102
RTVSPropertyOp43
 70
     0
102
RTVSPropertyOp44
 70
     0
102
RTVSPropertyOp45
 70
     1
102
RTVSPropertyOp46
 70
     0
102
RTVSPropertyOp47
 70
     0
102
RTVSPropertyOp48
 70
     0
102
RTVSPropertyOp49
 70
     1
102
RTVSPropertyOp50
 70
     0
102
RTVSPropertyOp51
 70
     0
102
RTVSPropertyOp52
 70
     0
102
RTVSPropertyOp53
 70
     0
102
RTVSPropertyOp54
 70
     0
102
RTVSPropertyOp55
 70
     1
102
RTVSPropertyOp56
 70
     0
102
RTVSPropertyOp57
 70
     0
102
RTVSPropertyOp58
 70
     0
102
RTVSPropertyOp59
 70
     0
102
RTVSPropertyOp60
 70
     0
102
RTVSPropertyOp61
 70
     0
102
RTVSPropertyOp62
 70
     0
  0
XRECORD
  5
BCB0
102
{ACAD_REACTORS
330
BCAF
102
}
330
BCAF
100
AcDbXrecord
280
     1
102
RTVSPost2010Prop28
280
     0
102
RTVSPost2010PropOp28
 70
     1
102
RTVSPost2010Prop29
280
     1
102
RTVSPost2010PropOp29
 70
     1
102
RTVSPost2010Prop30
280
     1
102
RTVSPost2010PropOp30
 70
     1
102
RTVSPost2010Prop31
280
     0
102
RTVSPost2010PropOp31
 70
     1
102
RTVSPost2010Prop32
280
     0
102
RTVSPost2010PropOp32
 70
     1
102
RTVSPost2010Prop33
280
     0
102
RTVSPost2010PropOp33
 70
     1
102
RTVSPost2010Prop34
280
     0
102
RTVSPost2010PropOp34
 70
     1
102
RTVSPost2010Prop35
280
     0
102
RTVSPost2010PropOp35
 70
     1
102
RTVSPost2010Prop36
280
     0
102
RTVSPost2010PropOp36
 70
     1
102
RTVSPost2010Prop37
 90
       50
102
RTVSPost2010PropOp37
 70
     1
102
RTVSPost2010Prop38
140
0.0
102
RTVSPost2010PropOp38
 70
     1
102
RTVSPost2010Prop39
140
1.0
102
RTVSPost2010PropOp39
 70
     1
102
RTVSPost2010Prop40
 90
        0
102
RTVSPost2010PropOp40
 70
     1
102
RTVSPost2010Prop41ColorIndex
 90
       18
102
RTVSPost2010Prop41ColorRGB
 90
        0
102
RTVSPost2010PropOp41
 70
     1
102
RTVSPost2010Prop42
 90
       50
102
RTVSPost2010PropOp42
 70
     1
102
RTVSPost2010Prop43
 90
        3
102
RTVSPost2010PropOp43
 70
     1
102
RTVSPost2010Prop44ColorIndex
 90
        5
102
RTVSPost2010Prop44ColorRGB
 90
      255
102
RTVSPost2010PropOp44
 70
     1
102
RTVSPost2010Prop45
280
     0
102
RTVSPost2010PropOp45
 70
     1
102
RTVSPost2010Prop46
 90
       50
102
RTVSPost2010PropOp46
 70
     1
102
RTVSPost2010Prop47
 90
       50
102
RTVSPost2010PropOp47
 70
     1
102
RTVSPost2010Prop48
 90
       50
102
RTVSPost2010PropOp48
 70
     1
102
RTVSPost2010Prop49
280
     0
102
RTVSPost2010PropOp49
 70
     1
102
RTVSPost2010Prop50
 90
       50
102
RTVSPost2010PropOp50
 70
     1
102
RTVSPost2010Prop51ColorIndex
 90
      256
102
RTVSPost2010Prop51ColorRGB
 90
-16777216
102
RTVSPost2010PropOp51
 70
     0
102
RTVSPost2010Prop52
140
1.0
102
RTVSPost2010PropOp52
 70
     0
102
RTVSPost2010Prop53
 90
        2
102
RTVSPost2010PropOp53
 70
     1
102
RTVSPost2010Prop54
  1
strokes_ogs.tif
102
RTVSPost2010PropOp54
 70
     1
102
RTVSPost2010Prop55
280
     0
102
RTVSPost2010PropOp55
 70
     1
102
RTVSPost2010Prop56
140
1.0
102
RTVSPost2010PropOp56
 70
     1
102
RTVSPost2010Prop57
140
1.0
102
RTVSPost2010PropOp57
 70
     1
102
RTVSPropertyOp0
 70
     1
102
RTVSPropertyOp1
 70
     1
102
RTVSPropertyOp2
 70
     1
102
RTVSPropertyOp3
 70
     1
102
RTVSPropertyOp4
 70
     1
102
RTVSPropertyOp5
 70
     1
102
RTVSPropertyOp6
 70
     1
102
RTVSPropertyOp7
 70
     1
102
RTVSPropertyOp8
 70
     1
102
RTVSPropertyOp9
 70
     1
102
RTVSPropertyOp10
 70
     1
102
RTVSPropertyOp11
 70
     1
102
RTVSPropertyOp12
 70
     1
102
RTVSPropertyOp13
 70
     1
102
RTVSPropertyOp14
 70
     1
102
RTVSPropertyOp15
 70
     1
102
RTVSPropertyOp16
 70
     1
102
RTVSPropertyOp17
 70
     1
102
RTVSPropertyOp18
 70
     1
102
RTVSPropertyOp19
 70
     1
102
RTVSPropertyOp20
 70
     1
102
RTVSPropertyOp21
 70
     1
102
RTVSPropertyOp22
 70
     1
102
RTVSPropertyOp23
 70
     1
102
RTVSPropertyOp24
 70
     1
102
RTVSPropertyOp25
 70
     1
102
RTVSPropertyOp26
 70
     1
102
RTVSPropertyOp27
 70
     1
102
RTVSPropertyOp28
 70
     1
102
RTVSPropertyOp29
 70
     1
102
RTVSPropertyOp30
 70
     1
102
RTVSPropertyOp31
 70
     1
102
RTVSPropertyOp32
 70
     1
102
RTVSPropertyOp33
 70
     1
102
RTVSPropertyOp34
 70
     1
102
RTVSPropertyOp35
 70
     1
102
RTVSPropertyOp36
 70
     1
102
RTVSPropertyOp37
 70
     1
102
RTVSPropertyOp38
 70
     1
102
RTVSPropertyOp39
 70
     1
102
RTVSPropertyOp40
 70
     1
102
RTVSPropertyOp41
 70
     1
102
RTVSPropertyOp42
 70
     1
102
RTVSPropertyOp43
 70
     1
102
RTVSPropertyOp44
 70
     1
102
RTVSPropertyOp45
 70
     1
102
RTVSPropertyOp46
 70
     1
102
RTVSPropertyOp47
 70
     1
102
RTVSPropertyOp48
 70
     1
102
RTVSPropertyOp49
 70
     1
102
RTVSPropertyOp50
 70
     1
102
RTVSPropertyOp51
 70
     0
102
RTVSPropertyOp52
 70
     0
102
RTVSPropertyOp53
 70
     1
102
RTVSPropertyOp54
 70
     1
102
RTVSPropertyOp55
 70
     1
102
RTVSPropertyOp56
 70
     1
102
RTVSPropertyOp57
 70
     1
102
RTVSPropertyOp58
 70
     1
102
RTVSPropertyOp59
 70
     1
102
RTVSPropertyOp60
 70
     1
102
RTVSPropertyOp61
 70
     1
102
RTVSPropertyOp62
 70
     1
  0
XRECORD
  5
BC94
102
{ACAD_REACTORS
330
BC93
102
}
330
BC93
100
AcDbXrecord
280
     1
102
RTVSPost2010Prop28
280
     0
102
RTVSPost2010PropOp28
 70
     1
102
RTVSPost2010Prop29
280
     1
102
RTVSPost2010PropOp29
 70
     1
102
RTVSPost2010Prop30
280
     1
102
RTVSPost2010PropOp30
 70
     1
102
RTVSPost2010Prop31
280
     0
102
RTVSPost2010PropOp31
 70
     1
102
RTVSPost2010Prop32
280
     0
102
RTVSPost2010PropOp32
 70
     1
102
RTVSPost2010Prop33
280
     0
102
RTVSPost2010PropOp33
 70
     1
102
RTVSPost2010Prop34
280
     0
102
RTVSPost2010PropOp34
 70
     1
102
RTVSPost2010Prop35
280
     0
102
RTVSPost2010PropOp35
 70
     1
102
RTVSPost2010Prop36
280
     0
102
RTVSPost2010PropOp36
 70
     1
102
RTVSPost2010Prop37
 90
       50
102
RTVSPost2010PropOp37
 70
     1
102
RTVSPost2010Prop38
140
0.0
102
RTVSPost2010PropOp38
 70
     1
102
RTVSPost2010Prop39
140
1.0
102
RTVSPost2010PropOp39
 70
     1
102
RTVSPost2010Prop40
 90
        0
102
RTVSPost2010PropOp40
 70
     1
102
RTVSPost2010Prop41ColorIndex
 90
       18
102
RTVSPost2010Prop41ColorRGB
 90
        0
102
RTVSPost2010PropOp41
 70
     1
102
RTVSPost2010Prop42
 90
       50
102
RTVSPost2010PropOp42
 70
     1
102
RTVSPost2010Prop43
 90
        3
102
RTVSPost2010PropOp43
 70
     1
102
RTVSPost2010Prop44ColorIndex
 90
        5
102
RTVSPost2010Prop44ColorRGB
 90
      255
102
RTVSPost2010PropOp44
 70
     1
102
RTVSPost2010Prop45
280
     0
102
RTVSPost2010PropOp45
 70
     1
102
RTVSPost2010Prop46
 90
       50
102
RTVSPost2010PropOp46
 70
     1
102
RTVSPost2010Prop47
 90
       50
102
RTVSPost2010PropOp47
 70
     1
102
RTVSPost2010Prop48
 90
       50
102
RTVSPost2010PropOp48
 70
     1
102
RTVSPost2010Prop49
280
     0
102
RTVSPost2010PropOp49
 70
     1
102
RTVSPost2010Prop50
 90
       50
102
RTVSPost2010PropOp50
 70
     1
102
RTVSPost2010Prop51ColorIndex
 90
      256
102
RTVSPost2010Prop51ColorRGB
 90
-16777216
102
RTVSPost2010PropOp51
 70
     0
102
RTVSPost2010Prop52
140
1.0
102
RTVSPost2010PropOp52
 70
     0
102
RTVSPost2010Prop53
 90
        2
102
RTVSPost2010PropOp53
 70
     1
102
RTVSPost2010Prop54
  1
strokes_ogs.tif
102
RTVSPost2010PropOp54
 70
     1
102
RTVSPost2010Prop55
280
     0
102
RTVSPost2010PropOp55
 70
     1
102
RTVSPost2010Prop56
140
1.0
102
RTVSPost2010PropOp56
 70
     1
102
RTVSPost2010Prop57
140
1.0
102
RTVSPost2010PropOp57
 70
     1
102
RTVSPropertyOp0
 70
     1
102
RTVSPropertyOp1
 70
     1
102
RTVSPropertyOp2
 70
     1
102
RTVSPropertyOp3
 70
     1
102
RTVSPropertyOp4
 70
     1
102
RTVSPropertyOp5
 70
     1
102
RTVSPropertyOp6
 70
     1
102
RTVSPropertyOp7
 70
     1
102
RTVSPropertyOp8
 70
     1
102
RTVSPropertyOp9
 70
     1
102
RTVSPropertyOp10
 70
     1
102
RTVSPropertyOp11
 70
     1
102
RTVSPropertyOp12
 70
     1
102
RTVSPropertyOp13
 70
     1
102
RTVSPropertyOp14
 70
     1
102
RTVSPropertyOp15
 70
     1
102
RTVSPropertyOp16
 70
     1
102
RTVSPropertyOp17
 70
     1
102
RTVSPropertyOp18
 70
     1
102
RTVSPropertyOp19
 70
     1
102
RTVSPropertyOp20
 70
     1
102
RTVSPropertyOp21
 70
     1
102
RTVSPropertyOp22
 70
     1
102
RTVSPropertyOp23
 70
     1
102
RTVSPropertyOp24
 70
     1
102
RTVSPropertyOp25
 70
     1
102
RTVSPropertyOp26
 70
     1
102
RTVSPropertyOp27
 70
     1
102
RTVSPropertyOp28
 70
     1
102
RTVSPropertyOp29
 70
     1
102
RTVSPropertyOp30
 70
     1
102
RTVSPropertyOp31
 70
     1
102
RTVSPropertyOp32
 70
     1
102
RTVSPropertyOp33
 70
     1
102
RTVSPropertyOp34
 70
     1
102
RTVSPropertyOp35
 70
     1
102
RTVSPropertyOp36
 70
     1
102
RTVSPropertyOp37
 70
     1
102
RTVSPropertyOp38
 70
     1
102
RTVSPropertyOp39
 70
     1
102
RTVSPropertyOp40
 70
     1
102
RTVSPropertyOp41
 70
     1
102
RTVSPropertyOp42
 70
     1
102
RTVSPropertyOp43
 70
     1
102
RTVSPropertyOp44
 70
     1
102
RTVSPropertyOp45
 70
     1
102
RTVSPropertyOp46
 70
     1
102
RTVSPropertyOp47
 70
     1
102
RTVSPropertyOp48
 70
     1
102
RTVSPropertyOp49
 70
     1
102
RTVSPropertyOp50
 70
     1
102
RTVSPropertyOp51
 70
     0
102
RTVSPropertyOp52
 70
     0
102
RTVSPropertyOp53
 70
     1
102
RTVSPropertyOp54
 70
     1
102
RTVSPropertyOp55
 70
     1
102
RTVSPropertyOp56
 70
     1
102
RTVSPropertyOp57
 70
     1
102
RTVSPropertyOp58
 70
     1
102
RTVSPropertyOp59
 70
     1
102
RTVSPropertyOp60
 70
     1
102
RTVSPropertyOp61
 70
     1
102
RTVSPropertyOp62
 70
     1
  0
XRECORD
  5
BC96
102
{ACAD_REACTORS
330
BC95
102
}
330
BC95
100
AcDbXrecord
280
     1
102
RTVSPost2010Prop28
280
     0
102
RTVSPost2010PropOp28
 70
     1
102
RTVSPost2010Prop29
280
     1
102
RTVSPost2010PropOp29
 70
     1
102
RTVSPost2010Prop30
280
     1
102
RTVSPost2010PropOp30
 70
     1
102
RTVSPost2010Prop31
280
     0
102
RTVSPost2010PropOp31
 70
     1
102
RTVSPost2010Prop32
280
     0
102
RTVSPost2010PropOp32
 70
     1
102
RTVSPost2010Prop33
280
     0
102
RTVSPost2010PropOp33
 70
     1
102
RTVSPost2010Prop34
280
     0
102
RTVSPost2010PropOp34
 70
     1
102
RTVSPost2010Prop35
280
     0
102
RTVSPost2010PropOp35
 70
     1
102
RTVSPost2010Prop36
280
     0
102
RTVSPost2010PropOp36
 70
     1
102
RTVSPost2010Prop37
 90
       50
102
RTVSPost2010PropOp37
 70
     1
102
RTVSPost2010Prop38
140
0.0
102
RTVSPost2010PropOp38
 70
     1
102
RTVSPost2010Prop39
140
1.0
102
RTVSPost2010PropOp39
 70
     1
102
RTVSPost2010Prop40
 90
        0
102
RTVSPost2010PropOp40
 70
     1
102
RTVSPost2010Prop41ColorIndex
 90
       18
102
RTVSPost2010Prop41ColorRGB
 90
        0
102
RTVSPost2010PropOp41
 70
     1
102
RTVSPost2010Prop42
 90
       50
102
RTVSPost2010PropOp42
 70
     1
102
RTVSPost2010Prop43
 90
        3
102
RTVSPost2010PropOp43
 70
     1
102
RTVSPost2010Prop44ColorIndex
 90
        5
102
RTVSPost2010Prop44ColorRGB
 90
      255
102
RTVSPost2010PropOp44
 70
     1
102
RTVSPost2010Prop45
280
     0
102
RTVSPost2010PropOp45
 70
     1
102
RTVSPost2010Prop46
 90
       50
102
RTVSPost2010PropOp46
 70
     1
102
RTVSPost2010Prop47
 90
       50
102
RTVSPost2010PropOp47
 70
     1
102
RTVSPost2010Prop48
 90
       50
102
RTVSPost2010PropOp48
 70
     1
102
RTVSPost2010Prop49
280
     0
102
RTVSPost2010PropOp49
 70
     1
102
RTVSPost2010Prop50
 90
       50
102
RTVSPost2010PropOp50
 70
     1
102
RTVSPost2010Prop51ColorIndex
 90
      256
102
RTVSPost2010Prop51ColorRGB
 90
-16777216
102
RTVSPost2010PropOp51
 70
     0
102
RTVSPost2010Prop52
140
1.0
102
RTVSPost2010PropOp52
 70
     0
102
RTVSPost2010Prop53
 90
        2
102
RTVSPost2010PropOp53
 70
     1
102
RTVSPost2010Prop54
  1
strokes_ogs.tif
102
RTVSPost2010PropOp54
 70
     1
102
RTVSPost2010Prop55
280
     0
102
RTVSPost2010PropOp55
 70
     1
102
RTVSPost2010Prop56
140
1.0
102
RTVSPost2010PropOp56
 70
     1
102
RTVSPost2010Prop57
140
1.0
102
RTVSPost2010PropOp57
 70
     1
102
RTVSPropertyOp0
 70
     1
102
RTVSPropertyOp1
 70
     1
102
RTVSPropertyOp2
 70
     1
102
RTVSPropertyOp3
 70
     1
102
RTVSPropertyOp4
 70
     1
102
RTVSPropertyOp5
 70
     1
102
RTVSPropertyOp6
 70
     1
102
RTVSPropertyOp7
 70
     1
102
RTVSPropertyOp8
 70
     1
102
RTVSPropertyOp9
 70
     1
102
RTVSPropertyOp10
 70
     1
102
RTVSPropertyOp11
 70
     1
102
RTVSPropertyOp12
 70
     1
102
RTVSPropertyOp13
 70
     1
102
RTVSPropertyOp14
 70
     1
102
RTVSPropertyOp15
 70
     1
102
RTVSPropertyOp16
 70
     1
102
RTVSPropertyOp17
 70
     1
102
RTVSPropertyOp18
 70
     1
102
RTVSPropertyOp19
 70
     1
102
RTVSPropertyOp20
 70
     1
102
RTVSPropertyOp21
 70
     1
102
RTVSPropertyOp22
 70
     1
102
RTVSPropertyOp23
 70
     1
102
RTVSPropertyOp24
 70
     1
102
RTVSPropertyOp25
 70
     1
102
RTVSPropertyOp26
 70
     1
102
RTVSPropertyOp27
 70
     1
102
RTVSPropertyOp28
 70
     1
102
RTVSPropertyOp29
 70
     1
102
RTVSPropertyOp30
 70
     1
102
RTVSPropertyOp31
 70
     1
102
RTVSPropertyOp32
 70
     1
102
RTVSPropertyOp33
 70
     1
102
RTVSPropertyOp34
 70
     1
102
RTVSPropertyOp35
 70
     1
102
RTVSPropertyOp36
 70
     1
102
RTVSPropertyOp37
 70
     1
102
RTVSPropertyOp38
 70
     1
102
RTVSPropertyOp39
 70
     1
102
RTVSPropertyOp40
 70
     1
102
RTVSPropertyOp41
 70
     1
102
RTVSPropertyOp42
 70
     1
102
RTVSPropertyOp43
 70
     1
102
RTVSPropertyOp44
 70
     1
102
RTVSPropertyOp45
 70
     1
102
RTVSPropertyOp46
 70
     1
102
RTVSPropertyOp47
 70
     1
102
RTVSPropertyOp48
 70
     1
102
RTVSPropertyOp49
 70
     1
102
RTVSPropertyOp50
 70
     1
102
RTVSPropertyOp51
 70
     0
102
RTVSPropertyOp52
 70
     0
102
RTVSPropertyOp53
 70
     1
102
RTVSPropertyOp54
 70
     1
102
RTVSPropertyOp55
 70
     1
102
RTVSPropertyOp56
 70
     1
102
RTVSPropertyOp57
 70
     1
102
RTVSPropertyOp58
 70
     1
102
RTVSPropertyOp59
 70
     1
102
RTVSPropertyOp60
 70
     1
102
RTVSPropertyOp61
 70
     1
102
RTVSPropertyOp62
 70
     1
  0
XRECORD
  5
BC98
102
{ACAD_REACTORS
330
BC97
102
}
330
BC97
100
AcDbXrecord
280
     1
102
RTVSPost2010Prop28
280
     0
102
RTVSPost2010PropOp28
 70
     1
102
RTVSPost2010Prop29
280
     1
102
RTVSPost2010PropOp29
 70
     1
102
RTVSPost2010Prop30
280
     1
102
RTVSPost2010PropOp30
 70
     1
102
RTVSPost2010Prop31
280
     0
102
RTVSPost2010PropOp31
 70
     1
102
RTVSPost2010Prop32
280
     0
102
RTVSPost2010PropOp32
 70
     1
102
RTVSPost2010Prop33
280
     0
102
RTVSPost2010PropOp33
 70
     1
102
RTVSPost2010Prop34
280
     0
102
RTVSPost2010PropOp34
 70
     1
102
RTVSPost2010Prop35
280
     0
102
RTVSPost2010PropOp35
 70
     1
102
RTVSPost2010Prop36
280
     0
102
RTVSPost2010PropOp36
 70
     1
102
RTVSPost2010Prop37
 90
       50
102
RTVSPost2010PropOp37
 70
     1
102
RTVSPost2010Prop38
140
0.0
102
RTVSPost2010PropOp38
 70
     1
102
RTVSPost2010Prop39
140
1.0
102
RTVSPost2010PropOp39
 70
     1
102
RTVSPost2010Prop40
 90
        0
102
RTVSPost2010PropOp40
 70
     1
102
RTVSPost2010Prop41ColorIndex
 90
       18
102
RTVSPost2010Prop41ColorRGB
 90
        0
102
RTVSPost2010PropOp41
 70
     1
102
RTVSPost2010Prop42
 90
       50
102
RTVSPost2010PropOp42
 70
     1
102
RTVSPost2010Prop43
 90
        3
102
RTVSPost2010PropOp43
 70
     1
102
RTVSPost2010Prop44ColorIndex
 90
        5
102
RTVSPost2010Prop44ColorRGB
 90
      255
102
RTVSPost2010PropOp44
 70
     1
102
RTVSPost2010Prop45
280
     0
102
RTVSPost2010PropOp45
 70
     1
102
RTVSPost2010Prop46
 90
       50
102
RTVSPost2010PropOp46
 70
     1
102
RTVSPost2010Prop47
 90
       50
102
RTVSPost2010PropOp47
 70
     1
102
RTVSPost2010Prop48
 90
       50
102
RTVSPost2010PropOp48
 70
     1
102
RTVSPost2010Prop49
280
     0
102
RTVSPost2010PropOp49
 70
     1
102
RTVSPost2010Prop50
 90
       50
102
RTVSPost2010PropOp50
 70
     1
102
RTVSPost2010Prop51ColorIndex
 90
      256
102
RTVSPost2010Prop51ColorRGB
 90
-16777216
102
RTVSPost2010PropOp51
 70
     0
102
RTVSPost2010Prop52
140
1.0
102
RTVSPost2010PropOp52
 70
     0
102
RTVSPost2010Prop53
 90
        2
102
RTVSPost2010PropOp53
 70
     1
102
RTVSPost2010Prop54
  1
strokes_ogs.tif
102
RTVSPost2010PropOp54
 70
     1
102
RTVSPost2010Prop55
280
     0
102
RTVSPost2010PropOp55
 70
     1
102
RTVSPost2010Prop56
140
1.0
102
RTVSPost2010PropOp56
 70
     1
102
RTVSPost2010Prop57
140
1.0
102
RTVSPost2010PropOp57
 70
     1
102
RTVSPropertyOp0
 70
     1
102
RTVSPropertyOp1
 70
     1
102
RTVSPropertyOp2
 70
     1
102
RTVSPropertyOp3
 70
     1
102
RTVSPropertyOp4
 70
     1
102
RTVSPropertyOp5
 70
     1
102
RTVSPropertyOp6
 70
     1
102
RTVSPropertyOp7
 70
     1
102
RTVSPropertyOp8
 70
     1
102
RTVSPropertyOp9
 70
     1
102
RTVSPropertyOp10
 70
     1
102
RTVSPropertyOp11
 70
     1
102
RTVSPropertyOp12
 70
     1
102
RTVSPropertyOp13
 70
     1
102
RTVSPropertyOp14
 70
     1
102
RTVSPropertyOp15
 70
     1
102
RTVSPropertyOp16
 70
     1
102
RTVSPropertyOp17
 70
     1
102
RTVSPropertyOp18
 70
     1
102
RTVSPropertyOp19
 70
     1
102
RTVSPropertyOp20
 70
     1
102
RTVSPropertyOp21
 70
     1
102
RTVSPropertyOp22
 70
     1
102
RTVSPropertyOp23
 70
     1
102
RTVSPropertyOp24
 70
     1
102
RTVSPropertyOp25
 70
     1
102
RTVSPropertyOp26
 70
     1
102
RTVSPropertyOp27
 70
     1
102
RTVSPropertyOp28
 70
     1
102
RTVSPropertyOp29
 70
     1
102
RTVSPropertyOp30
 70
     1
102
RTVSPropertyOp31
 70
     1
102
RTVSPropertyOp32
 70
     1
102
RTVSPropertyOp33
 70
     1
102
RTVSPropertyOp34
 70
     1
102
RTVSPropertyOp35
 70
     1
102
RTVSPropertyOp36
 70
     1
102
RTVSPropertyOp37
 70
     1
102
RTVSPropertyOp38
 70
     1
102
RTVSPropertyOp39
 70
     1
102
RTVSPropertyOp40
 70
     1
102
RTVSPropertyOp41
 70
     1
102
RTVSPropertyOp42
 70
     1
102
RTVSPropertyOp43
 70
     1
102
RTVSPropertyOp44
 70
     1
102
RTVSPropertyOp45
 70
     1
102
RTVSPropertyOp46
 70
     1
102
RTVSPropertyOp47
 70
     1
102
RTVSPropertyOp48
 70
     1
102
RTVSPropertyOp49
 70
     1
102
RTVSPropertyOp50
 70
     1
102
RTVSPropertyOp51
 70
     0
102
RTVSPropertyOp52
 70
     0
102
RTVSPropertyOp53
 70
     1
102
RTVSPropertyOp54
 70
     1
102
RTVSPropertyOp55
 70
     1
102
RTVSPropertyOp56
 70
     1
102
RTVSPropertyOp57
 70
     1
102
RTVSPropertyOp58
 70
     1
102
RTVSPropertyOp59
 70
     1
102
RTVSPropertyOp60
 70
     1
102
RTVSPropertyOp61
 70
     1
102
RTVSPropertyOp62
 70
     1
  0
XRECORD
  5
BC9A
102
{ACAD_REACTORS
330
BC99
102
}
330
BC99
100
AcDbXrecord
280
     1
102
RTVSPost2010Prop28
280
     0
102
RTVSPost2010PropOp28
 70
     1
102
RTVSPost2010Prop29
280
     1
102
RTVSPost2010PropOp29
 70
     1
102
RTVSPost2010Prop30
280
     1
102
RTVSPost2010PropOp30
 70
     1
102
RTVSPost2010Prop31
280
     0
102
RTVSPost2010PropOp31
 70
     1
102
RTVSPost2010Prop32
280
     0
102
RTVSPost2010PropOp32
 70
     1
102
RTVSPost2010Prop33
280
     0
102
RTVSPost2010PropOp33
 70
     1
102
RTVSPost2010Prop34
280
     0
102
RTVSPost2010PropOp34
 70
     1
102
RTVSPost2010Prop35
280
     0
102
RTVSPost2010PropOp35
 70
     1
102
RTVSPost2010Prop36
280
     0
102
RTVSPost2010PropOp36
 70
     1
102
RTVSPost2010Prop37
 90
       50
102
RTVSPost2010PropOp37
 70
     1
102
RTVSPost2010Prop38
140
0.0
102
RTVSPost2010PropOp38
 70
     1
102
RTVSPost2010Prop39
140
1.0
102
RTVSPost2010PropOp39
 70
     1
102
RTVSPost2010Prop40
 90
        0
102
RTVSPost2010PropOp40
 70
     1
102
RTVSPost2010Prop41ColorIndex
 90
       18
102
RTVSPost2010Prop41ColorRGB
 90
        0
102
RTVSPost2010PropOp41
 70
     1
102
RTVSPost2010Prop42
 90
       50
102
RTVSPost2010PropOp42
 70
     1
102
RTVSPost2010Prop43
 90
        3
102
RTVSPost2010PropOp43
 70
     1
102
RTVSPost2010Prop44ColorIndex
 90
        5
102
RTVSPost2010Prop44ColorRGB
 90
      255
102
RTVSPost2010PropOp44
 70
     1
102
RTVSPost2010Prop45
280
     0
102
RTVSPost2010PropOp45
 70
     1
102
RTVSPost2010Prop46
 90
       50
102
RTVSPost2010PropOp46
 70
     1
102
RTVSPost2010Prop47
 90
       50
102
RTVSPost2010PropOp47
 70
     1
102
RTVSPost2010Prop48
 90
       50
102
RTVSPost2010PropOp48
 70
     1
102
RTVSPost2010Prop49
280
     0
102
RTVSPost2010PropOp49
 70
     1
102
RTVSPost2010Prop50
 90
       50
102
RTVSPost2010PropOp50
 70
     1
102
RTVSPost2010Prop51ColorIndex
 90
      256
102
RTVSPost2010Prop51ColorRGB
 90
-16777216
102
RTVSPost2010PropOp51
 70
     0
102
RTVSPost2010Prop52
140
1.0
102
RTVSPost2010PropOp52
 70
     0
102
RTVSPost2010Prop53
 90
        2
102
RTVSPost2010PropOp53
 70
     1
102
RTVSPost2010Prop54
  1
strokes_ogs.tif
102
RTVSPost2010PropOp54
 70
     1
102
RTVSPost2010Prop55
280
     0
102
RTVSPost2010PropOp55
 70
     1
102
RTVSPost2010Prop56
140
1.0
102
RTVSPost2010PropOp56
 70
     1
102
RTVSPost2010Prop57
140
1.0
102
RTVSPost2010PropOp57
 70
     1
102
RTVSPropertyOp0
 70
     1
102
RTVSPropertyOp1
 70
     1
102
RTVSPropertyOp2
 70
     1
102
RTVSPropertyOp3
 70
     1
102
RTVSPropertyOp4
 70
     1
102
RTVSPropertyOp5
 70
     1
102
RTVSPropertyOp6
 70
     1
102
RTVSPropertyOp7
 70
     1
102
RTVSPropertyOp8
 70
     1
102
RTVSPropertyOp9
 70
     1
102
RTVSPropertyOp10
 70
     1
102
RTVSPropertyOp11
 70
     1
102
RTVSPropertyOp12
 70
     1
102
RTVSPropertyOp13
 70
     1
102
RTVSPropertyOp14
 70
     1
102
RTVSPropertyOp15
 70
     1
102
RTVSPropertyOp16
 70
     1
102
RTVSPropertyOp17
 70
     1
102
RTVSPropertyOp18
 70
     1
102
RTVSPropertyOp19
 70
     1
102
RTVSPropertyOp20
 70
     1
102
RTVSPropertyOp21
 70
     1
102
RTVSPropertyOp22
 70
     1
102
RTVSPropertyOp23
 70
     1
102
RTVSPropertyOp24
 70
     1
102
RTVSPropertyOp25
 70
     1
102
RTVSPropertyOp26
 70
     1
102
RTVSPropertyOp27
 70
     1
102
RTVSPropertyOp28
 70
     1
102
RTVSPropertyOp29
 70
     1
102
RTVSPropertyOp30
 70
     1
102
RTVSPropertyOp31
 70
     1
102
RTVSPropertyOp32
 70
     1
102
RTVSPropertyOp33
 70
     1
102
RTVSPropertyOp34
 70
     1
102
RTVSPropertyOp35
 70
     1
102
RTVSPropertyOp36
 70
     1
102
RTVSPropertyOp37
 70
     1
102
RTVSPropertyOp38
 70
     1
102
RTVSPropertyOp39
 70
     1
102
RTVSPropertyOp40
 70
     1
102
RTVSPropertyOp41
 70
     1
102
RTVSPropertyOp42
 70
     1
102
RTVSPropertyOp43
 70
     1
102
RTVSPropertyOp44
 70
     1
102
RTVSPropertyOp45
 70
     1
102
RTVSPropertyOp46
 70
     1
102
RTVSPropertyOp47
 70
     1
102
RTVSPropertyOp48
 70
     1
102
RTVSPropertyOp49
 70
     1
102
RTVSPropertyOp50
 70
     1
102
RTVSPropertyOp51
 70
     0
102
RTVSPropertyOp52
 70
     0
102
RTVSPropertyOp53
 70
     1
102
RTVSPropertyOp54
 70
     1
102
RTVSPropertyOp55
 70
     1
102
RTVSPropertyOp56
 70
     1
102
RTVSPropertyOp57
 70
     1
102
RTVSPropertyOp58
 70
     1
102
RTVSPropertyOp59
 70
     1
102
RTVSPropertyOp60
 70
     1
102
RTVSPropertyOp61
 70
     1
102
RTVSPropertyOp62
 70
     1
  0
XRECORD
  5
BCA2
102
{ACAD_REACTORS
330
BCA1
102
}
330
BCA1
100
AcDbXrecord
280
     1
102
RTVSPost2010Prop28
280
     0
102
RTVSPost2010PropOp28
 70
     1
102
RTVSPost2010Prop29
280
     1
102
RTVSPost2010PropOp29
 70
     1
102
RTVSPost2010Prop30
280
     1
102
RTVSPost2010PropOp30
 70
     1
102
RTVSPost2010Prop31
280
     0
102
RTVSPost2010PropOp31
 70
     1
102
RTVSPost2010Prop32
280
     0
102
RTVSPost2010PropOp32
 70
     1
102
RTVSPost2010Prop33
280
     0
102
RTVSPost2010PropOp33
 70
     1
102
RTVSPost2010Prop34
280
     0
102
RTVSPost2010PropOp34
 70
     1
102
RTVSPost2010Prop35
280
     0
102
RTVSPost2010PropOp35
 70
     1
102
RTVSPost2010Prop36
280
     0
102
RTVSPost2010PropOp36
 70
     1
102
RTVSPost2010Prop37
 90
       50
102
RTVSPost2010PropOp37
 70
     1
102
RTVSPost2010Prop38
140
0.0
102
RTVSPost2010PropOp38
 70
     1
102
RTVSPost2010Prop39
140
1.0
102
RTVSPost2010PropOp39
 70
     1
102
RTVSPost2010Prop40
 90
        0
102
RTVSPost2010PropOp40
 70
     1
102
RTVSPost2010Prop41ColorIndex
 90
       18
102
RTVSPost2010Prop41ColorRGB
 90
        0
102
RTVSPost2010PropOp41
 70
     1
102
RTVSPost2010Prop42
 90
       50
102
RTVSPost2010PropOp42
 70
     1
102
RTVSPost2010Prop43
 90
        3
102
RTVSPost2010PropOp43
 70
     1
102
RTVSPost2010Prop44ColorIndex
 90
        5
102
RTVSPost2010Prop44ColorRGB
 90
      255
102
RTVSPost2010PropOp44
 70
     1
102
RTVSPost2010Prop45
280
     0
102
RTVSPost2010PropOp45
 70
     1
102
RTVSPost2010Prop46
 90
       50
102
RTVSPost2010PropOp46
 70
     1
102
RTVSPost2010Prop47
 90
       50
102
RTVSPost2010PropOp47
 70
     1
102
RTVSPost2010Prop48
 90
       50
102
RTVSPost2010PropOp48
 70
     1
102
RTVSPost2010Prop49
280
     0
102
RTVSPost2010PropOp49
 70
     1
102
RTVSPost2010Prop50
 90
       50
102
RTVSPost2010PropOp50
 70
     1
102
RTVSPost2010Prop51ColorIndex
 90
      256
102
RTVSPost2010Prop51ColorRGB
 90
-16777216
102
RTVSPost2010PropOp51
 70
     0
102
RTVSPost2010Prop52
140
1.0
102
RTVSPost2010PropOp52
 70
     0
102
RTVSPost2010Prop53
 90
        2
102
RTVSPost2010PropOp53
 70
     1
102
RTVSPost2010Prop54
  1
strokes_ogs.tif
102
RTVSPost2010PropOp54
 70
     1
102
RTVSPost2010Prop55
280
     0
102
RTVSPost2010PropOp55
 70
     1
102
RTVSPost2010Prop56
140
1.0
102
RTVSPost2010PropOp56
 70
     1
102
RTVSPost2010Prop57
140
1.0
102
RTVSPost2010PropOp57
 70
     1
102
RTVSPropertyOp0
 70
     1
102
RTVSPropertyOp1
 70
     1
102
RTVSPropertyOp2
 70
     1
102
RTVSPropertyOp3
 70
     1
102
RTVSPropertyOp4
 70
     1
102
RTVSPropertyOp5
 70
     1
102
RTVSPropertyOp6
 70
     1
102
RTVSPropertyOp7
 70
     1
102
RTVSPropertyOp8
 70
     1
102
RTVSPropertyOp9
 70
     1
102
RTVSPropertyOp10
 70
     1
102
RTVSPropertyOp11
 70
     1
102
RTVSPropertyOp12
 70
     1
102
RTVSPropertyOp13
 70
     1
102
RTVSPropertyOp14
 70
     1
102
RTVSPropertyOp15
 70
     1
102
RTVSPropertyOp16
 70
     1
102
RTVSPropertyOp17
 70
     1
102
RTVSPropertyOp18
 70
     1
102
RTVSPropertyOp19
 70
     1
102
RTVSPropertyOp20
 70
     1
102
RTVSPropertyOp21
 70
     1
102
RTVSPropertyOp22
 70
     1
102
RTVSPropertyOp23
 70
     1
102
RTVSPropertyOp24
 70
     1
102
RTVSPropertyOp25
 70
     1
102
RTVSPropertyOp26
 70
     1
102
RTVSPropertyOp27
 70
     1
102
RTVSPropertyOp28
 70
     1
102
RTVSPropertyOp29
 70
     1
102
RTVSPropertyOp30
 70
     1
102
RTVSPropertyOp31
 70
     1
102
RTVSPropertyOp32
 70
     1
102
RTVSPropertyOp33
 70
     1
102
RTVSPropertyOp34
 70
     1
102
RTVSPropertyOp35
 70
     1
102
RTVSPropertyOp36
 70
     1
102
RTVSPropertyOp37
 70
     1
102
RTVSPropertyOp38
 70
     1
102
RTVSPropertyOp39
 70
     1
102
RTVSPropertyOp40
 70
     1
102
RTVSPropertyOp41
 70
     1
102
RTVSPropertyOp42
 70
     1
102
RTVSPropertyOp43
 70
     1
102
RTVSPropertyOp44
 70
     1
102
RTVSPropertyOp45
 70
     1
102
RTVSPropertyOp46
 70
     1
102
RTVSPropertyOp47
 70
     1
102
RTVSPropertyOp48
 70
     1
102
RTVSPropertyOp49
 70
     1
102
RTVSPropertyOp50
 70
     1
102
RTVSPropertyOp51
 70
     0
102
RTVSPropertyOp52
 70
     0
102
RTVSPropertyOp53
 70
     1
102
RTVSPropertyOp54
 70
     1
102
RTVSPropertyOp55
 70
     1
102
RTVSPropertyOp56
 70
     1
102
RTVSPropertyOp57
 70
     1
102
RTVSPropertyOp58
 70
     1
102
RTVSPropertyOp59
 70
     1
102
RTVSPropertyOp60
 70
     1
102
RTVSPropertyOp61
 70
     1
102
RTVSPropertyOp62
 70
     1
  0
XRECORD
  5
BCBE
102
{ACAD_REACTORS
330
BCBD
102
}
330
BCBD
100
AcDbXrecord
280
     1
102
RTVSPost2010Prop28
280
     0
102
RTVSPost2010PropOp28
 70
     1
102
RTVSPost2010Prop29
280
     1
102
RTVSPost2010PropOp29
 70
     1
102
RTVSPost2010Prop30
280
     1
102
RTVSPost2010PropOp30
 70
     1
102
RTVSPost2010Prop31
280
     0
102
RTVSPost2010PropOp31
 70
     1
102
RTVSPost2010Prop32
280
     0
102
RTVSPost2010PropOp32
 70
     1
102
RTVSPost2010Prop33
280
     0
102
RTVSPost2010PropOp33
 70
     1
102
RTVSPost2010Prop34
280
     0
102
RTVSPost2010PropOp34
 70
     1
102
RTVSPost2010Prop35
280
     0
102
RTVSPost2010PropOp35
 70
     1
102
RTVSPost2010Prop36
280
     0
102
RTVSPost2010PropOp36
 70
     1
102
RTVSPost2010Prop37
 90
       50
102
RTVSPost2010PropOp37
 70
     0
102
RTVSPost2010Prop38
140
0.0
102
RTVSPost2010PropOp38
 70
     0
102
RTVSPost2010Prop39
140
1.0
102
RTVSPost2010PropOp39
 70
     0
102
RTVSPost2010Prop40
 90
        0
102
RTVSPost2010PropOp40
 70
     0
102
RTVSPost2010Prop41ColorIndex
 90
       18
102
RTVSPost2010Prop41ColorRGB
 90
        0
102
RTVSPost2010PropOp41
 70
     0
102
RTVSPost2010Prop42
 90
       50
102
RTVSPost2010PropOp42
 70
     0
102
RTVSPost2010Prop43
 90
        3
102
RTVSPost2010PropOp43
 70
     0
102
RTVSPost2010Prop44ColorIndex
 90
        5
102
RTVSPost2010Prop44ColorRGB
 90
      255
102
RTVSPost2010PropOp44
 70
     0
102
RTVSPost2010Prop45
280
     0
102
RTVSPost2010PropOp45
 70
     1
102
RTVSPost2010Prop46
 90
       50
102
RTVSPost2010PropOp46
 70
     0
102
RTVSPost2010Prop47
 90
       50
102
RTVSPost2010PropOp47
 70
     0
102
RTVSPost2010Prop48
 90
       50
102
RTVSPost2010PropOp48
 70
     0
102
RTVSPost2010Prop49
280
     0
102
RTVSPost2010PropOp49
 70
     1
102
RTVSPost2010Prop50
 90
       50
102
RTVSPost2010PropOp50
 70
     0
102
RTVSPost2010Prop51ColorIndex
 90
      256
102
RTVSPost2010Prop51ColorRGB
 90
-16777216
102
RTVSPost2010PropOp51
 70
     0
102
RTVSPost2010Prop52
140
1.0
102
RTVSPost2010PropOp52
 70
     0
102
RTVSPost2010Prop53
 90
        2
102
RTVSPost2010PropOp53
 70
     0
102
RTVSPost2010Prop54
  1
strokes_ogs.tif
102
RTVSPost2010PropOp54
 70
     0
102
RTVSPost2010Prop55
280
     0
102
RTVSPost2010PropOp55
 70
     1
102
RTVSPost2010Prop56
140
1.0
102
RTVSPost2010PropOp56
 70
     0
102
RTVSPost2010Prop57
140
1.0
102
RTVSPost2010PropOp57
 70
     0
102
RTVSPropertyOp0
 70
     0
102
RTVSPropertyOp1
 70
     0
102
RTVSPropertyOp2
 70
     0
102
RTVSPropertyOp3
 70
     0
102
RTVSPropertyOp4
 70
     0
102
RTVSPropertyOp5
 70
     0
102
RTVSPropertyOp6
 70
     0
102
RTVSPropertyOp7
 70
     0
102
RTVSPropertyOp8
 70
     0
102
RTVSPropertyOp9
 70
     0
102
RTVSPropertyOp10
 70
     0
102
RTVSPropertyOp11
 70
     0
102
RTVSPropertyOp12
 70
     0
102
RTVSPropertyOp13
 70
     0
102
RTVSPropertyOp14
 70
     2
102
RTVSPropertyOp15
 70
     0
102
RTVSPropertyOp16
 70
     0
102
RTVSPropertyOp17
 70
     0
102
RTVSPropertyOp18
 70
     0
102
RTVSPropertyOp19
 70
     0
102
RTVSPropertyOp20
 70
     0
102
RTVSPropertyOp21
 70
     0
102
RTVSPropertyOp22
 70
     0
102
RTVSPropertyOp23
 70
     0
102
RTVSPropertyOp24
 70
     0
102
RTVSPropertyOp25
 70
     0
102
RTVSPropertyOp26
 70
     0
102
RTVSPropertyOp27
 70
     0
102
RTVSPropertyOp28
 70
     1
102
RTVSPropertyOp29
 70
     1
102
RTVSPropertyOp30
 70
     1
102
RTVSPropertyOp31
 70
     1
102
RTVSPropertyOp32
 70
     1
102
RTVSPropertyOp33
 70
     1
102
RTVSPropertyOp34
 70
     1
102
RTVSPropertyOp35
 70
     1
102
RTVSPropertyOp36
 70
     1
102
RTVSPropertyOp37
 70
     0
102
RTVSPropertyOp38
 70
     0
102
RTVSPropertyOp39
 70
     0
102
RTVSPropertyOp40
 70
     0
102
RTVSPropertyOp41
 70
     0
102
RTVSPropertyOp42
 70
     0
102
RTVSPropertyOp43
 70
     0
102
RTVSPropertyOp44
 70
     0
102
RTVSPropertyOp45
 70
     1
102
RTVSPropertyOp46
 70
     0
102
RTVSPropertyOp47
 70
     0
102
RTVSPropertyOp48
 70
     0
102
RTVSPropertyOp49
 70
     1
102
RTVSPropertyOp50
 70
     0
102
RTVSPropertyOp51
 70
     0
102
RTVSPropertyOp52
 70
     0
102
RTVSPropertyOp53
 70
     0
102
RTVSPropertyOp54
 70
     0
102
RTVSPropertyOp55
 70
     1
102
RTVSPropertyOp56
 70
     0
102
RTVSPropertyOp57
 70
     0
102
RTVSPropertyOp58
 70
     0
102
RTVSPropertyOp59
 70
     0
102
RTVSPropertyOp60
 70
     0
102
RTVSPropertyOp61
 70
     0
102
RTVSPropertyOp62
 70
     0
  0
XRECORD
  5
BCAE
102
{ACAD_REACTORS
330
BCAD
102
}
330
BCAD
100
AcDbXrecord
280
     1
102
RTVSPost2010Prop28
280
     0
102
RTVSPost2010PropOp28
 70
     1
102
RTVSPost2010Prop29
280
     1
102
RTVSPost2010PropOp29
 70
     1
102
RTVSPost2010Prop30
280
     1
102
RTVSPost2010PropOp30
 70
     1
102
RTVSPost2010Prop31
280
     0
102
RTVSPost2010PropOp31
 70
     1
102
RTVSPost2010Prop32
280
     0
102
RTVSPost2010PropOp32
 70
     1
102
RTVSPost2010Prop33
280
     0
102
RTVSPost2010PropOp33
 70
     1
102
RTVSPost2010Prop34
280
     0
102
RTVSPost2010PropOp34
 70
     1
102
RTVSPost2010Prop35
280
     0
102
RTVSPost2010PropOp35
 70
     1
102
RTVSPost2010Prop36
280
     0
102
RTVSPost2010PropOp36
 70
     1
102
RTVSPost2010Prop37
 90
       50
102
RTVSPost2010PropOp37
 70
     1
102
RTVSPost2010Prop38
140
0.0
102
RTVSPost2010PropOp38
 70
     1
102
RTVSPost2010Prop39
140
1.0
102
RTVSPost2010PropOp39
 70
     1
102
RTVSPost2010Prop40
 90
        0
102
RTVSPost2010PropOp40
 70
     1
102
RTVSPost2010Prop41ColorIndex
 90
       18
102
RTVSPost2010Prop41ColorRGB
 90
        0
102
RTVSPost2010PropOp41
 70
     1
102
RTVSPost2010Prop42
 90
       50
102
RTVSPost2010PropOp42
 70
     1
102
RTVSPost2010Prop43
 90
        3
102
RTVSPost2010PropOp43
 70
     1
102
RTVSPost2010Prop44ColorIndex
 90
        5
102
RTVSPost2010Prop44ColorRGB
 90
      255
102
RTVSPost2010PropOp44
 70
     1
102
RTVSPost2010Prop45
280
     0
102
RTVSPost2010PropOp45
 70
     1
102
RTVSPost2010Prop46
 90
       50
102
RTVSPost2010PropOp46
 70
     1
102
RTVSPost2010Prop47
 90
       50
102
RTVSPost2010PropOp47
 70
     1
102
RTVSPost2010Prop48
 90
       50
102
RTVSPost2010PropOp48
 70
     1
102
RTVSPost2010Prop49
280
     0
102
RTVSPost2010PropOp49
 70
     1
102
RTVSPost2010Prop50
 90
       50
102
RTVSPost2010PropOp50
 70
     1
102
RTVSPost2010Prop51ColorIndex
 90
      256
102
RTVSPost2010Prop51ColorRGB
 90
-16777216
102
RTVSPost2010PropOp51
 70
     0
102
RTVSPost2010Prop52
140
1.0
102
RTVSPost2010PropOp52
 70
     0
102
RTVSPost2010Prop53
 90
        2
102
RTVSPost2010PropOp53
 70
     1
102
RTVSPost2010Prop54
  1
strokes_ogs.tif
102
RTVSPost2010PropOp54
 70
     1
102
RTVSPost2010Prop55
280
     0
102
RTVSPost2010PropOp55
 70
     1
102
RTVSPost2010Prop56
140
1.0
102
RTVSPost2010PropOp56
 70
     1
102
RTVSPost2010Prop57
140
1.0
102
RTVSPost2010PropOp57
 70
     1
102
RTVSPropertyOp0
 70
     1
102
RTVSPropertyOp1
 70
     1
102
RTVSPropertyOp2
 70
     1
102
RTVSPropertyOp3
 70
     1
102
RTVSPropertyOp4
 70
     1
102
RTVSPropertyOp5
 70
     1
102
RTVSPropertyOp6
 70
     1
102
RTVSPropertyOp7
 70
     1
102
RTVSPropertyOp8
 70
     1
102
RTVSPropertyOp9
 70
     1
102
RTVSPropertyOp10
 70
     1
102
RTVSPropertyOp11
 70
     1
102
RTVSPropertyOp12
 70
     1
102
RTVSPropertyOp13
 70
     1
102
RTVSPropertyOp14
 70
     1
102
RTVSPropertyOp15
 70
     1
102
RTVSPropertyOp16
 70
     1
102
RTVSPropertyOp17
 70
     1
102
RTVSPropertyOp18
 70
     1
102
RTVSPropertyOp19
 70
     1
102
RTVSPropertyOp20
 70
     1
102
RTVSPropertyOp21
 70
     1
102
RTVSPropertyOp22
 70
     1
102
RTVSPropertyOp23
 70
     1
102
RTVSPropertyOp24
 70
     1
102
RTVSPropertyOp25
 70
     1
102
RTVSPropertyOp26
 70
     1
102
RTVSPropertyOp27
 70
     1
102
RTVSPropertyOp28
 70
     1
102
RTVSPropertyOp29
 70
     1
102
RTVSPropertyOp30
 70
     1
102
RTVSPropertyOp31
 70
     1
102
RTVSPropertyOp32
 70
     1
102
RTVSPropertyOp33
 70
     1
102
RTVSPropertyOp34
 70
     1
102
RTVSPropertyOp35
 70
     1
102
RTVSPropertyOp36
 70
     1
102
RTVSPropertyOp37
 70
     1
102
RTVSPropertyOp38
 70
     1
102
RTVSPropertyOp39
 70
     1
102
RTVSPropertyOp40
 70
     1
102
RTVSPropertyOp41
 70
     1
102
RTVSPropertyOp42
 70
     1
102
RTVSPropertyOp43
 70
     1
102
RTVSPropertyOp44
 70
     1
102
RTVSPropertyOp45
 70
     1
102
RTVSPropertyOp46
 70
     1
102
RTVSPropertyOp47
 70
     1
102
RTVSPropertyOp48
 70
     1
102
RTVSPropertyOp49
 70
     1
102
RTVSPropertyOp50
 70
     1
102
RTVSPropertyOp51
 70
     0
102
RTVSPropertyOp52
 70
     0
102
RTVSPropertyOp53
 70
     1
102
RTVSPropertyOp54
 70
     1
102
RTVSPropertyOp55
 70
     1
102
RTVSPropertyOp56
 70
     1
102
RTVSPropertyOp57
 70
     1
102
RTVSPropertyOp58
 70
     1
102
RTVSPropertyOp59
 70
     1
102
RTVSPropertyOp60
 70
     1
102
RTVSPropertyOp61
 70
     1
102
RTVSPropertyOp62
 70
     1
  0
XRECORD
  5
BCC0
102
{ACAD_REACTORS
330
BCBF
102
}
330
BCBF
100
AcDbXrecord
280
     1
102
RTVSPost2010Prop28
280
     0
102
RTVSPost2010PropOp28
 70
     1
102
RTVSPost2010Prop29
280
     1
102
RTVSPost2010PropOp29
 70
     1
102
RTVSPost2010Prop30
280
     1
102
RTVSPost2010PropOp30
 70
     1
102
RTVSPost2010Prop31
280
     0
102
RTVSPost2010PropOp31
 70
     1
102
RTVSPost2010Prop32
280
     0
102
RTVSPost2010PropOp32
 70
     1
102
RTVSPost2010Prop33
280
     0
102
RTVSPost2010PropOp33
 70
     1
102
RTVSPost2010Prop34
280
     0
102
RTVSPost2010PropOp34
 70
     1
102
RTVSPost2010Prop35
280
     0
102
RTVSPost2010PropOp35
 70
     1
102
RTVSPost2010Prop36
280
     0
102
RTVSPost2010PropOp36
 70
     1
102
RTVSPost2010Prop37
 90
       50
102
RTVSPost2010PropOp37
 70
     0
102
RTVSPost2010Prop38
140
0.0
102
RTVSPost2010PropOp38
 70
     0
102
RTVSPost2010Prop39
140
1.0
102
RTVSPost2010PropOp39
 70
     0
102
RTVSPost2010Prop40
 90
        0
102
RTVSPost2010PropOp40
 70
     0
102
RTVSPost2010Prop41ColorIndex
 90
       18
102
RTVSPost2010Prop41ColorRGB
 90
        0
102
RTVSPost2010PropOp41
 70
     0
102
RTVSPost2010Prop42
 90
       50
102
RTVSPost2010PropOp42
 70
     0
102
RTVSPost2010Prop43
 90
        3
102
RTVSPost2010PropOp43
 70
     0
102
RTVSPost2010Prop44ColorIndex
 90
        5
102
RTVSPost2010Prop44ColorRGB
 90
      255
102
RTVSPost2010PropOp44
 70
     0
102
RTVSPost2010Prop45
280
     0
102
RTVSPost2010PropOp45
 70
     1
102
RTVSPost2010Prop46
 90
       50
102
RTVSPost2010PropOp46
 70
     0
102
RTVSPost2010Prop47
 90
       50
102
RTVSPost2010PropOp47
 70
     0
102
RTVSPost2010Prop48
 90
       50
102
RTVSPost2010PropOp48
 70
     0
102
RTVSPost2010Prop49
280
     0
102
RTVSPost2010PropOp49
 70
     1
102
RTVSPost2010Prop50
 90
       50
102
RTVSPost2010PropOp50
 70
     0
102
RTVSPost2010Prop51ColorIndex
 90
      256
102
RTVSPost2010Prop51ColorRGB
 90
-16777216
102
RTVSPost2010PropOp51
 70
     0
102
RTVSPost2010Prop52
140
1.0
102
RTVSPost2010PropOp52
 70
     0
102
RTVSPost2010Prop53
 90
        2
102
RTVSPost2010PropOp53
 70
     0
102
RTVSPost2010Prop54
  1
strokes_ogs.tif
102
RTVSPost2010PropOp54
 70
     0
102
RTVSPost2010Prop55
280
     0
102
RTVSPost2010PropOp55
 70
     1
102
RTVSPost2010Prop56
140
1.0
102
RTVSPost2010PropOp56
 70
     0
102
RTVSPost2010Prop57
140
1.0
102
RTVSPost2010PropOp57
 70
     0
102
RTVSPropertyOp0
 70
     0
102
RTVSPropertyOp1
 70
     0
102
RTVSPropertyOp2
 70
     0
102
RTVSPropertyOp3
 70
     0
102
RTVSPropertyOp4
 70
     0
102
RTVSPropertyOp5
 70
     0
102
RTVSPropertyOp6
 70
     0
102
RTVSPropertyOp7
 70
     0
102
RTVSPropertyOp8
 70
     0
102
RTVSPropertyOp9
 70
     0
102
RTVSPropertyOp10
 70
     0
102
RTVSPropertyOp11
 70
     0
102
RTVSPropertyOp12
 70
     0
102
RTVSPropertyOp13
 70
     0
102
RTVSPropertyOp14
 70
     2
102
RTVSPropertyOp15
 70
     0
102
RTVSPropertyOp16
 70
     0
102
RTVSPropertyOp17
 70
     0
102
RTVSPropertyOp18
 70
     0
102
RTVSPropertyOp19
 70
     0
102
RTVSPropertyOp20
 70
     0
102
RTVSPropertyOp21
 70
     0
102
RTVSPropertyOp22
 70
     0
102
RTVSPropertyOp23
 70
     0
102
RTVSPropertyOp24
 70
     0
102
RTVSPropertyOp25
 70
     0
102
RTVSPropertyOp26
 70
     0
102
RTVSPropertyOp27
 70
     0
102
RTVSPropertyOp28
 70
     1
102
RTVSPropertyOp29
 70
     1
102
RTVSPropertyOp30
 70
     1
102
RTVSPropertyOp31
 70
     1
102
RTVSPropertyOp32
 70
     1
102
RTVSPropertyOp33
 70
     1
102
RTVSPropertyOp34
 70
     1
102
RTVSPropertyOp35
 70
     1
102
RTVSPropertyOp36
 70
     1
102
RTVSPropertyOp37
 70
     0
102
RTVSPropertyOp38
 70
     0
102
RTVSPropertyOp39
 70
     0
102
RTVSPropertyOp40
 70
     0
102
RTVSPropertyOp41
 70
     0
102
RTVSPropertyOp42
 70
     0
102
RTVSPropertyOp43
 70
     0
102
RTVSPropertyOp44
 70
     0
102
RTVSPropertyOp45
 70
     1
102
RTVSPropertyOp46
 70
     0
102
RTVSPropertyOp47
 70
     0
102
RTVSPropertyOp48
 70
     0
102
RTVSPropertyOp49
 70
     1
102
RTVSPropertyOp50
 70
     0
102
RTVSPropertyOp51
 70
     0
102
RTVSPropertyOp52
 70
     0
102
RTVSPropertyOp53
 70
     0
102
RTVSPropertyOp54
 70
     0
102
RTVSPropertyOp55
 70
     1
102
RTVSPropertyOp56
 70
     0
102
RTVSPropertyOp57
 70
     0
102
RTVSPropertyOp58
 70
     0
102
RTVSPropertyOp59
 70
     0
102
RTVSPropertyOp60
 70
     0
102
RTVSPropertyOp61
 70
     0
102
RTVSPropertyOp62
 70
     0
  0
XRECORD
  5
BCA6
102
{ACAD_REACTORS
330
BCA5
102
}
330
BCA5
100
AcDbXrecord
280
     1
102
RTVSPost2010Prop28
280
     0
102
RTVSPost2010PropOp28
 70
     1
102
RTVSPost2010Prop29
280
     1
102
RTVSPost2010PropOp29
 70
     1
102
RTVSPost2010Prop30
280
     1
102
RTVSPost2010PropOp30
 70
     1
102
RTVSPost2010Prop31
280
     0
102
RTVSPost2010PropOp31
 70
     1
102
RTVSPost2010Prop32
280
     0
102
RTVSPost2010PropOp32
 70
     1
102
RTVSPost2010Prop33
280
     0
102
RTVSPost2010PropOp33
 70
     1
102
RTVSPost2010Prop34
280
     0
102
RTVSPost2010PropOp34
 70
     1
102
RTVSPost2010Prop35
280
     0
102
RTVSPost2010PropOp35
 70
     1
102
RTVSPost2010Prop36
280
     0
102
RTVSPost2010PropOp36
 70
     1
102
RTVSPost2010Prop37
 90
       50
102
RTVSPost2010PropOp37
 70
     1
102
RTVSPost2010Prop38
140
0.0
102
RTVSPost2010PropOp38
 70
     1
102
RTVSPost2010Prop39
140
1.0
102
RTVSPost2010PropOp39
 70
     1
102
RTVSPost2010Prop40
 90
        0
102
RTVSPost2010PropOp40
 70
     1
102
RTVSPost2010Prop41ColorIndex
 90
       18
102
RTVSPost2010Prop41ColorRGB
 90
        0
102
RTVSPost2010PropOp41
 70
     1
102
RTVSPost2010Prop42
 90
       50
102
RTVSPost2010PropOp42
 70
     1
102
RTVSPost2010Prop43
 90
        3
102
RTVSPost2010PropOp43
 70
     1
102
RTVSPost2010Prop44ColorIndex
 90
        5
102
RTVSPost2010Prop44ColorRGB
 90
      255
102
RTVSPost2010PropOp44
 70
     1
102
RTVSPost2010Prop45
280
     0
102
RTVSPost2010PropOp45
 70
     1
102
RTVSPost2010Prop46
 90
       50
102
RTVSPost2010PropOp46
 70
     1
102
RTVSPost2010Prop47
 90
       50
102
RTVSPost2010PropOp47
 70
     1
102
RTVSPost2010Prop48
 90
       50
102
RTVSPost2010PropOp48
 70
     1
102
RTVSPost2010Prop49
280
     0
102
RTVSPost2010PropOp49
 70
     1
102
RTVSPost2010Prop50
 90
       50
102
RTVSPost2010PropOp50
 70
     1
102
RTVSPost2010Prop51ColorIndex
 90
      256
102
RTVSPost2010Prop51ColorRGB
 90
-16777216
102
RTVSPost2010PropOp51
 70
     0
102
RTVSPost2010Prop52
140
1.0
102
RTVSPost2010PropOp52
 70
     0
102
RTVSPost2010Prop53
 90
        2
102
RTVSPost2010PropOp53
 70
     1
102
RTVSPost2010Prop54
  1
strokes_ogs.tif
102
RTVSPost2010PropOp54
 70
     1
102
RTVSPost2010Prop55
280
     0
102
RTVSPost2010PropOp55
 70
     1
102
RTVSPost2010Prop56
140
1.0
102
RTVSPost2010PropOp56
 70
     1
102
RTVSPost2010Prop57
140
1.0
102
RTVSPost2010PropOp57
 70
     1
102
RTVSPropertyOp0
 70
     1
102
RTVSPropertyOp1
 70
     1
102
RTVSPropertyOp2
 70
     1
102
RTVSPropertyOp3
 70
     1
102
RTVSPropertyOp4
 70
     1
102
RTVSPropertyOp5
 70
     1
102
RTVSPropertyOp6
 70
     1
102
RTVSPropertyOp7
 70
     1
102
RTVSPropertyOp8
 70
     1
102
RTVSPropertyOp9
 70
     1
102
RTVSPropertyOp10
 70
     1
102
RTVSPropertyOp11
 70
     1
102
RTVSPropertyOp12
 70
     1
102
RTVSPropertyOp13
 70
     1
102
RTVSPropertyOp14
 70
     1
102
RTVSPropertyOp15
 70
     1
102
RTVSPropertyOp16
 70
     1
102
RTVSPropertyOp17
 70
     1
102
RTVSPropertyOp18
 70
     1
102
RTVSPropertyOp19
 70
     1
102
RTVSPropertyOp20
 70
     1
102
RTVSPropertyOp21
 70
     1
102
RTVSPropertyOp22
 70
     1
102
RTVSPropertyOp23
 70
     1
102
RTVSPropertyOp24
 70
     1
102
RTVSPropertyOp25
 70
     1
102
RTVSPropertyOp26
 70
     1
102
RTVSPropertyOp27
 70
     1
102
RTVSPropertyOp28
 70
     1
102
RTVSPropertyOp29
 70
     1
102
RTVSPropertyOp30
 70
     1
102
RTVSPropertyOp31
 70
     1
102
RTVSPropertyOp32
 70
     1
102
RTVSPropertyOp33
 70
     1
102
RTVSPropertyOp34
 70
     1
102
RTVSPropertyOp35
 70
     1
102
RTVSPropertyOp36
 70
     1
102
RTVSPropertyOp37
 70
     1
102
RTVSPropertyOp38
 70
     1
102
RTVSPropertyOp39
 70
     1
102
RTVSPropertyOp40
 70
     1
102
RTVSPropertyOp41
 70
     1
102
RTVSPropertyOp42
 70
     1
102
RTVSPropertyOp43
 70
     1
102
RTVSPropertyOp44
 70
     1
102
RTVSPropertyOp45
 70
     1
102
RTVSPropertyOp46
 70
     1
102
RTVSPropertyOp47
 70
     1
102
RTVSPropertyOp48
 70
     1
102
RTVSPropertyOp49
 70
     1
102
RTVSPropertyOp50
 70
     1
102
RTVSPropertyOp51
 70
     0
102
RTVSPropertyOp52
 70
     0
102
RTVSPropertyOp53
 70
     1
102
RTVSPropertyOp54
 70
     1
102
RTVSPropertyOp55
 70
     1
102
RTVSPropertyOp56
 70
     1
102
RTVSPropertyOp57
 70
     1
102
RTVSPropertyOp58
 70
     1
102
RTVSPropertyOp59
 70
     1
102
RTVSPropertyOp60
 70
     1
102
RTVSPropertyOp61
 70
     1
102
RTVSPropertyOp62
 70
     1
  0
XRECORD
  5
BCBC
102
{ACAD_REACTORS
330
BCBB
102
}
330
BCBB
100
AcDbXrecord
280
     1
102
RTVSPost2010Prop28
280
     0
102
RTVSPost2010PropOp28
 70
     1
102
RTVSPost2010Prop29
280
     1
102
RTVSPost2010PropOp29
 70
     1
102
RTVSPost2010Prop30
280
     1
102
RTVSPost2010PropOp30
 70
     1
102
RTVSPost2010Prop31
280
     0
102
RTVSPost2010PropOp31
 70
     1
102
RTVSPost2010Prop32
280
     0
102
RTVSPost2010PropOp32
 70
     1
102
RTVSPost2010Prop33
280
     0
102
RTVSPost2010PropOp33
 70
     1
102
RTVSPost2010Prop34
280
     0
102
RTVSPost2010PropOp34
 70
     1
102
RTVSPost2010Prop35
280
     0
102
RTVSPost2010PropOp35
 70
     1
102
RTVSPost2010Prop36
280
     0
102
RTVSPost2010PropOp36
 70
     1
102
RTVSPost2010Prop37
 90
       50
102
RTVSPost2010PropOp37
 70
     1
102
RTVSPost2010Prop38
140
0.0
102
RTVSPost2010PropOp38
 70
     1
102
RTVSPost2010Prop39
140
1.0
102
RTVSPost2010PropOp39
 70
     1
102
RTVSPost2010Prop40
 90
        0
102
RTVSPost2010PropOp40
 70
     1
102
RTVSPost2010Prop41ColorIndex
 90
       18
102
RTVSPost2010Prop41ColorRGB
 90
        0
102
RTVSPost2010PropOp41
 70
     1
102
RTVSPost2010Prop42
 90
       50
102
RTVSPost2010PropOp42
 70
     1
102
RTVSPost2010Prop43
 90
        3
102
RTVSPost2010PropOp43
 70
     1
102
RTVSPost2010Prop44ColorIndex
 90
        5
102
RTVSPost2010Prop44ColorRGB
 90
      255
102
RTVSPost2010PropOp44
 70
     1
102
RTVSPost2010Prop45
280
     0
102
RTVSPost2010PropOp45
 70
     1
102
RTVSPost2010Prop46
 90
       50
102
RTVSPost2010PropOp46
 70
     1
102
RTVSPost2010Prop47
 90
       50
102
RTVSPost2010PropOp47
 70
     1
102
RTVSPost2010Prop48
 90
       50
102
RTVSPost2010PropOp48
 70
     1
102
RTVSPost2010Prop49
280
     0
102
RTVSPost2010PropOp49
 70
     1
102
RTVSPost2010Prop50
 90
       50
102
RTVSPost2010PropOp50
 70
     1
102
RTVSPost2010Prop51ColorIndex
 90
      256
102
RTVSPost2010Prop51ColorRGB
 90
-16777216
102
RTVSPost2010PropOp51
 70
     0
102
RTVSPost2010Prop52
140
1.0
102
RTVSPost2010PropOp52
 70
     0
102
RTVSPost2010Prop53
 90
        2
102
RTVSPost2010PropOp53
 70
     1
102
RTVSPost2010Prop54
  1
strokes_ogs.tif
102
RTVSPost2010PropOp54
 70
     1
102
RTVSPost2010Prop55
280
     0
102
RTVSPost2010PropOp55
 70
     1
102
RTVSPost2010Prop56
140
1.0
102
RTVSPost2010PropOp56
 70
     1
102
RTVSPost2010Prop57
140
1.0
102
RTVSPost2010PropOp57
 70
     1
102
RTVSPropertyOp0
 70
     1
102
RTVSPropertyOp1
 70
     1
102
RTVSPropertyOp2
 70
     1
102
RTVSPropertyOp3
 70
     1
102
RTVSPropertyOp4
 70
     1
102
RTVSPropertyOp5
 70
     1
102
RTVSPropertyOp6
 70
     1
102
RTVSPropertyOp7
 70
     1
102
RTVSPropertyOp8
 70
     1
102
RTVSPropertyOp9
 70
     1
102
RTVSPropertyOp10
 70
     1
102
RTVSPropertyOp11
 70
     1
102
RTVSPropertyOp12
 70
     1
102
RTVSPropertyOp13
 70
     1
102
RTVSPropertyOp14
 70
     1
102
RTVSPropertyOp15
 70
     1
102
RTVSPropertyOp16
 70
     1
102
RTVSPropertyOp17
 70
     1
102
RTVSPropertyOp18
 70
     1
102
RTVSPropertyOp19
 70
     1
102
RTVSPropertyOp20
 70
     1
102
RTVSPropertyOp21
 70
     1
102
RTVSPropertyOp22
 70
     1
102
RTVSPropertyOp23
 70
     1
102
RTVSPropertyOp24
 70
     1
102
RTVSPropertyOp25
 70
     1
102
RTVSPropertyOp26
 70
     1
102
RTVSPropertyOp27
 70
     1
102
RTVSPropertyOp28
 70
     1
102
RTVSPropertyOp29
 70
     1
102
RTVSPropertyOp30
 70
     1
102
RTVSPropertyOp31
 70
     1
102
RTVSPropertyOp32
 70
     1
102
RTVSPropertyOp33
 70
     1
102
RTVSPropertyOp34
 70
     1
102
RTVSPropertyOp35
 70
     1
102
RTVSPropertyOp36
 70
     1
102
RTVSPropertyOp37
 70
     1
102
RTVSPropertyOp38
 70
     1
102
RTVSPropertyOp39
 70
     1
102
RTVSPropertyOp40
 70
     1
102
RTVSPropertyOp41
 70
     1
102
RTVSPropertyOp42
 70
     1
102
RTVSPropertyOp43
 70
     1
102
RTVSPropertyOp44
 70
     1
102
RTVSPropertyOp45
 70
     1
102
RTVSPropertyOp46
 70
     1
102
RTVSPropertyOp47
 70
     1
102
RTVSPropertyOp48
 70
     1
102
RTVSPropertyOp49
 70
     1
102
RTVSPropertyOp50
 70
     1
102
RTVSPropertyOp51
 70
     0
102
RTVSPropertyOp52
 70
     0
102
RTVSPropertyOp53
 70
     1
102
RTVSPropertyOp54
 70
     1
102
RTVSPropertyOp55
 70
     1
102
RTVSPropertyOp56
 70
     1
102
RTVSPropertyOp57
 70
     1
102
RTVSPropertyOp58
 70
     1
102
RTVSPropertyOp59
 70
     1
102
RTVSPropertyOp60
 70
     1
102
RTVSPropertyOp61
 70
     1
102
RTVSPropertyOp62
 70
     1
  0
XRECORD
  5
BCBA
102
{ACAD_REACTORS
330
BCB9
102
}
330
BCB9
100
AcDbXrecord
280
     1
102
RTVSPost2010Prop28
280
     0
102
RTVSPost2010PropOp28
 70
     1
102
RTVSPost2010Prop29
280
     1
102
RTVSPost2010PropOp29
 70
     1
102
RTVSPost2010Prop30
280
     1
102
RTVSPost2010PropOp30
 70
     1
102
RTVSPost2010Prop31
280
     0
102
RTVSPost2010PropOp31
 70
     1
102
RTVSPost2010Prop32
280
     0
102
RTVSPost2010PropOp32
 70
     1
102
RTVSPost2010Prop33
280
     0
102
RTVSPost2010PropOp33
 70
     1
102
RTVSPost2010Prop34
280
     0
102
RTVSPost2010PropOp34
 70
     1
102
RTVSPost2010Prop35
280
     0
102
RTVSPost2010PropOp35
 70
     1
102
RTVSPost2010Prop36
280
     0
102
RTVSPost2010PropOp36
 70
     1
102
RTVSPost2010Prop37
 90
       50
102
RTVSPost2010PropOp37
 70
     1
102
RTVSPost2010Prop38
140
0.0
102
RTVSPost2010PropOp38
 70
     1
102
RTVSPost2010Prop39
140
1.0
102
RTVSPost2010PropOp39
 70
     1
102
RTVSPost2010Prop40
 90
        0
102
RTVSPost2010PropOp40
 70
     1
102
RTVSPost2010Prop41ColorIndex
 90
       18
102
RTVSPost2010Prop41ColorRGB
 90
        0
102
RTVSPost2010PropOp41
 70
     1
102
RTVSPost2010Prop42
 90
       50
102
RTVSPost2010PropOp42
 70
     1
102
RTVSPost2010Prop43
 90
        3
102
RTVSPost2010PropOp43
 70
     1
102
RTVSPost2010Prop44ColorIndex
 90
        5
102
RTVSPost2010Prop44ColorRGB
 90
      255
102
RTVSPost2010PropOp44
 70
     1
102
RTVSPost2010Prop45
280
     0
102
RTVSPost2010PropOp45
 70
     1
102
RTVSPost2010Prop46
 90
       50
102
RTVSPost2010PropOp46
 70
     1
102
RTVSPost2010Prop47
 90
       50
102
RTVSPost2010PropOp47
 70
     1
102
RTVSPost2010Prop48
 90
       50
102
RTVSPost2010PropOp48
 70
     1
102
RTVSPost2010Prop49
280
     0
102
RTVSPost2010PropOp49
 70
     1
102
RTVSPost2010Prop50
 90
       50
102
RTVSPost2010PropOp50
 70
     1
102
RTVSPost2010Prop51ColorIndex
 90
      256
102
RTVSPost2010Prop51ColorRGB
 90
-16777216
102
RTVSPost2010PropOp51
 70
     0
102
RTVSPost2010Prop52
140
1.0
102
RTVSPost2010PropOp52
 70
     0
102
RTVSPost2010Prop53
 90
        2
102
RTVSPost2010PropOp53
 70
     1
102
RTVSPost2010Prop54
  1
strokes_ogs.tif
102
RTVSPost2010PropOp54
 70
     1
102
RTVSPost2010Prop55
280
     0
102
RTVSPost2010PropOp55
 70
     1
102
RTVSPost2010Prop56
140
1.0
102
RTVSPost2010PropOp56
 70
     1
102
RTVSPost2010Prop57
140
1.0
102
RTVSPost2010PropOp57
 70
     1
102
RTVSPropertyOp0
 70
     1
102
RTVSPropertyOp1
 70
     1
102
RTVSPropertyOp2
 70
     1
102
RTVSPropertyOp3
 70
     1
102
RTVSPropertyOp4
 70
     1
102
RTVSPropertyOp5
 70
     1
102
RTVSPropertyOp6
 70
     1
102
RTVSPropertyOp7
 70
     1
102
RTVSPropertyOp8
 70
     1
102
RTVSPropertyOp9
 70
     1
102
RTVSPropertyOp10
 70
     1
102
RTVSPropertyOp11
 70
     1
102
RTVSPropertyOp12
 70
     1
102
RTVSPropertyOp13
 70
     1
102
RTVSPropertyOp14
 70
     1
102
RTVSPropertyOp15
 70
     1
102
RTVSPropertyOp16
 70
     1
102
RTVSPropertyOp17
 70
     1
102
RTVSPropertyOp18
 70
     1
102
RTVSPropertyOp19
 70
     1
102
RTVSPropertyOp20
 70
     1
102
RTVSPropertyOp21
 70
     1
102
RTVSPropertyOp22
 70
     1
102
RTVSPropertyOp23
 70
     1
102
RTVSPropertyOp24
 70
     1
102
RTVSPropertyOp25
 70
     1
102
RTVSPropertyOp26
 70
     1
102
RTVSPropertyOp27
 70
     1
102
RTVSPropertyOp28
 70
     1
102
RTVSPropertyOp29
 70
     1
102
RTVSPropertyOp30
 70
     1
102
RTVSPropertyOp31
 70
     1
102
RTVSPropertyOp32
 70
     1
102
RTVSPropertyOp33
 70
     1
102
RTVSPropertyOp34
 70
     1
102
RTVSPropertyOp35
 70
     1
102
RTVSPropertyOp36
 70
     1
102
RTVSPropertyOp37
 70
     1
102
RTVSPropertyOp38
 70
     1
102
RTVSPropertyOp39
 70
     1
102
RTVSPropertyOp40
 70
     1
102
RTVSPropertyOp41
 70
     1
102
RTVSPropertyOp42
 70
     1
102
RTVSPropertyOp43
 70
     1
102
RTVSPropertyOp44
 70
     1
102
RTVSPropertyOp45
 70
     1
102
RTVSPropertyOp46
 70
     1
102
RTVSPropertyOp47
 70
     1
102
RTVSPropertyOp48
 70
     1
102
RTVSPropertyOp49
 70
     1
102
RTVSPropertyOp50
 70
     1
102
RTVSPropertyOp51
 70
     0
102
RTVSPropertyOp52
 70
     0
102
RTVSPropertyOp53
 70
     1
102
RTVSPropertyOp54
 70
     1
102
RTVSPropertyOp55
 70
     1
102
RTVSPropertyOp56
 70
     1
102
RTVSPropertyOp57
 70
     1
102
RTVSPropertyOp58
 70
     1
102
RTVSPropertyOp59
 70
     1
102
RTVSPropertyOp60
 70
     1
102
RTVSPropertyOp61
 70
     1
102
RTVSPropertyOp62
 70
     1
  0
XRECORD
  5
BCB4
102
{ACAD_REACTORS
330
BCB3
102
}
330
BCB3
100
AcDbXrecord
280
     1
102
RTVSPost2010Prop28
280
     0
102
RTVSPost2010PropOp28
 70
     1
102
RTVSPost2010Prop29
280
     1
102
RTVSPost2010PropOp29
 70
     1
102
RTVSPost2010Prop30
280
     1
102
RTVSPost2010PropOp30
 70
     1
102
RTVSPost2010Prop31
280
     0
102
RTVSPost2010PropOp31
 70
     1
102
RTVSPost2010Prop32
280
     0
102
RTVSPost2010PropOp32
 70
     1
102
RTVSPost2010Prop33
280
     0
102
RTVSPost2010PropOp33
 70
     1
102
RTVSPost2010Prop34
280
     0
102
RTVSPost2010PropOp34
 70
     1
102
RTVSPost2010Prop35
280
     0
102
RTVSPost2010PropOp35
 70
     1
102
RTVSPost2010Prop36
280
     0
102
RTVSPost2010PropOp36
 70
     1
102
RTVSPost2010Prop37
 90
       50
102
RTVSPost2010PropOp37
 70
     1
102
RTVSPost2010Prop38
140
0.0
102
RTVSPost2010PropOp38
 70
     1
102
RTVSPost2010Prop39
140
1.0
102
RTVSPost2010PropOp39
 70
     1
102
RTVSPost2010Prop40
 90
        0
102
RTVSPost2010PropOp40
 70
     1
102
RTVSPost2010Prop41ColorIndex
 90
       18
102
RTVSPost2010Prop41ColorRGB
 90
        0
102
RTVSPost2010PropOp41
 70
     1
102
RTVSPost2010Prop42
 90
       50
102
RTVSPost2010PropOp42
 70
     1
102
RTVSPost2010Prop43
 90
        3
102
RTVSPost2010PropOp43
 70
     1
102
RTVSPost2010Prop44ColorIndex
 90
        5
102
RTVSPost2010Prop44ColorRGB
 90
      255
102
RTVSPost2010PropOp44
 70
     1
102
RTVSPost2010Prop45
280
     0
102
RTVSPost2010PropOp45
 70
     1
102
RTVSPost2010Prop46
 90
       50
102
RTVSPost2010PropOp46
 70
     1
102
RTVSPost2010Prop47
 90
       50
102
RTVSPost2010PropOp47
 70
     1
102
RTVSPost2010Prop48
 90
       50
102
RTVSPost2010PropOp48
 70
     1
102
RTVSPost2010Prop49
280
     0
102
RTVSPost2010PropOp49
 70
     1
102
RTVSPost2010Prop50
 90
       50
102
RTVSPost2010PropOp50
 70
     1
102
RTVSPost2010Prop51ColorIndex
 90
      256
102
RTVSPost2010Prop51ColorRGB
 90
-16777216
102
RTVSPost2010PropOp51
 70
     0
102
RTVSPost2010Prop52
140
1.0
102
RTVSPost2010PropOp52
 70
     0
102
RTVSPost2010Prop53
 90
        2
102
RTVSPost2010PropOp53
 70
     1
102
RTVSPost2010Prop54
  1
strokes_ogs.tif
102
RTVSPost2010PropOp54
 70
     1
102
RTVSPost2010Prop55
280
     0
102
RTVSPost2010PropOp55
 70
     1
102
RTVSPost2010Prop56
140
1.0
102
RTVSPost2010PropOp56
 70
     1
102
RTVSPost2010Prop57
140
1.0
102
RTVSPost2010PropOp57
 70
     1
102
RTVSPropertyOp0
 70
     1
102
RTVSPropertyOp1
 70
     1
102
RTVSPropertyOp2
 70
     1
102
RTVSPropertyOp3
 70
     1
102
RTVSPropertyOp4
 70
     1
102
RTVSPropertyOp5
 70
     1
102
RTVSPropertyOp6
 70
     1
102
RTVSPropertyOp7
 70
     1
102
RTVSPropertyOp8
 70
     1
102
RTVSPropertyOp9
 70
     1
102
RTVSPropertyOp10
 70
     1
102
RTVSPropertyOp11
 70
     1
102
RTVSPropertyOp12
 70
     1
102
RTVSPropertyOp13
 70
     1
102
RTVSPropertyOp14
 70
     1
102
RTVSPropertyOp15
 70
     1
102
RTVSPropertyOp16
 70
     1
102
RTVSPropertyOp17
 70
     1
102
RTVSPropertyOp18
 70
     1
102
RTVSPropertyOp19
 70
     1
102
RTVSPropertyOp20
 70
     1
102
RTVSPropertyOp21
 70
     1
102
RTVSPropertyOp22
 70
     1
102
RTVSPropertyOp23
 70
     1
102
RTVSPropertyOp24
 70
     1
102
RTVSPropertyOp25
 70
     1
102
RTVSPropertyOp26
 70
     1
102
RTVSPropertyOp27
 70
     1
102
RTVSPropertyOp28
 70
     1
102
RTVSPropertyOp29
 70
     1
102
RTVSPropertyOp30
 70
     1
102
RTVSPropertyOp31
 70
     1
102
RTVSPropertyOp32
 70
     1
102
RTVSPropertyOp33
 70
     1
102
RTVSPropertyOp34
 70
     1
102
RTVSPropertyOp35
 70
     1
102
RTVSPropertyOp36
 70
     1
102
RTVSPropertyOp37
 70
     1
102
RTVSPropertyOp38
 70
     1
102
RTVSPropertyOp39
 70
     1
102
RTVSPropertyOp40
 70
     1
102
RTVSPropertyOp41
 70
     1
102
RTVSPropertyOp42
 70
     1
102
RTVSPropertyOp43
 70
     1
102
RTVSPropertyOp44
 70
     1
102
RTVSPropertyOp45
 70
     1
102
RTVSPropertyOp46
 70
     1
102
RTVSPropertyOp47
 70
     1
102
RTVSPropertyOp48
 70
     1
102
RTVSPropertyOp49
 70
     1
102
RTVSPropertyOp50
 70
     1
102
RTVSPropertyOp51
 70
     0
102
RTVSPropertyOp52
 70
     0
102
RTVSPropertyOp53
 70
     1
102
RTVSPropertyOp54
 70
     1
102
RTVSPropertyOp55
 70
     1
102
RTVSPropertyOp56
 70
     1
102
RTVSPropertyOp57
 70
     1
102
RTVSPropertyOp58
 70
     1
102
RTVSPropertyOp59
 70
     1
102
RTVSPropertyOp60
 70
     1
102
RTVSPropertyOp61
 70
     1
102
RTVSPropertyOp62
 70
     1
  0
XRECORD
  5
BCB6
102
{ACAD_REACTORS
330
BCB5
102
}
330
BCB5
100
AcDbXrecord
280
     1
102
RTVSPost2010Prop28
280
     0
102
RTVSPost2010PropOp28
 70
     1
102
RTVSPost2010Prop29
280
     1
102
RTVSPost2010PropOp29
 70
     1
102
RTVSPost2010Prop30
280
     1
102
RTVSPost2010PropOp30
 70
     1
102
RTVSPost2010Prop31
280
     0
102
RTVSPost2010PropOp31
 70
     1
102
RTVSPost2010Prop32
280
     0
102
RTVSPost2010PropOp32
 70
     1
102
RTVSPost2010Prop33
280
     0
102
RTVSPost2010PropOp33
 70
     1
102
RTVSPost2010Prop34
280
     0
102
RTVSPost2010PropOp34
 70
     1
102
RTVSPost2010Prop35
280
     0
102
RTVSPost2010PropOp35
 70
     1
102
RTVSPost2010Prop36
280
     0
102
RTVSPost2010PropOp36
 70
     1
102
RTVSPost2010Prop37
 90
       50
102
RTVSPost2010PropOp37
 70
     1
102
RTVSPost2010Prop38
140
0.0
102
RTVSPost2010PropOp38
 70
     1
102
RTVSPost2010Prop39
140
1.0
102
RTVSPost2010PropOp39
 70
     1
102
RTVSPost2010Prop40
 90
        0
102
RTVSPost2010PropOp40
 70
     1
102
RTVSPost2010Prop41ColorIndex
 90
       18
102
RTVSPost2010Prop41ColorRGB
 90
        0
102
RTVSPost2010PropOp41
 70
     1
102
RTVSPost2010Prop42
 90
       50
102
RTVSPost2010PropOp42
 70
     1
102
RTVSPost2010Prop43
 90
        3
102
RTVSPost2010PropOp43
 70
     1
102
RTVSPost2010Prop44ColorIndex
 90
        5
102
RTVSPost2010Prop44ColorRGB
 90
      255
102
RTVSPost2010PropOp44
 70
     1
102
RTVSPost2010Prop45
280
     0
102
RTVSPost2010PropOp45
 70
     1
102
RTVSPost2010Prop46
 90
       50
102
RTVSPost2010PropOp46
 70
     1
102
RTVSPost2010Prop47
 90
       50
102
RTVSPost2010PropOp47
 70
     1
102
RTVSPost2010Prop48
 90
       50
102
RTVSPost2010PropOp48
 70
     1
102
RTVSPost2010Prop49
280
     0
102
RTVSPost2010PropOp49
 70
     1
102
RTVSPost2010Prop50
 90
       50
102
RTVSPost2010PropOp50
 70
     1
102
RTVSPost2010Prop51ColorIndex
 90
      256
102
RTVSPost2010Prop51ColorRGB
 90
-16777216
102
RTVSPost2010PropOp51
 70
     0
102
RTVSPost2010Prop52
140
1.0
102
RTVSPost2010PropOp52
 70
     0
102
RTVSPost2010Prop53
 90
        2
102
RTVSPost2010PropOp53
 70
     1
102
RTVSPost2010Prop54
  1
strokes_ogs.tif
102
RTVSPost2010PropOp54
 70
     1
102
RTVSPost2010Prop55
280
     0
102
RTVSPost2010PropOp55
 70
     1
102
RTVSPost2010Prop56
140
1.0
102
RTVSPost2010PropOp56
 70
     1
102
RTVSPost2010Prop57
140
1.0
102
RTVSPost2010PropOp57
 70
     1
102
RTVSPropertyOp0
 70
     1
102
RTVSPropertyOp1
 70
     1
102
RTVSPropertyOp2
 70
     1
102
RTVSPropertyOp3
 70
     1
102
RTVSPropertyOp4
 70
     1
102
RTVSPropertyOp5
 70
     1
102
RTVSPropertyOp6
 70
     1
102
RTVSPropertyOp7
 70
     1
102
RTVSPropertyOp8
 70
     1
102
RTVSPropertyOp9
 70
     1
102
RTVSPropertyOp10
 70
     1
102
RTVSPropertyOp11
 70
     1
102
RTVSPropertyOp12
 70
     1
102
RTVSPropertyOp13
 70
     1
102
RTVSPropertyOp14
 70
     1
102
RTVSPropertyOp15
 70
     1
102
RTVSPropertyOp16
 70
     1
102
RTVSPropertyOp17
 70
     1
102
RTVSPropertyOp18
 70
     1
102
RTVSPropertyOp19
 70
     1
102
RTVSPropertyOp20
 70
     1
102
RTVSPropertyOp21
 70
     1
102
RTVSPropertyOp22
 70
     1
102
RTVSPropertyOp23
 70
     1
102
RTVSPropertyOp24
 70
     1
102
RTVSPropertyOp25
 70
     1
102
RTVSPropertyOp26
 70
     1
102
RTVSPropertyOp27
 70
     1
102
RTVSPropertyOp28
 70
     1
102
RTVSPropertyOp29
 70
     1
102
RTVSPropertyOp30
 70
     1
102
RTVSPropertyOp31
 70
     1
102
RTVSPropertyOp32
 70
     1
102
RTVSPropertyOp33
 70
     1
102
RTVSPropertyOp34
 70
     1
102
RTVSPropertyOp35
 70
     1
102
RTVSPropertyOp36
 70
     1
102
RTVSPropertyOp37
 70
     1
102
RTVSPropertyOp38
 70
     1
102
RTVSPropertyOp39
 70
     1
102
RTVSPropertyOp40
 70
     1
102
RTVSPropertyOp41
 70
     1
102
RTVSPropertyOp42
 70
     1
102
RTVSPropertyOp43
 70
     1
102
RTVSPropertyOp44
 70
     1
102
RTVSPropertyOp45
 70
     1
102
RTVSPropertyOp46
 70
     1
102
RTVSPropertyOp47
 70
     1
102
RTVSPropertyOp48
 70
     1
102
RTVSPropertyOp49
 70
     1
102
RTVSPropertyOp50
 70
     1
102
RTVSPropertyOp51
 70
     0
102
RTVSPropertyOp52
 70
     0
102
RTVSPropertyOp53
 70
     1
102
RTVSPropertyOp54
 70
     1
102
RTVSPropertyOp55
 70
     1
102
RTVSPropertyOp56
 70
     1
102
RTVSPropertyOp57
 70
     1
102
RTVSPropertyOp58
 70
     1
102
RTVSPropertyOp59
 70
     1
102
RTVSPropertyOp60
 70
     1
102
RTVSPropertyOp61
 70
     1
102
RTVSPropertyOp62
 70
     1
  0
XRECORD
  5
BCAC
102
{ACAD_REACTORS
330
BCAB
102
}
330
BCAB
100
AcDbXrecord
280
     1
102
RTVSPost2010Prop28
280
     0
102
RTVSPost2010PropOp28
 70
     1
102
RTVSPost2010Prop29
280
     1
102
RTVSPost2010PropOp29
 70
     1
102
RTVSPost2010Prop30
280
     1
102
RTVSPost2010PropOp30
 70
     1
102
RTVSPost2010Prop31
280
     0
102
RTVSPost2010PropOp31
 70
     1
102
RTVSPost2010Prop32
280
     0
102
RTVSPost2010PropOp32
 70
     1
102
RTVSPost2010Prop33
280
     0
102
RTVSPost2010PropOp33
 70
     1
102
RTVSPost2010Prop34
280
     0
102
RTVSPost2010PropOp34
 70
     1
102
RTVSPost2010Prop35
280
     0
102
RTVSPost2010PropOp35
 70
     1
102
RTVSPost2010Prop36
280
     0
102
RTVSPost2010PropOp36
 70
     1
102
RTVSPost2010Prop37
 90
       50
102
RTVSPost2010PropOp37
 70
     1
102
RTVSPost2010Prop38
140
0.0
102
RTVSPost2010PropOp38
 70
     1
102
RTVSPost2010Prop39
140
1.0
102
RTVSPost2010PropOp39
 70
     1
102
RTVSPost2010Prop40
 90
        0
102
RTVSPost2010PropOp40
 70
     1
102
RTVSPost2010Prop41ColorIndex
 90
       18
102
RTVSPost2010Prop41ColorRGB
 90
        0
102
RTVSPost2010PropOp41
 70
     1
102
RTVSPost2010Prop42
 90
       50
102
RTVSPost2010PropOp42
 70
     1
102
RTVSPost2010Prop43
 90
        3
102
RTVSPost2010PropOp43
 70
     1
102
RTVSPost2010Prop44ColorIndex
 90
        5
102
RTVSPost2010Prop44ColorRGB
 90
      255
102
RTVSPost2010PropOp44
 70
     1
102
RTVSPost2010Prop45
280
     0
102
RTVSPost2010PropOp45
 70
     1
102
RTVSPost2010Prop46
 90
       50
102
RTVSPost2010PropOp46
 70
     1
102
RTVSPost2010Prop47
 90
       50
102
RTVSPost2010PropOp47
 70
     1
102
RTVSPost2010Prop48
 90
       50
102
RTVSPost2010PropOp48
 70
     1
102
RTVSPost2010Prop49
280
     0
102
RTVSPost2010PropOp49
 70
     1
102
RTVSPost2010Prop50
 90
       50
102
RTVSPost2010PropOp50
 70
     1
102
RTVSPost2010Prop51ColorIndex
 90
      256
102
RTVSPost2010Prop51ColorRGB
 90
-16777216
102
RTVSPost2010PropOp51
 70
     0
102
RTVSPost2010Prop52
140
1.0
102
RTVSPost2010PropOp52
 70
     0
102
RTVSPost2010Prop53
 90
        2
102
RTVSPost2010PropOp53
 70
     1
102
RTVSPost2010Prop54
  1
strokes_ogs.tif
102
RTVSPost2010PropOp54
 70
     1
102
RTVSPost2010Prop55
280
     0
102
RTVSPost2010PropOp55
 70
     1
102
RTVSPost2010Prop56
140
1.0
102
RTVSPost2010PropOp56
 70
     1
102
RTVSPost2010Prop57
140
1.0
102
RTVSPost2010PropOp57
 70
     1
102
RTVSPropertyOp0
 70
     1
102
RTVSPropertyOp1
 70
     1
102
RTVSPropertyOp2
 70
     1
102
RTVSPropertyOp3
 70
     1
102
RTVSPropertyOp4
 70
     1
102
RTVSPropertyOp5
 70
     1
102
RTVSPropertyOp6
 70
     1
102
RTVSPropertyOp7
 70
     1
102
RTVSPropertyOp8
 70
     1
102
RTVSPropertyOp9
 70
     1
102
RTVSPropertyOp10
 70
     1
102
RTVSPropertyOp11
 70
     1
102
RTVSPropertyOp12
 70
     1
102
RTVSPropertyOp13
 70
     1
102
RTVSPropertyOp14
 70
     1
102
RTVSPropertyOp15
 70
     1
102
RTVSPropertyOp16
 70
     1
102
RTVSPropertyOp17
 70
     1
102
RTVSPropertyOp18
 70
     1
102
RTVSPropertyOp19
 70
     1
102
RTVSPropertyOp20
 70
     1
102
RTVSPropertyOp21
 70
     1
102
RTVSPropertyOp22
 70
     1
102
RTVSPropertyOp23
 70
     1
102
RTVSPropertyOp24
 70
     1
102
RTVSPropertyOp25
 70
     1
102
RTVSPropertyOp26
 70
     1
102
RTVSPropertyOp27
 70
     1
102
RTVSPropertyOp28
 70
     1
102
RTVSPropertyOp29
 70
     1
102
RTVSPropertyOp30
 70
     1
102
RTVSPropertyOp31
 70
     1
102
RTVSPropertyOp32
 70
     1
102
RTVSPropertyOp33
 70
     1
102
RTVSPropertyOp34
 70
     1
102
RTVSPropertyOp35
 70
     1
102
RTVSPropertyOp36
 70
     1
102
RTVSPropertyOp37
 70
     1
102
RTVSPropertyOp38
 70
     1
102
RTVSPropertyOp39
 70
     1
102
RTVSPropertyOp40
 70
     1
102
RTVSPropertyOp41
 70
     1
102
RTVSPropertyOp42
 70
     1
102
RTVSPropertyOp43
 70
     1
102
RTVSPropertyOp44
 70
     1
102
RTVSPropertyOp45
 70
     1
102
RTVSPropertyOp46
 70
     1
102
RTVSPropertyOp47
 70
     1
102
RTVSPropertyOp48
 70
     1
102
RTVSPropertyOp49
 70
     1
102
RTVSPropertyOp50
 70
     1
102
RTVSPropertyOp51
 70
     0
102
RTVSPropertyOp52
 70
     0
102
RTVSPropertyOp53
 70
     1
102
RTVSPropertyOp54
 70
     1
102
RTVSPropertyOp55
 70
     1
102
RTVSPropertyOp56
 70
     1
102
RTVSPropertyOp57
 70
     1
102
RTVSPropertyOp58
 70
     1
102
RTVSPropertyOp59
 70
     1
102
RTVSPropertyOp60
 70
     1
102
RTVSPropertyOp61
 70
     1
102
RTVSPropertyOp62
 70
     1
  0
XRECORD
  5
BCA0
102
{ACAD_REACTORS
330
BC9F
102
}
330
BC9F
100
AcDbXrecord
280
     1
102
RTVSPost2010Prop28
280
     0
102
RTVSPost2010PropOp28
 70
     1
102
RTVSPost2010Prop29
280
     1
102
RTVSPost2010PropOp29
 70
     1
102
RTVSPost2010Prop30
280
     1
102
RTVSPost2010PropOp30
 70
     1
102
RTVSPost2010Prop31
280
     0
102
RTVSPost2010PropOp31
 70
     1
102
RTVSPost2010Prop32
280
     0
102
RTVSPost2010PropOp32
 70
     1
102
RTVSPost2010Prop33
280
     0
102
RTVSPost2010PropOp33
 70
     1
102
RTVSPost2010Prop34
280
     0
102
RTVSPost2010PropOp34
 70
     1
102
RTVSPost2010Prop35
280
     0
102
RTVSPost2010PropOp35
 70
     1
102
RTVSPost2010Prop36
280
     0
102
RTVSPost2010PropOp36
 70
     1
102
RTVSPost2010Prop37
 90
       50
102
RTVSPost2010PropOp37
 70
     1
102
RTVSPost2010Prop38
140
0.0
102
RTVSPost2010PropOp38
 70
     1
102
RTVSPost2010Prop39
140
1.0
102
RTVSPost2010PropOp39
 70
     1
102
RTVSPost2010Prop40
 90
        0
102
RTVSPost2010PropOp40
 70
     1
102
RTVSPost2010Prop41ColorIndex
 90
       18
102
RTVSPost2010Prop41ColorRGB
 90
        0
102
RTVSPost2010PropOp41
 70
     1
102
RTVSPost2010Prop42
 90
       50
102
RTVSPost2010PropOp42
 70
     1
102
RTVSPost2010Prop43
 90
        3
102
RTVSPost2010PropOp43
 70
     1
102
RTVSPost2010Prop44ColorIndex
 90
        5
102
RTVSPost2010Prop44ColorRGB
 90
      255
102
RTVSPost2010PropOp44
 70
     1
102
RTVSPost2010Prop45
280
     0
102
RTVSPost2010PropOp45
 70
     1
102
RTVSPost2010Prop46
 90
       50
102
RTVSPost2010PropOp46
 70
     1
102
RTVSPost2010Prop47
 90
       50
102
RTVSPost2010PropOp47
 70
     1
102
RTVSPost2010Prop48
 90
       50
102
RTVSPost2010PropOp48
 70
     1
102
RTVSPost2010Prop49
280
     0
102
RTVSPost2010PropOp49
 70
     1
102
RTVSPost2010Prop50
 90
       50
102
RTVSPost2010PropOp50
 70
     1
102
RTVSPost2010Prop51ColorIndex
 90
      256
102
RTVSPost2010Prop51ColorRGB
 90
-16777216
102
RTVSPost2010PropOp51
 70
     0
102
RTVSPost2010Prop52
140
1.0
102
RTVSPost2010PropOp52
 70
     0
102
RTVSPost2010Prop53
 90
        2
102
RTVSPost2010PropOp53
 70
     1
102
RTVSPost2010Prop54
  1
strokes_ogs.tif
102
RTVSPost2010PropOp54
 70
     1
102
RTVSPost2010Prop55
280
     0
102
RTVSPost2010PropOp55
 70
     1
102
RTVSPost2010Prop56
140
1.0
102
RTVSPost2010PropOp56
 70
     1
102
RTVSPost2010Prop57
140
1.0
102
RTVSPost2010PropOp57
 70
     1
102
RTVSPropertyOp0
 70
     1
102
RTVSPropertyOp1
 70
     1
102
RTVSPropertyOp2
 70
     1
102
RTVSPropertyOp3
 70
     1
102
RTVSPropertyOp4
 70
     1
102
RTVSPropertyOp5
 70
     1
102
RTVSPropertyOp6
 70
     1
102
RTVSPropertyOp7
 70
     1
102
RTVSPropertyOp8
 70
     1
102
RTVSPropertyOp9
 70
     1
102
RTVSPropertyOp10
 70
     1
102
RTVSPropertyOp11
 70
     1
102
RTVSPropertyOp12
 70
     1
102
RTVSPropertyOp13
 70
     1
102
RTVSPropertyOp14
 70
     1
102
RTVSPropertyOp15
 70
     1
102
RTVSPropertyOp16
 70
     1
102
RTVSPropertyOp17
 70
     1
102
RTVSPropertyOp18
 70
     1
102
RTVSPropertyOp19
 70
     1
102
RTVSPropertyOp20
 70
     1
102
RTVSPropertyOp21
 70
     1
102
RTVSPropertyOp22
 70
     1
102
RTVSPropertyOp23
 70
     1
102
RTVSPropertyOp24
 70
     1
102
RTVSPropertyOp25
 70
     1
102
RTVSPropertyOp26
 70
     1
102
RTVSPropertyOp27
 70
     1
102
RTVSPropertyOp28
 70
     1
102
RTVSPropertyOp29
 70
     1
102
RTVSPropertyOp30
 70
     1
102
RTVSPropertyOp31
 70
     1
102
RTVSPropertyOp32
 70
     1
102
RTVSPropertyOp33
 70
     1
102
RTVSPropertyOp34
 70
     1
102
RTVSPropertyOp35
 70
     1
102
RTVSPropertyOp36
 70
     1
102
RTVSPropertyOp37
 70
     1
102
RTVSPropertyOp38
 70
     1
102
RTVSPropertyOp39
 70
     1
102
RTVSPropertyOp40
 70
     1
102
RTVSPropertyOp41
 70
     1
102
RTVSPropertyOp42
 70
     1
102
RTVSPropertyOp43
 70
     1
102
RTVSPropertyOp44
 70
     1
102
RTVSPropertyOp45
 70
     1
102
RTVSPropertyOp46
 70
     1
102
RTVSPropertyOp47
 70
     1
102
RTVSPropertyOp48
 70
     1
102
RTVSPropertyOp49
 70
     1
102
RTVSPropertyOp50
 70
     1
102
RTVSPropertyOp51
 70
     0
102
RTVSPropertyOp52
 70
     0
102
RTVSPropertyOp53
 70
     1
102
RTVSPropertyOp54
 70
     1
102
RTVSPropertyOp55
 70
     1
102
RTVSPropertyOp56
 70
     1
102
RTVSPropertyOp57
 70
     1
102
RTVSPropertyOp58
 70
     1
102
RTVSPropertyOp59
 70
     1
102
RTVSPropertyOp60
 70
     1
102
RTVSPropertyOp61
 70
     1
102
RTVSPropertyOp62
 70
     1
  0
XRECORD
  5
BCB8
102
{ACAD_REACTORS
330
BCB7
102
}
330
BCB7
100
AcDbXrecord
280
     1
102
RTVSPost2010Prop28
280
     0
102
RTVSPost2010PropOp28
 70
     1
102
RTVSPost2010Prop29
280
     1
102
RTVSPost2010PropOp29
 70
     1
102
RTVSPost2010Prop30
280
     1
102
RTVSPost2010PropOp30
 70
     1
102
RTVSPost2010Prop31
280
     0
102
RTVSPost2010PropOp31
 70
     1
102
RTVSPost2010Prop32
280
     0
102
RTVSPost2010PropOp32
 70
     1
102
RTVSPost2010Prop33
280
     0
102
RTVSPost2010PropOp33
 70
     1
102
RTVSPost2010Prop34
280
     0
102
RTVSPost2010PropOp34
 70
     1
102
RTVSPost2010Prop35
280
     0
102
RTVSPost2010PropOp35
 70
     1
102
RTVSPost2010Prop36
280
     0
102
RTVSPost2010PropOp36
 70
     1
102
RTVSPost2010Prop37
 90
       50
102
RTVSPost2010PropOp37
 70
     1
102
RTVSPost2010Prop38
140
0.0
102
RTVSPost2010PropOp38
 70
     1
102
RTVSPost2010Prop39
140
1.0
102
RTVSPost2010PropOp39
 70
     1
102
RTVSPost2010Prop40
 90
        0
102
RTVSPost2010PropOp40
 70
     1
102
RTVSPost2010Prop41ColorIndex
 90
       18
102
RTVSPost2010Prop41ColorRGB
 90
        0
102
RTVSPost2010PropOp41
 70
     1
102
RTVSPost2010Prop42
 90
       50
102
RTVSPost2010PropOp42
 70
     1
102
RTVSPost2010Prop43
 90
        3
102
RTVSPost2010PropOp43
 70
     1
102
RTVSPost2010Prop44ColorIndex
 90
        5
102
RTVSPost2010Prop44ColorRGB
 90
      255
102
RTVSPost2010PropOp44
 70
     1
102
RTVSPost2010Prop45
280
     0
102
RTVSPost2010PropOp45
 70
     1
102
RTVSPost2010Prop46
 90
       50
102
RTVSPost2010PropOp46
 70
     1
102
RTVSPost2010Prop47
 90
       50
102
RTVSPost2010PropOp47
 70
     1
102
RTVSPost2010Prop48
 90
       50
102
RTVSPost2010PropOp48
 70
     1
102
RTVSPost2010Prop49
280
     0
102
RTVSPost2010PropOp49
 70
     1
102
RTVSPost2010Prop50
 90
       50
102
RTVSPost2010PropOp50
 70
     1
102
RTVSPost2010Prop51ColorIndex
 90
      256
102
RTVSPost2010Prop51ColorRGB
 90
-16777216
102
RTVSPost2010PropOp51
 70
     0
102
RTVSPost2010Prop52
140
1.0
102
RTVSPost2010PropOp52
 70
     0
102
RTVSPost2010Prop53
 90
        2
102
RTVSPost2010PropOp53
 70
     1
102
RTVSPost2010Prop54
  1
strokes_ogs.tif
102
RTVSPost2010PropOp54
 70
     1
102
RTVSPost2010Prop55
280
     0
102
RTVSPost2010PropOp55
 70
     1
102
RTVSPost2010Prop56
140
1.0
102
RTVSPost2010PropOp56
 70
     1
102
RTVSPost2010Prop57
140
1.0
102
RTVSPost2010PropOp57
 70
     1
102
RTVSPropertyOp0
 70
     1
102
RTVSPropertyOp1
 70
     1
102
RTVSPropertyOp2
 70
     1
102
RTVSPropertyOp3
 70
     1
102
RTVSPropertyOp4
 70
     1
102
RTVSPropertyOp5
 70
     1
102
RTVSPropertyOp6
 70
     1
102
RTVSPropertyOp7
 70
     1
102
RTVSPropertyOp8
 70
     1
102
RTVSPropertyOp9
 70
     1
102
RTVSPropertyOp10
 70
     1
102
RTVSPropertyOp11
 70
     1
102
RTVSPropertyOp12
 70
     1
102
RTVSPropertyOp13
 70
     1
102
RTVSPropertyOp14
 70
     1
102
RTVSPropertyOp15
 70
     1
102
RTVSPropertyOp16
 70
     1
102
RTVSPropertyOp17
 70
     1
102
RTVSPropertyOp18
 70
     1
102
RTVSPropertyOp19
 70
     1
102
RTVSPropertyOp20
 70
     1
102
RTVSPropertyOp21
 70
     1
102
RTVSPropertyOp22
 70
     1
102
RTVSPropertyOp23
 70
     1
102
RTVSPropertyOp24
 70
     1
102
RTVSPropertyOp25
 70
     1
102
RTVSPropertyOp26
 70
     1
102
RTVSPropertyOp27
 70
     1
102
RTVSPropertyOp28
 70
     1
102
RTVSPropertyOp29
 70
     1
102
RTVSPropertyOp30
 70
     1
102
RTVSPropertyOp31
 70
     1
102
RTVSPropertyOp32
 70
     1
102
RTVSPropertyOp33
 70
     1
102
RTVSPropertyOp34
 70
     1
102
RTVSPropertyOp35
 70
     1
102
RTVSPropertyOp36
 70
     1
102
RTVSPropertyOp37
 70
     1
102
RTVSPropertyOp38
 70
     1
102
RTVSPropertyOp39
 70
     1
102
RTVSPropertyOp40
 70
     1
102
RTVSPropertyOp41
 70
     1
102
RTVSPropertyOp42
 70
     1
102
RTVSPropertyOp43
 70
     1
102
RTVSPropertyOp44
 70
     1
102
RTVSPropertyOp45
 70
     1
102
RTVSPropertyOp46
 70
     1
102
RTVSPropertyOp47
 70
     1
102
RTVSPropertyOp48
 70
     1
102
RTVSPropertyOp49
 70
     1
102
RTVSPropertyOp50
 70
     1
102
RTVSPropertyOp51
 70
     0
102
RTVSPropertyOp52
 70
     0
102
RTVSPropertyOp53
 70
     1
102
RTVSPropertyOp54
 70
     1
102
RTVSPropertyOp55
 70
     1
102
RTVSPropertyOp56
 70
     1
102
RTVSPropertyOp57
 70
     1
102
RTVSPropertyOp58
 70
     1
102
RTVSPropertyOp59
 70
     1
102
RTVSPropertyOp60
 70
     1
102
RTVSPropertyOp61
 70
     1
102
RTVSPropertyOp62
 70
     1
  0
ENDSEC
  0
EOF
