  0
SECTION
  2
HEADER
  9
$ACADVER
  1
AC1015
  9
$ACADMAINTVER
 70
    20
  9
$DWGCODEPAGE
  3
ANSI_932
  9
$INSBASE
 10
0.0
 20
0.0
 30
0.0
  9
$EXTMIN
 10
10.0
 20
9.999999999999998
 30
0.0
  9
$EXTMAX
 10
409.0
 20
247.0
 30
0.0
  9
$LIMMIN
 10
0.0
 20
0.0
  9
$LIMMAX
 10
495.0
 20
341.25
  9
$ORTHOMODE
 70
     0
  9
$REGENMODE
 70
     1
  9
$FILLMODE
 70
     1
  9
$QTEXTMODE
 70
     0
  9
$MIRRTEXT
 70
     1
  9
$LTSCALE
 40
20.0
  9
$ATTMODE
 70
     1
  9
$TEXTSIZE
 40
5.0
  9
$TRACEWID
 40
1.0
  9
$TEXTSTYLE
  7
STANDARD
  9
$CLAYER
  8
0
  9
$CELTYPE
  6
BYLAYER
  9
$CECOLOR
 62
   256
  9
$CELTSCALE
 40
1.0
  9
$DISPSILH
 70
     0
  9
$DIMSCALE
 40
1.0
  9
$DIMASZ
 40
3.0
  9
$DIMEXO
 40
1.0
  9
$DIMDLI
 40
10.0
  9
$DIMRND
 40
0.0
  9
$DIMDLE
 40
0.0
  9
$DIMEXE
 40
1.0
  9
$DIMTP
 40
0.0
  9
$DIMTM
 40
0.0
  9
$DIMTXT
 40
2.5
  9
$DIMCEN
 40
0.0
  9
$DIMTSZ
 40
0.0
  9
$DIMTOL
 70
     0
  9
$DIMLIM
 70
     0
  9
$DIMTIH
 70
     0
  9
$DIMTOH
 70
     0
  9
$DIMSE1
 70
     0
  9
$DIMSE2
 70
     0
  9
$DIMTAD
 70
     3
  9
$DIMZIN
 70
     8
  9
$DIMBLK
  1

  9
$DIMASO
 70
     1
  9
$DIMSHO
 70
     1
  9
$DIMPOST
  1

  9
$DIMAPOST
  1

  9
$DIMALT
 70
     0
  9
$DIMALTD
 70
     2
  9
$DIMALTF
 40
25.4
  9
$DIMLFAC
 40
1.0
  9
$DIMTOFL
 70
     1
  9
$DIMTVP
 40
0.0
  9
$DIMTIX
 70
     0
  9
$DIMSOXD
 70
     0
  9
$DIMSAH
 70
     1
  9
$DIMBLK1
  1

  9
$DIMBLK2
  1

  9
$DIMSTYLE
  2
STANDARD
  9
$DIMCLRD
 70
     0
  9
$DIMCLRE
 70
     0
  9
$DIMCLRT
 70
     0
  9
$DIMTFAC
 40
1.0
  9
$DIMGAP
 40
1.0
  9
$DIMJUST
 70
     0
  9
$DIMSD1
 70
     0
  9
$DIMSD2
 70
     0
  9
$DIMTOLJ
 70
     1
  9
$DIMTZIN
 70
     0
  9
$DIMALTZ
 70
     0
  9
$DIMALTTZ
 70
     0
  9
$DIMUPT
 70
     0
  9
$DIMDEC
 70
     4
  9
$DIMTDEC
 70
     4
  9
$DIMALTU
 70
     2
  9
$DIMALTTD
 70
     2
  9
$DIMTXSTY
  7
STANDARD
  9
$DIMAUNIT
 70
     0
  9
$DIMADEC
 70
     0
  9
$DIMALTRND
 40
0.0
  9
$DIMAZIN
 70
     0
  9
$DIMDSEP
 70
    46
  9
$DIMATFIT
 70
     3
  9
$DIMFRAC
 70
     0
  9
$DIMLDRBLK
  1

  9
$DIMLUNIT
 70
     2
  9
$DIMLWD
 70
    -2
  9
$DIMLWE
 70
    -2
  9
$DIMTMOVE
 70
     0
  9
$LUNITS
 70
     2
  9
$LUPREC
 70
     4
  9
$SKETCHINC
 40
1.0
  9
$FILLETRAD
 40
0.0
  9
$AUNITS
 70
     0
  9
$AUPREC
 70
     2
  9
$MENU
  1
.
  9
$ELEVATION
 40
0.0
  9
$PELEVATION
 40
0.0
  9
$THICKNESS
 40
0.0
  9
$LIMCHECK
 70
     0
  9
$CHAMFERA
 40
10.0
  9
$CHAMFERB
 40
10.0
  9
$CHAMFERC
 40
0.0
  9
$CHAMFERD
 40
0.0
  9
$SKPOLY
 70
     0
  9
$TDCREATE
 40
2451233.434243866
  9
$TDUCREATE
 40
2451233.059243866
  9
$TDUPDATE
 40
2457192.661993194
  9
$TDUUPDATE
 40
2457192.286993195
  9
$TDINDWG
 40
0.0000128009
  9
$TDUSRTIMER
 40
0.0000112269
  9
$USRTIMER
 70
     1
  9
$ANGBASE
 50
0.0
  9
$ANGDIR
 70
     0
  9
$PDMODE
 70
     0
  9
$PDSIZE
 40
0.0
  9
$PLINEWID
 40
0.0
  9
$SPLFRAME
 70
     0
  9
$SPLINETYPE
 70
     6
  9
$SPLINESEGS
 70
     8
  9
$HANDSEED
  5
D2B9
  9
$SURFTAB1
 70
     6
  9
$SURFTAB2
 70
     6
  9
$SURFTYPE
 70
     6
  9
$SURFU
 70
     6
  9
$SURFV
 70
     6
  9
$UCSBASE
  2

  9
$UCSNAME
  2

  9
$UCSORG
 10
0.0
 20
0.0
 30
0.0
  9
$UCSXDIR
 10
1.0
 20
0.0
 30
0.0
  9
$UCSYDIR
 10
0.0
 20
1.0
 30
0.0
  9
$UCSORTHOREF
  2

  9
$UCSORTHOVIEW
 70
     0
  9
$UCSORGTOP
 10
0.0
 20
0.0
 30
0.0
  9
$UCSORGBOTTOM
 10
0.0
 20
0.0
 30
0.0
  9
$UCSORGLEFT
 10
0.0
 20
0.0
 30
0.0
  9
$UCSORGRIGHT
 10
0.0
 20
0.0
 30
0.0
  9
$UCSORGFRONT
 10
0.0
 20
0.0
 30
0.0
  9
$UCSORGBACK
 10
0.0
 20
0.0
 30
0.0
  9
$PUCSBASE
  2

  9
$PUCSNAME
  2

  9
$PUCSORG
 10
0.0
 20
0.0
 30
0.0
  9
$PUCSXDIR
 10
1.0
 20
0.0
 30
0.0
  9
$PUCSYDIR
 10
0.0
 20
1.0
 30
0.0
  9
$PUCSORTHOREF
  2

  9
$PUCSORTHOVIEW
 70
     0
  9
$PUCSORGTOP
 10
0.0
 20
0.0
 30
0.0
  9
$PUCSORGBOTTOM
 10
0.0
 20
0.0
 30
0.0
  9
$PUCSORGLEFT
 10
0.0
 20
0.0
 30
0.0
  9
$PUCSORGRIGHT
 10
0.0
 20
0.0
 30
0.0
  9
$PUCSORGFRONT
 10
0.0
 20
0.0
 30
0.0
  9
$PUCSORGBACK
 10
0.0
 20
0.0
 30
0.0
  9
$USERI1
 70
     0
  9
$USERI2
 70
     0
  9
$USERI3
 70
     0
  9
$USERI4
 70
     0
  9
$USERI5
 70
     0
  9
$USERR1
 40
0.0
  9
$USERR2
 40
0.0
  9
$USERR3
 40
0.0
  9
$USERR4
 40
0.0
  9
$USERR5
 40
0.0
  9
$WORLDVIEW
 70
     1
  9
$SHADEDGE
 70
     3
  9
$SHADEDIF
 70
    70
  9
$TILEMODE
 70
     1
  9
$MAXACTVP
 70
    16
  9
$PINSBASE
 10
0.0
 20
0.0
 30
0.0
  9
$PLIMCHECK
 70
     0
  9
$PEXTMIN
 10
1.000000000000000E+20
 20
1.000000000000000E+20
 30
1.000000000000000E+20
  9
$PEXTMAX
 10
-1.000000000000000E+20
 20
-1.000000000000000E+20
 30
-1.000000000000000E+20
  9
$PLIMMIN
 10
0.0
 20
0.0
  9
$PLIMMAX
 10
420.0
 20
297.0
  9
$UNITMODE
 70
     0
  9
$VISRETAIN
 70
     0
  9
$PLINEGEN
 70
     0
  9
$PSLTSCALE
 70
     0
  9
$TREEDEPTH
 70
  3020
  9
$CMLSTYLE
  2
STANDARD
  9
$CMLJUST
 70
     0
  9
$CMLSCALE
 40
1.0
  9
$PROXYGRAPHICS
 70
     1
  9
$MEASUREMENT
 70
     0
  9
$CELWEIGHT
370
    -1
  9
$ENDCAPS
280
     0
  9
$JOINSTYLE
280
     0
  9
$LWDISPLAY
290
     0
  9
$INSUNITS
 70
     0
  9
$HYPERLINKBASE
  1

  9
$STYLESHEET
  1

  9
$XEDIT
290
     1
  9
$CEPSNTYPE
380
     0
  9
$PSTYLEMODE
290
     1
  9
$FINGERPRINTGUID
  2
{2BB1A32F-1887-4825-9BC0-9A9A2F305A73}
  9
$VERSIONGUID
  2
{62877233-2383-479C-9C52-907CCCFCF14A}
  9
$EXTNAMES
290
     1
  9
$PSVPSCALE
 40
0.0
  9
$OLESTARTUP
290
     0
  0
ENDSEC
  0
SECTION
  2
CLASSES
  0
CLASS
  1
ACDBDICTIONARYWDFLT
  2
AcDbDictionaryWithDefault
  3
ObjectDBX Classes
 90
        0
280
     0
281
     0
  0
CLASS
  1
ACDBPLACEHOLDER
  2
AcDbPlaceHolder
  3
ObjectDBX Classes
 90
        0
280
     0
281
     0
  0
CLASS
  1
LAYOUT
  2
AcDbLayout
  3
ObjectDBX Classes
 90
        0
280
     0
281
     0
  0
CLASS
  1
DICTIONARYVAR
  2
AcDbDictionaryVar
  3
ObjectDBX Classes
 90
        0
280
     0
281
     0
  0
CLASS
  1
MATERIAL
  2
AcDbMaterial
  3
ObjectDBX Classes
 90
     1153
280
     0
281
     0
  0
CLASS
  1
VISUALSTYLE
  2
AcDbVisualStyle
  3
ObjectDBX Classes
 90
     4095
280
     0
281
     0
  0
CLASS
  1
TABLESTYLE
  2
AcDbTableStyle
  3
ObjectDBX Classes
 90
     4095
280
     0
281
     0
  0
CLASS
  1
SCALE
  2
AcDbScale
  3
ObjectDBX Classes
 90
     1153
280
     0
281
     0
  0
CLASS
  1
MLEADERSTYLE
  2
AcDbMLeaderStyle
  3
ACDB_MLEADERSTYLE_CLASS
 90
     4095
280
     0
281
     0
  0
CLASS
  1
ACDBSECTIONVIEWSTYLE
  2
AcDbSectionViewStyle
  3
ObjectDBX Classes
 90
     1025
280
     0
281
     0
  0
CLASS
  1
ACDBDETAILVIEWSTYLE
  2
AcDbDetailViewStyle
  3
ObjectDBX Classes
 90
     1025
280
     0
281
     0
  0
CLASS
  1
CELLSTYLEMAP
  2
AcDbCellStyleMap
  3
ObjectDBX Classes
 90
     1152
280
     0
281
     0
  0
ENDSEC
  0
SECTION
  2
TABLES
  0
TABLE
  2
VPORT
  5
CF9C
330
0
100
AcDbSymbolTable
 70
     1
  0
VPORT
  5
D202
330
CF9C
100
AcDbSymbolTableRecord
100
AcDbViewportTableRecord
  2
*ACTIVE
 70
     0
 10
0.0
 20
0.0
 11
1.0
 21
1.0
 12
281.2986374964722
 22
128.4998710457873
 13
0.0
 23
0.0
 14
10.0
 24
10.0
 15
10.0
 25
10.0
 16
0.0
 26
0.0
 36
1.0
 17
0.0
 27
0.0
 37
0.0
 40
239.6764431898544
 41
1.899603698811096
 42
50.0
 43
0.0
 44
0.0
 50
0.0
 51
0.0
 71
     0
 72
   100
 73
     1
 74
     0
 75
     0
 76
     0
 77
     0
 78
     0
281
     0
 65
     1
110
0.0
120
0.0
130
0.0
111
1.0
121
0.0
131
0.0
112
0.0
122
1.0
132
0.0
 79
     0
146
0.0
1001
ACAD_NAV_VCDISPLAY
1070
     3
  0
ENDTAB
  0
TABLE
  2
LTYPE
  5
CF99
330
0
100
AcDbSymbolTable
 70
     4
  0
LTYPE
  5
CFA7
330
CF99
100
AcDbSymbolTableRecord
100
AcDbLinetypeTableRecord
  2
BYBLOCK
 70
     0
  3

 72
    65
 73
     0
 40
0.0
  0
LTYPE
  5
CFA8
330
CF99
100
AcDbSymbolTableRecord
100
AcDbLinetypeTableRecord
  2
BYLAYER
 70
     0
  3

 72
    65
 73
     0
 40
0.0
  0
LTYPE
  5
CFA9
330
CF99
100
AcDbSymbolTableRecord
100
AcDbLinetypeTableRecord
  2
CONTINUOUS
 70
     0
  3
Solid line
 72
    65
 73
     0
 40
0.0
  0
LTYPE
  5
CFB7
330
CF99
100
AcDbSymbolTableRecord
100
AcDbLinetypeTableRecord
  2
DASHED
 70
     0
  3
__ __ __ __ __ __ __ __ __ __ __ __ __ __ __ __
 72
    65
 73
     2
 40
0.75
 49
0.5
 74
     0
 49
-0.25
 74
     0
  0
LTYPE
  5
CFB8
330
CF99
100
AcDbSymbolTableRecord
100
AcDbLinetypeTableRecord
  2
CENTER
 70
     0
  3
____ _ ____ _ ____ _ ____ _ ____ _ ____ _ ____ 
 72
    65
 73
     4
 40
2.0
 49
1.25
 74
     0
 49
-0.25
 74
     0
 49
0.25
 74
     0
 49
-0.25
 74
     0
  0
LTYPE
  5
CFB9
330
CF99
100
AcDbSymbolTableRecord
100
AcDbLinetypeTableRecord
  2
PHANTOM
 70
     0
  3
______  __  __  ______  __  __  ______  __  __ 
 72
    65
 73
     6
 40
2.5
 49
1.25
 74
     0
 49
-0.25
 74
     0
 49
0.25
 74
     0
 49
-0.25
 74
     0
 49
0.25
 74
     0
 49
-0.25
 74
     0
  0
ENDTAB
  0
TABLE
  2
LAYER
  5
CF96
330
0
100
AcDbSymbolTable
 70
     8
  0
LAYER
  5
CFA4
102
{ACAD_XDICTIONARY
360
D25D
102
}
330
CF96
100
AcDbSymbolTableRecord
100
AcDbLayerTableRecord
  2
0
 70
     0
 62
     7
  6
CONTINUOUS
370
    -3
390
D20B
  0
LAYER
  5
CFBA
102
{ACAD_XDICTIONARY
360
D25F
102
}
330
CF96
100
AcDbSymbolTableRecord
100
AcDbLayerTableRecord
  2
4
 70
     0
 62
     1
  6
CENTER
370
    -3
390
D20B
  0
LAYER
  5
CFBB
102
{ACAD_XDICTIONARY
360
D261
102
}
330
CF96
100
AcDbSymbolTableRecord
100
AcDbLayerTableRecord
  2
5
 70
     0
 62
     6
  6
PHANTOM
370
    -3
390
D20B
  0
LAYER
  5
CFBC
102
{ACAD_XDICTIONARY
360
D263
102
}
330
CF96
100
AcDbSymbolTableRecord
100
AcDbLayerTableRecord
  2
1
 70
     0
 62
     7
  6
CONTINUOUS
370
    -3
390
D20B
  0
LAYER
  5
CFBD
102
{ACAD_XDICTIONARY
360
D265
102
}
330
CF96
100
AcDbSymbolTableRecord
100
AcDbLayerTableRecord
  2
2
 70
     0
 62
     4
  6
CONTINUOUS
370
    -3
390
D20B
  0
LAYER
  5
CFBE
102
{ACAD_XDICTIONARY
360
D267
102
}
330
CF96
100
AcDbSymbolTableRecord
100
AcDbLayerTableRecord
  2
3
 70
     0
 62
     2
  6
DASHED
370
    -3
390
D20B
  0
LAYER
  5
CFBF
102
{ACAD_XDICTIONARY
360
D269
102
}
330
CF96
100
AcDbSymbolTableRecord
100
AcDbLayerTableRecord
  2
6
 70
     0
 62
     5
  6
CONTINUOUS
370
    -3
390
D20B
  0
LAYER
  5
CFC0
102
{ACAD_XDICTIONARY
360
D26B
102
}
330
CF96
100
AcDbSymbolTableRecord
100
AcDbLayerTableRecord
  2
7
 70
     0
 62
     3
  6
CONTINUOUS
370
    -3
390
D20B
  0
ENDTAB
  0
TABLE
  2
STYLE
  5
CF97
330
0
100
AcDbSymbolTable
 70
     1
  0
STYLE
  5
CFA5
330
CF97
100
AcDbSymbolTableRecord
100
AcDbTextStyleTableRecord
  2
STANDARD
 70
     0
 40
0.0
 41
1.0
 50
0.0
 71
     0
 42
5.0
  3
txt
  4

  0
ENDTAB
  0
TABLE
  2
VIEW
  5
CF9A
330
0
100
AcDbSymbolTable
 70
     0
  0
ENDTAB
  0
TABLE
  2
UCS
  5
CF9B
330
0
100
AcDbSymbolTable
 70
     0
  0
ENDTAB
  0
TABLE
  2
APPID
  5
CF9D
330
0
100
AcDbSymbolTable
 70
     3
  0
APPID
  5
CFA6
330
CF9D
100
AcDbSymbolTableRecord
100
AcDbRegAppTableRecord
  2
ACAD
 70
     0
  0
APPID
  5
D277
330
CF9D
100
AcDbSymbolTableRecord
100
AcDbRegAppTableRecord
  2
ACAD_NAV_VCDISPLAY
 70
     0
  0
APPID
  5
D2B0
330
CF9D
100
AcDbSymbolTableRecord
100
AcDbRegAppTableRecord
  2
ACAD_MLEADERVER
 70
     0
  0
ENDTAB
  0
TABLE
  2
DIMSTYLE
  5
CF9E
330
0
100
AcDbSymbolTable
 70
     1
100
AcDbDimStyleTable
 71
     0
  0
DIMSTYLE
105
CFC2
330
CF9E
100
AcDbSymbolTableRecord
100
AcDbDimStyleTableRecord
  2
STANDARD
 70
     0
 41
3.0
 42
1.0
 43
10.0
 44
1.0
 73
     0
 74
     0
 77
     3
 78
     8
140
2.5
141
0.0
147
1.0
172
     1
173
     1
284
     8
285
     8
286
     8
340
CFA5
  0
ENDTAB
  0
TABLE
  2
BLOCK_RECORD
  5
CF95
330
0
100
AcDbSymbolTable
 70
     0
  0
BLOCK_RECORD
  5
CFB2
102
{ACAD_XDICTIONARY
360
D205
102
}
330
CF95
100
AcDbSymbolTableRecord
100
AcDbBlockTableRecord
  2
*MODEL_SPACE
340
D259
  0
BLOCK_RECORD
  5
CFAE
102
{ACAD_XDICTIONARY
360
D203
102
}
330
CF95
100
AcDbSymbolTableRecord
100
AcDbBlockTableRecord
  2
*PAPER_SPACE
340
D25A
  0
ENDTAB
  0
ENDSEC
  0
SECTION
  2
BLOCKS
  0
BLOCK
  5
CFB3
330
CFB2
100
AcDbEntity
  8
0
100
AcDbBlockBegin
  2
*MODEL_SPACE
 70
     0
 10
0.0
 20
0.0
 30
0.0
  3
*MODEL_SPACE
  1

  0
ENDBLK
  5
CFB4
330
CFB2
100
AcDbEntity
  8
0
100
AcDbBlockEnd
  0
BLOCK
  5
CFAF
330
CFAE
100
AcDbEntity
 67
     1
  8
0
100
AcDbBlockBegin
  2
*PAPER_SPACE
 70
     0
 10
0.0
 20
0.0
 30
0.0
  3
*PAPER_SPACE
  1

  0
ENDBLK
  5
CFB0
330
CFAE
100
AcDbEntity
 67
     1
  8
0
100
AcDbBlockEnd
  0
ENDSEC
  0
SECTION
  2
ENTITIES
  0
TEXT
  5
CFCA
330
CFB2
100
AcDbEntity
  8
7
  6
Continuous
100
AcDbText
 10
10.0
 20
18.0
 30
0.0
 40
3.0
  1
TYPE No.TM-232-4
100
AcDbText
  0
TEXT
  5
CFCB
330
CFB2
100
AcDbEntity
  8
7
  6
Continuous
100
AcDbText
 10
10.0
 20
26.0
 30
0.0
 40
3.0
  1
CODE No.6027
100
AcDbText
  0
TEXT
  5
CFCC
330
CFB2
100
AcDbEntity
  8
1
  6
Continuous
100
AcDbText
 10
10.0
 20
10.0
 30
0.0
 40
1.399999999999999
  1
LAYER
100
AcDbText
  0
TEXT
  5
CFCD
330
CFB2
100
AcDbEntity
  8
1
  6
Continuous
100
AcDbText
 10
17.97951099999998
 20
10.04873699999998
 30
0.0
 40
1.399999999999999
  1
1
100
AcDbText
  0
TEXT
  5
CFCE
330
CFB2
100
AcDbEntity
  8
7
  6
Continuous
100
AcDbText
 10
29.97951099999999
 20
10.04873699999998
 30
0.0
 40
1.399999999999999
  1
7
100
AcDbText
  0
TEXT
  5
CFCF
330
CFB2
100
AcDbEntity
  8
4
  6
CENTER
100
AcDbText
 10
23.97951099999999
 20
10.04873699999998
 30
0.0
 40
1.399999999999999
  1
4
100
AcDbText
  0
TEXT
  5
CFD0
330
CFB2
100
AcDbEntity
  8
3
  6
DASHED
100
AcDbText
 10
21.979511
 20
10.04873699999998
 30
0.0
 40
1.399999999999999
  1
3
100
AcDbText
  0
TEXT
  5
CFD1
330
CFB2
100
AcDbEntity
  8
2
  6
Continuous
100
AcDbText
 10
19.97951099999999
 20
10.04873699999998
 30
0.0
 40
1.399999999999999
  1
2
100
AcDbText
  0
TEXT
  5
CFD2
330
CFB2
100
AcDbEntity
  8
6
  6
Continuous
100
AcDbText
 10
27.979511
 20
10.04873699999998
 30
0.0
 40
1.399999999999999
  1
6
100
AcDbText
  0
TEXT
  5
CFD3
330
CFB2
100
AcDbEntity
  8
5
  6
PHANTOM
100
AcDbText
 10
25.97951099999999
 20
10.04873699999998
 30
0.0
 40
1.399999999999999
  1
5
100
AcDbText
  0
LINE
  5
CFD4
330
CFB2
100
AcDbEntity
  8
1
  6
Continuous
100
AcDbLine
 10
353.0
 20
119.0
 30
0.0
 11
153.0
 21
119.0
 31
0.0
  0
LINE
  5
CFD5
330
CFB2
100
AcDbEntity
  8
1
  6
Continuous
100
AcDbLine
 10
153.0
 20
119.0
 30
0.0
 11
153.0
 21
115.15
 31
0.0
  0
LINE
  5
CFD6
330
CFB2
100
AcDbEntity
  8
1
  6
Continuous
100
AcDbLine
 10
153.0
 20
99.0
 30
0.0
 11
353.0
 21
99.0
 31
0.0
  0
LINE
  5
CFD7
330
CFB2
100
AcDbEntity
  8
1
  6
Continuous
100
AcDbLine
 10
353.0
 20
99.0
 30
0.0
 11
353.0
 21
119.0
 31
0.0
  0
LINE
  5
CFD8
330
CFB2
100
AcDbEntity
  8
1
  6
Continuous
100
AcDbLine
 10
353.0
 20
100.477962
 30
0.0
 11
153.0
 21
100.477962
 31
0.0
  0
LINE
  5
CFD9
330
CFB2
100
AcDbEntity
  8
1
  6
Continuous
100
AcDbLine
 10
153.0
 20
101.3273349999999
 30
0.0
 11
353.0
 21
101.3273349999999
 31
0.0
  0
LINE
  5
CFDA
330
CFB2
100
AcDbEntity
  8
1
  6
Continuous
100
AcDbLine
 10
353.0
 20
116.6726649999999
 30
0.0
 11
153.0
 21
116.6726649999999
 31
0.0
  0
LINE
  5
CFDB
330
CFB2
100
AcDbEntity
  8
1
  6
Continuous
100
AcDbLine
 10
153.0
 20
117.522038
 30
0.0
 11
353.0
 21
117.522038
 31
0.0
  0
LINE
  5
CFDC
330
CFB2
100
AcDbEntity
  8
3
  6
DASHED
100
AcDbLine
 10
153.0
 20
115.15
 30
0.0
 11
153.0
 21
102.8499999999998
 31
0.0
  0
LINE
  5
CFDD
330
CFB2
100
AcDbEntity
  8
1
  6
Continuous
100
AcDbLine
 10
153.0
 20
102.8499999999998
 30
0.0
 11
153.0
 21
99.0
 31
0.0
  0
LINE
  5
CFDE
330
CFB2
100
AcDbEntity
  8
1
  6
Continuous
100
AcDbLine
 10
349.5
 20
102.687466
 30
0.0
 11
349.5
 21
115.312534
 31
0.0
  0
LINE
  5
CFDF
330
CFB2
100
AcDbEntity
  8
4
  6
CENTER
100
AcDbLine
 10
75.0
 20
109.0
 30
0.0
 11
356.0
 21
109.0
 31
0.0
  0
LINE
  5
CFE0
330
CFB2
100
AcDbEntity
  8
1
  6
Continuous
100
AcDbLine
 10
278.0
 20
115.15
 30
0.0
 11
78.0
 21
115.15
 31
0.0
  0
LINE
  5
CFE1
330
CFB2
100
AcDbEntity
  8
1
  6
Continuous
100
AcDbLine
 10
78.0
 20
115.15
 30
0.0
 11
78.0
 21
102.8499999999998
 31
0.0
  0
LINE
  5
CFE2
330
CFB2
100
AcDbEntity
  8
1
  6
Continuous
100
AcDbLine
 10
78.0
 20
102.8499999999998
 30
0.0
 11
278.0
 21
102.8499999999998
 31
0.0
  0
LINE
  5
CFE3
330
CFB2
100
AcDbEntity
  8
1
  6
Continuous
100
AcDbLine
 10
278.0
 20
102.8499999999998
 30
0.0
 11
278.0
 21
115.15
 31
0.0
  0
LINE
  5
CFE4
330
CFB2
100
AcDbEntity
  8
1
  6
Continuous
100
AcDbLine
 10
156.4999999999998
 20
116.1795
 30
0.0
 11
156.4999999999998
 21
115.15
 31
0.0
  0
LINE
  5
CFE5
330
CFB2
100
AcDbEntity
  8
1
  6
Continuous
100
AcDbLine
 10
164.5
 20
115.6795
 30
0.0
 11
164.5
 21
116.1795
 31
0.0
  0
LINE
  5
CFE6
330
CFB2
100
AcDbEntity
  8
1
  6
Continuous
100
AcDbLine
 10
156.4999999999998
 20
115.6795
 30
0.0
 11
164.5
 21
115.6795
 31
0.0
  0
LINE
  5
CFE7
330
CFB2
100
AcDbEntity
  8
1
  6
Continuous
100
AcDbLine
 10
156.4999999999998
 20
116.1795
 30
0.0
 11
164.5
 21
116.1795
 31
0.0
  0
LINE
  5
CFE8
330
CFB2
100
AcDbEntity
  8
1
  6
Continuous
100
AcDbLine
 10
156.4999999999998
 20
101.8205
 30
0.0
 11
156.4999999999998
 21
102.8499999999998
 31
0.0
  0
ARC
  5
CFE9
330
CFB2
100
AcDbEntity
  8
1
  6
Continuous
100
AcDbCircle
 10
165.5
 20
102.3204999999999
 30
0.0
 40
1.0
100
AcDbArc
 50
0.0
 51
31.97167800000001
  0
LINE
  5
CFEA
330
CFB2
100
AcDbEntity
  8
1
  6
Continuous
100
AcDbLine
 10
164.5
 20
102.3204999999999
 30
0.0
 11
164.5
 21
101.8205
 31
0.0
  0
LINE
  5
CFEB
330
CFB2
100
AcDbEntity
  8
1
  6
Continuous
100
AcDbLine
 10
156.4999999999998
 20
102.3204999999999
 30
0.0
 11
164.5
 21
102.3204999999999
 31
0.0
  0
LINE
  5
CFEC
330
CFB2
100
AcDbEntity
  8
1
  6
Continuous
100
AcDbLine
 10
156.4999999999998
 20
101.8205
 30
0.0
 11
164.5
 21
101.8205
 31
0.0
  0
ARC
  5
CFED
330
CFB2
100
AcDbEntity
  8
1
  6
Continuous
100
AcDbCircle
 10
165.5
 20
115.6795
 30
0.0
 40
1.0
100
AcDbArc
 50
180.0
 51
211.9716779999999
  0
LINE
  5
CFEE
330
CFB2
100
AcDbEntity
  8
1
  6
Continuous
100
AcDbLine
 10
174.5
 20
115.6795
 30
0.0
 11
174.5
 21
116.1795
 31
0.0
  0
LINE
  5
CFEF
330
CFB2
100
AcDbEntity
  8
1
  6
Continuous
100
AcDbLine
 10
166.5
 20
115.6795
 30
0.0
 11
174.5
 21
115.6795
 31
0.0
  0
LINE
  5
CFF0
330
CFB2
100
AcDbEntity
  8
1
  6
Continuous
100
AcDbLine
 10
166.5
 20
116.1795
 30
0.0
 11
174.5
 21
116.1795
 31
0.0
  0
LINE
  5
CFF1
330
CFB2
100
AcDbEntity
  8
1
  6
Continuous
100
AcDbLine
 10
174.5
 20
102.3204999999999
 30
0.0
 11
174.5
 21
101.8205
 31
0.0
  0
LINE
  5
CFF2
330
CFB2
100
AcDbEntity
  8
1
  6
Continuous
100
AcDbLine
 10
166.5
 20
102.3204999999999
 30
0.0
 11
174.5
 21
102.3204999999999
 31
0.0
  0
LINE
  5
CFF3
330
CFB2
100
AcDbEntity
  8
1
  6
Continuous
100
AcDbLine
 10
166.5
 20
101.8205
 30
0.0
 11
174.5
 21
101.8205
 31
0.0
  0
LINE
  5
CFF4
330
CFB2
100
AcDbEntity
  8
1
  6
Continuous
100
AcDbLine
 10
166.5
 20
116.1795
 30
0.0
 11
166.5
 21
115.6795
 31
0.0
  0
LINE
  5
CFF5
330
CFB2
100
AcDbEntity
  8
1
  6
Continuous
100
AcDbLine
 10
166.5
 20
101.8205
 30
0.0
 11
166.5
 21
102.3204999999999
 31
0.0
  0
ARC
  5
CFF6
330
CFB2
100
AcDbEntity
  8
1
  6
Continuous
100
AcDbCircle
 10
175.5
 20
102.3204999999999
 30
0.0
 40
1.0
100
AcDbArc
 50
0.0
 51
31.97167800000001
  0
LINE
  5
CFF7
330
CFB2
100
AcDbEntity
  8
1
  6
Continuous
100
AcDbLine
 10
184.4999999999998
 20
115.6795
 30
0.0
 11
184.4999999999998
 21
116.1795
 31
0.0
  0
LINE
  5
CFF8
330
CFB2
100
AcDbEntity
  8
1
  6
Continuous
100
AcDbLine
 10
176.5
 20
115.6795
 30
0.0
 11
184.4999999999998
 21
115.6795
 31
0.0
  0
LINE
  5
CFF9
330
CFB2
100
AcDbEntity
  8
1
  6
Continuous
100
AcDbLine
 10
176.5
 20
116.1795
 30
0.0
 11
184.4999999999998
 21
116.1795
 31
0.0
  0
LINE
  5
CFFA
330
CFB2
100
AcDbEntity
  8
1
  6
Continuous
100
AcDbLine
 10
184.4999999999998
 20
102.3204999999999
 30
0.0
 11
184.4999999999998
 21
101.8205
 31
0.0
  0
LINE
  5
CFFB
330
CFB2
100
AcDbEntity
  8
1
  6
Continuous
100
AcDbLine
 10
176.5
 20
102.3204999999999
 30
0.0
 11
184.4999999999998
 21
102.3204999999999
 31
0.0
  0
LINE
  5
CFFC
330
CFB2
100
AcDbEntity
  8
1
  6
Continuous
100
AcDbLine
 10
176.5
 20
101.8205
 30
0.0
 11
184.4999999999998
 21
101.8205
 31
0.0
  0
LINE
  5
CFFD
330
CFB2
100
AcDbEntity
  8
1
  6
Continuous
100
AcDbLine
 10
176.5
 20
116.1795
 30
0.0
 11
176.5
 21
115.6795
 31
0.0
  0
ARC
  5
CFFE
330
CFB2
100
AcDbEntity
  8
1
  6
Continuous
100
AcDbCircle
 10
175.5
 20
115.6795
 30
0.0
 40
1.0
100
AcDbArc
 50
180.0
 51
211.9716779999999
  0
LINE
  5
CFFF
330
CFB2
100
AcDbEntity
  8
1
  6
Continuous
100
AcDbLine
 10
176.5
 20
101.8205
 30
0.0
 11
176.5
 21
102.3204999999999
 31
0.0
  0
ARC
  5
D000
330
CFB2
100
AcDbEntity
  8
1
  6
Continuous
100
AcDbCircle
 10
185.5
 20
102.3204999999999
 30
0.0
 40
1.0
100
AcDbArc
 50
0.0
 51
31.97167800000001
  0
LINE
  5
D001
330
CFB2
100
AcDbEntity
  8
1
  6
Continuous
100
AcDbLine
 10
194.5
 20
115.6795
 30
0.0
 11
194.5
 21
116.1795
 31
0.0
  0
LINE
  5
D002
330
CFB2
100
AcDbEntity
  8
1
  6
Continuous
100
AcDbLine
 10
186.5
 20
115.6795
 30
0.0
 11
194.5
 21
115.6795
 31
0.0
  0
LINE
  5
D003
330
CFB2
100
AcDbEntity
  8
1
  6
Continuous
100
AcDbLine
 10
186.5
 20
116.1795
 30
0.0
 11
194.5
 21
116.1795
 31
0.0
  0
LINE
  5
D004
330
CFB2
100
AcDbEntity
  8
1
  6
Continuous
100
AcDbLine
 10
194.5
 20
102.3204999999999
 30
0.0
 11
194.5
 21
101.8205
 31
0.0
  0
LINE
  5
D005
330
CFB2
100
AcDbEntity
  8
1
  6
Continuous
100
AcDbLine
 10
186.5
 20
102.3204999999999
 30
0.0
 11
194.5
 21
102.3204999999999
 31
0.0
  0
LINE
  5
D006
330
CFB2
100
AcDbEntity
  8
1
  6
Continuous
100
AcDbLine
 10
186.5
 20
101.8205
 30
0.0
 11
194.5
 21
101.8205
 31
0.0
  0
LINE
  5
D007
330
CFB2
100
AcDbEntity
  8
1
  6
Continuous
100
AcDbLine
 10
186.5
 20
116.1795
 30
0.0
 11
186.5
 21
115.6795
 31
0.0
  0
ARC
  5
D008
330
CFB2
100
AcDbEntity
  8
1
  6
Continuous
100
AcDbCircle
 10
185.5
 20
115.6795
 30
0.0
 40
1.0
100
AcDbArc
 50
180.0
 51
211.9716779999999
  0
LINE
  5
D009
330
CFB2
100
AcDbEntity
  8
1
  6
Continuous
100
AcDbLine
 10
186.5
 20
101.8205
 30
0.0
 11
186.5
 21
102.3204999999999
 31
0.0
  0
ARC
  5
D00A
330
CFB2
100
AcDbEntity
  8
1
  6
Continuous
100
AcDbCircle
 10
195.5
 20
102.3204999999999
 30
0.0
 40
1.0
100
AcDbArc
 50
0.0
 51
31.97167800000001
  0
ARC
  5
D00B
330
CFB2
100
AcDbEntity
  8
1
  6
Continuous
100
AcDbCircle
 10
195.5
 20
115.6795
 30
0.0
 40
1.0
100
AcDbArc
 50
180.0
 51
211.9716779999999
  0
LINE
  5
D00C
330
CFB2
100
AcDbEntity
  8
1
  6
Continuous
100
AcDbLine
 10
196.5
 20
115.6795
 30
0.0
 11
196.5
 21
116.1795
 31
0.0
  0
LINE
  5
D00D
330
CFB2
100
AcDbEntity
  8
1
  6
Continuous
100
AcDbLine
 10
196.5
 20
115.6795
 30
0.0
 11
204.4999999999999
 21
115.6795
 31
0.0
  0
LINE
  5
D00E
330
CFB2
100
AcDbEntity
  8
1
  6
Continuous
100
AcDbLine
 10
196.5
 20
116.1795
 30
0.0
 11
204.4999999999999
 21
116.1795
 31
0.0
  0
LINE
  5
D00F
330
CFB2
100
AcDbEntity
  8
1
  6
Continuous
100
AcDbLine
 10
196.5
 20
102.3204999999999
 30
0.0
 11
196.5
 21
101.8205
 31
0.0
  0
LINE
  5
D010
330
CFB2
100
AcDbEntity
  8
1
  6
Continuous
100
AcDbLine
 10
196.5
 20
102.3204999999999
 30
0.0
 11
204.4999999999999
 21
102.3204999999999
 31
0.0
  0
LINE
  5
D011
330
CFB2
100
AcDbEntity
  8
1
  6
Continuous
100
AcDbLine
 10
196.5
 20
101.8205
 30
0.0
 11
204.4999999999999
 21
101.8205
 31
0.0
  0
LINE
  5
D012
330
CFB2
100
AcDbEntity
  8
4
  6
CENTER
100
AcDbLine
 10
88.0
 20
111.510153
 30
0.0
 11
88.0
 21
106.4500409999999
 31
0.0
  0
CIRCLE
  5
D013
330
CFB2
100
AcDbEntity
  8
1
  6
Continuous
100
AcDbCircle
 10
88.0
 20
109.0
 30
0.0
 40
1.6
  0
LINE
  5
D014
330
CFB2
100
AcDbEntity
  8
4
  6
CENTER
100
AcDbLine
 10
163.0
 20
111.510153
 30
0.0
 11
163.0
 21
106.6676799999999
 31
0.0
  0
LINE
  5
D015
330
CFB2
100
AcDbEntity
  8
4
  6
CENTER
100
AcDbLine
 10
98.0
 20
112.5999999999998
 30
0.0
 11
98.0
 21
105.4
 31
0.0
  0
CIRCLE
  5
D016
330
CFB2
100
AcDbEntity
  8
1
  6
Continuous
100
AcDbCircle
 10
98.0
 20
109.0
 30
0.0
 40
2.149999999999999
  0
LINE
  5
D017
330
CFB2
100
AcDbEntity
  8
4
  6
CENTER
100
AcDbLine
 10
173.0
 20
112.5999999999998
 30
0.0
 11
173.0
 21
105.4
 31
0.0
  0
LINE
  5
D018
330
CFB2
100
AcDbEntity
  8
4
  6
CENTER
100
AcDbLine
 10
268.0
 20
111.401334
 30
0.0
 11
268.0
 21
106.4500409999999
 31
0.0
  0
CIRCLE
  5
D019
330
CFB2
100
AcDbEntity
  8
1
  6
Continuous
100
AcDbCircle
 10
268.0
 20
109.0
 30
0.0
 40
1.6
  0
LINE
  5
D01A
330
CFB2
100
AcDbEntity
  8
4
  6
CENTER
100
AcDbLine
 10
258.0
 20
112.5999999999998
 30
0.0
 11
258.0
 21
105.4
 31
0.0
  0
CIRCLE
  5
D01B
330
CFB2
100
AcDbEntity
  8
1
  6
Continuous
100
AcDbCircle
 10
258.0
 20
109.0
 30
0.0
 40
2.149999999999999
  0
LINE
  5
D01C
330
CFB2
100
AcDbEntity
  8
4
  6
CENTER
100
AcDbLine
 10
343.0
 20
111.510153
 30
0.0
 11
343.0
 21
106.504451
 31
0.0
  0
CIRCLE
  5
D01D
330
CFB2
100
AcDbEntity
  8
1
  6
Continuous
100
AcDbCircle
 10
343.0
 20
109.0
 30
0.0
 40
1.6
  0
LINE
  5
D01E
330
CFB2
100
AcDbEntity
  8
4
  6
CENTER
100
AcDbLine
 10
333.0
 20
112.5999999999998
 30
0.0
 11
333.0
 21
105.4
 31
0.0
  0
LINE
  5
D01F
330
CFB2
100
AcDbEntity
  8
1
  6
Continuous
100
AcDbLine
 10
27.32991699999999
 20
115.4900789999999
 30
0.0
 11
32.20000000000001
 21
116.1795
 31
0.0
  0
LINE
  5
D020
330
CFB2
100
AcDbEntity
  8
1
  6
Continuous
100
AcDbLine
 10
27.4
 20
115.0
 30
0.0
 11
32.20000000000001
 21
115.6795
 31
0.0
  0
LINE
  5
D021
330
CFB2
100
AcDbEntity
  8
1
  6
Continuous
100
AcDbLine
 10
30.943724
 20
116.6726649999999
 30
0.0
 11
32.078071
 21
117.522038
 31
0.0
  0
ARC
  5
D022
330
CFB2
100
AcDbEntity
  8
1
  6
Continuous
100
AcDbCircle
 10
31.49104
 20
113.6410399999999
 30
0.0
 40
1.50896
100
AcDbArc
 50
0.0
 51
130.0162919999999
  0
LINE
  5
D023
330
CFB2
100
AcDbEntity
  8
4
  6
CENTER
100
AcDbLine
 10
22.0
 20
109.0
 30
0.0
 11
36.0
 21
109.0
 31
0.0
  0
ARC
  5
D024
330
CFB2
100
AcDbEntity
  8
1
  6
Continuous
100
AcDbCircle
 10
29.5
 20
116.0125
 30
0.0
 40
2.987499999999998
100
AcDbArc
 50
30.350252
 51
132.8834129999999
  0
ARC
  5
D025
330
CFB2
100
AcDbEntity
  8
1
  6
Continuous
100
AcDbCircle
 10
29.5
 20
116.0125
 30
0.0
 40
1.587499999999999
100
AcDbArc
 50
214.550104
 51
341.5646869999999
  0
ARC
  5
D026
330
CFB2
100
AcDbEntity
  8
1
  6
Continuous
100
AcDbCircle
 10
27.4
 20
114.995015
 30
0.0
 40
0.5
100
AcDbArc
 50
98.05739500000001
 51
180.0
  0
ARC
  5
D027
330
CFB2
100
AcDbEntity
  8
1
  6
Continuous
100
AcDbCircle
 10
28.9
 20
112.3144609999999
 30
0.0
 40
0.5
100
AcDbArc
 50
0.0
 51
59.45939499999999
  0
LINE
  5
D028
330
CFB2
100
AcDbEntity
  8
1
  6
Continuous
100
AcDbLine
 10
28.1
 20
112.786461
 30
0.0
 11
28.9
 21
112.3144609999999
 31
0.0
  0
LINE
  5
D029
330
CFB2
100
AcDbEntity
  8
1
  6
Continuous
100
AcDbLine
 10
28.079209
 20
113.3792659999999
 30
0.0
 11
29.15407399999999
 21
112.745096
 31
0.0
  0
LINE
  5
D02A
330
CFB2
100
AcDbEntity
  8
1
  6
Continuous
100
AcDbLine
 10
27.4
 20
115.0
 30
0.0
 11
27.4
 21
114.572051
 31
0.0
  0
LINE
  5
D02B
330
CFB2
100
AcDbEntity
  8
1
  6
Continuous
100
AcDbLine
 10
26.89999999999999
 20
114.995015
 30
0.0
 11
26.89999999999999
 21
114.878509
 31
0.0
  0
LINE
  5
D02C
330
CFB2
100
AcDbEntity
  8
1
  6
Continuous
100
AcDbLine
 10
28.9
 20
112.3144609999999
 30
0.0
 11
28.9
 21
105.6855389999999
 31
0.0
  0
LINE
  5
D02D
330
CFB2
100
AcDbEntity
  8
1
  6
Continuous
100
AcDbLine
 10
29.39999999999999
 20
112.3144609999999
 30
0.0
 11
29.39999999999999
 21
105.6855389999999
 31
0.0
  0
LINE
  5
D02E
330
CFB2
100
AcDbEntity
  8
1
  6
Continuous
100
AcDbLine
 10
27.700075
 20
114.265053
 30
0.0
 11
28.36098699999999
 21
114.9066949999999
 31
0.0
  0
ARC
  5
D02F
330
CFB2
100
AcDbEntity
  8
1
  6
Continuous
100
AcDbCircle
 10
31.49104
 20
113.6410399999999
 30
0.0
 40
0.30896
100
AcDbArc
 50
0.0
 51
130.0162919999999
  0
ARC
  5
D030
330
CFB2
100
AcDbEntity
  8
1
  6
Continuous
100
AcDbCircle
 10
29.5
 20
116.0125
 30
0.0
 40
2.7875
100
AcDbArc
 50
237.8779199999999
 51
310.0162919999998
  0
ARC
  5
D031
330
CFB2
100
AcDbEntity
  8
1
  6
Continuous
100
AcDbCircle
 10
26.89999999999999
 20
115.0819889999998
 30
0.0
 40
1.9
100
AcDbArc
 50
132.8834129999999
 51
202.591431
  0
LINE
  5
D032
330
CFB2
100
AcDbEntity
  8
1
  6
Continuous
100
AcDbLine
 10
25.607033
 20
116.474195
 30
0.0
 11
27.46698
 21
118.201561
 31
0.0
  0
LINE
  5
D033
330
CFB2
100
AcDbEntity
  8
1
  6
Continuous
100
AcDbLine
 10
26.807986
 20
115.678904
 30
0.0
 11
28.41969199999999
 21
117.1757249999999
 31
0.0
  0
ARC
  5
D034
330
CFB2
100
AcDbEntity
  8
1
  6
Continuous
100
AcDbCircle
 10
29.5
 20
116.0125
 30
0.0
 40
1.587499999999999
100
AcDbArc
 50
0.343152
 51
195.7716379999999
  0
LINE
  5
D035
330
CFB2
100
AcDbEntity
  8
1
  6
Continuous
100
AcDbLine
 10
31.8
 20
113.6410399999999
 30
0.0
 11
31.8
 21
104.35896
 31
0.0
  0
LINE
  5
D036
330
CFB2
100
AcDbEntity
  8
1
  6
Continuous
100
AcDbLine
 10
26.4
 20
113.558824
 30
0.0
 11
26.4
 21
104.441176
 31
0.0
  0
LINE
  5
D037
330
CFB2
100
AcDbEntity
  8
1
  6
Continuous
100
AcDbLine
 10
25.0
 20
115.0819889999998
 30
0.0
 11
25.0
 21
102.9180109999998
 31
0.0
  0
LINE
  5
D038
330
CFB2
100
AcDbEntity
  8
1
  6
Continuous
100
AcDbLine
 10
32.20000000000001
 20
116.1795
 30
0.0
 11
32.20000000000001
 21
115.6795
 31
0.0
  0
LINE
  5
D039
330
CFB2
100
AcDbEntity
  8
1
  6
Continuous
100
AcDbLine
 10
33.0
 20
113.6410399999999
 30
0.0
 11
33.0
 21
104.35896
 31
0.0
  0
ARC
  5
D03A
330
CFB2
100
AcDbEntity
  8
1
  6
Continuous
100
AcDbCircle
 10
160.4999999999998
 20
116.0125
 30
0.0
 40
1.587499999999999
100
AcDbArc
 50
192.1085089999999
 51
212.9090519999999
  0
ARC
  5
D03B
330
CFB2
100
AcDbEntity
  8
1
  6
Continuous
100
AcDbCircle
 10
160.4999999999998
 20
116.0125
 30
0.0
 40
1.587499999999999
100
AcDbArc
 50
6.038508
 51
24.57297999999999
  0
ARC
  5
D03C
330
CFB2
100
AcDbEntity
  8
1
  6
Continuous
100
AcDbCircle
 10
160.4999999999998
 20
116.0125
 30
0.0
 40
1.587499999999999
100
AcDbArc
 50
155.4270199999999
 51
173.9614919999999
  0
ARC
  5
D03D
330
CFB2
100
AcDbEntity
  8
1
  6
Continuous
100
AcDbCircle
 10
160.4999999999998
 20
116.0125
 30
0.0
 40
1.587499999999999
100
AcDbArc
 50
327.090948
 51
347.8914909999998
  0
ARC
  5
D03E
330
CFB2
100
AcDbEntity
  8
1
  6
Continuous
100
AcDbCircle
 10
195.5
 20
115.6795
 30
0.0
 40
1.0
100
AcDbArc
 50
328.028322
 51
0.0
  0
ARC
  5
D03F
330
CFB2
100
AcDbEntity
  8
1
  6
Continuous
100
AcDbCircle
 10
185.5
 20
115.6795
 30
0.0
 40
1.0
100
AcDbArc
 50
328.028322
 51
0.0
  0
ARC
  5
D040
330
CFB2
100
AcDbEntity
  8
1
  6
Continuous
100
AcDbCircle
 10
175.5
 20
115.6795
 30
0.0
 40
1.0
100
AcDbArc
 50
328.028322
 51
0.0
  0
ARC
  5
D041
330
CFB2
100
AcDbEntity
  8
1
  6
Continuous
100
AcDbCircle
 10
165.5
 20
115.6795
 30
0.0
 40
1.0
100
AcDbArc
 50
328.028322
 51
0.0
  0
ARC
  5
D042
330
CFB2
100
AcDbEntity
  8
1
  6
Continuous
100
AcDbCircle
 10
165.5
 20
102.3204999999999
 30
0.0
 40
1.0
100
AcDbArc
 50
148.028322
 51
180.0
  0
ARC
  5
D043
330
CFB2
100
AcDbEntity
  8
1
  6
Continuous
100
AcDbCircle
 10
175.5
 20
102.3204999999999
 30
0.0
 40
1.0
100
AcDbArc
 50
148.028322
 51
180.0
  0
ARC
  5
D044
330
CFB2
100
AcDbEntity
  8
1
  6
Continuous
100
AcDbCircle
 10
185.5
 20
102.3204999999999
 30
0.0
 40
1.0
100
AcDbArc
 50
148.028322
 51
180.0
  0
ARC
  5
D045
330
CFB2
100
AcDbEntity
  8
1
  6
Continuous
100
AcDbCircle
 10
195.5
 20
102.3204999999999
 30
0.0
 40
1.0
100
AcDbArc
 50
148.028322
 51
180.0
  0
ARC
  5
D046
330
CFB2
100
AcDbEntity
  8
1
  6
Continuous
100
AcDbCircle
 10
170.5
 20
116.0125
 30
0.0
 40
1.587499999999999
100
AcDbArc
 50
192.1085089999999
 51
212.9090519999999
  0
ARC
  5
D047
330
CFB2
100
AcDbEntity
  8
1
  6
Continuous
100
AcDbCircle
 10
170.5
 20
116.0125
 30
0.0
 40
1.587499999999999
100
AcDbArc
 50
155.4270199999999
 51
173.9614919999999
  0
ARC
  5
D048
330
CFB2
100
AcDbEntity
  8
1
  6
Continuous
100
AcDbCircle
 10
170.5
 20
116.0125
 30
0.0
 40
1.587499999999999
100
AcDbArc
 50
6.038508
 51
24.57297999999999
  0
ARC
  5
D049
330
CFB2
100
AcDbEntity
  8
1
  6
Continuous
100
AcDbCircle
 10
170.5
 20
116.0125
 30
0.0
 40
1.587499999999999
100
AcDbArc
 50
327.090948
 51
347.8914909999998
  0
ARC
  5
D04A
330
CFB2
100
AcDbEntity
  8
1
  6
Continuous
100
AcDbCircle
 10
180.4999999999998
 20
116.0125
 30
0.0
 40
1.587499999999999
100
AcDbArc
 50
192.1085089999999
 51
212.9090519999999
  0
ARC
  5
D04B
330
CFB2
100
AcDbEntity
  8
1
  6
Continuous
100
AcDbCircle
 10
180.4999999999998
 20
116.0125
 30
0.0
 40
1.587499999999999
100
AcDbArc
 50
155.4270199999999
 51
173.9614919999999
  0
ARC
  5
D04C
330
CFB2
100
AcDbEntity
  8
1
  6
Continuous
100
AcDbCircle
 10
180.4999999999998
 20
116.0125
 30
0.0
 40
1.587499999999999
100
AcDbArc
 50
6.038508
 51
24.57297999999999
  0
ARC
  5
D04D
330
CFB2
100
AcDbEntity
  8
1
  6
Continuous
100
AcDbCircle
 10
180.4999999999998
 20
116.0125
 30
0.0
 40
1.587499999999999
100
AcDbArc
 50
327.090948
 51
347.8914909999998
  0
ARC
  5
D04E
330
CFB2
100
AcDbEntity
  8
1
  6
Continuous
100
AcDbCircle
 10
190.5
 20
116.0125
 30
0.0
 40
1.587499999999999
100
AcDbArc
 50
327.090948
 51
347.8914909999998
  0
ARC
  5
D04F
330
CFB2
100
AcDbEntity
  8
1
  6
Continuous
100
AcDbCircle
 10
190.5
 20
116.0125
 30
0.0
 40
1.587499999999999
100
AcDbArc
 50
6.038508
 51
24.57297999999999
  0
ARC
  5
D050
330
CFB2
100
AcDbEntity
  8
1
  6
Continuous
100
AcDbCircle
 10
190.5
 20
116.0125
 30
0.0
 40
1.587499999999999
100
AcDbArc
 50
155.4270199999999
 51
173.9614919999999
  0
ARC
  5
D051
330
CFB2
100
AcDbEntity
  8
1
  6
Continuous
100
AcDbCircle
 10
190.5
 20
116.0125
 30
0.0
 40
1.587499999999999
100
AcDbArc
 50
192.1085089999999
 51
212.9090519999999
  0
ARC
  5
D052
330
CFB2
100
AcDbEntity
  8
1
  6
Continuous
100
AcDbCircle
 10
200.4999999999999
 20
116.0125
 30
0.0
 40
1.587499999999999
100
AcDbArc
 50
192.1085089999999
 51
212.9090519999999
  0
ARC
  5
D053
330
CFB2
100
AcDbEntity
  8
1
  6
Continuous
100
AcDbCircle
 10
200.4999999999999
 20
116.0125
 30
0.0
 40
1.587499999999999
100
AcDbArc
 50
155.4270199999999
 51
173.9614919999999
  0
ARC
  5
D054
330
CFB2
100
AcDbEntity
  8
1
  6
Continuous
100
AcDbCircle
 10
200.4999999999999
 20
116.0125
 30
0.0
 40
1.587499999999999
100
AcDbArc
 50
6.038508
 51
24.57297999999999
  0
ARC
  5
D055
330
CFB2
100
AcDbEntity
  8
1
  6
Continuous
100
AcDbCircle
 10
200.4999999999999
 20
116.0125
 30
0.0
 40
1.587499999999999
100
AcDbArc
 50
327.090948
 51
347.8914909999998
  0
ARC
  5
D056
330
CFB2
100
AcDbEntity
  8
1
  6
Continuous
100
AcDbCircle
 10
200.4999999999999
 20
101.9875
 30
0.0
 40
1.587499999999999
100
AcDbArc
 50
12.108509
 51
32.909052
  0
ARC
  5
D057
330
CFB2
100
AcDbEntity
  8
1
  6
Continuous
100
AcDbCircle
 10
200.4999999999999
 20
101.9875
 30
0.0
 40
1.587499999999999
100
AcDbArc
 50
335.4270200000001
 51
353.9614919999999
  0
ARC
  5
D058
330
CFB2
100
AcDbEntity
  8
1
  6
Continuous
100
AcDbCircle
 10
200.4999999999999
 20
101.9875
 30
0.0
 40
1.587499999999999
100
AcDbArc
 50
186.038508
 51
204.57298
  0
ARC
  5
D059
330
CFB2
100
AcDbEntity
  8
1
  6
Continuous
100
AcDbCircle
 10
200.4999999999999
 20
101.9875
 30
0.0
 40
1.587499999999999
100
AcDbArc
 50
147.0909479999999
 51
167.891491
  0
ARC
  5
D05A
330
CFB2
100
AcDbEntity
  8
1
  6
Continuous
100
AcDbCircle
 10
190.5
 20
101.9875
 30
0.0
 40
1.587499999999999
100
AcDbArc
 50
147.0909479999999
 51
167.891491
  0
ARC
  5
D05B
330
CFB2
100
AcDbEntity
  8
1
  6
Continuous
100
AcDbCircle
 10
190.5
 20
101.9875
 30
0.0
 40
1.587499999999999
100
AcDbArc
 50
186.038508
 51
204.57298
  0
ARC
  5
D05C
330
CFB2
100
AcDbEntity
  8
1
  6
Continuous
100
AcDbCircle
 10
190.5
 20
101.9875
 30
0.0
 40
1.587499999999999
100
AcDbArc
 50
335.4270200000001
 51
353.9614919999999
  0
ARC
  5
D05D
330
CFB2
100
AcDbEntity
  8
1
  6
Continuous
100
AcDbCircle
 10
190.5
 20
101.9875
 30
0.0
 40
1.587499999999999
100
AcDbArc
 50
12.108509
 51
32.909052
  0
ARC
  5
D05E
330
CFB2
100
AcDbEntity
  8
1
  6
Continuous
100
AcDbCircle
 10
180.4999999999998
 20
101.9875
 30
0.0
 40
1.587499999999999
100
AcDbArc
 50
12.108509
 51
32.909052
  0
ARC
  5
D05F
330
CFB2
100
AcDbEntity
  8
1
  6
Continuous
100
AcDbCircle
 10
180.4999999999998
 20
101.9875
 30
0.0
 40
1.587499999999999
100
AcDbArc
 50
335.4270200000001
 51
353.9614919999999
  0
ARC
  5
D060
330
CFB2
100
AcDbEntity
  8
1
  6
Continuous
100
AcDbCircle
 10
180.4999999999998
 20
101.9875
 30
0.0
 40
1.587499999999999
100
AcDbArc
 50
186.038508
 51
204.57298
  0
ARC
  5
D061
330
CFB2
100
AcDbEntity
  8
1
  6
Continuous
100
AcDbCircle
 10
180.4999999999998
 20
101.9875
 30
0.0
 40
1.587499999999999
100
AcDbArc
 50
147.0909479999999
 51
167.891491
  0
ARC
  5
D062
330
CFB2
100
AcDbEntity
  8
1
  6
Continuous
100
AcDbCircle
 10
170.5
 20
101.9875
 30
0.0
 40
1.587499999999999
100
AcDbArc
 50
12.108509
 51
32.909052
  0
ARC
  5
D063
330
CFB2
100
AcDbEntity
  8
1
  6
Continuous
100
AcDbCircle
 10
170.5
 20
101.9875
 30
0.0
 40
1.587499999999999
100
AcDbArc
 50
335.4270200000001
 51
353.9614919999999
  0
ARC
  5
D064
330
CFB2
100
AcDbEntity
  8
1
  6
Continuous
100
AcDbCircle
 10
170.5
 20
101.9875
 30
0.0
 40
1.587499999999999
100
AcDbArc
 50
186.038508
 51
204.57298
  0
ARC
  5
D065
330
CFB2
100
AcDbEntity
  8
1
  6
Continuous
100
AcDbCircle
 10
170.5
 20
101.9875
 30
0.0
 40
1.587499999999999
100
AcDbArc
 50
147.0909479999999
 51
167.891491
  0
ARC
  5
D066
330
CFB2
100
AcDbEntity
  8
1
  6
Continuous
100
AcDbCircle
 10
160.4999999999998
 20
101.9875
 30
0.0
 40
1.587499999999999
100
AcDbArc
 50
147.0909479999999
 51
167.891491
  0
ARC
  5
D067
330
CFB2
100
AcDbEntity
  8
1
  6
Continuous
100
AcDbCircle
 10
160.4999999999998
 20
101.9875
 30
0.0
 40
1.587499999999999
100
AcDbArc
 50
186.038508
 51
204.57298
  0
ARC
  5
D068
330
CFB2
100
AcDbEntity
  8
1
  6
Continuous
100
AcDbCircle
 10
160.4999999999998
 20
101.9875
 30
0.0
 40
1.587499999999999
100
AcDbArc
 50
335.4270200000001
 51
353.9614919999999
  0
ARC
  5
D069
330
CFB2
100
AcDbEntity
  8
1
  6
Continuous
100
AcDbCircle
 10
160.4999999999998
 20
101.9875
 30
0.0
 40
1.587499999999999
100
AcDbArc
 50
12.108509
 51
32.909052
  0
LINE
  5
D06A
330
CFB2
100
AcDbEntity
  8
1
  6
Continuous
100
AcDbLine
 10
28.1
 20
113.0989589999999
 30
0.0
 11
28.1
 21
104.9010409999999
 31
0.0
  0
LINE
  5
D06B
330
CFB2
100
AcDbEntity
  8
1
  6
Continuous
100
AcDbLine
 10
26.69999999999999
 20
113.0989589999999
 30
0.0
 11
26.69999999999999
 21
104.9010409999999
 31
0.0
  0
LINE
  5
D06C
330
CFB2
100
AcDbEntity
  8
1
  6
Continuous
100
AcDbLine
 10
25.0
 20
114.3
 30
0.0
 11
26.433944
 21
113.540853
 31
0.0
  0
ARC
  5
D06D
330
CFB2
100
AcDbEntity
  8
1
  6
Continuous
100
AcDbCircle
 10
25.60742499999999
 20
114.5441689999999
 30
0.0
 40
0.5
100
AcDbArc
 50
202.591431
 51
242.102729
  0
ARC
  5
D06E
330
CFB2
100
AcDbEntity
  8
1
  6
Continuous
100
AcDbCircle
 10
26.2
 20
113.0989589999999
 30
0.0
 40
0.5
100
AcDbArc
 50
0.0
 51
62.10272899999999
  0
ARC
  5
D06F
330
CFB2
100
AcDbEntity
  8
1
  6
Continuous
100
AcDbCircle
 10
26.2
 20
113.0989589999999
 30
0.0
 40
1.9
100
AcDbArc
 50
0.0
 51
62.10272899999999
  0
LINE
  5
D070
330
CFB2
100
AcDbEntity
  8
1
  6
Continuous
100
AcDbLine
 10
26.91429600000001
 20
114.87064
 30
0.0
 11
27.088987
 21
114.778156
 31
0.0
  0
ARC
  5
D071
330
CFB2
100
AcDbEntity
  8
1
  6
Continuous
100
AcDbCircle
 10
27.14824
 20
115.312534
 30
0.0
 40
0.5
100
AcDbArc
 50
132.8834129999999
 51
242.102729
  0
ARC
  5
D072
330
CFB2
100
AcDbEntity
  8
1
  6
Continuous
100
AcDbCircle
 10
27.14824
 20
102.687466
 30
0.0
 40
0.5
100
AcDbArc
 50
117.8972709999999
 51
227.116587
  0
LINE
  5
D073
330
CFB2
100
AcDbEntity
  8
1
  6
Continuous
100
AcDbLine
 10
26.807986
 20
102.3210959999999
 30
0.0
 11
28.41969199999999
 21
100.8242749999999
 31
0.0
  0
LINE
  5
D074
330
CFB2
100
AcDbEntity
  8
1
  6
Continuous
100
AcDbLine
 10
25.607033
 20
101.525805
 30
0.0
 11
27.46698
 21
99.798439
 31
0.0
  0
ARC
  5
D075
330
CFB2
100
AcDbEntity
  8
1
  6
Continuous
100
AcDbCircle
 10
27.4
 20
103.0049849999999
 30
0.0
 40
0.5
100
AcDbArc
 50
180.0
 51
261.9426049999999
  0
ARC
  5
D076
330
CFB2
100
AcDbEntity
  8
1
  6
Continuous
100
AcDbCircle
 10
26.2
 20
104.9010409999999
 30
0.0
 40
0.5
100
AcDbArc
 50
297.8972709999998
 51
0.0
  0
LINE
  5
D077
330
CFB2
100
AcDbEntity
  8
1
  6
Continuous
100
AcDbLine
 10
25.0
 20
103.7
 30
0.0
 11
26.433944
 21
104.459147
 31
0.0
  0
ARC
  5
D078
330
CFB2
100
AcDbEntity
  8
1
  6
Continuous
100
AcDbCircle
 10
25.60742499999999
 20
103.4558309999999
 30
0.0
 40
0.5
100
AcDbArc
 50
117.8972709999999
 51
157.4085689999998
  0
ARC
  5
D079
330
CFB2
100
AcDbEntity
  8
1
  6
Continuous
100
AcDbCircle
 10
26.89999999999999
 20
102.9180109999998
 30
0.0
 40
1.9
100
AcDbArc
 50
157.4085689999998
 51
227.116587
  0
LINE
  5
D07A
330
CFB2
100
AcDbEntity
  8
1
  6
Continuous
100
AcDbLine
 10
28.1
 20
105.2135389999999
 30
0.0
 11
28.9
 21
105.6855389999999
 31
0.0
  0
LINE
  5
D07B
330
CFB2
100
AcDbEntity
  8
1
  6
Continuous
100
AcDbLine
 10
27.700075
 20
103.7349469999999
 30
0.0
 11
28.36098699999999
 21
103.093305
 31
0.0
  0
ARC
  5
D07C
330
CFB2
100
AcDbEntity
  8
1
  6
Continuous
100
AcDbCircle
 10
29.5
 20
101.9875
 30
0.0
 40
2.7875
100
AcDbArc
 50
49.983708
 51
122.12208
  0
LINE
  5
D07D
330
CFB2
100
AcDbEntity
  8
1
  6
Continuous
100
AcDbLine
 10
28.079209
 20
104.620734
 30
0.0
 11
29.15407399999999
 21
105.254904
 31
0.0
  0
LINE
  5
D07E
330
CFB2
100
AcDbEntity
  8
1
  6
Continuous
100
AcDbLine
 10
27.4
 20
103.0
 30
0.0
 11
27.4
 21
103.427949
 31
0.0
  0
LINE
  5
D07F
330
CFB2
100
AcDbEntity
  8
1
  6
Continuous
100
AcDbLine
 10
26.89999999999999
 20
103.0049849999999
 30
0.0
 11
26.89999999999999
 21
103.121491
 31
0.0
  0
LINE
  5
D080
330
CFB2
100
AcDbEntity
  8
1
  6
Continuous
100
AcDbLine
 10
26.91429600000001
 20
103.1293599999999
 30
0.0
 11
27.088987
 21
103.2218439999998
 31
0.0
  0
ARC
  5
D081
330
CFB2
100
AcDbEntity
  8
1
  6
Continuous
100
AcDbCircle
 10
26.2
 20
104.9010409999999
 30
0.0
 40
1.9
100
AcDbArc
 50
297.8972709999998
 51
0.0
  0
ARC
  5
D082
330
CFB2
100
AcDbEntity
  8
1
  6
Continuous
100
AcDbCircle
 10
31.49104
 20
104.35896
 30
0.0
 40
0.30896
100
AcDbArc
 50
229.983708
 51
0.0
  0
ARC
  5
D083
330
CFB2
100
AcDbEntity
  8
1
  6
Continuous
100
AcDbCircle
 10
31.49104
 20
104.35896
 30
0.0
 40
1.50896
100
AcDbArc
 50
229.983708
 51
0.0
  0
ARC
  5
D084
330
CFB2
100
AcDbEntity
  8
1
  6
Continuous
100
AcDbCircle
 10
28.9
 20
105.6855389999999
 30
0.0
 40
0.5
100
AcDbArc
 50
300.5406049999999
 51
0.0
  0
LINE
  5
D085
330
CFB2
100
AcDbEntity
  8
1
  6
Continuous
100
AcDbLine
 10
32.20000000000001
 20
101.8205
 30
0.0
 11
32.20000000000001
 21
102.3204999999999
 31
0.0
  0
ARC
  5
D086
330
CFB2
100
AcDbEntity
  8
1
  6
Continuous
100
AcDbCircle
 10
29.5
 20
101.9875
 30
0.0
 40
1.587499999999999
100
AcDbArc
 50
164.228362
 51
359.656848
  0
ARC
  5
D087
330
CFB2
100
AcDbEntity
  8
1
  6
Continuous
100
AcDbCircle
 10
29.5
 20
101.9875
 30
0.0
 40
1.587499999999999
100
AcDbArc
 50
18.435313
 51
145.449896
  0
ARC
  5
D088
330
CFB2
100
AcDbEntity
  8
1
  6
Continuous
100
AcDbCircle
 10
29.5
 20
101.9875
 30
0.0
 40
2.987499999999998
100
AcDbArc
 50
227.116587
 51
329.6497479999998
  0
LINE
  5
D089
330
CFB2
100
AcDbEntity
  8
1
  6
Continuous
100
AcDbLine
 10
30.943724
 20
101.3273349999999
 30
0.0
 11
32.078071
 21
100.477962
 31
0.0
  0
LINE
  5
D08A
330
CFB2
100
AcDbEntity
  8
1
  6
Continuous
100
AcDbLine
 10
27.4
 20
103.0
 30
0.0
 11
32.20000000000001
 21
102.3204999999999
 31
0.0
  0
LINE
  5
D08B
330
CFB2
100
AcDbEntity
  8
1
  6
Continuous
100
AcDbLine
 10
27.32991699999999
 20
102.509921
 30
0.0
 11
32.20000000000001
 21
101.8205
 31
0.0
  0
LINE
  5
D08C
330
CFB2
100
AcDbEntity
  8
1
  6
Continuous
100
AcDbLine
 10
353.0
 20
114.2429139999999
 30
0.0
 11
349.5
 21
114.2429139999999
 31
0.0
  0
LINE
  5
D08D
330
CFB2
100
AcDbEntity
  8
1
  6
Continuous
100
AcDbLine
 10
353.0
 20
115.312534
 30
0.0
 11
349.5
 21
115.312534
 31
0.0
  0
LINE
  5
D08E
330
CFB2
100
AcDbEntity
  8
1
  6
Continuous
100
AcDbLine
 10
353.0
 20
102.687466
 30
0.0
 11
349.5
 21
102.687466
 31
0.0
  0
LINE
  5
D08F
330
CFB2
100
AcDbEntity
  8
1
  6
Continuous
100
AcDbLine
 10
353.0
 20
103.7570859999999
 30
0.0
 11
349.5
 21
103.7570859999999
 31
0.0
  0
LINE
  5
D090
330
CFB2
100
AcDbEntity
  8
1
  6
Continuous
100
AcDbLine
 10
402.8999999999999
 20
113.0989589999999
 30
0.0
 11
402.8999999999999
 21
104.9010409999999
 31
0.0
  0
LINE
  5
D091
330
CFB2
100
AcDbEntity
  8
1
  6
Continuous
100
AcDbLine
 10
404.6
 20
113.558824
 30
0.0
 11
404.6
 21
104.441176
 31
0.0
  0
LINE
  5
D092
330
CFB2
100
AcDbEntity
  8
1
  6
Continuous
100
AcDbLine
 10
404.3
 20
113.0989589999999
 30
0.0
 11
404.3
 21
104.9010409999999
 31
0.0
  0
LINE
  5
D093
330
CFB2
100
AcDbEntity
  8
1
  6
Continuous
100
AcDbLine
 10
406.0
 20
115.0819889999998
 30
0.0
 11
406.0
 21
102.9180109999998
 31
0.0
  0
LINE
  5
D094
330
CFB2
100
AcDbEntity
  8
1
  6
Continuous
100
AcDbLine
 10
398.0
 20
113.6410399999999
 30
0.0
 11
398.0
 21
104.35896
 31
0.0
  0
LINE
  5
D095
330
CFB2
100
AcDbEntity
  8
1
  6
Continuous
100
AcDbLine
 10
399.1999999999999
 20
113.6410399999999
 30
0.0
 11
399.1999999999999
 21
104.35896
 31
0.0
  0
LINE
  5
D096
330
CFB2
100
AcDbEntity
  8
1
  6
Continuous
100
AcDbLine
 10
401.6
 20
112.3144609999999
 30
0.0
 11
401.6
 21
105.6855389999999
 31
0.0
  0
LINE
  5
D097
330
CFB2
100
AcDbEntity
  8
1
  6
Continuous
100
AcDbLine
 10
402.0999999999999
 20
112.3144609999999
 30
0.0
 11
402.0999999999999
 21
105.6855389999999
 31
0.0
  0
ARC
  5
D098
330
CFB2
100
AcDbEntity
  8
1
  6
Continuous
100
AcDbCircle
 10
403.6
 20
103.0049849999999
 30
0.0
 40
0.5
100
AcDbArc
 50
278.0573949999999
 51
0.0
  0
LINE
  5
D099
330
CFB2
100
AcDbEntity
  8
1
  6
Continuous
100
AcDbLine
 10
405.392967
 20
101.525805
 30
0.0
 11
403.53302
 21
99.798439
 31
0.0
  0
LINE
  5
D09A
330
CFB2
100
AcDbEntity
  8
1
  6
Continuous
100
AcDbLine
 10
404.192014
 20
102.3210959999999
 30
0.0
 11
402.580308
 21
100.8242749999999
 31
0.0
  0
ARC
  5
D09B
330
CFB2
100
AcDbEntity
  8
1
  6
Continuous
100
AcDbCircle
 10
403.85176
 20
102.687466
 30
0.0
 40
0.5
100
AcDbArc
 50
312.8834129999999
 51
62.10272899999999
  0
LINE
  5
D09C
330
CFB2
100
AcDbEntity
  8
1
  6
Continuous
100
AcDbLine
 10
406.0
 20
103.7
 30
0.0
 11
404.5660559999998
 21
104.459147
 31
0.0
  0
ARC
  5
D09D
330
CFB2
100
AcDbEntity
  8
1
  6
Continuous
100
AcDbCircle
 10
404.1
 20
102.9180109999998
 30
0.0
 40
1.9
100
AcDbArc
 50
312.8834129999999
 51
22.591431
  0
ARC
  5
D09E
330
CFB2
100
AcDbEntity
  8
1
  6
Continuous
100
AcDbCircle
 10
405.392575
 20
103.4558309999999
 30
0.0
 40
0.5
100
AcDbArc
 50
22.591431
 51
62.10272899999999
  0
ARC
  5
D09F
330
CFB2
100
AcDbEntity
  8
1
  6
Continuous
100
AcDbCircle
 10
404.8
 20
104.9010409999999
 30
0.0
 40
0.5
100
AcDbArc
 50
180.0
 51
242.102729
  0
LINE
  5
D0A0
330
CFB2
100
AcDbEntity
  8
1
  6
Continuous
100
AcDbLine
 10
403.670083
 20
102.509921
 30
0.0
 11
398.7999999999999
 21
101.8205
 31
0.0
  0
LINE
  5
D0A1
330
CFB2
100
AcDbEntity
  8
1
  6
Continuous
100
AcDbLine
 10
403.6
 20
103.0
 30
0.0
 11
398.7999999999999
 21
102.3204999999999
 31
0.0
  0
LINE
  5
D0A2
330
CFB2
100
AcDbEntity
  8
1
  6
Continuous
100
AcDbLine
 10
400.0562759999998
 20
101.3273349999999
 30
0.0
 11
398.9219289999999
 21
100.477962
 31
0.0
  0
ARC
  5
D0A3
330
CFB2
100
AcDbEntity
  8
1
  6
Continuous
100
AcDbCircle
 10
401.4999999999998
 20
101.9875
 30
0.0
 40
2.987499999999998
100
AcDbArc
 50
210.350252
 51
312.8834129999999
  0
ARC
  5
D0A4
330
CFB2
100
AcDbEntity
  8
1
  6
Continuous
100
AcDbCircle
 10
401.4999999999998
 20
101.9875
 30
0.0
 40
1.587499999999999
100
AcDbArc
 50
34.55010399999999
 51
161.5646869999999
  0
ARC
  5
D0A5
330
CFB2
100
AcDbEntity
  8
1
  6
Continuous
100
AcDbCircle
 10
401.4999999999998
 20
101.9875
 30
0.0
 40
1.587499999999999
100
AcDbArc
 50
180.343152
 51
15.771638
  0
LINE
  5
D0A6
330
CFB2
100
AcDbEntity
  8
1
  6
Continuous
100
AcDbLine
 10
398.7999999999999
 20
101.8205
 30
0.0
 11
398.7999999999999
 21
102.3204999999999
 31
0.0
  0
ARC
  5
D0A7
330
CFB2
100
AcDbEntity
  8
1
  6
Continuous
100
AcDbCircle
 10
402.0999999999999
 20
105.6855389999999
 30
0.0
 40
0.5
100
AcDbArc
 50
180.0
 51
239.459395
  0
ARC
  5
D0A8
330
CFB2
100
AcDbEntity
  8
1
  6
Continuous
100
AcDbCircle
 10
399.50896
 20
104.35896
 30
0.0
 40
1.50896
100
AcDbArc
 50
180.0
 51
310.0162919999998
  0
ARC
  5
D0A9
330
CFB2
100
AcDbEntity
  8
1
  6
Continuous
100
AcDbCircle
 10
399.50896
 20
104.35896
 30
0.0
 40
0.30896
100
AcDbArc
 50
180.0
 51
310.0162919999998
  0
ARC
  5
D0AA
330
CFB2
100
AcDbEntity
  8
1
  6
Continuous
100
AcDbCircle
 10
404.8
 20
104.9010409999999
 30
0.0
 40
1.9
100
AcDbArc
 50
180.0
 51
242.102729
  0
LINE
  5
D0AB
330
CFB2
100
AcDbEntity
  8
1
  6
Continuous
100
AcDbLine
 10
404.085704
 20
103.1293599999999
 30
0.0
 11
403.911013
 21
103.2218439999998
 31
0.0
  0
LINE
  5
D0AC
330
CFB2
100
AcDbEntity
  8
1
  6
Continuous
100
AcDbLine
 10
404.1
 20
103.0049849999999
 30
0.0
 11
404.1
 21
103.121491
 31
0.0
  0
LINE
  5
D0AD
330
CFB2
100
AcDbEntity
  8
1
  6
Continuous
100
AcDbLine
 10
403.6
 20
103.0
 30
0.0
 11
403.6
 21
103.427949
 31
0.0
  0
LINE
  5
D0AE
330
CFB2
100
AcDbEntity
  8
1
  6
Continuous
100
AcDbLine
 10
402.920791
 20
104.620734
 30
0.0
 11
401.8459259999998
 21
105.254904
 31
0.0
  0
ARC
  5
D0AF
330
CFB2
100
AcDbEntity
  8
1
  6
Continuous
100
AcDbCircle
 10
401.4999999999998
 20
101.9875
 30
0.0
 40
2.7875
100
AcDbArc
 50
57.87791999999999
 51
130.0162919999999
  0
LINE
  5
D0B0
330
CFB2
100
AcDbEntity
  8
1
  6
Continuous
100
AcDbLine
 10
403.2999249999998
 20
103.7349469999999
 30
0.0
 11
402.639013
 21
103.093305
 31
0.0
  0
LINE
  5
D0B1
330
CFB2
100
AcDbEntity
  8
1
  6
Continuous
100
AcDbLine
 10
402.8999999999999
 20
105.2135389999999
 30
0.0
 11
402.0999999999999
 21
105.6855389999999
 31
0.0
  0
ARC
  5
D0B2
330
CFB2
100
AcDbEntity
  8
1
  6
Continuous
100
AcDbCircle
 10
403.85176
 20
115.312534
 30
0.0
 40
0.5
100
AcDbArc
 50
297.8972709999998
 51
47.116587
  0
LINE
  5
D0B3
330
CFB2
100
AcDbEntity
  8
1
  6
Continuous
100
AcDbLine
 10
404.192014
 20
115.678904
 30
0.0
 11
402.580308
 21
117.1757249999999
 31
0.0
  0
LINE
  5
D0B4
330
CFB2
100
AcDbEntity
  8
4
  6
CENTER
100
AcDbLine
 10
409.0
 20
109.0
 30
0.0
 11
395.0
 21
109.0
 31
0.0
  0
LINE
  5
D0B5
330
CFB2
100
AcDbEntity
  8
1
  6
Continuous
100
AcDbLine
 10
405.392967
 20
116.474195
 30
0.0
 11
403.53302
 21
118.201561
 31
0.0
  0
ARC
  5
D0B6
330
CFB2
100
AcDbEntity
  8
1
  6
Continuous
100
AcDbCircle
 10
403.6
 20
114.995015
 30
0.0
 40
0.5
100
AcDbArc
 50
0.0
 51
81.942605
  0
LINE
  5
D0B7
330
CFB2
100
AcDbEntity
  8
1
  6
Continuous
100
AcDbLine
 10
406.0
 20
114.3
 30
0.0
 11
404.5660559999998
 21
113.540853
 31
0.0
  0
ARC
  5
D0B8
330
CFB2
100
AcDbEntity
  8
1
  6
Continuous
100
AcDbCircle
 10
404.8
 20
113.0989589999999
 30
0.0
 40
0.5
100
AcDbArc
 50
117.8972709999999
 51
180.0
  0
ARC
  5
D0B9
330
CFB2
100
AcDbEntity
  8
1
  6
Continuous
100
AcDbCircle
 10
405.392575
 20
114.5441689999999
 30
0.0
 40
0.5
100
AcDbArc
 50
297.8972709999998
 51
337.408569
  0
ARC
  5
D0BA
330
CFB2
100
AcDbEntity
  8
1
  6
Continuous
100
AcDbCircle
 10
404.1
 20
115.0819889999998
 30
0.0
 40
1.9
100
AcDbArc
 50
337.408569
 51
47.116587
  0
LINE
  5
D0BB
330
CFB2
100
AcDbEntity
  8
1
  6
Continuous
100
AcDbLine
 10
402.8999999999999
 20
112.786461
 30
0.0
 11
402.0999999999999
 21
112.3144609999999
 31
0.0
  0
LINE
  5
D0BC
330
CFB2
100
AcDbEntity
  8
1
  6
Continuous
100
AcDbLine
 10
403.2999249999998
 20
114.265053
 30
0.0
 11
402.639013
 21
114.9066949999999
 31
0.0
  0
ARC
  5
D0BD
330
CFB2
100
AcDbEntity
  8
1
  6
Continuous
100
AcDbCircle
 10
401.4999999999998
 20
116.0125
 30
0.0
 40
2.7875
100
AcDbArc
 50
229.983708
 51
302.12208
  0
LINE
  5
D0BE
330
CFB2
100
AcDbEntity
  8
1
  6
Continuous
100
AcDbLine
 10
402.920791
 20
113.3792659999999
 30
0.0
 11
401.8459259999998
 21
112.745096
 31
0.0
  0
LINE
  5
D0BF
330
CFB2
100
AcDbEntity
  8
1
  6
Continuous
100
AcDbLine
 10
403.6
 20
115.0
 30
0.0
 11
403.6
 21
114.572051
 31
0.0
  0
LINE
  5
D0C0
330
CFB2
100
AcDbEntity
  8
1
  6
Continuous
100
AcDbLine
 10
404.1
 20
114.995015
 30
0.0
 11
404.1
 21
114.878509
 31
0.0
  0
LINE
  5
D0C1
330
CFB2
100
AcDbEntity
  8
1
  6
Continuous
100
AcDbLine
 10
404.085704
 20
114.87064
 30
0.0
 11
403.911013
 21
114.778156
 31
0.0
  0
ARC
  5
D0C2
330
CFB2
100
AcDbEntity
  8
1
  6
Continuous
100
AcDbCircle
 10
404.8
 20
113.0989589999999
 30
0.0
 40
1.9
100
AcDbArc
 50
117.8972709999999
 51
180.0
  0
ARC
  5
D0C3
330
CFB2
100
AcDbEntity
  8
1
  6
Continuous
100
AcDbCircle
 10
399.50896
 20
113.6410399999999
 30
0.0
 40
0.30896
100
AcDbArc
 50
49.983708
 51
180.0
  0
ARC
  5
D0C4
330
CFB2
100
AcDbEntity
  8
1
  6
Continuous
100
AcDbCircle
 10
399.50896
 20
113.6410399999999
 30
0.0
 40
1.50896
100
AcDbArc
 50
49.983708
 51
180.0
  0
ARC
  5
D0C5
330
CFB2
100
AcDbEntity
  8
1
  6
Continuous
100
AcDbCircle
 10
402.0999999999999
 20
112.3144609999999
 30
0.0
 40
0.5
100
AcDbArc
 50
120.540605
 51
180.0
  0
LINE
  5
D0C6
330
CFB2
100
AcDbEntity
  8
1
  6
Continuous
100
AcDbLine
 10
398.7999999999999
 20
116.1795
 30
0.0
 11
398.7999999999999
 21
115.6795
 31
0.0
  0
ARC
  5
D0C7
330
CFB2
100
AcDbEntity
  8
1
  6
Continuous
100
AcDbCircle
 10
401.4999999999998
 20
116.0125
 30
0.0
 40
1.587499999999999
100
AcDbArc
 50
344.2283619999998
 51
179.6568479999999
  0
ARC
  5
D0C8
330
CFB2
100
AcDbEntity
  8
1
  6
Continuous
100
AcDbCircle
 10
401.4999999999998
 20
116.0125
 30
0.0
 40
1.587499999999999
100
AcDbArc
 50
198.4353129999999
 51
325.449896
  0
ARC
  5
D0C9
330
CFB2
100
AcDbEntity
  8
1
  6
Continuous
100
AcDbCircle
 10
401.4999999999998
 20
116.0125
 30
0.0
 40
2.987499999999998
100
AcDbArc
 50
47.116587
 51
149.6497479999999
  0
LINE
  5
D0CA
330
CFB2
100
AcDbEntity
  8
1
  6
Continuous
100
AcDbLine
 10
400.0562759999998
 20
116.6726649999999
 30
0.0
 11
398.9219289999999
 21
117.522038
 31
0.0
  0
LINE
  5
D0CB
330
CFB2
100
AcDbEntity
  8
1
  6
Continuous
100
AcDbLine
 10
403.6
 20
115.0
 30
0.0
 11
398.7999999999999
 21
115.6795
 31
0.0
  0
LINE
  5
D0CC
330
CFB2
100
AcDbEntity
  8
1
  6
Continuous
100
AcDbLine
 10
403.670083
 20
115.4900789999999
 30
0.0
 11
398.7999999999999
 21
116.1795
 31
0.0
  0
LINE
  5
D0CD
330
CFB2
100
AcDbEntity
  8
1
  6
Continuous
100
AcDbLine
 10
349.5
 20
242.3
 30
0.0
 11
349.5
 21
231.6999999999999
 31
0.0
  0
LINE
  5
D0CE
330
CFB2
100
AcDbEntity
  8
1
  6
Continuous
100
AcDbLine
 10
278.0
 20
49.0
 30
0.0
 11
78.0
 21
49.0
 31
0.0
  0
LINE
  5
D0CF
330
CFB2
100
AcDbEntity
  8
1
  6
Continuous
100
AcDbLine
 10
153.0
 20
48.078071
 30
0.0
 11
353.0
 21
48.078071
 31
0.0
  0
LINE
  5
D0D0
330
CFB2
100
AcDbEntity
  8
1
  6
Continuous
100
AcDbLine
 10
353.0
 20
41.0
 30
0.0
 11
153.0
 21
41.0
 31
0.0
  0
LINE
  5
D0D1
330
CFB2
100
AcDbEntity
  8
3
  6
DASHED
100
AcDbLine
 10
153.0
 20
43.5
 30
0.0
 11
278.0
 21
43.5
 31
0.0
  0
LINE
  5
D0D2
330
CFB2
100
AcDbEntity
  8
1
  6
Continuous
100
AcDbLine
 10
204.4999999999999
 20
48.2
 30
0.0
 11
196.5
 21
48.2
 31
0.0
  0
LINE
  5
D0D3
330
CFB2
100
AcDbEntity
  8
1
  6
Continuous
100
AcDbLine
 10
174.5
 20
48.2
 30
0.0
 11
166.5
 21
48.2
 31
0.0
  0
LINE
  5
D0D4
330
CFB2
100
AcDbEntity
  8
1
  6
Continuous
100
AcDbLine
 10
153.0
 20
41.0
 30
0.0
 11
153.0
 21
48.078071
 31
0.0
  0
LINE
  5
D0D5
330
CFB2
100
AcDbEntity
  8
1
  6
Continuous
100
AcDbLine
 10
78.0
 20
43.5
 30
0.0
 11
78.0
 21
49.0
 31
0.0
  0
LINE
  5
D0D6
330
CFB2
100
AcDbEntity
  8
4
  6
CENTER
100
AcDbLine
 10
88.0
 20
46.766047
 30
0.0
 11
88.0
 21
51.0
 31
0.0
  0
LINE
  5
D0D7
330
CFB2
100
AcDbEntity
  8
1
  6
Continuous
100
AcDbLine
 10
164.5
 20
48.2
 30
0.0
 11
156.4999999999998
 21
48.2
 31
0.0
  0
LINE
  5
D0D8
330
CFB2
100
AcDbEntity
  8
1
  6
Continuous
100
AcDbLine
 10
156.4999999999998
 20
48.078071
 30
0.0
 11
156.4999999999998
 21
48.2
 31
0.0
  0
LINE
  5
D0D9
330
CFB2
100
AcDbEntity
  8
4
  6
CENTER
100
AcDbLine
 10
98.0
 20
46.87486599999998
 30
0.0
 11
98.0
 21
51.0
 31
0.0
  0
LINE
  5
D0DA
330
CFB2
100
AcDbEntity
  8
1
  6
Continuous
100
AcDbLine
 10
164.5
 20
48.078071
 30
0.0
 11
164.5
 21
48.2
 31
0.0
  0
LINE
  5
D0DB
330
CFB2
100
AcDbEntity
  8
1
  6
Continuous
100
AcDbLine
 10
166.5
 20
48.078071
 30
0.0
 11
166.5
 21
48.2
 31
0.0
  0
LINE
  5
D0DC
330
CFB2
100
AcDbEntity
  8
1
  6
Continuous
100
AcDbLine
 10
78.0
 20
43.5
 30
0.0
 11
153.0
 21
43.5
 31
0.0
  0
LINE
  5
D0DD
330
CFB2
100
AcDbEntity
  8
4
  6
CENTER
100
AcDbLine
 10
163.0
 20
39.0
 30
0.0
 11
163.0
 21
42.968697
 31
0.0
  0
LINE
  5
D0DE
330
CFB2
100
AcDbEntity
  8
1
  6
Continuous
100
AcDbLine
 10
184.4999999999998
 20
48.2
 30
0.0
 11
176.5
 21
48.2
 31
0.0
  0
LINE
  5
D0DF
330
CFB2
100
AcDbEntity
  8
1
  6
Continuous
100
AcDbLine
 10
176.5
 20
48.078071
 30
0.0
 11
176.5
 21
48.2
 31
0.0
  0
LINE
  5
D0E0
330
CFB2
100
AcDbEntity
  8
1
  6
Continuous
100
AcDbLine
 10
174.5
 20
48.078071
 30
0.0
 11
174.5
 21
48.2
 31
0.0
  0
LINE
  5
D0E1
330
CFB2
100
AcDbEntity
  8
1
  6
Continuous
100
AcDbLine
 10
194.5
 20
48.2
 30
0.0
 11
186.5
 21
48.2
 31
0.0
  0
LINE
  5
D0E2
330
CFB2
100
AcDbEntity
  8
1
  6
Continuous
100
AcDbLine
 10
186.5
 20
48.078071
 30
0.0
 11
186.5
 21
48.2
 31
0.0
  0
LINE
  5
D0E3
330
CFB2
100
AcDbEntity
  8
1
  6
Continuous
100
AcDbLine
 10
184.4999999999998
 20
48.078071
 30
0.0
 11
184.4999999999998
 21
48.2
 31
0.0
  0
LINE
  5
D0E4
330
CFB2
100
AcDbEntity
  8
4
  6
CENTER
100
AcDbLine
 10
258.0
 20
46.87486599999998
 30
0.0
 11
258.0
 21
51.0
 31
0.0
  0
LINE
  5
D0E5
330
CFB2
100
AcDbEntity
  8
1
  6
Continuous
100
AcDbLine
 10
196.5
 20
48.078071
 30
0.0
 11
196.5
 21
48.2
 31
0.0
  0
LINE
  5
D0E6
330
CFB2
100
AcDbEntity
  8
1
  6
Continuous
100
AcDbLine
 10
194.5
 20
48.078071
 30
0.0
 11
194.5
 21
48.2
 31
0.0
  0
LINE
  5
D0E7
330
CFB2
100
AcDbEntity
  8
4
  6
CENTER
100
AcDbLine
 10
268.0
 20
46.87486599999998
 30
0.0
 11
268.0
 21
51.0
 31
0.0
  0
LINE
  5
D0E8
330
CFB2
100
AcDbEntity
  8
4
  6
CENTER
100
AcDbLine
 10
173.0
 20
39.0
 30
0.0
 11
173.0
 21
42.968697
 31
0.0
  0
LINE
  5
D0E9
330
CFB2
100
AcDbEntity
  8
1
  6
Continuous
100
AcDbLine
 10
353.0
 20
48.078071
 30
0.0
 11
353.0
 21
41.0
 31
0.0
  0
LINE
  5
D0EA
330
CFB2
100
AcDbEntity
  8
3
  6
DASHED
100
AcDbLine
 10
278.0
 20
48.078071
 30
0.0
 11
278.0
 21
43.5
 31
0.0
  0
LINE
  5
D0EB
330
CFB2
100
AcDbEntity
  8
1
  6
Continuous
100
AcDbLine
 10
278.0
 20
49.0
 30
0.0
 11
278.0
 21
48.078071
 31
0.0
  0
LINE
  5
D0EC
330
CFB2
100
AcDbEntity
  8
1
  6
Continuous
100
AcDbLine
 10
204.4999999999999
 20
48.078071
 30
0.0
 11
204.4999999999999
 21
48.2
 31
0.0
  0
LINE
  5
D0ED
330
CFB2
100
AcDbEntity
  8
4
  6
CENTER
100
AcDbLine
 10
333.0
 20
39.0
 30
0.0
 11
333.0
 21
42.968697
 31
0.0
  0
LINE
  5
D0EE
330
CFB2
100
AcDbEntity
  8
4
  6
CENTER
100
AcDbLine
 10
343.0
 20
39.0
 30
0.0
 11
343.0
 21
43.13192599999999
 31
0.0
  0
LINE
  5
D0EF
330
CFB2
100
AcDbEntity
  8
1
  6
Continuous
100
AcDbLine
 10
349.5
 20
242.3
 30
0.0
 11
353.0
 21
242.3
 31
0.0
  0
LINE
  5
D0F0
330
CFB2
100
AcDbEntity
  8
1
  6
Continuous
100
AcDbLine
 10
349.5
 20
241.4
 30
0.0
 11
353.0
 21
241.4
 31
0.0
  0
LINE
  5
D0F1
330
CFB2
100
AcDbEntity
  8
1
  6
Continuous
100
AcDbLine
 10
349.5
 20
231.6999999999999
 30
0.0
 11
353.0
 21
231.6999999999999
 31
0.0
  0
LINE
  5
D0F2
330
CFB2
100
AcDbEntity
  8
1
  6
Continuous
100
AcDbLine
 10
349.5
 20
232.6
 30
0.0
 11
353.0
 21
232.6
 31
0.0
  0
LINE
  5
D0F3
330
CFB2
100
AcDbEntity
  8
1
  6
Continuous
100
AcDbLine
 10
156.4999999999998
 20
242.3
 30
0.0
 11
156.4999999999998
 21
231.6999999999999
 31
0.0
  0
LINE
  5
D0F4
330
CFB2
100
AcDbEntity
  8
1
  6
Continuous
100
AcDbLine
 10
156.4999999999998
 20
232.6
 30
0.0
 11
153.0
 21
232.6
 31
0.0
  0
LINE
  5
D0F5
330
CFB2
100
AcDbEntity
  8
1
  6
Continuous
100
AcDbLine
 10
156.4999999999998
 20
231.6999999999999
 30
0.0
 11
153.0
 21
231.6999999999999
 31
0.0
  0
LINE
  5
D0F6
330
CFB2
100
AcDbEntity
  8
1
  6
Continuous
100
AcDbLine
 10
156.4999999999998
 20
242.3
 30
0.0
 11
153.0
 21
242.3
 31
0.0
  0
LINE
  5
D0F7
330
CFB2
100
AcDbEntity
  8
1
  6
Continuous
100
AcDbLine
 10
156.4999999999998
 20
241.4
 30
0.0
 11
153.0
 21
241.4
 31
0.0
  0
LINE
  5
D0F8
330
CFB2
100
AcDbEntity
  8
1
  6
Continuous
100
AcDbLine
 10
214.5
 20
48.2
 30
0.0
 11
206.4999999999999
 21
48.2
 31
0.0
  0
LINE
  5
D0F9
330
CFB2
100
AcDbEntity
  8
1
  6
Continuous
100
AcDbLine
 10
206.4999999999999
 20
48.078071
 30
0.0
 11
206.4999999999999
 21
48.2
 31
0.0
  0
LINE
  5
D0FA
330
CFB2
100
AcDbEntity
  8
1
  6
Continuous
100
AcDbLine
 10
224.5
 20
48.078071
 30
0.0
 11
224.5
 21
48.2
 31
0.0
  0
LINE
  5
D0FB
330
CFB2
100
AcDbEntity
  8
1
  6
Continuous
100
AcDbLine
 10
216.5
 20
48.078071
 30
0.0
 11
216.5
 21
48.2
 31
0.0
  0
LINE
  5
D0FC
330
CFB2
100
AcDbEntity
  8
1
  6
Continuous
100
AcDbLine
 10
214.5
 20
48.078071
 30
0.0
 11
214.5
 21
48.2
 31
0.0
  0
LINE
  5
D0FD
330
CFB2
100
AcDbEntity
  8
1
  6
Continuous
100
AcDbLine
 10
224.5
 20
48.2
 30
0.0
 11
216.5
 21
48.2
 31
0.0
  0
LINE
  5
D0FE
330
CFB2
100
AcDbEntity
  8
1
  6
Continuous
100
AcDbLine
 10
206.4999999999999
 20
115.6795
 30
0.0
 11
214.5
 21
115.6795
 31
0.0
  0
LINE
  5
D0FF
330
CFB2
100
AcDbEntity
  8
1
  6
Continuous
100
AcDbLine
 10
206.4999999999999
 20
116.1795
 30
0.0
 11
214.5
 21
116.1795
 31
0.0
  0
ARC
  5
D100
330
CFB2
100
AcDbEntity
  8
1
  6
Continuous
100
AcDbCircle
 10
210.4999999999999
 20
116.0125
 30
0.0
 40
1.587499999999999
100
AcDbArc
 50
327.090948
 51
347.8914909999998
  0
ARC
  5
D101
330
CFB2
100
AcDbEntity
  8
1
  6
Continuous
100
AcDbCircle
 10
210.4999999999999
 20
116.0125
 30
0.0
 40
1.587499999999999
100
AcDbArc
 50
6.038508
 51
24.57297999999999
  0
ARC
  5
D102
330
CFB2
100
AcDbEntity
  8
1
  6
Continuous
100
AcDbCircle
 10
210.4999999999999
 20
116.0125
 30
0.0
 40
1.587499999999999
100
AcDbArc
 50
155.4270199999999
 51
173.9614919999999
  0
ARC
  5
D103
330
CFB2
100
AcDbEntity
  8
1
  6
Continuous
100
AcDbCircle
 10
210.4999999999999
 20
116.0125
 30
0.0
 40
1.587499999999999
100
AcDbArc
 50
192.1085089999999
 51
212.9090519999999
  0
LINE
  5
D104
330
CFB2
100
AcDbEntity
  8
1
  6
Continuous
100
AcDbLine
 10
204.4999999999999
 20
115.6795
 30
0.0
 11
204.4999999999999
 21
116.1795
 31
0.0
  0
LINE
  5
D105
330
CFB2
100
AcDbEntity
  8
1
  6
Continuous
100
AcDbLine
 10
206.4999999999999
 20
116.1795
 30
0.0
 11
206.4999999999999
 21
115.6795
 31
0.0
  0
ARC
  5
D106
330
CFB2
100
AcDbEntity
  8
1
  6
Continuous
100
AcDbCircle
 10
205.5
 20
115.6795
 30
0.0
 40
1.0
100
AcDbArc
 50
180.0
 51
211.9716779999999
  0
ARC
  5
D107
330
CFB2
100
AcDbEntity
  8
1
  6
Continuous
100
AcDbCircle
 10
205.5
 20
115.6795
 30
0.0
 40
1.0
100
AcDbArc
 50
328.028322
 51
0.0
  0
LINE
  5
D108
330
CFB2
100
AcDbEntity
  8
1
  6
Continuous
100
AcDbLine
 10
214.5
 20
115.6795
 30
0.0
 11
214.5
 21
116.1795
 31
0.0
  0
ARC
  5
D109
330
CFB2
100
AcDbEntity
  8
1
  6
Continuous
100
AcDbCircle
 10
215.5
 20
115.6795
 30
0.0
 40
1.0
100
AcDbArc
 50
180.0
 51
211.9716779999999
  0
LINE
  5
D10A
330
CFB2
100
AcDbEntity
  8
1
  6
Continuous
100
AcDbLine
 10
216.5
 20
115.6795
 30
0.0
 11
216.5
 21
116.1795
 31
0.0
  0
ARC
  5
D10B
330
CFB2
100
AcDbEntity
  8
1
  6
Continuous
100
AcDbCircle
 10
215.5
 20
115.6795
 30
0.0
 40
1.0
100
AcDbArc
 50
328.028322
 51
0.0
  0
ARC
  5
D10C
330
CFB2
100
AcDbEntity
  8
1
  6
Continuous
100
AcDbCircle
 10
220.5
 20
116.0125
 30
0.0
 40
1.587499999999999
100
AcDbArc
 50
192.1085089999999
 51
212.9090519999999
  0
ARC
  5
D10D
330
CFB2
100
AcDbEntity
  8
1
  6
Continuous
100
AcDbCircle
 10
220.5
 20
116.0125
 30
0.0
 40
1.587499999999999
100
AcDbArc
 50
155.4270199999999
 51
173.9614919999999
  0
ARC
  5
D10E
330
CFB2
100
AcDbEntity
  8
1
  6
Continuous
100
AcDbCircle
 10
220.5
 20
116.0125
 30
0.0
 40
1.587499999999999
100
AcDbArc
 50
6.038508
 51
24.57297999999999
  0
ARC
  5
D10F
330
CFB2
100
AcDbEntity
  8
1
  6
Continuous
100
AcDbCircle
 10
220.5
 20
116.0125
 30
0.0
 40
1.587499999999999
100
AcDbArc
 50
327.090948
 51
347.8914909999998
  0
LINE
  5
D110
330
CFB2
100
AcDbEntity
  8
1
  6
Continuous
100
AcDbLine
 10
216.5
 20
115.6795
 30
0.0
 11
224.5
 21
115.6795
 31
0.0
  0
LINE
  5
D111
330
CFB2
100
AcDbEntity
  8
1
  6
Continuous
100
AcDbLine
 10
216.5
 20
116.1795
 30
0.0
 11
224.5
 21
116.1795
 31
0.0
  0
LINE
  5
D112
330
CFB2
100
AcDbEntity
  8
1
  6
Continuous
100
AcDbLine
 10
206.4999999999999
 20
102.3204999999999
 30
0.0
 11
214.5
 21
102.3204999999999
 31
0.0
  0
LINE
  5
D113
330
CFB2
100
AcDbEntity
  8
1
  6
Continuous
100
AcDbLine
 10
206.4999999999999
 20
101.8205
 30
0.0
 11
214.5
 21
101.8205
 31
0.0
  0
ARC
  5
D114
330
CFB2
100
AcDbEntity
  8
1
  6
Continuous
100
AcDbCircle
 10
210.4999999999999
 20
101.9875
 30
0.0
 40
1.587499999999999
100
AcDbArc
 50
147.0909479999999
 51
167.891491
  0
ARC
  5
D115
330
CFB2
100
AcDbEntity
  8
1
  6
Continuous
100
AcDbCircle
 10
210.4999999999999
 20
101.9875
 30
0.0
 40
1.587499999999999
100
AcDbArc
 50
186.038508
 51
204.57298
  0
ARC
  5
D116
330
CFB2
100
AcDbEntity
  8
1
  6
Continuous
100
AcDbCircle
 10
210.4999999999999
 20
101.9875
 30
0.0
 40
1.587499999999999
100
AcDbArc
 50
335.4270200000001
 51
353.9614919999999
  0
ARC
  5
D117
330
CFB2
100
AcDbEntity
  8
1
  6
Continuous
100
AcDbCircle
 10
210.4999999999999
 20
101.9875
 30
0.0
 40
1.587499999999999
100
AcDbArc
 50
12.108509
 51
32.909052
  0
LINE
  5
D118
330
CFB2
100
AcDbEntity
  8
1
  6
Continuous
100
AcDbLine
 10
204.4999999999999
 20
102.3204999999999
 30
0.0
 11
204.4999999999999
 21
101.8205
 31
0.0
  0
ARC
  5
D119
330
CFB2
100
AcDbEntity
  8
1
  6
Continuous
100
AcDbCircle
 10
205.5
 20
102.3204999999999
 30
0.0
 40
1.0
100
AcDbArc
 50
0.0
 51
31.97167800000001
  0
LINE
  5
D11A
330
CFB2
100
AcDbEntity
  8
1
  6
Continuous
100
AcDbLine
 10
206.4999999999999
 20
101.8205
 30
0.0
 11
206.4999999999999
 21
102.3204999999999
 31
0.0
  0
ARC
  5
D11B
330
CFB2
100
AcDbEntity
  8
1
  6
Continuous
100
AcDbCircle
 10
205.5
 20
102.3204999999999
 30
0.0
 40
1.0
100
AcDbArc
 50
148.028322
 51
180.0
  0
LINE
  5
D11C
330
CFB2
100
AcDbEntity
  8
1
  6
Continuous
100
AcDbLine
 10
214.5
 20
102.3204999999999
 30
0.0
 11
214.5
 21
101.8205
 31
0.0
  0
ARC
  5
D11D
330
CFB2
100
AcDbEntity
  8
1
  6
Continuous
100
AcDbCircle
 10
215.5
 20
102.3204999999999
 30
0.0
 40
1.0
100
AcDbArc
 50
0.0
 51
31.97167800000001
  0
LINE
  5
D11E
330
CFB2
100
AcDbEntity
  8
1
  6
Continuous
100
AcDbLine
 10
216.5
 20
102.3204999999999
 30
0.0
 11
216.5
 21
101.8205
 31
0.0
  0
ARC
  5
D11F
330
CFB2
100
AcDbEntity
  8
1
  6
Continuous
100
AcDbCircle
 10
215.5
 20
102.3204999999999
 30
0.0
 40
1.0
100
AcDbArc
 50
148.028322
 51
180.0
  0
ARC
  5
D120
330
CFB2
100
AcDbEntity
  8
1
  6
Continuous
100
AcDbCircle
 10
220.5
 20
101.9875
 30
0.0
 40
1.587499999999999
100
AcDbArc
 50
12.108509
 51
32.909052
  0
ARC
  5
D121
330
CFB2
100
AcDbEntity
  8
1
  6
Continuous
100
AcDbCircle
 10
220.5
 20
101.9875
 30
0.0
 40
1.587499999999999
100
AcDbArc
 50
335.4270200000001
 51
353.9614919999999
  0
ARC
  5
D122
330
CFB2
100
AcDbEntity
  8
1
  6
Continuous
100
AcDbCircle
 10
220.5
 20
101.9875
 30
0.0
 40
1.587499999999999
100
AcDbArc
 50
186.038508
 51
204.57298
  0
ARC
  5
D123
330
CFB2
100
AcDbEntity
  8
1
  6
Continuous
100
AcDbCircle
 10
220.5
 20
101.9875
 30
0.0
 40
1.587499999999999
100
AcDbArc
 50
147.0909479999999
 51
167.891491
  0
LINE
  5
D124
330
CFB2
100
AcDbEntity
  8
1
  6
Continuous
100
AcDbLine
 10
216.5
 20
102.3204999999999
 30
0.0
 11
224.5
 21
102.3204999999999
 31
0.0
  0
LINE
  5
D125
330
CFB2
100
AcDbEntity
  8
1
  6
Continuous
100
AcDbLine
 10
216.5
 20
101.8205
 30
0.0
 11
224.5
 21
101.8205
 31
0.0
  0
CIRCLE
  5
D126
330
CFB2
100
AcDbEntity
  8
1
  6
Continuous
100
AcDbCircle
 10
333.0
 20
109.0
 30
0.0
 40
2.149999999999999
  0
LINE
  5
D127
330
CFB2
100
AcDbEntity
  8
1
  6
Continuous
100
AcDbLine
 10
246.4999999999998
 20
102.3204999999999
 30
0.0
 11
254.4999999999999
 21
102.3204999999999
 31
0.0
  0
LINE
  5
D128
330
CFB2
100
AcDbEntity
  8
1
  6
Continuous
100
AcDbLine
 10
246.4999999999998
 20
101.8205
 30
0.0
 11
254.4999999999999
 21
101.8205
 31
0.0
  0
LINE
  5
D129
330
CFB2
100
AcDbEntity
  8
1
  6
Continuous
100
AcDbLine
 10
224.5
 20
102.3204999999999
 30
0.0
 11
224.5
 21
101.8205
 31
0.0
  0
ARC
  5
D12A
330
CFB2
100
AcDbEntity
  8
1
  6
Continuous
100
AcDbCircle
 10
225.4999999999999
 20
102.3204999999999
 30
0.0
 40
1.0
100
AcDbArc
 50
0.0
 51
31.97167800000001
  0
LINE
  5
D12B
330
CFB2
100
AcDbEntity
  8
1
  6
Continuous
100
AcDbLine
 10
226.5
 20
102.3204999999999
 30
0.0
 11
226.5
 21
101.8205
 31
0.0
  0
LINE
  5
D12C
330
CFB2
100
AcDbEntity
  8
1
  6
Continuous
100
AcDbLine
 10
226.5
 20
102.3204999999999
 30
0.0
 11
234.5
 21
102.3204999999999
 31
0.0
  0
LINE
  5
D12D
330
CFB2
100
AcDbEntity
  8
1
  6
Continuous
100
AcDbLine
 10
226.5
 20
101.8205
 30
0.0
 11
234.5
 21
101.8205
 31
0.0
  0
ARC
  5
D12E
330
CFB2
100
AcDbEntity
  8
1
  6
Continuous
100
AcDbCircle
 10
225.4999999999999
 20
102.3204999999999
 30
0.0
 40
1.0
100
AcDbArc
 50
148.028322
 51
180.0
  0
ARC
  5
D12F
330
CFB2
100
AcDbEntity
  8
1
  6
Continuous
100
AcDbCircle
 10
230.5
 20
101.9875
 30
0.0
 40
1.587499999999999
100
AcDbArc
 50
12.108509
 51
32.909052
  0
ARC
  5
D130
330
CFB2
100
AcDbEntity
  8
1
  6
Continuous
100
AcDbCircle
 10
230.5
 20
101.9875
 30
0.0
 40
1.587499999999999
100
AcDbArc
 50
335.4270200000001
 51
353.9614919999999
  0
ARC
  5
D131
330
CFB2
100
AcDbEntity
  8
1
  6
Continuous
100
AcDbCircle
 10
230.5
 20
101.9875
 30
0.0
 40
1.587499999999999
100
AcDbArc
 50
186.038508
 51
204.57298
  0
ARC
  5
D132
330
CFB2
100
AcDbEntity
  8
1
  6
Continuous
100
AcDbCircle
 10
230.5
 20
101.9875
 30
0.0
 40
1.587499999999999
100
AcDbArc
 50
147.0909479999999
 51
167.891491
  0
LINE
  5
D133
330
CFB2
100
AcDbEntity
  8
1
  6
Continuous
100
AcDbLine
 10
234.5
 20
102.3204999999999
 30
0.0
 11
234.5
 21
101.8205
 31
0.0
  0
ARC
  5
D134
330
CFB2
100
AcDbEntity
  8
1
  6
Continuous
100
AcDbCircle
 10
235.4999999999999
 20
102.3204999999999
 30
0.0
 40
1.0
100
AcDbArc
 50
148.028322
 51
180.0
  0
ARC
  5
D135
330
CFB2
100
AcDbEntity
  8
1
  6
Continuous
100
AcDbCircle
 10
240.5
 20
101.9875
 30
0.0
 40
1.587499999999999
100
AcDbArc
 50
335.4270200000001
 51
353.9614919999999
  0
ARC
  5
D136
330
CFB2
100
AcDbEntity
  8
1
  6
Continuous
100
AcDbCircle
 10
240.5
 20
101.9875
 30
0.0
 40
1.587499999999999
100
AcDbArc
 50
12.108509
 51
32.909052
  0
LINE
  5
D137
330
CFB2
100
AcDbEntity
  8
1
  6
Continuous
100
AcDbLine
 10
244.4999999999998
 20
102.3204999999999
 30
0.0
 11
244.4999999999998
 21
101.8205
 31
0.0
  0
ARC
  5
D138
330
CFB2
100
AcDbEntity
  8
1
  6
Continuous
100
AcDbCircle
 10
245.5
 20
102.3204999999999
 30
0.0
 40
1.0
100
AcDbArc
 50
0.0
 51
31.97167800000001
  0
LINE
  5
D139
330
CFB2
100
AcDbEntity
  8
1
  6
Continuous
100
AcDbLine
 10
246.4999999999998
 20
102.3204999999999
 30
0.0
 11
246.4999999999998
 21
101.8205
 31
0.0
  0
ARC
  5
D13A
330
CFB2
100
AcDbEntity
  8
1
  6
Continuous
100
AcDbCircle
 10
245.5
 20
102.3204999999999
 30
0.0
 40
1.0
100
AcDbArc
 50
148.028322
 51
180.0
  0
ARC
  5
D13B
330
CFB2
100
AcDbEntity
  8
1
  6
Continuous
100
AcDbCircle
 10
250.4999999999999
 20
101.9875
 30
0.0
 40
1.587499999999999
100
AcDbArc
 50
186.038508
 51
204.57298
  0
ARC
  5
D13C
330
CFB2
100
AcDbEntity
  8
1
  6
Continuous
100
AcDbCircle
 10
250.4999999999999
 20
101.9875
 30
0.0
 40
1.587499999999999
100
AcDbArc
 50
147.0909479999999
 51
167.891491
  0
ARC
  5
D13D
330
CFB2
100
AcDbEntity
  8
1
  6
Continuous
100
AcDbCircle
 10
240.5
 20
101.9875
 30
0.0
 40
1.587499999999999
100
AcDbArc
 50
147.0909479999999
 51
167.891491
  0
ARC
  5
D13E
330
CFB2
100
AcDbEntity
  8
1
  6
Continuous
100
AcDbCircle
 10
240.5
 20
101.9875
 30
0.0
 40
1.587499999999999
100
AcDbArc
 50
186.038508
 51
204.57298
  0
ARC
  5
D13F
330
CFB2
100
AcDbEntity
  8
1
  6
Continuous
100
AcDbCircle
 10
235.4999999999999
 20
102.3204999999999
 30
0.0
 40
1.0
100
AcDbArc
 50
0.0
 51
31.97167800000001
  0
LINE
  5
D140
330
CFB2
100
AcDbEntity
  8
1
  6
Continuous
100
AcDbLine
 10
236.5
 20
101.8205
 30
0.0
 11
236.5
 21
102.3204999999999
 31
0.0
  0
LINE
  5
D141
330
CFB2
100
AcDbEntity
  8
1
  6
Continuous
100
AcDbLine
 10
236.5
 20
102.3204999999999
 30
0.0
 11
244.4999999999998
 21
102.3204999999999
 31
0.0
  0
LINE
  5
D142
330
CFB2
100
AcDbEntity
  8
1
  6
Continuous
100
AcDbLine
 10
236.5
 20
101.8205
 30
0.0
 11
244.4999999999998
 21
101.8205
 31
0.0
  0
ARC
  5
D143
330
CFB2
100
AcDbEntity
  8
1
  6
Continuous
100
AcDbCircle
 10
250.4999999999999
 20
101.9875
 30
0.0
 40
1.587499999999999
100
AcDbArc
 50
12.108509
 51
32.909052
  0
ARC
  5
D144
330
CFB2
100
AcDbEntity
  8
1
  6
Continuous
100
AcDbCircle
 10
250.4999999999999
 20
101.9875
 30
0.0
 40
1.587499999999999
100
AcDbArc
 50
335.4270200000001
 51
353.9614919999999
  0
LINE
  5
D145
330
CFB2
100
AcDbEntity
  8
1
  6
Continuous
100
AcDbLine
 10
246.4999999999998
 20
115.6795
 30
0.0
 11
254.4999999999999
 21
115.6795
 31
0.0
  0
LINE
  5
D146
330
CFB2
100
AcDbEntity
  8
1
  6
Continuous
100
AcDbLine
 10
246.4999999999998
 20
116.1795
 30
0.0
 11
254.4999999999999
 21
116.1795
 31
0.0
  0
LINE
  5
D147
330
CFB2
100
AcDbEntity
  8
1
  6
Continuous
100
AcDbLine
 10
226.5
 20
115.6795
 30
0.0
 11
226.5
 21
116.1795
 31
0.0
  0
LINE
  5
D148
330
CFB2
100
AcDbEntity
  8
1
  6
Continuous
100
AcDbLine
 10
226.5
 20
115.6795
 30
0.0
 11
234.5
 21
115.6795
 31
0.0
  0
LINE
  5
D149
330
CFB2
100
AcDbEntity
  8
1
  6
Continuous
100
AcDbLine
 10
226.5
 20
116.1795
 30
0.0
 11
234.5
 21
116.1795
 31
0.0
  0
ARC
  5
D14A
330
CFB2
100
AcDbEntity
  8
1
  6
Continuous
100
AcDbCircle
 10
225.4999999999999
 20
115.6795
 30
0.0
 40
1.0
100
AcDbArc
 50
328.028322
 51
0.0
  0
ARC
  5
D14B
330
CFB2
100
AcDbEntity
  8
1
  6
Continuous
100
AcDbCircle
 10
230.5
 20
116.0125
 30
0.0
 40
1.587499999999999
100
AcDbArc
 50
192.1085089999999
 51
212.9090519999999
  0
ARC
  5
D14C
330
CFB2
100
AcDbEntity
  8
1
  6
Continuous
100
AcDbCircle
 10
230.5
 20
116.0125
 30
0.0
 40
1.587499999999999
100
AcDbArc
 50
155.4270199999999
 51
173.9614919999999
  0
ARC
  5
D14D
330
CFB2
100
AcDbEntity
  8
1
  6
Continuous
100
AcDbCircle
 10
230.5
 20
116.0125
 30
0.0
 40
1.587499999999999
100
AcDbArc
 50
6.038508
 51
24.57297999999999
  0
ARC
  5
D14E
330
CFB2
100
AcDbEntity
  8
1
  6
Continuous
100
AcDbCircle
 10
230.5
 20
116.0125
 30
0.0
 40
1.587499999999999
100
AcDbArc
 50
327.090948
 51
347.8914909999998
  0
LINE
  5
D14F
330
CFB2
100
AcDbEntity
  8
1
  6
Continuous
100
AcDbLine
 10
234.5
 20
115.6795
 30
0.0
 11
234.5
 21
116.1795
 31
0.0
  0
ARC
  5
D150
330
CFB2
100
AcDbEntity
  8
1
  6
Continuous
100
AcDbCircle
 10
235.4999999999999
 20
115.6795
 30
0.0
 40
1.0
100
AcDbArc
 50
180.0
 51
211.9716779999999
  0
ARC
  5
D151
330
CFB2
100
AcDbEntity
  8
1
  6
Continuous
100
AcDbCircle
 10
240.5
 20
116.0125
 30
0.0
 40
1.587499999999999
100
AcDbArc
 50
327.090948
 51
347.8914909999998
  0
ARC
  5
D152
330
CFB2
100
AcDbEntity
  8
1
  6
Continuous
100
AcDbCircle
 10
240.5
 20
116.0125
 30
0.0
 40
1.587499999999999
100
AcDbArc
 50
6.038508
 51
24.57297999999999
  0
LINE
  5
D153
330
CFB2
100
AcDbEntity
  8
1
  6
Continuous
100
AcDbLine
 10
244.4999999999998
 20
115.6795
 30
0.0
 11
244.4999999999998
 21
116.1795
 31
0.0
  0
ARC
  5
D154
330
CFB2
100
AcDbEntity
  8
1
  6
Continuous
100
AcDbCircle
 10
245.5
 20
115.6795
 30
0.0
 40
1.0
100
AcDbArc
 50
180.0
 51
211.9716779999999
  0
LINE
  5
D155
330
CFB2
100
AcDbEntity
  8
1
  6
Continuous
100
AcDbLine
 10
246.4999999999998
 20
115.6795
 30
0.0
 11
246.4999999999998
 21
116.1795
 31
0.0
  0
ARC
  5
D156
330
CFB2
100
AcDbEntity
  8
1
  6
Continuous
100
AcDbCircle
 10
245.5
 20
115.6795
 30
0.0
 40
1.0
100
AcDbArc
 50
328.028322
 51
0.0
  0
ARC
  5
D157
330
CFB2
100
AcDbEntity
  8
1
  6
Continuous
100
AcDbCircle
 10
250.4999999999999
 20
116.0125
 30
0.0
 40
1.587499999999999
100
AcDbArc
 50
192.1085089999999
 51
212.9090519999999
  0
ARC
  5
D158
330
CFB2
100
AcDbEntity
  8
1
  6
Continuous
100
AcDbCircle
 10
250.4999999999999
 20
116.0125
 30
0.0
 40
1.587499999999999
100
AcDbArc
 50
155.4270199999999
 51
173.9614919999999
  0
ARC
  5
D159
330
CFB2
100
AcDbEntity
  8
1
  6
Continuous
100
AcDbCircle
 10
240.5
 20
116.0125
 30
0.0
 40
1.587499999999999
100
AcDbArc
 50
155.4270199999999
 51
173.9614919999999
  0
ARC
  5
D15A
330
CFB2
100
AcDbEntity
  8
1
  6
Continuous
100
AcDbCircle
 10
240.5
 20
116.0125
 30
0.0
 40
1.587499999999999
100
AcDbArc
 50
192.1085089999999
 51
212.9090519999999
  0
LINE
  5
D15B
330
CFB2
100
AcDbEntity
  8
1
  6
Continuous
100
AcDbLine
 10
236.5
 20
116.1795
 30
0.0
 11
236.5
 21
115.6795
 31
0.0
  0
ARC
  5
D15C
330
CFB2
100
AcDbEntity
  8
1
  6
Continuous
100
AcDbCircle
 10
235.4999999999999
 20
115.6795
 30
0.0
 40
1.0
100
AcDbArc
 50
328.028322
 51
0.0
  0
LINE
  5
D15D
330
CFB2
100
AcDbEntity
  8
1
  6
Continuous
100
AcDbLine
 10
236.5
 20
115.6795
 30
0.0
 11
244.4999999999998
 21
115.6795
 31
0.0
  0
LINE
  5
D15E
330
CFB2
100
AcDbEntity
  8
1
  6
Continuous
100
AcDbLine
 10
236.5
 20
116.1795
 30
0.0
 11
244.4999999999998
 21
116.1795
 31
0.0
  0
ARC
  5
D15F
330
CFB2
100
AcDbEntity
  8
1
  6
Continuous
100
AcDbCircle
 10
250.4999999999999
 20
116.0125
 30
0.0
 40
1.587499999999999
100
AcDbArc
 50
6.038508
 51
24.57297999999999
  0
ARC
  5
D160
330
CFB2
100
AcDbEntity
  8
1
  6
Continuous
100
AcDbCircle
 10
250.4999999999999
 20
116.0125
 30
0.0
 40
1.587499999999999
100
AcDbArc
 50
327.090948
 51
347.8914909999998
  0
LINE
  5
D161
330
CFB2
100
AcDbEntity
  8
1
  6
Continuous
100
AcDbLine
 10
224.5
 20
115.6795
 30
0.0
 11
224.5
 21
116.1795
 31
0.0
  0
ARC
  5
D162
330
CFB2
100
AcDbEntity
  8
1
  6
Continuous
100
AcDbCircle
 10
225.4999999999999
 20
115.6795
 30
0.0
 40
1.0
100
AcDbArc
 50
180.0
 51
211.9716779999999
  0
LINE
  5
D163
330
CFB2
100
AcDbEntity
  8
1
  6
Continuous
100
AcDbLine
 10
244.4999999999998
 20
48.2
 30
0.0
 11
236.5
 21
48.2
 31
0.0
  0
LINE
  5
D164
330
CFB2
100
AcDbEntity
  8
1
  6
Continuous
100
AcDbLine
 10
236.5
 20
48.078071
 30
0.0
 11
236.5
 21
48.2
 31
0.0
  0
LINE
  5
D165
330
CFB2
100
AcDbEntity
  8
1
  6
Continuous
100
AcDbLine
 10
234.5
 20
48.078071
 30
0.0
 11
234.5
 21
48.2
 31
0.0
  0
LINE
  5
D166
330
CFB2
100
AcDbEntity
  8
1
  6
Continuous
100
AcDbLine
 10
226.5
 20
48.078071
 30
0.0
 11
226.5
 21
48.2
 31
0.0
  0
LINE
  5
D167
330
CFB2
100
AcDbEntity
  8
1
  6
Continuous
100
AcDbLine
 10
234.5
 20
48.2
 30
0.0
 11
226.5
 21
48.2
 31
0.0
  0
LINE
  5
D168
330
CFB2
100
AcDbEntity
  8
1
  6
Continuous
100
AcDbLine
 10
244.4999999999998
 20
48.078071
 30
0.0
 11
244.4999999999998
 21
48.2
 31
0.0
  0
LINE
  5
D169
330
CFB2
100
AcDbEntity
  8
1
  6
Continuous
100
AcDbLine
 10
254.4999999999999
 20
48.2
 30
0.0
 11
246.4999999999998
 21
48.2
 31
0.0
  0
LINE
  5
D16A
330
CFB2
100
AcDbEntity
  8
1
  6
Continuous
100
AcDbLine
 10
246.4999999999998
 20
48.078071
 30
0.0
 11
246.4999999999998
 21
48.2
 31
0.0
  0
LINE
  5
D16B
330
CFB2
100
AcDbEntity
  8
1
  6
Continuous
100
AcDbLine
 10
254.4999999999999
 20
48.078071
 30
0.0
 11
254.4999999999999
 21
48.2
 31
0.0
  0
LINE
  5
D16C
330
CFB2
100
AcDbEntity
  8
1
  6
Continuous
100
AcDbLine
 10
353.0
 20
177.0
 30
0.0
 11
153.0
 21
177.0
 31
0.0
  0
LINE
  5
D16D
330
CFB2
100
AcDbEntity
  8
1
  6
Continuous
100
AcDbLine
 10
153.0
 20
169.921929
 30
0.0
 11
353.0
 21
169.921929
 31
0.0
  0
LINE
  5
D16E
330
CFB2
100
AcDbEntity
  8
1
  6
Continuous
100
AcDbLine
 10
164.5
 20
169.8
 30
0.0
 11
156.4999999999998
 21
169.8
 31
0.0
  0
LINE
  5
D16F
330
CFB2
100
AcDbEntity
  8
3
  6
DASHED
100
AcDbLine
 10
153.0
 20
174.5
 30
0.0
 11
278.0
 21
174.5
 31
0.0
  0
LINE
  5
D170
330
CFB2
100
AcDbEntity
  8
1
  6
Continuous
100
AcDbLine
 10
278.0
 20
169.0
 30
0.0
 11
78.0
 21
169.0
 31
0.0
  0
LINE
  5
D171
330
CFB2
100
AcDbEntity
  8
1
  6
Continuous
100
AcDbLine
 10
78.0
 20
174.5
 30
0.0
 11
78.0
 21
169.0
 31
0.0
  0
LINE
  5
D172
330
CFB2
100
AcDbEntity
  8
1
  6
Continuous
100
AcDbLine
 10
153.0
 20
177.0
 30
0.0
 11
153.0
 21
169.921929
 31
0.0
  0
LINE
  5
D173
330
CFB2
100
AcDbEntity
  8
1
  6
Continuous
100
AcDbLine
 10
78.0
 20
174.5
 30
0.0
 11
153.0
 21
174.5
 31
0.0
  0
LINE
  5
D174
330
CFB2
100
AcDbEntity
  8
4
  6
CENTER
100
AcDbLine
 10
88.0
 20
171.233953
 30
0.0
 11
88.0
 21
167.0
 31
0.0
  0
LINE
  5
D175
330
CFB2
100
AcDbEntity
  8
4
  6
CENTER
100
AcDbLine
 10
98.0
 20
171.125134
 30
0.0
 11
98.0
 21
167.0
 31
0.0
  0
LINE
  5
D176
330
CFB2
100
AcDbEntity
  8
1
  6
Continuous
100
AcDbLine
 10
156.4999999999998
 20
169.921929
 30
0.0
 11
156.4999999999998
 21
169.8
 31
0.0
  0
LINE
  5
D177
330
CFB2
100
AcDbEntity
  8
1
  6
Continuous
100
AcDbLine
 10
224.5
 20
169.8
 30
0.0
 11
216.5
 21
169.8
 31
0.0
  0
LINE
  5
D178
330
CFB2
100
AcDbEntity
  8
4
  6
CENTER
100
AcDbLine
 10
173.0
 20
179.0
 30
0.0
 11
173.0
 21
175.031303
 31
0.0
  0
LINE
  5
D179
330
CFB2
100
AcDbEntity
  8
4
  6
CENTER
100
AcDbLine
 10
163.0
 20
179.0
 30
0.0
 11
163.0
 21
175.031303
 31
0.0
  0
LINE
  5
D17A
330
CFB2
100
AcDbEntity
  8
1
  6
Continuous
100
AcDbLine
 10
194.5
 20
169.8
 30
0.0
 11
186.5
 21
169.8
 31
0.0
  0
LINE
  5
D17B
330
CFB2
100
AcDbEntity
  8
1
  6
Continuous
100
AcDbLine
 10
174.5
 20
169.8
 30
0.0
 11
166.5
 21
169.8
 31
0.0
  0
LINE
  5
D17C
330
CFB2
100
AcDbEntity
  8
1
  6
Continuous
100
AcDbLine
 10
166.5
 20
169.921929
 30
0.0
 11
166.5
 21
169.8
 31
0.0
  0
LINE
  5
D17D
330
CFB2
100
AcDbEntity
  8
1
  6
Continuous
100
AcDbLine
 10
164.5
 20
169.921929
 30
0.0
 11
164.5
 21
169.8
 31
0.0
  0
LINE
  5
D17E
330
CFB2
100
AcDbEntity
  8
1
  6
Continuous
100
AcDbLine
 10
184.4999999999998
 20
169.921929
 30
0.0
 11
184.4999999999998
 21
169.8
 31
0.0
  0
LINE
  5
D17F
330
CFB2
100
AcDbEntity
  8
1
  6
Continuous
100
AcDbLine
 10
186.5
 20
169.921929
 30
0.0
 11
186.5
 21
169.8
 31
0.0
  0
LINE
  5
D180
330
CFB2
100
AcDbEntity
  8
1
  6
Continuous
100
AcDbLine
 10
174.5
 20
169.921929
 30
0.0
 11
174.5
 21
169.8
 31
0.0
  0
LINE
  5
D181
330
CFB2
100
AcDbEntity
  8
1
  6
Continuous
100
AcDbLine
 10
176.5
 20
169.921929
 30
0.0
 11
176.5
 21
169.8
 31
0.0
  0
LINE
  5
D182
330
CFB2
100
AcDbEntity
  8
1
  6
Continuous
100
AcDbLine
 10
184.4999999999998
 20
169.8
 30
0.0
 11
176.5
 21
169.8
 31
0.0
  0
LINE
  5
D183
330
CFB2
100
AcDbEntity
  8
1
  6
Continuous
100
AcDbLine
 10
204.4999999999999
 20
169.921929
 30
0.0
 11
204.4999999999999
 21
169.8
 31
0.0
  0
LINE
  5
D184
330
CFB2
100
AcDbEntity
  8
1
  6
Continuous
100
AcDbLine
 10
194.5
 20
169.921929
 30
0.0
 11
194.5
 21
169.8
 31
0.0
  0
LINE
  5
D185
330
CFB2
100
AcDbEntity
  8
1
  6
Continuous
100
AcDbLine
 10
196.5
 20
169.921929
 30
0.0
 11
196.5
 21
169.8
 31
0.0
  0
LINE
  5
D186
330
CFB2
100
AcDbEntity
  8
1
  6
Continuous
100
AcDbLine
 10
204.4999999999999
 20
169.8
 30
0.0
 11
196.5
 21
169.8
 31
0.0
  0
LINE
  5
D187
330
CFB2
100
AcDbEntity
  8
1
  6
Continuous
100
AcDbLine
 10
214.5
 20
169.921929
 30
0.0
 11
214.5
 21
169.8
 31
0.0
  0
LINE
  5
D188
330
CFB2
100
AcDbEntity
  8
1
  6
Continuous
100
AcDbLine
 10
216.5
 20
169.921929
 30
0.0
 11
216.5
 21
169.8
 31
0.0
  0
LINE
  5
D189
330
CFB2
100
AcDbEntity
  8
1
  6
Continuous
100
AcDbLine
 10
206.4999999999999
 20
169.921929
 30
0.0
 11
206.4999999999999
 21
169.8
 31
0.0
  0
LINE
  5
D18A
330
CFB2
100
AcDbEntity
  8
1
  6
Continuous
100
AcDbLine
 10
214.5
 20
169.8
 30
0.0
 11
206.4999999999999
 21
169.8
 31
0.0
  0
LINE
  5
D18B
330
CFB2
100
AcDbEntity
  8
3
  6
DASHED
100
AcDbLine
 10
278.0
 20
169.921929
 30
0.0
 11
278.0
 21
174.5
 31
0.0
  0
LINE
  5
D18C
330
CFB2
100
AcDbEntity
  8
4
  6
CENTER
100
AcDbLine
 10
333.0
 20
179.0
 30
0.0
 11
333.0
 21
175.031303
 31
0.0
  0
LINE
  5
D18D
330
CFB2
100
AcDbEntity
  8
1
  6
Continuous
100
AcDbLine
 10
254.4999999999999
 20
169.8
 30
0.0
 11
246.4999999999998
 21
169.8
 31
0.0
  0
LINE
  5
D18E
330
CFB2
100
AcDbEntity
  8
1
  6
Continuous
100
AcDbLine
 10
244.4999999999998
 20
169.8
 30
0.0
 11
236.5
 21
169.8
 31
0.0
  0
LINE
  5
D18F
330
CFB2
100
AcDbEntity
  8
1
  6
Continuous
100
AcDbLine
 10
234.5
 20
169.8
 30
0.0
 11
226.5
 21
169.8
 31
0.0
  0
LINE
  5
D190
330
CFB2
100
AcDbEntity
  8
1
  6
Continuous
100
AcDbLine
 10
226.5
 20
169.921929
 30
0.0
 11
226.5
 21
169.8
 31
0.0
  0
LINE
  5
D191
330
CFB2
100
AcDbEntity
  8
1
  6
Continuous
100
AcDbLine
 10
234.5
 20
169.921929
 30
0.0
 11
234.5
 21
169.8
 31
0.0
  0
LINE
  5
D192
330
CFB2
100
AcDbEntity
  8
1
  6
Continuous
100
AcDbLine
 10
236.5
 20
169.921929
 30
0.0
 11
236.5
 21
169.8
 31
0.0
  0
LINE
  5
D193
330
CFB2
100
AcDbEntity
  8
1
  6
Continuous
100
AcDbLine
 10
224.5
 20
169.921929
 30
0.0
 11
224.5
 21
169.8
 31
0.0
  0
LINE
  5
D194
330
CFB2
100
AcDbEntity
  8
1
  6
Continuous
100
AcDbLine
 10
246.4999999999998
 20
169.921929
 30
0.0
 11
246.4999999999998
 21
169.8
 31
0.0
  0
LINE
  5
D195
330
CFB2
100
AcDbEntity
  8
1
  6
Continuous
100
AcDbLine
 10
244.4999999999998
 20
169.921929
 30
0.0
 11
244.4999999999998
 21
169.8
 31
0.0
  0
LINE
  5
D196
330
CFB2
100
AcDbEntity
  8
4
  6
CENTER
100
AcDbLine
 10
268.0
 20
171.125134
 30
0.0
 11
268.0
 21
167.0
 31
0.0
  0
LINE
  5
D197
330
CFB2
100
AcDbEntity
  8
4
  6
CENTER
100
AcDbLine
 10
258.0
 20
171.125134
 30
0.0
 11
258.0
 21
167.0
 31
0.0
  0
LINE
  5
D198
330
CFB2
100
AcDbEntity
  8
1
  6
Continuous
100
AcDbLine
 10
254.4999999999999
 20
169.921929
 30
0.0
 11
254.4999999999999
 21
169.8
 31
0.0
  0
LINE
  5
D199
330
CFB2
100
AcDbEntity
  8
1
  6
Continuous
100
AcDbLine
 10
278.0
 20
169.0
 30
0.0
 11
278.0
 21
169.921929
 31
0.0
  0
LINE
  5
D19A
330
CFB2
100
AcDbEntity
  8
1
  6
Continuous
100
AcDbLine
 10
353.0
 20
169.921929
 30
0.0
 11
353.0
 21
177.0
 31
0.0
  0
LINE
  5
D19B
330
CFB2
100
AcDbEntity
  8
4
  6
CENTER
100
AcDbLine
 10
343.0
 20
179.0
 30
0.0
 11
343.0
 21
174.868074
 31
0.0
  0
LINE
  5
D19C
330
CFB2
100
AcDbEntity
  8
4
  6
CENTER
100
AcDbLine
 10
75.0
 20
237.0
 30
0.0
 11
356.0
 21
237.0
 31
0.0
  0
LINE
  5
D19D
330
CFB2
100
AcDbEntity
  8
1
  6
Continuous
100
AcDbLine
 10
153.0
 20
247.0
 30
0.0
 11
353.0
 21
247.0
 31
0.0
  0
LINE
  5
D19E
330
CFB2
100
AcDbEntity
  8
1
  6
Continuous
100
AcDbLine
 10
353.0
 20
227.0
 30
0.0
 11
153.0
 21
227.0
 31
0.0
  0
LINE
  5
D19F
330
CFB2
100
AcDbEntity
  8
1
  6
Continuous
100
AcDbLine
 10
78.0
 20
243.15
 30
0.0
 11
153.0
 21
243.15
 31
0.0
  0
LINE
  5
D1A0
330
CFB2
100
AcDbEntity
  8
3
  6
DASHED
100
AcDbLine
 10
278.0
 20
230.8499999999999
 30
0.0
 11
153.0
 21
230.8499999999999
 31
0.0
  0
CIRCLE
  5
D1A1
330
CFB2
100
AcDbEntity
  8
1
  6
Continuous
100
AcDbCircle
 10
88.0
 20
237.0
 30
0.0
 40
1.6
  0
LINE
  5
D1A2
330
CFB2
100
AcDbEntity
  8
4
  6
CENTER
100
AcDbLine
 10
88.0
 20
234.489847
 30
0.0
 11
88.0
 21
239.5499589999999
 31
0.0
  0
LINE
  5
D1A3
330
CFB2
100
AcDbEntity
  8
1
  6
Continuous
100
AcDbLine
 10
78.0
 20
230.8499999999999
 30
0.0
 11
78.0
 21
243.15
 31
0.0
  0
CIRCLE
  5
D1A4
330
CFB2
100
AcDbEntity
  8
1
  6
Continuous
100
AcDbCircle
 10
98.0
 20
237.0
 30
0.0
 40
2.149999999999999
  0
LINE
  5
D1A5
330
CFB2
100
AcDbEntity
  8
4
  6
CENTER
100
AcDbLine
 10
98.0
 20
233.4
 30
0.0
 11
98.0
 21
240.6
 31
0.0
  0
LINE
  5
D1A6
330
CFB2
100
AcDbEntity
  8
1
  6
Continuous
100
AcDbLine
 10
153.0
 20
227.0
 30
0.0
 11
153.0
 21
247.0
 31
0.0
  0
LINE
  5
D1A7
330
CFB2
100
AcDbEntity
  8
4
  6
CENTER
100
AcDbLine
 10
173.0
 20
233.4
 30
0.0
 11
173.0
 21
240.6
 31
0.0
  0
LINE
  5
D1A8
330
CFB2
100
AcDbEntity
  8
4
  6
CENTER
100
AcDbLine
 10
163.0
 20
234.489847
 30
0.0
 11
163.0
 21
239.33232
 31
0.0
  0
CIRCLE
  5
D1A9
330
CFB2
100
AcDbEntity
  8
1
  6
Continuous
100
AcDbCircle
 10
173.0
 20
237.0
 30
0.0
 40
2.149999999999999
  0
LINE
  5
D1AA
330
CFB2
100
AcDbEntity
  8
4
  6
CENTER
100
AcDbLine
 10
258.0
 20
233.4
 30
0.0
 11
258.0
 21
240.6
 31
0.0
  0
CIRCLE
  5
D1AB
330
CFB2
100
AcDbEntity
  8
1
  6
Continuous
100
AcDbCircle
 10
163.0
 20
237.0
 30
0.0
 40
1.6
  0
LINE
  5
D1AC
330
CFB2
100
AcDbEntity
  8
4
  6
CENTER
100
AcDbLine
 10
268.0
 20
234.598666
 30
0.0
 11
268.0
 21
239.5499589999999
 31
0.0
  0
CIRCLE
  5
D1AD
330
CFB2
100
AcDbEntity
  8
1
  6
Continuous
100
AcDbCircle
 10
333.0
 20
237.0
 30
0.0
 40
2.149999999999999
  0
LINE
  5
D1AE
330
CFB2
100
AcDbEntity
  8
4
  6
CENTER
100
AcDbLine
 10
333.0
 20
233.4
 30
0.0
 11
333.0
 21
240.6
 31
0.0
  0
LINE
  5
D1AF
330
CFB2
100
AcDbEntity
  8
3
  6
DASHED
100
AcDbLine
 10
278.0
 20
243.15
 30
0.0
 11
278.0
 21
230.8499999999999
 31
0.0
  0
CIRCLE
  5
D1B0
330
CFB2
100
AcDbEntity
  8
1
  6
Continuous
100
AcDbCircle
 10
343.0
 20
237.0
 30
0.0
 40
1.6
  0
LINE
  5
D1B1
330
CFB2
100
AcDbEntity
  8
4
  6
CENTER
100
AcDbLine
 10
343.0
 20
234.489847
 30
0.0
 11
343.0
 21
239.495549
 31
0.0
  0
LINE
  5
D1B2
330
CFB2
100
AcDbEntity
  8
1
  6
Continuous
100
AcDbLine
 10
353.0
 20
247.0
 30
0.0
 11
353.0
 21
227.0
 31
0.0
  0
LINE
  5
D1B3
330
CFB2
100
AcDbEntity
  8
3
  6
DASHED
100
AcDbLine
 10
153.0
 20
243.15
 30
0.0
 11
278.0
 21
243.15
 31
0.0
  0
LINE
  5
D1B4
330
CFB2
100
AcDbEntity
  8
1
  6
Continuous
100
AcDbLine
 10
153.0
 20
230.8499999999999
 30
0.0
 11
78.0
 21
230.8499999999999
 31
0.0
  0
LINE
  5
D1B5
330
CFB2
100
AcDbEntity
  8
3
  6
DASHED
100
AcDbLine
 10
153.0
 20
241.048513
 30
0.0
 11
278.0
 21
241.048513
 31
0.0
  0
LINE
  5
D1B6
330
CFB2
100
AcDbEntity
  8
3
  6
DASHED
100
AcDbLine
 10
153.0
 20
232.5985129999998
 30
0.0
 11
278.0
 21
232.5985129999998
 31
0.0
  0
LINE
  5
D1B7
330
CFB2
100
AcDbEntity
  8
1
  6
Continuous
100
AcDbLine
 10
78.0
 20
232.5985129999998
 30
0.0
 11
153.0
 21
232.5985129999998
 31
0.0
  0
LINE
  5
D1B8
330
CFB2
100
AcDbEntity
  8
1
  6
Continuous
100
AcDbLine
 10
78.0
 20
241.048513
 30
0.0
 11
153.0
 21
241.048513
 31
0.0
  0
LINE
  5
D1B9
330
CFB2
100
AcDbEntity
  8
1
  6
Continuous
100
AcDbLine
 10
256.4999999999999
 20
116.1795
 30
0.0
 11
264.5
 21
116.1795
 31
0.0
  0
LINE
  5
D1BA
330
CFB2
100
AcDbEntity
  8
1
  6
Continuous
100
AcDbLine
 10
256.4999999999999
 20
115.6795
 30
0.0
 11
264.5
 21
115.6795
 31
0.0
  0
ARC
  5
D1BB
330
CFB2
100
AcDbEntity
  8
1
  6
Continuous
100
AcDbCircle
 10
255.5
 20
115.6795
 30
0.0
 40
1.0
100
AcDbArc
 50
328.028322
 51
0.0
  0
LINE
  5
D1BC
330
CFB2
100
AcDbEntity
  8
1
  6
Continuous
100
AcDbLine
 10
256.4999999999999
 20
116.1795
 30
0.0
 11
256.4999999999999
 21
115.6795
 31
0.0
  0
ARC
  5
D1BD
330
CFB2
100
AcDbEntity
  8
1
  6
Continuous
100
AcDbCircle
 10
260.4999999999999
 20
116.0125
 30
0.0
 40
1.587499999999999
100
AcDbArc
 50
192.1085089999999
 51
212.9090519999999
  0
ARC
  5
D1BE
330
CFB2
100
AcDbEntity
  8
1
  6
Continuous
100
AcDbCircle
 10
260.4999999999999
 20
116.0125
 30
0.0
 40
1.587499999999999
100
AcDbArc
 50
155.4270199999999
 51
173.9614919999999
  0
ARC
  5
D1BF
330
CFB2
100
AcDbEntity
  8
1
  6
Continuous
100
AcDbCircle
 10
255.5
 20
115.6795
 30
0.0
 40
1.0
100
AcDbArc
 50
180.0
 51
211.9716779999999
  0
LINE
  5
D1C0
330
CFB2
100
AcDbEntity
  8
1
  6
Continuous
100
AcDbLine
 10
254.4999999999999
 20
115.6795
 30
0.0
 11
254.4999999999999
 21
116.1795
 31
0.0
  0
ARC
  5
D1C1
330
CFB2
100
AcDbEntity
  8
1
  6
Continuous
100
AcDbCircle
 10
270.5
 20
116.0125
 30
0.0
 40
1.587499999999999
100
AcDbArc
 50
327.090948
 51
347.8914909999998
  0
ARC
  5
D1C2
330
CFB2
100
AcDbEntity
  8
1
  6
Continuous
100
AcDbCircle
 10
270.5
 20
116.0125
 30
0.0
 40
1.587499999999999
100
AcDbArc
 50
6.038508
 51
24.57297999999999
  0
ARC
  5
D1C3
330
CFB2
100
AcDbEntity
  8
1
  6
Continuous
100
AcDbCircle
 10
270.5
 20
116.0125
 30
0.0
 40
1.587499999999999
100
AcDbArc
 50
155.4270199999999
 51
173.9614919999999
  0
ARC
  5
D1C4
330
CFB2
100
AcDbEntity
  8
1
  6
Continuous
100
AcDbCircle
 10
270.5
 20
116.0125
 30
0.0
 40
1.587499999999999
100
AcDbArc
 50
192.1085089999999
 51
212.9090519999999
  0
ARC
  5
D1C5
330
CFB2
100
AcDbEntity
  8
1
  6
Continuous
100
AcDbCircle
 10
265.5
 20
115.6795
 30
0.0
 40
1.0
100
AcDbArc
 50
328.028322
 51
0.0
  0
LINE
  5
D1C6
330
CFB2
100
AcDbEntity
  8
1
  6
Continuous
100
AcDbLine
 10
266.5
 20
115.6795
 30
0.0
 11
266.5
 21
116.1795
 31
0.0
  0
ARC
  5
D1C7
330
CFB2
100
AcDbEntity
  8
1
  6
Continuous
100
AcDbCircle
 10
265.5
 20
115.6795
 30
0.0
 40
1.0
100
AcDbArc
 50
180.0
 51
211.9716779999999
  0
LINE
  5
D1C8
330
CFB2
100
AcDbEntity
  8
1
  6
Continuous
100
AcDbLine
 10
264.5
 20
115.6795
 30
0.0
 11
264.5
 21
116.1795
 31
0.0
  0
ARC
  5
D1C9
330
CFB2
100
AcDbEntity
  8
1
  6
Continuous
100
AcDbCircle
 10
260.4999999999999
 20
116.0125
 30
0.0
 40
1.587499999999999
100
AcDbArc
 50
6.038508
 51
24.57297999999999
  0
ARC
  5
D1CA
330
CFB2
100
AcDbEntity
  8
1
  6
Continuous
100
AcDbCircle
 10
260.4999999999999
 20
116.0125
 30
0.0
 40
1.587499999999999
100
AcDbArc
 50
327.090948
 51
347.8914909999998
  0
LINE
  5
D1CB
330
CFB2
100
AcDbEntity
  8
1
  6
Continuous
100
AcDbLine
 10
274.5
 20
116.1795
 30
0.0
 11
274.5
 21
115.15
 31
0.0
  0
LINE
  5
D1CC
330
CFB2
100
AcDbEntity
  8
1
  6
Continuous
100
AcDbLine
 10
266.5
 20
116.1795
 30
0.0
 11
274.5
 21
116.1795
 31
0.0
  0
LINE
  5
D1CD
330
CFB2
100
AcDbEntity
  8
1
  6
Continuous
100
AcDbLine
 10
266.5
 20
115.6795
 30
0.0
 11
274.5
 21
115.6795
 31
0.0
  0
LINE
  5
D1CE
330
CFB2
100
AcDbEntity
  8
1
  6
Continuous
100
AcDbLine
 10
256.4999999999999
 20
101.8205
 30
0.0
 11
264.5
 21
101.8205
 31
0.0
  0
LINE
  5
D1CF
330
CFB2
100
AcDbEntity
  8
1
  6
Continuous
100
AcDbLine
 10
256.4999999999999
 20
102.3204999999999
 30
0.0
 11
264.5
 21
102.3204999999999
 31
0.0
  0
LINE
  5
D1D0
330
CFB2
100
AcDbEntity
  8
1
  6
Continuous
100
AcDbLine
 10
256.4999999999999
 20
101.8205
 30
0.0
 11
256.4999999999999
 21
102.3204999999999
 31
0.0
  0
ARC
  5
D1D1
330
CFB2
100
AcDbEntity
  8
1
  6
Continuous
100
AcDbCircle
 10
255.5
 20
102.3204999999999
 30
0.0
 40
1.0
100
AcDbArc
 50
0.0
 51
31.97167800000001
  0
ARC
  5
D1D2
330
CFB2
100
AcDbEntity
  8
1
  6
Continuous
100
AcDbCircle
 10
260.4999999999999
 20
101.9875
 30
0.0
 40
1.587499999999999
100
AcDbArc
 50
186.038508
 51
204.57298
  0
ARC
  5
D1D3
330
CFB2
100
AcDbEntity
  8
1
  6
Continuous
100
AcDbCircle
 10
260.4999999999999
 20
101.9875
 30
0.0
 40
1.587499999999999
100
AcDbArc
 50
147.0909479999999
 51
167.891491
  0
ARC
  5
D1D4
330
CFB2
100
AcDbEntity
  8
1
  6
Continuous
100
AcDbCircle
 10
255.5
 20
102.3204999999999
 30
0.0
 40
1.0
100
AcDbArc
 50
148.028322
 51
180.0
  0
LINE
  5
D1D5
330
CFB2
100
AcDbEntity
  8
1
  6
Continuous
100
AcDbLine
 10
254.4999999999999
 20
102.3204999999999
 30
0.0
 11
254.4999999999999
 21
101.8205
 31
0.0
  0
ARC
  5
D1D6
330
CFB2
100
AcDbEntity
  8
1
  6
Continuous
100
AcDbCircle
 10
270.5
 20
101.9875
 30
0.0
 40
1.587499999999999
100
AcDbArc
 50
335.4270200000001
 51
353.9614919999999
  0
ARC
  5
D1D7
330
CFB2
100
AcDbEntity
  8
1
  6
Continuous
100
AcDbCircle
 10
270.5
 20
101.9875
 30
0.0
 40
1.587499999999999
100
AcDbArc
 50
12.108509
 51
32.909052
  0
LINE
  5
D1D8
330
CFB2
100
AcDbEntity
  8
1
  6
Continuous
100
AcDbLine
 10
274.5
 20
101.8205
 30
0.0
 11
274.5
 21
102.8499999999998
 31
0.0
  0
ARC
  5
D1D9
330
CFB2
100
AcDbEntity
  8
1
  6
Continuous
100
AcDbCircle
 10
270.5
 20
101.9875
 30
0.0
 40
1.587499999999999
100
AcDbArc
 50
147.0909479999999
 51
167.891491
  0
ARC
  5
D1DA
330
CFB2
100
AcDbEntity
  8
1
  6
Continuous
100
AcDbCircle
 10
270.5
 20
101.9875
 30
0.0
 40
1.587499999999999
100
AcDbArc
 50
186.038508
 51
204.57298
  0
ARC
  5
D1DB
330
CFB2
100
AcDbEntity
  8
1
  6
Continuous
100
AcDbCircle
 10
265.5
 20
102.3204999999999
 30
0.0
 40
1.0
100
AcDbArc
 50
148.028322
 51
180.0
  0
LINE
  5
D1DC
330
CFB2
100
AcDbEntity
  8
1
  6
Continuous
100
AcDbLine
 10
266.5
 20
102.3204999999999
 30
0.0
 11
266.5
 21
101.8205
 31
0.0
  0
ARC
  5
D1DD
330
CFB2
100
AcDbEntity
  8
1
  6
Continuous
100
AcDbCircle
 10
265.5
 20
102.3204999999999
 30
0.0
 40
1.0
100
AcDbArc
 50
0.0
 51
31.97167800000001
  0
LINE
  5
D1DE
330
CFB2
100
AcDbEntity
  8
1
  6
Continuous
100
AcDbLine
 10
264.5
 20
102.3204999999999
 30
0.0
 11
264.5
 21
101.8205
 31
0.0
  0
ARC
  5
D1DF
330
CFB2
100
AcDbEntity
  8
1
  6
Continuous
100
AcDbCircle
 10
260.4999999999999
 20
101.9875
 30
0.0
 40
1.587499999999999
100
AcDbArc
 50
12.108509
 51
32.909052
  0
ARC
  5
D1E0
330
CFB2
100
AcDbEntity
  8
1
  6
Continuous
100
AcDbCircle
 10
260.4999999999999
 20
101.9875
 30
0.0
 40
1.587499999999999
100
AcDbArc
 50
335.4270200000001
 51
353.9614919999999
  0
LINE
  5
D1E1
330
CFB2
100
AcDbEntity
  8
1
  6
Continuous
100
AcDbLine
 10
266.5
 20
101.8205
 30
0.0
 11
274.5
 21
101.8205
 31
0.0
  0
LINE
  5
D1E2
330
CFB2
100
AcDbEntity
  8
1
  6
Continuous
100
AcDbLine
 10
266.5
 20
102.3204999999999
 30
0.0
 11
274.5
 21
102.3204999999999
 31
0.0
  0
LINE
  5
D1E3
330
CFB2
100
AcDbEntity
  8
1
  6
Continuous
100
AcDbLine
 10
264.5
 20
48.2
 30
0.0
 11
256.4999999999999
 21
48.2
 31
0.0
  0
LINE
  5
D1E4
330
CFB2
100
AcDbEntity
  8
1
  6
Continuous
100
AcDbLine
 10
256.4999999999999
 20
48.078071
 30
0.0
 11
256.4999999999999
 21
48.2
 31
0.0
  0
LINE
  5
D1E5
330
CFB2
100
AcDbEntity
  8
1
  6
Continuous
100
AcDbLine
 10
274.5
 20
48.078071
 30
0.0
 11
274.5
 21
48.2
 31
0.0
  0
LINE
  5
D1E6
330
CFB2
100
AcDbEntity
  8
1
  6
Continuous
100
AcDbLine
 10
264.5
 20
48.078071
 30
0.0
 11
264.5
 21
48.2
 31
0.0
  0
LINE
  5
D1E7
330
CFB2
100
AcDbEntity
  8
1
  6
Continuous
100
AcDbLine
 10
266.5
 20
48.078071
 30
0.0
 11
266.5
 21
48.2
 31
0.0
  0
LINE
  5
D1E8
330
CFB2
100
AcDbEntity
  8
1
  6
Continuous
100
AcDbLine
 10
274.5
 20
48.2
 30
0.0
 11
266.5
 21
48.2
 31
0.0
  0
LINE
  5
D1E9
330
CFB2
100
AcDbEntity
  8
1
  6
Continuous
100
AcDbLine
 10
264.5
 20
169.8
 30
0.0
 11
256.4999999999999
 21
169.8
 31
0.0
  0
LINE
  5
D1EA
330
CFB2
100
AcDbEntity
  8
1
  6
Continuous
100
AcDbLine
 10
256.4999999999999
 20
169.921929
 30
0.0
 11
256.4999999999999
 21
169.8
 31
0.0
  0
LINE
  5
D1EB
330
CFB2
100
AcDbEntity
  8
1
  6
Continuous
100
AcDbLine
 10
274.5
 20
169.921929
 30
0.0
 11
274.5
 21
169.8
 31
0.0
  0
LINE
  5
D1EC
330
CFB2
100
AcDbEntity
  8
1
  6
Continuous
100
AcDbLine
 10
266.5
 20
169.921929
 30
0.0
 11
266.5
 21
169.8
 31
0.0
  0
LINE
  5
D1ED
330
CFB2
100
AcDbEntity
  8
1
  6
Continuous
100
AcDbLine
 10
264.5
 20
169.921929
 30
0.0
 11
264.5
 21
169.8
 31
0.0
  0
LINE
  5
D1EE
330
CFB2
100
AcDbEntity
  8
1
  6
Continuous
100
AcDbLine
 10
274.5
 20
169.8
 30
0.0
 11
266.5
 21
169.8
 31
0.0
  0
LINE
  5
D1EF
330
CFB2
100
AcDbEntity
  8
5
  6
PHANTOM
100
AcDbLine
 10
353.0
 20
115.15
 30
0.0
 11
278.0
 21
115.15
 31
0.0
  0
LINE
  5
D1F0
330
CFB2
100
AcDbEntity
  8
5
  6
PHANTOM
100
AcDbLine
 10
278.0
 20
102.8499999999998
 30
0.0
 11
353.0
 21
102.8499999999998
 31
0.0
  0
CIRCLE
  5
D1F1
330
CFB2
100
AcDbEntity
  8
5
  6
PHANTOM
100
AcDbCircle
 10
163.0
 20
109.0
 30
0.0
 40
1.6
  0
CIRCLE
  5
D1F2
330
CFB2
100
AcDbEntity
  8
5
  6
PHANTOM
100
AcDbCircle
 10
173.0
 20
109.0
 30
0.0
 40
2.149999999999999
  0
LINE
  5
D1F3
330
CFB2
100
AcDbEntity
  8
4
  6
CENTER
100
AcDbLine
 10
178.0
 20
234.489847
 30
0.0
 11
178.0
 21
239.5499589999999
 31
0.0
  0
CIRCLE
  5
D1F4
330
CFB2
100
AcDbEntity
  8
1
  6
Continuous
100
AcDbCircle
 10
253.0
 20
237.0
 30
0.0
 40
1.6
  0
LINE
  5
D1F5
330
CFB2
100
AcDbEntity
  8
4
  6
CENTER
100
AcDbLine
 10
253.0
 20
234.489847
 30
0.0
 11
253.0
 21
239.495549
 31
0.0
  0
LINE
  5
D1F6
330
CFB2
100
AcDbEntity
  8
4
  6
CENTER
100
AcDbLine
 10
178.0
 20
171.233953
 30
0.0
 11
178.0
 21
167.0
 31
0.0
  0
LINE
  5
D1F7
330
CFB2
100
AcDbEntity
  8
4
  6
CENTER
100
AcDbLine
 10
253.0
 20
179.0
 30
0.0
 11
253.0
 21
174.868074
 31
0.0
  0
LINE
  5
D1F8
330
CFB2
100
AcDbEntity
  8
4
  6
CENTER
100
AcDbLine
 10
253.0
 20
111.510153
 30
0.0
 11
253.0
 21
106.504451
 31
0.0
  0
LINE
  5
D1F9
330
CFB2
100
AcDbEntity
  8
4
  6
CENTER
100
AcDbLine
 10
178.0
 20
111.510153
 30
0.0
 11
178.0
 21
106.4500409999999
 31
0.0
  0
CIRCLE
  5
D1FA
330
CFB2
100
AcDbEntity
  8
1
  6
Continuous
100
AcDbCircle
 10
178.0
 20
109.0
 30
0.0
 40
1.6
  0
LINE
  5
D1FB
330
CFB2
100
AcDbEntity
  8
4
  6
CENTER
100
AcDbLine
 10
253.0
 20
39.0
 30
0.0
 11
253.0
 21
43.13192599999999
 31
0.0
  0
LINE
  5
D1FC
330
CFB2
100
AcDbEntity
  8
4
  6
CENTER
100
AcDbLine
 10
178.0
 20
46.766047
 30
0.0
 11
178.0
 21
51.0
 31
0.0
  0
ENDSEC
  0
SECTION
  2
OBJECTS
  0
DICTIONARY
  5
CFA0
330
0
100
AcDbDictionary
281
     1
  3
ACAD_CIP_PREVIOUS_PRODUCT_INFO
350
D25C
  3
ACAD_COLOR
350
D23E
  3
ACAD_DETAILVIEWSTYLE
350
D257
  3
ACAD_GROUP
350
CFA1
  3
ACAD_LAYOUT
350
CFAD
  3
ACAD_MATERIAL
350
D20C
  3
ACAD_MLEADERSTYLE
350
D253
  3
ACAD_MLINESTYLE
350
CFAA
  3
ACAD_PLOTSETTINGS
350
CFAC
  3
ACAD_PLOTSTYLENAME
350
D20A
  3
ACAD_SCALELIST
350
D241
  3
ACAD_SECTIONVIEWSTYLE
350
D255
  3
ACAD_TABLESTYLE
350
D23F
  3
ACAD_VISUALSTYLE
350
D225
  3
ACDB_RECOMPOSE_DATA
350
D27A
  3
AcDbVariableDictionary
350
D26D
  3
DWGPROPS
350
D27B
  0
DICTIONARY
  5
D25D
330
CFA4
100
AcDbDictionary
280
     1
281
     1
  3
ADSK_XREC_LAYER_RECONCILED
360
D25E
  0
DICTIONARY
  5
D25F
330
CFBA
100
AcDbDictionary
280
     1
281
     1
  3
ADSK_XREC_LAYER_RECONCILED
360
D260
  0
DICTIONARY
  5
D261
330
CFBB
100
AcDbDictionary
280
     1
281
     1
  3
ADSK_XREC_LAYER_RECONCILED
360
D262
  0
DICTIONARY
  5
D263
330
CFBC
100
AcDbDictionary
280
     1
281
     1
  3
ADSK_XREC_LAYER_RECONCILED
360
D264
  0
DICTIONARY
  5
D265
330
CFBD
100
AcDbDictionary
280
     1
281
     1
  3
ADSK_XREC_LAYER_RECONCILED
360
D266
  0
DICTIONARY
  5
D267
330
CFBE
100
AcDbDictionary
280
     1
281
     1
  3
ADSK_XREC_LAYER_RECONCILED
360
D268
  0
DICTIONARY
  5
D269
330
CFBF
100
AcDbDictionary
280
     1
281
     1
  3
ADSK_XREC_LAYER_RECONCILED
360
D26A
  0
DICTIONARY
  5
D26B
330
CFC0
100
AcDbDictionary
280
     1
281
     1
  3
ADSK_XREC_LAYER_RECONCILED
360
D26C
  0
DICTIONARY
  5
D205
330
CFB2
100
AcDbDictionary
281
     1
  3
ACAD_LAYOUTSELFREF
350
D206
  0
DICTIONARY
  5
D203
330
CFAE
100
AcDbDictionary
281
     1
  3
ACAD_LAYOUTSELFREF
350
D204
  0
XRECORD
  5
D25C
102
{ACAD_REACTORS
330
CFA0
102
}
330
CFA0
100
AcDbXrecord
280
     1
300
ACDLT
300
2014
300
ACDLT_F_S
  0
DICTIONARY
  5
D23E
102
{ACAD_REACTORS
330
CFA0
102
}
330
CFA0
100
AcDbDictionary
281
     1
  0
DICTIONARY
  5
D257
102
{ACAD_REACTORS
330
CFA0
102
}
330
CFA0
100
AcDbDictionary
281
     1
  3
Imperial24
350
D258
  0
DICTIONARY
  5
CFA1
102
{ACAD_REACTORS
330
CFA0
102
}
330
CFA0
100
AcDbDictionary
281
     1
  0
DICTIONARY
  5
CFAD
102
{ACAD_REACTORS
330
CFA0
102
}
330
CFA0
100
AcDbDictionary
281
     1
  3
Model
350
D259
  3
レイアウト1
350
D25A
  0
DICTIONARY
  5
D20C
102
{ACAD_REACTORS
330
CFA0
102
}
330
CFA0
100
AcDbDictionary
281
     1
  3
ByBlock
350
D215
  3
ByLayer
350
D20D
  3
Global
350
D21D
  0
DICTIONARY
  5
D253
102
{ACAD_REACTORS
330
CFA0
102
}
330
CFA0
100
AcDbDictionary
281
     1
  3
Standard
350
D254
  0
DICTIONARY
  5
CFAA
102
{ACAD_REACTORS
330
CFA0
102
}
330
CFA0
100
AcDbDictionary
281
     1
  3
STANDARD
350
CFAB
  0
DICTIONARY
  5
CFAC
102
{ACAD_REACTORS
330
CFA0
102
}
330
CFA0
100
AcDbDictionary
281
     1
  0
ACDBDICTIONARYWDFLT
  5
D20A
102
{ACAD_REACTORS
330
CFA0
102
}
330
CFA0
100
AcDbDictionary
281
     1
  3
Normal
350
D20B
100
AcDbDictionaryWithDefault
340
D20B
  0
DICTIONARY
  5
D241
102
{ACAD_REACTORS
330
CFA0
102
}
330
CFA0
100
AcDbDictionary
281
     1
  3
A0
350
D242
  3
A1
350
D243
  3
A2
350
D244
  3
A3
350
D245
  3
A4
350
D246
  3
A5
350
D247
  3
A6
350
D248
  3
A7
350
D249
  3
A8
350
D24A
  3
A9
350
D24B
  3
B0
350
D24C
  3
B1
350
D24D
  3
B2
350
D24E
  3
B3
350
D24F
  3
B4
350
D250
  3
B5
350
D251
  3
B6
350
D252
  0
DICTIONARY
  5
D255
102
{ACAD_REACTORS
330
CFA0
102
}
330
CFA0
100
AcDbDictionary
281
     1
  3
Imperial24
350
D256
  0
DICTIONARY
  5
D23F
102
{ACAD_REACTORS
330
CFA0
102
}
330
CFA0
100
AcDbDictionary
281
     1
  3
Standard
350
D240
  0
DICTIONARY
  5
D225
102
{ACAD_REACTORS
330
CFA0
102
}
330
CFA0
100
AcDbDictionary
281
     1
  3
2dWireframe
350
D22B
  3
Basic
350
D22A
  3
Brighten
350
D231
  3
ColorChange
350
D235
  3
Conceptual
350
D22E
  3
Dim
350
D230
  3
EdgeColorOff
350
D23D
  3
Facepattern
350
D234
  3
Flat
350
D226
  3
FlatWithEdges
350
D227
  3
Gouraud
350
D228
  3
GouraudWithEdges
350
D229
  3
Hidden
350
D22D
  3
JitterOff
350
D23B
  3
Linepattern
350
D233
  3
OverhangOff
350
D23C
  3
Realistic
350
D22F
  3
Shaded
350
D23A
  3
Shaded with edges
350
D239
  3
Shades of Gray
350
D236
  3
Sketchy
350
D237
  3
Thicken
350
D232
  3
Wireframe
350
D22C
  3
X-Ray
350
D238
  0
XRECORD
  5
D27A
102
{ACAD_REACTORS
330
CFA0
102
}
330
CFA0
100
AcDbXrecord
280
     1
 90
        1
330
D240
  0
DICTIONARY
  5
D26D
102
{ACAD_REACTORS
330
CFA0
102
}
330
CFA0
100
AcDbDictionary
281
     1
  3
CANNOSCALE
350
D272
  3
CMLEADERSTYLE
350
D26F
  3
CTABLESTYLE
350
D26E
  3
CVIEWDETAILSTYLE
350
D270
  3
CVIEWSECTIONSTYLE
350
D271
  3
DIMASSOC
350
D275
  3
INDEXCTL
350
D274
  3
SORTENTS
350
D273
  3
XCLIPFRAME
350
D276
  0
XRECORD
  5
D27B
102
{ACAD_REACTORS
330
CFA0
102
}
330
CFA0
100
AcDbXrecord
280
     1
  1
DWGPROPS COOKIE
  2

  3

  4

  6

  7

  8
Yoshitsune
  9

300
=
301
=
302
=
303
=
304
=
305
=
306
=
307
=
308
=
309
=
 40
0.0000120717592593
 41
2451233.434243866
 42
2457192.661993194
  1

 90
        0
  0
XRECORD
  5
D25E
102
{ACAD_REACTORS
330
D25D
102
}
330
D25D
100
AcDbXrecord
280
     1
290
     1
  0
XRECORD
  5
D260
102
{ACAD_REACTORS
330
D25F
102
}
330
D25F
100
AcDbXrecord
280
     1
290
     1
  0
XRECORD
  5
D262
102
{ACAD_REACTORS
330
D261
102
}
330
D261
100
AcDbXrecord
280
     1
290
     1
  0
XRECORD
  5
D264
102
{ACAD_REACTORS
330
D263
102
}
330
D263
100
AcDbXrecord
280
     1
290
     1
  0
XRECORD
  5
D266
102
{ACAD_REACTORS
330
D265
102
}
330
D265
100
AcDbXrecord
280
     1
290
     1
  0
XRECORD
  5
D268
102
{ACAD_REACTORS
330
D267
102
}
330
D267
100
AcDbXrecord
280
     1
290
     1
  0
XRECORD
  5
D26A
102
{ACAD_REACTORS
330
D269
102
}
330
D269
100
AcDbXrecord
280
     1
290
     1
  0
XRECORD
  5
D26C
102
{ACAD_REACTORS
330
D26B
102
}
330
D26B
100
AcDbXrecord
280
     1
290
     1
  0
XRECORD
  5
D206
102
{ACAD_REACTORS
330
D205
102
}
330
D205
100
AcDbXrecord
280
     1
340
CFB2
  0
XRECORD
  5
D204
102
{ACAD_REACTORS
330
D203
102
}
330
D203
100
AcDbXrecord
280
     1
340
CFAE
  0
ACDBDETAILVIEWSTYLE
  5
D258
102
{ACAD_XDICTIONARY
360
D2B3
102
}
102
{ACAD_REACTORS
330
D257
102
}
330
D257
100
AcDbModelDocViewStyle
 70
     0
  3
Imperial24
290
     0
100
AcDbDetailViewStyle
 70
     0
 71
     0
 90
        3
 71
     1
340
CFA5
 40
0.24
340
0
 40
0.24
300

 40
0.36
280
     3
 71
     2
340
CFA9
 90
       25
 71
     3
340
CFA5
 40
0.24
 90
        1
 40
0.75
 90
        1
300
%<\AcVar ViewType \f "%tc1">% %<\AcVar ViewDetailId>%\PSCALE %<\AcVar ViewScale \f "%sn">%
 71
     4
340
CFA9
 90
       25
340
CFA9
 90
       25
280
     0
  0
LAYOUT
  5
D259
102
{ACAD_XDICTIONARY
360
D2B5
102
}
102
{ACAD_REACTORS
330
CFAD
102
}
330
CFAD
100
AcDbPlotSettings
  1

  2
Canon LBP9100C
  4

  6

 40
0.0
 41
0.0
 42
0.0
 43
0.0
 44
0.0
 45
0.0
 46
0.0
 47
0.0
 48
0.0
 49
0.0
140
0.0
141
0.0
142
1.0
143
1.0
 70
  1712
 72
     0
 73
     0
 74
     0
  7

 75
     0
147
1.0
148
0.0
149
0.0
100
AcDbLayout
  1
Model
 70
     1
 71
     0
 10
0.0
 20
0.0
 11
12.0
 21
9.0
 12
0.0
 22
0.0
 32
0.0
 14
0.0
 24
0.0
 34
0.0
 15
0.0
 25
0.0
 35
0.0
146
0.0
 13
0.0
 23
0.0
 33
0.0
 16
1.0
 26
0.0
 36
0.0
 17
0.0
 27
1.0
 37
0.0
 76
     0
330
CFB2
331
D202
  0
LAYOUT
  5
D25A
102
{ACAD_XDICTIONARY
360
D2B7
102
}
102
{ACAD_REACTORS
330
CFAD
102
}
330
CFAD
100
AcDbPlotSettings
  1

  2
Canon LBP9100C
  4

  6

 40
0.0
 41
0.0
 42
0.0
 43
0.0
 44
0.0
 45
0.0
 46
0.0
 47
0.0
 48
0.0
 49
0.0
140
0.0
141
0.0
142
1.0
143
1.0
 70
   688
 72
     0
 73
     0
 74
     5
  7

 75
    16
147
1.0
148
0.0
149
0.0
100
AcDbLayout
  1
レイアウト1
 70
     0
 71
     1
 10
0.0
 20
0.0
 11
420.0
 21
297.0
 12
0.0
 22
0.0
 32
0.0
 14
1.000000000000000E+20
 24
1.000000000000000E+20
 34
1.000000000000000E+20
 15
-1.000000000000000E+20
 25
-1.000000000000000E+20
 35
-1.000000000000000E+20
146
0.0
 13
0.0
 23
0.0
 33
0.0
 16
1.0
 26
0.0
 36
0.0
 17
0.0
 27
1.0
 37
0.0
 76
     0
330
CFAE
  0
MATERIAL
  5
D215
102
{ACAD_XDICTIONARY
360
D216
102
}
102
{ACAD_REACTORS
330
D20C
102
}
330
D20C
100
AcDbMaterial
  1
ByBlock
 72
     0
 43
0.0208333333333333
 43
0.0
 43
0.0
 43
0.0
 43
0.0
 43
0.0208333333333333
 43
0.0
 43
0.0
 43
0.0
 43
0.0
 43
1.0
 43
0.0
 43
0.0
 43
0.0
 43
0.0
 43
1.0
 77
     0
 47
0.0208333333333333
 47
0.0
 47
0.0
 47
0.0
 47
0.0
 47
0.0208333333333333
 47
0.0
 47
0.0
 47
0.0
 47
0.0
 47
1.0
 47
0.0
 47
0.0
 47
0.0
 47
0.0
 47
1.0
171
     0
 49
0.0208333333333333
 49
0.0
 49
0.0
 49
0.0
 49
0.0
 49
0.0208333333333333
 49
0.0
 49
0.0
 49
0.0
 49
0.0
 49
1.0
 49
0.0
 49
0.0
 49
0.0
 49
0.0
 49
1.0
175
     0
142
0.0208333333333333
142
0.0
142
0.0
142
0.0
142
0.0
142
0.0208333333333333
142
0.0
142
0.0
142
0.0
142
0.0
142
1.0
142
0.0
142
0.0
142
0.0
142
0.0
142
1.0
179
     0
144
0.0208333333333333
144
0.0
144
0.0
144
0.0
144
0.0
144
0.0208333333333333
144
0.0
144
0.0
144
0.0
144
0.0
144
1.0
144
0.0
144
0.0
144
0.0
144
0.0
144
1.0
147
0.0208333333333333
147
0.0
147
0.0
147
0.0
147
0.0
147
0.0208333333333333
147
0.0
147
0.0
147
0.0
147
0.0
147
1.0
147
0.0
147
0.0
147
0.0
147
0.0
147
1.0
  0
MATERIAL
  5
D20D
102
{ACAD_XDICTIONARY
360
D20E
102
}
102
{ACAD_REACTORS
330
D20C
102
}
330
D20C
100
AcDbMaterial
  1
ByLayer
 72
     0
 43
0.0208333333333333
 43
0.0
 43
0.0
 43
0.0
 43
0.0
 43
0.0208333333333333
 43
0.0
 43
0.0
 43
0.0
 43
0.0
 43
1.0
 43
0.0
 43
0.0
 43
0.0
 43
0.0
 43
1.0
 77
     0
 47
0.0208333333333333
 47
0.0
 47
0.0
 47
0.0
 47
0.0
 47
0.0208333333333333
 47
0.0
 47
0.0
 47
0.0
 47
0.0
 47
1.0
 47
0.0
 47
0.0
 47
0.0
 47
0.0
 47
1.0
171
     0
 49
0.0208333333333333
 49
0.0
 49
0.0
 49
0.0
 49
0.0
 49
0.0208333333333333
 49
0.0
 49
0.0
 49
0.0
 49
0.0
 49
1.0
 49
0.0
 49
0.0
 49
0.0
 49
0.0
 49
1.0
175
     0
142
0.0208333333333333
142
0.0
142
0.0
142
0.0
142
0.0
142
0.0208333333333333
142
0.0
142
0.0
142
0.0
142
0.0
142
1.0
142
0.0
142
0.0
142
0.0
142
0.0
142
1.0
179
     0
144
0.0208333333333333
144
0.0
144
0.0
144
0.0
144
0.0
144
0.0208333333333333
144
0.0
144
0.0
144
0.0
144
0.0
144
1.0
144
0.0
144
0.0
144
0.0
144
0.0
144
1.0
147
0.0208333333333333
147
0.0
147
0.0
147
0.0
147
0.0
147
0.0208333333333333
147
0.0
147
0.0
147
0.0
147
0.0
147
1.0
147
0.0
147
0.0
147
0.0
147
0.0
147
1.0
  0
MATERIAL
  5
D21D
102
{ACAD_XDICTIONARY
360
D21E
102
}
102
{ACAD_REACTORS
330
D20C
102
}
330
D20C
100
AcDbMaterial
  1
Global
 72
     0
 43
0.0208333333333333
 43
0.0
 43
0.0
 43
0.0
 43
0.0
 43
0.0208333333333333
 43
0.0
 43
0.0
 43
0.0
 43
0.0
 43
1.0
 43
0.0
 43
0.0
 43
0.0
 43
0.0
 43
1.0
 77
     0
 47
0.0208333333333333
 47
0.0
 47
0.0
 47
0.0
 47
0.0
 47
0.0208333333333333
 47
0.0
 47
0.0
 47
0.0
 47
0.0
 47
1.0
 47
0.0
 47
0.0
 47
0.0
 47
0.0
 47
1.0
171
     0
 49
0.0208333333333333
 49
0.0
 49
0.0
 49
0.0
 49
0.0
 49
0.0208333333333333
 49
0.0
 49
0.0
 49
0.0
 49
0.0
 49
1.0
 49
0.0
 49
0.0
 49
0.0
 49
0.0
 49
1.0
175
     0
142
0.0208333333333333
142
0.0
142
0.0
142
0.0
142
0.0
142
0.0208333333333333
142
0.0
142
0.0
142
0.0
142
0.0
142
1.0
142
0.0
142
0.0
142
0.0
142
0.0
142
1.0
179
     0
144
0.0208333333333333
144
0.0
144
0.0
144
0.0
144
0.0
144
0.0208333333333333
144
0.0
144
0.0
144
0.0
144
0.0
144
1.0
144
0.0
144
0.0
144
0.0
144
0.0
144
1.0
147
0.0208333333333333
147
0.0
147
0.0
147
0.0
147
0.0
147
0.0208333333333333
147
0.0
147
0.0
147
0.0
147
0.0
147
1.0
147
0.0
147
0.0
147
0.0
147
0.0
147
1.0
  0
MLEADERSTYLE
  5
D254
102
{ACAD_REACTORS
330
D253
102
}
330
D253
100
AcDbMLeaderStyle
170
     2
171
     1
172
     0
 90
        2
 40
0.0
 41
0.0
173
     1
 91
-1056964608
340
CFA7
 92
       -2
290
     1
 42
0.09
291
     1
 43
0.36
  3
Standard
 44
0.18
300

342
CFA5
174
     1
178
     6
175
     1
176
     0
 93
-1056964608
 45
0.18
292
     0
297
     0
 46
0.18
 94
-1056964608
 47
1.0
 49
1.0
140
1.0
293
     1
141
0.0
294
     1
177
     0
142
1.0
295
     0
296
     0
143
0.125
1001
ACAD_MLEADERVER
1070
     2
  0
MLINESTYLE
  5
CFAB
102
{ACAD_REACTORS
330
CFAA
102
}
330
CFAA
100
AcDbMlineStyle
  2
STANDARD
 70
     0
  3

 62
   256
 51
90.0
 52
90.0
 71
     2
 49
0.5
 62
   256
  6
BYLAYER
 49
-0.5
 62
   256
  6
BYLAYER
  0
ACDBPLACEHOLDER
  5
D20B
102
{ACAD_REACTORS
330
D20A
102
}
330
D20A
  0
SCALE
  5
D242
102
{ACAD_REACTORS
330
D241
102
}
330
D241
100
AcDbScale
 70
     0
300
1:1
140
1.0
141
1.0
290
     1
  0
SCALE
  5
D243
102
{ACAD_REACTORS
330
D241
102
}
330
D241
100
AcDbScale
 70
     0
300
1/128" = 1'-0"
140
0.0078125
141
12.0
290
     0
  0
SCALE
  5
D244
102
{ACAD_REACTORS
330
D241
102
}
330
D241
100
AcDbScale
 70
     0
300
1/64" = 1'-0"
140
0.015625
141
12.0
290
     0
  0
SCALE
  5
D245
102
{ACAD_REACTORS
330
D241
102
}
330
D241
100
AcDbScale
 70
     0
300
1/32" = 1'-0"
140
0.03125
141
12.0
290
     0
  0
SCALE
  5
D246
102
{ACAD_REACTORS
330
D241
102
}
330
D241
100
AcDbScale
 70
     0
300
1/16" = 1'-0"
140
0.0625
141
12.0
290
     0
  0
SCALE
  5
D247
102
{ACAD_REACTORS
330
D241
102
}
330
D241
100
AcDbScale
 70
     0
300
3/32" = 1'-0"
140
0.09375
141
12.0
290
     0
  0
SCALE
  5
D248
102
{ACAD_REACTORS
330
D241
102
}
330
D241
100
AcDbScale
 70
     0
300
1/8" = 1'-0"
140
0.125
141
12.0
290
     0
  0
SCALE
  5
D249
102
{ACAD_REACTORS
330
D241
102
}
330
D241
100
AcDbScale
 70
     0
300
3/16" = 1'-0"
140
0.1875
141
12.0
290
     0
  0
SCALE
  5
D24A
102
{ACAD_REACTORS
330
D241
102
}
330
D241
100
AcDbScale
 70
     0
300
1/4" = 1'-0"
140
0.25
141
12.0
290
     0
  0
SCALE
  5
D24B
102
{ACAD_REACTORS
330
D241
102
}
330
D241
100
AcDbScale
 70
     0
300
3/8" = 1'-0"
140
0.375
141
12.0
290
     0
  0
SCALE
  5
D24C
102
{ACAD_REACTORS
330
D241
102
}
330
D241
100
AcDbScale
 70
     0
300
1/2" = 1'-0"
140
0.5
141
12.0
290
     0
  0
SCALE
  5
D24D
102
{ACAD_REACTORS
330
D241
102
}
330
D241
100
AcDbScale
 70
     0
300
3/4" = 1'-0"
140
0.75
141
12.0
290
     0
  0
SCALE
  5
D24E
102
{ACAD_REACTORS
330
D241
102
}
330
D241
100
AcDbScale
 70
     0
300
1" = 1'-0"
140
1.0
141
12.0
290
     0
  0
SCALE
  5
D24F
102
{ACAD_REACTORS
330
D241
102
}
330
D241
100
AcDbScale
 70
     0
300
1-1/2" = 1'-0"
140
1.5
141
12.0
290
     0
  0
SCALE
  5
D250
102
{ACAD_REACTORS
330
D241
102
}
330
D241
100
AcDbScale
 70
     0
300
3" = 1'-0"
140
3.0
141
12.0
290
     0
  0
SCALE
  5
D251
102
{ACAD_REACTORS
330
D241
102
}
330
D241
100
AcDbScale
 70
     0
300
6" = 1'-0"
140
6.0
141
12.0
290
     0
  0
SCALE
  5
D252
102
{ACAD_REACTORS
330
D241
102
}
330
D241
100
AcDbScale
 70
     0
300
1'-0" = 1'-0"
140
12.0
141
12.0
290
     0
  0
ACDBSECTIONVIEWSTYLE
  5
D256
102
{ACAD_XDICTIONARY
360
D2B1
102
}
102
{ACAD_REACTORS
330
D255
102
}
330
D255
100
AcDbModelDocViewStyle
 70
     0
  3
Imperial24
290
     0
100
AcDbSectionViewStyle
 70
     0
 71
     0
 90
       78
 71
     1
340
CFA5
 40
0.24
340
0
340
0
 40
0.24
300
I, O, Q, S, X, Z
 40
0.48
 90
        3
 40
0.18
 90
        1
 71
     2
340
CFA9
 90
       25
340
CFA9
 90
       50
 40
0.24
 40
0.0
 40
0.24
 71
     3
340
CFA5
 40
0.24
 90
        1
 40
0.75
 90
        1
300
%<\AcVar ViewType \f "%tc1">% %<\AcVar ViewSectionStartId>%-%<\AcVar ViewSectionEndId>%\PSCALE %<\AcVar ViewScale \f "%sn">%
 71
     4
300
ANSI31
 40
1.0
 90
        0
290
     0
290
     0
 90
        6
 40
0.0
 40
1.570796326794896
 40
0.2617993877991494
 40
1.308996938995747
 40
-0.2617993877991494
 40
1.832595714594046
  0
TABLESTYLE
  5
D240
102
{ACAD_XDICTIONARY
360
D278
102
}
102
{ACAD_REACTORS
330
D23F
102
}
330
D23F
100
AcDbTableStyle
  3
Standard
 70
     0
 71
     0
 40
0.06
 41
0.06
280
     0
281
     0
  7
STANDARD
140
0.18
170
     2
 62
     0
 63
     7
283
     0
274
    -2
284
     1
 64
     0
275
    -2
285
     1
 65
     0
276
    -2
286
     1
 66
     0
277
    -2
287
     1
 67
     0
278
    -2
288
     1
 68
     0
279
    -2
289
     1
 69
     0
  7
STANDARD
140
0.25
170
     5
 62
     0
 63
     7
283
     0
274
    -2
284
     1
 64
     0
275
    -2
285
     1
 65
     0
276
    -2
286
     1
 66
     0
277
    -2
287
     1
 67
     0
278
    -2
288
     1
 68
     0
279
    -2
289
     1
 69
     0
  7
STANDARD
140
0.18
170
     5
 62
     0
 63
     7
283
     0
274
    -2
284
     1
 64
     0
275
    -2
285
     1
 65
     0
276
    -2
286
     1
 66
     0
277
    -2
287
     1
 67
     0
278
    -2
288
     1
 68
     0
279
    -2
289
     1
 69
     0
  0
VISUALSTYLE
  5
D22B
102
{ACAD_XDICTIONARY
360
D289
102
}
102
{ACAD_REACTORS
330
D225
102
}
330
D225
100
AcDbVisualStyle
  2
2dWireframe
 70
     4
 71
     0
 72
     2
 73
     0
 90
        0
 40
-0.6
 41
-30.0
 62
     5
 63
     7
 74
     1
 91
        4
 64
     7
 65
   257
 75
     1
175
     1
 42
1.0
 92
        0
 66
   257
 43
1.0
 76
     1
 77
     6
 78
     2
 67
     7
 79
     5
170
     0
171
     0
290
     0
174
     0
 93
        1
 44
0.0
173
     0
291
     0
 45
0.0
1001
ACAD
1000
AcDbSavedByObjectVersion
1070
     0
  0
VISUALSTYLE
  5
D22A
102
{ACAD_XDICTIONARY
360
D287
102
}
102
{ACAD_REACTORS
330
D225
102
}
330
D225
100
AcDbVisualStyle
  2
Basic
 70
     7
 71
     1
 72
     0
 73
     1
 90
        0
 40
-0.6
 41
-30.0
 62
     5
 63
     7
 74
     0
 91
        4
 64
     7
 65
   257
 75
     1
175
     1
 42
1.0
 92
        8
 66
     7
 43
1.0
 76
     1
 77
     6
 78
     2
 67
     7
 79
     5
170
     0
171
     0
290
     0
174
     0
 93
        1
 44
0.0
173
     0
291
     1
 45
0.0
1001
ACAD
1000
AcDbSavedByObjectVersion
1070
     0
  0
VISUALSTYLE
  5
D231
102
{ACAD_XDICTIONARY
360
D295
102
}
102
{ACAD_REACTORS
330
D225
102
}
330
D225
100
AcDbVisualStyle
  2
Brighten
 70
    12
 71
     2
 72
     2
 73
     0
 90
        0
 40
-0.6
 41
-30.0
 62
     5
 63
     7
 74
     1
 91
        4
 64
     7
 65
   257
 75
     1
175
     1
 42
1.0
 92
        8
 66
     7
 43
1.0
 76
     1
 77
     6
 78
     2
 67
     7
 79
     5
170
     0
171
     0
290
     0
174
     0
 93
        1
 44
50.0
173
     0
291
     1
 45
0.0
1001
ACAD
1000
AcDbSavedByObjectVersion
1070
     0
  0
VISUALSTYLE
  5
D235
102
{ACAD_XDICTIONARY
360
D29D
102
}
102
{ACAD_REACTORS
330
D225
102
}
330
D225
100
AcDbVisualStyle
  2
ColorChange
 70
    16
 71
     2
 72
     2
 73
     3
 90
        0
 40
-0.6
 41
-30.0
 62
     5
 63
     8
 74
     1
 91
        4
 64
     7
 65
   257
 75
     1
175
     1
 42
1.0
 92
        8
 66
     8
 43
1.0
 76
     1
 77
     6
 78
     2
 67
     7
 79
     5
170
     0
171
     0
290
     0
174
     0
 93
        1
 44
0.0
173
     0
291
     1
 45
0.0
1001
ACAD
1000
AcDbSavedByObjectVersion
1070
     0
  0
VISUALSTYLE
  5
D22E
102
{ACAD_XDICTIONARY
360
D28F
102
}
102
{ACAD_REACTORS
330
D225
102
}
330
D225
100
AcDbVisualStyle
  2
Conceptual
 70
     9
 71
     3
 72
     2
 73
     0
 90
        0
 40
-0.6
 41
-30.0
 62
     5
 63
     7
 74
     2
 91
        2
 64
     7
 65
   257
 75
     1
175
     1
 42
179.0
 92
        8
 66
     7
 43
1.0
 76
     1
 77
     6
 78
     2
 67
     7
 79
     3
170
     0
171
     0
290
     0
174
     0
 93
        1
 44
0.0
173
     0
291
     0
 45
0.0
1001
ACAD
1000
AcDbSavedByObjectVersion
1070
     0
  0
VISUALSTYLE
  5
D230
102
{ACAD_XDICTIONARY
360
D293
102
}
102
{ACAD_REACTORS
330
D225
102
}
330
D225
100
AcDbVisualStyle
  2
Dim
 70
    11
 71
     2
 72
     2
 73
     0
 90
        0
 40
-0.6
 41
-30.0
 62
     5
 63
     7
 74
     1
 91
        4
 64
     7
 65
   257
 75
     1
175
     1
 42
1.0
 92
        8
 66
     7
 43
1.0
 76
     1
 77
     6
 78
     2
 67
     7
 79
     5
170
     0
171
     0
290
     0
174
     0
 93
        1
 44
-50.0
173
     0
291
     1
 45
0.0
1001
ACAD
1000
AcDbSavedByObjectVersion
1070
     0
  0
VISUALSTYLE
  5
D23D
102
{ACAD_XDICTIONARY
360
D2AD
102
}
102
{ACAD_REACTORS
330
D225
102
}
330
D225
100
AcDbVisualStyle
  2
EdgeColorOff
 70
    22
 71
     2
 72
     2
 73
     0
 90
        0
 40
-0.6
 41
-30.0
 62
     5
 63
     7
 74
     1
 91
        4
 64
     7
 65
   257
 75
     1
175
     1
 42
1.0
 92
        8
 66
     7
 43
1.0
 76
     1
 77
     6
 78
     2
 67
     7
 79
     5
170
     0
171
     0
290
     0
174
     0
 93
        1
 44
0.0
173
     0
291
     1
 45
0.0
1001
ACAD
1000
AcDbSavedByObjectVersion
1070
     0
  0
VISUALSTYLE
  5
D234
102
{ACAD_XDICTIONARY
360
D29B
102
}
102
{ACAD_REACTORS
330
D225
102
}
330
D225
100
AcDbVisualStyle
  2
Facepattern
 70
    15
 71
     2
 72
     2
 73
     0
 90
        0
 40
-0.6
 41
-30.0
 62
     5
 63
     7
 74
     1
 91
        4
 64
     7
 65
   257
 75
     1
175
     1
 42
1.0
 92
        8
 66
     7
 43
1.0
 76
     1
 77
     6
 78
     2
 67
     7
 79
     5
170
     0
171
     0
290
     0
174
     0
 93
        1
 44
0.0
173
     0
291
     1
 45
0.0
1001
ACAD
1000
AcDbSavedByObjectVersion
1070
     0
  0
VISUALSTYLE
  5
D226
102
{ACAD_XDICTIONARY
360
D27F
102
}
102
{ACAD_REACTORS
330
D225
102
}
330
D225
100
AcDbVisualStyle
  2
Flat
 70
     0
 71
     2
 72
     1
 73
     1
 90
        2
 40
-0.6
 41
30.0
 62
     5
 63
     7
 74
     0
 91
        0
 64
     7
 65
   257
 75
     1
175
     1
 42
1.0
 92
        8
 66
     7
 43
1.0
 76
     1
 77
     6
 78
     2
 67
     7
 79
     5
170
     0
171
     0
290
     0
174
     0
 93
       13
 44
0.0
173
     0
291
     1
 45
0.0
1001
ACAD
1000
AcDbSavedByObjectVersion
1070
     0
  0
VISUALSTYLE
  5
D227
102
{ACAD_XDICTIONARY
360
D281
102
}
102
{ACAD_REACTORS
330
D225
102
}
330
D225
100
AcDbVisualStyle
  2
FlatWithEdges
 70
     1
 71
     2
 72
     1
 73
     1
 90
        2
 40
-0.6
 41
30.0
 62
     5
 63
     7
 74
     1
 91
        0
 64
     7
 65
   257
 75
     1
175
     1
 42
1.0
 92
        0
 66
   257
 43
1.0
 76
     1
 77
     6
 78
     2
 67
     7
 79
     5
170
     0
171
     0
290
     0
174
     0
 93
       13
 44
0.0
173
     0
291
     1
 45
0.0
1001
ACAD
1000
AcDbSavedByObjectVersion
1070
     0
  0
VISUALSTYLE
  5
D228
102
{ACAD_XDICTIONARY
360
D283
102
}
102
{ACAD_REACTORS
330
D225
102
}
330
D225
100
AcDbVisualStyle
  2
Gouraud
 70
     2
 71
     2
 72
     2
 73
     1
 90
        2
 40
-0.6
 41
30.0
 62
     5
 63
     7
 74
     0
 91
        0
 64
     7
 65
   257
 75
     1
175
     1
 42
1.0
 92
        0
 66
     7
 43
1.0
 76
     1
 77
     6
 78
     2
 67
     7
 79
     5
170
     0
171
     0
290
     0
174
     0
 93
       13
 44
0.0
173
     0
291
     1
 45
0.0
1001
ACAD
1000
AcDbSavedByObjectVersion
1070
     0
  0
VISUALSTYLE
  5
D229
102
{ACAD_XDICTIONARY
360
D285
102
}
102
{ACAD_REACTORS
330
D225
102
}
330
D225
100
AcDbVisualStyle
  2
GouraudWithEdges
 70
     3
 71
     2
 72
     2
 73
     1
 90
        2
 40
-0.6
 41
30.0
 62
     5
 63
     7
 74
     1
 91
        0
 64
     7
 65
   257
 75
     1
175
     1
 42
1.0
 92
        0
 66
   257
 43
1.0
 76
     1
 77
     6
 78
     2
 67
     7
 79
     5
170
     0
171
     0
290
     0
174
     0
 93
       13
 44
0.0
173
     0
291
     1
 45
0.0
1001
ACAD
1000
AcDbSavedByObjectVersion
1070
     0
  0
VISUALSTYLE
  5
D22D
102
{ACAD_XDICTIONARY
360
D28D
102
}
102
{ACAD_REACTORS
330
D225
102
}
330
D225
100
AcDbVisualStyle
  2
Hidden
 70
     6
 71
     1
 72
     2
 73
     2
 90
        0
 40
-0.6
 41
-30.0
 62
     5
 63
     7
 74
     2
 91
        2
 64
     7
 65
   257
 75
     2
175
     1
 42
40.0
 92
        0
 66
   257
 43
1.0
 76
     1
 77
     6
 78
     2
 67
     7
 79
     3
170
     0
171
     0
290
     0
174
     0
 93
        1
 44
0.0
173
     0
291
     0
 45
0.0
1001
ACAD
1000
AcDbSavedByObjectVersion
1070
     0
  0
VISUALSTYLE
  5
D23B
102
{ACAD_XDICTIONARY
360
D2A9
102
}
102
{ACAD_REACTORS
330
D225
102
}
330
D225
100
AcDbVisualStyle
  2
JitterOff
 70
    20
 71
     2
 72
     2
 73
     0
 90
        0
 40
-0.6
 41
-30.0
 62
     5
 63
     7
 74
     1
 91
        4
 64
     7
 65
   257
 75
     1
175
     1
 42
1.0
 92
       10
 66
     7
 43
1.0
 76
     1
 77
     6
 78
     2
 67
     7
 79
     5
170
     0
171
     0
290
     0
174
     0
 93
        1
 44
0.0
173
     0
291
     1
 45
0.0
1001
ACAD
1000
AcDbSavedByObjectVersion
1070
     0
  0
VISUALSTYLE
  5
D233
102
{ACAD_XDICTIONARY
360
D299
102
}
102
{ACAD_REACTORS
330
D225
102
}
330
D225
100
AcDbVisualStyle
  2
Linepattern
 70
    14
 71
     2
 72
     2
 73
     0
 90
        0
 40
-0.6
 41
-30.0
 62
     5
 63
     7
 74
     1
 91
        4
 64
     7
 65
   257
 75
     7
175
     7
 42
1.0
 92
        8
 66
     7
 43
1.0
 76
     1
 77
     6
 78
     2
 67
     7
 79
     5
170
     0
171
     0
290
     0
174
     0
 93
        1
 44
0.0
173
     0
291
     1
 45
0.0
1001
ACAD
1000
AcDbSavedByObjectVersion
1070
     0
  0
VISUALSTYLE
  5
D23C
102
{ACAD_XDICTIONARY
360
D2AB
102
}
102
{ACAD_REACTORS
330
D225
102
}
330
D225
100
AcDbVisualStyle
  2
OverhangOff
 70
    21
 71
     2
 72
     2
 73
     0
 90
        0
 40
-0.6
 41
-30.0
 62
     5
 63
     7
 74
     1
 91
        4
 64
     7
 65
   257
 75
     1
175
     1
 42
1.0
 92
        9
 66
     7
 43
1.0
 76
     1
 77
     6
 78
     2
 67
     7
 79
     5
170
     0
171
     0
290
     0
174
     0
 93
        1
 44
0.0
173
     0
291
     1
 45
0.0
1001
ACAD
1000
AcDbSavedByObjectVersion
1070
     0
  0
VISUALSTYLE
  5
D22F
102
{ACAD_XDICTIONARY
360
D291
102
}
102
{ACAD_REACTORS
330
D225
102
}
330
D225
100
AcDbVisualStyle
  2
Realistic
 70
     8
 71
     2
 72
     3
 73
     0
 90
        2
 40
-0.6
 41
30.0
 62
     5
 63
     7
 74
     0
 91
        0
 64
     7
 65
   257
 75
     1
175
     1
 42
1.0
 92
        8
 66
   257
 43
1.0
 76
     1
 77
     6
 78
     2
 67
     7
 79
     3
170
     0
171
     0
290
     0
174
     0
 93
       13
 44
0.0
173
     0
291
     0
 45
0.0
1001
ACAD
1000
AcDbSavedByObjectVersion
1070
     0
  0
VISUALSTYLE
  5
D23A
102
{ACAD_XDICTIONARY
360
D2A7
102
}
102
{ACAD_REACTORS
330
D225
102
}
330
D225
100
AcDbVisualStyle
  2
Shaded
 70
    27
 71
     2
 72
     2
 73
     1
 90
        2
 40
-0.6
 41
30.0
 62
     5
 63
     7
 74
     0
 91
        4
 64
     7
 65
   257
 75
     1
175
     1
 42
1.0
 92
        8
 66
   257
 43
1.0
 76
     1
 77
     6
 78
     2
 67
     8
 79
     3
170
     0
171
     0
290
     0
174
     0
 93
        5
 44
0.0
173
     0
291
     0
 45
0.0
1001
ACAD
1000
AcDbSavedByObjectVersion
1070
     0
  0
VISUALSTYLE
  5
D239
102
{ACAD_XDICTIONARY
360
D2A5
102
}
102
{ACAD_REACTORS
330
D225
102
}
330
D225
100
AcDbVisualStyle
  2
Shaded with edges
 70
    26
 71
     2
 72
     2
 73
     1
 90
        2
 40
-0.6
 41
30.0
 62
     5
 63
     7
 74
     1
 91
       10
 64
     7
 65
   257
 75
     2
175
     1
 42
1.0
 92
        8
 66
   257
 43
1.0
 76
     1
 77
     6
 78
     2
 67
     7
 79
     3
170
     0
171
     0
290
     0
174
     0
 93
        5
 44
0.0
173
     0
291
     0
 45
0.0
1001
ACAD
1000
AcDbSavedByObjectVersion
1070
     0
  0
VISUALSTYLE
  5
D236
102
{ACAD_XDICTIONARY
360
D29F
102
}
102
{ACAD_REACTORS
330
D225
102
}
330
D225
100
AcDbVisualStyle
  2
Shades of Gray
 70
    23
 71
     2
 72
     2
 73
     3
 90
        0
 40
-0.6
 41
-30.0
 62
     5
 63
     7
 74
     2
 91
        2
 64
     7
 65
     7
 75
     1
175
     1
 42
40.0
 92
        8
 66
     7
 43
1.0
 76
     1
 77
     6
 78
     2
 67
     7
 79
     3
170
     0
171
     0
290
     0
174
     0
 93
        1
 44
0.0
173
     0
291
     0
 45
0.0
1001
ACAD
1000
AcDbSavedByObjectVersion
1070
     0
  0
VISUALSTYLE
  5
D237
102
{ACAD_XDICTIONARY
360
D2A1
102
}
102
{ACAD_REACTORS
330
D225
102
}
330
D225
100
AcDbVisualStyle
  2
Sketchy
 70
    24
 71
     1
 72
     2
 73
     2
 90
        0
 40
-0.6
 41
-30.0
 62
     5
 63
     7
 74
     2
 91
        2
 64
     7
 65
     7
 75
     1
175
     1
 42
40.0
 92
       11
 66
     7
 43
1.0
 76
     1
 77
     6
 78
     2
 67
     7
 79
     6
170
     0
171
     0
290
     0
174
     0
 93
        1
 44
0.0
173
     0
291
     0
 45
0.0
1001
ACAD
1000
AcDbSavedByObjectVersion
1070
     0
  0
VISUALSTYLE
  5
D232
102
{ACAD_XDICTIONARY
360
D297
102
}
102
{ACAD_REACTORS
330
D225
102
}
330
D225
100
AcDbVisualStyle
  2
Thicken
 70
    13
 71
     2
 72
     2
 73
     0
 90
        0
 40
-0.6
 41
-30.0
 62
     5
 63
     7
 74
     1
 91
        4
 64
     7
 65
   257
 75
     1
175
     1
 42
1.0
 92
       12
 66
     7
 43
1.0
 76
     1
 77
     6
 78
     2
 67
     7
 79
     5
170
     0
171
     0
290
     0
174
     0
 93
        1
 44
0.0
173
     0
291
     1
 45
0.0
1001
ACAD
1000
AcDbSavedByObjectVersion
1070
     0
  0
VISUALSTYLE
  5
D22C
102
{ACAD_XDICTIONARY
360
D28B
102
}
102
{ACAD_REACTORS
330
D225
102
}
330
D225
100
AcDbVisualStyle
  2
Wireframe
 70
     5
 71
     0
 72
     2
 73
     0
 90
        0
 40
-0.6
 41
-30.0
 62
     5
 63
     7
 74
     1
 91
        4
 64
     7
 65
   257
 75
     1
175
     1
 42
1.0
 92
        0
 66
   257
 43
1.0
 76
     1
 77
     6
 78
     2
 67
     7
 79
     3
170
     0
171
     0
290
     0
174
     0
 93
        1
 44
0.0
173
     0
291
     0
 45
0.0
1001
ACAD
1000
AcDbSavedByObjectVersion
1070
     0
  0
VISUALSTYLE
  5
D238
102
{ACAD_XDICTIONARY
360
D2A3
102
}
102
{ACAD_REACTORS
330
D225
102
}
330
D225
100
AcDbVisualStyle
  2
X-Ray
 70
    25
 71
     2
 72
     2
 73
     1
 90
        1
 40
0.5
 41
-30.0
 62
     5
 63
     7
 74
     1
 91
        0
 64
     7
 65
   257
 75
     1
175
     1
 42
1.0
 92
        8
 66
     7
 43
1.0
 76
     1
 77
     6
 78
     2
 67
     7
 79
     3
170
     0
171
     0
290
     0
174
     0
 93
       13
 44
0.0
173
     0
291
     0
 45
0.0
1001
ACAD
1000
AcDbSavedByObjectVersion
1070
     0
  0
DICTIONARYVAR
  5
D272
102
{ACAD_REACTORS
330
D26D
102
}
330
D26D
100
DictionaryVariables
280
     0
  1
1:1
  0
DICTIONARYVAR
  5
D26F
102
{ACAD_REACTORS
330
D26D
102
}
330
D26D
100
DictionaryVariables
280
     0
  1
STANDARD
  0
DICTIONARYVAR
  5
D26E
102
{ACAD_REACTORS
330
D26D
102
}
330
D26D
100
DictionaryVariables
280
     0
  1
STANDARD
  0
DICTIONARYVAR
  5
D270
102
{ACAD_REACTORS
330
D26D
102
}
330
D26D
100
DictionaryVariables
280
     0
  1
Imperial24
  0
DICTIONARYVAR
  5
D271
102
{ACAD_REACTORS
330
D26D
102
}
330
D26D
100
DictionaryVariables
280
     0
  1
Imperial24
  0
DICTIONARYVAR
  5
D275
102
{ACAD_REACTORS
330
D26D
102
}
330
D26D
100
DictionaryVariables
280
     0
  1
1
  0
DICTIONARYVAR
  5
D274
102
{ACAD_REACTORS
330
D26D
102
}
330
D26D
100
DictionaryVariables
280
     0
  1
0
  0
DICTIONARYVAR
  5
D273
102
{ACAD_REACTORS
330
D26D
102
}
330
D26D
100
DictionaryVariables
280
     0
  1
127
  0
DICTIONARYVAR
  5
D276
102
{ACAD_REACTORS
330
D26D
102
}
330
D26D
100
DictionaryVariables
280
     0
  1
2
  0
DICTIONARY
  5
D2B3
330
D258
100
AcDbDictionary
280
     1
281
     1
  3
ACAD_XREC_ROUNDTRIP
360
D2B4
  0
DICTIONARY
  5
D2B5
330
D259
100
AcDbDictionary
280
     1
281
     1
  3
ACAD_XREC_ROUNDTRIP
360
D2B6
  0
DICTIONARY
  5
D2B7
330
D25A
100
AcDbDictionary
280
     1
281
     1
  3
ACAD_XREC_ROUNDTRIP
360
D2B8
  0
DICTIONARY
  5
D216
330
D215
100
AcDbDictionary
280
     1
281
     1
  3
ACAD_XREC_ROUNDTRIP
360
D27D
  3
BUMPTILE
360
D218
  3
DIFFUSETILE
360
D217
  3
OPACITYTILE
360
D21B
  3
REFLECTIONTILE
360
D21A
  3
REFRACTIONTILE
360
D21C
  3
SPECULARTILE
360
D219
  0
DICTIONARY
  5
D20E
330
D20D
100
AcDbDictionary
280
     1
281
     1
  3
ACAD_XREC_ROUNDTRIP
360
D27C
  3
BUMPTILE
360
D210
  3
DIFFUSETILE
360
D20F
  3
OPACITYTILE
360
D213
  3
REFLECTIONTILE
360
D212
  3
REFRACTIONTILE
360
D214
  3
SPECULARTILE
360
D211
  0
DICTIONARY
  5
D21E
330
D21D
100
AcDbDictionary
280
     1
281
     1
  3
ACAD_XREC_ROUNDTRIP
360
D27E
  3
BUMPTILE
360
D220
  3
DIFFUSETILE
360
D21F
  3
OPACITYTILE
360
D223
  3
REFLECTIONTILE
360
D222
  3
REFRACTIONTILE
360
D224
  3
SPECULARTILE
360
D221
  0
DICTIONARY
  5
D2B1
330
D256
100
AcDbDictionary
280
     1
281
     1
  3
ACAD_XREC_ROUNDTRIP
360
D2B2
  0
DICTIONARY
  5
D278
330
D240
100
AcDbDictionary
280
     1
281
     1
  3
ACAD_ROUNDTRIP_2008_TABLESTYLE_CELLSTYLEMAP
360
D279
  3
ACAD_XREC_ROUNDTRIP
360
D2AF
  0
DICTIONARY
  5
D289
330
D22B
100
AcDbDictionary
280
     1
281
     1
  3
ACAD_XREC_ROUNDTRIP
360
D28A
  0
DICTIONARY
  5
D287
330
D22A
100
AcDbDictionary
280
     1
281
     1
  3
ACAD_XREC_ROUNDTRIP
360
D288
  0
DICTIONARY
  5
D295
330
D231
100
AcDbDictionary
280
     1
281
     1
  3
ACAD_XREC_ROUNDTRIP
360
D296
  0
DICTIONARY
  5
D29D
330
D235
100
AcDbDictionary
280
     1
281
     1
  3
ACAD_XREC_ROUNDTRIP
360
D29E
  0
DICTIONARY
  5
D28F
330
D22E
100
AcDbDictionary
280
     1
281
     1
  3
ACAD_XREC_ROUNDTRIP
360
D290
  0
DICTIONARY
  5
D293
330
D230
100
AcDbDictionary
280
     1
281
     1
  3
ACAD_XREC_ROUNDTRIP
360
D294
  0
DICTIONARY
  5
D2AD
330
D23D
100
AcDbDictionary
280
     1
281
     1
  3
ACAD_XREC_ROUNDTRIP
360
D2AE
  0
DICTIONARY
  5
D29B
330
D234
100
AcDbDictionary
280
     1
281
     1
  3
ACAD_XREC_ROUNDTRIP
360
D29C
  0
DICTIONARY
  5
D27F
330
D226
100
AcDbDictionary
280
     1
281
     1
  3
ACAD_XREC_ROUNDTRIP
360
D280
  0
DICTIONARY
  5
D281
330
D227
100
AcDbDictionary
280
     1
281
     1
  3
ACAD_XREC_ROUNDTRIP
360
D282
  0
DICTIONARY
  5
D283
330
D228
100
AcDbDictionary
280
     1
281
     1
  3
ACAD_XREC_ROUNDTRIP
360
D284
  0
DICTIONARY
  5
D285
330
D229
100
AcDbDictionary
280
     1
281
     1
  3
ACAD_XREC_ROUNDTRIP
360
D286
  0
DICTIONARY
  5
D28D
330
D22D
100
AcDbDictionary
280
     1
281
     1
  3
ACAD_XREC_ROUNDTRIP
360
D28E
  0
DICTIONARY
  5
D2A9
330
D23B
100
AcDbDictionary
280
     1
281
     1
  3
ACAD_XREC_ROUNDTRIP
360
D2AA
  0
DICTIONARY
  5
D299
330
D233
100
AcDbDictionary
280
     1
281
     1
  3
ACAD_XREC_ROUNDTRIP
360
D29A
  0
DICTIONARY
  5
D2AB
330
D23C
100
AcDbDictionary
280
     1
281
     1
  3
ACAD_XREC_ROUNDTRIP
360
D2AC
  0
DICTIONARY
  5
D291
330
D22F
100
AcDbDictionary
280
     1
281
     1
  3
ACAD_XREC_ROUNDTRIP
360
D292
  0
DICTIONARY
  5
D2A7
330
D23A
100
AcDbDictionary
280
     1
281
     1
  3
ACAD_XREC_ROUNDTRIP
360
D2A8
  0
DICTIONARY
  5
D2A5
330
D239
100
AcDbDictionary
280
     1
281
     1
  3
ACAD_XREC_ROUNDTRIP
360
D2A6
  0
DICTIONARY
  5
D29F
330
D236
100
AcDbDictionary
280
     1
281
     1
  3
ACAD_XREC_ROUNDTRIP
360
D2A0
  0
DICTIONARY
  5
D2A1
330
D237
100
AcDbDictionary
280
     1
281
     1
  3
ACAD_XREC_ROUNDTRIP
360
D2A2
  0
DICTIONARY
  5
D297
330
D232
100
AcDbDictionary
280
     1
281
     1
  3
ACAD_XREC_ROUNDTRIP
360
D298
  0
DICTIONARY
  5
D28B
330
D22C
100
AcDbDictionary
280
     1
281
     1
  3
ACAD_XREC_ROUNDTRIP
360
D28C
  0
DICTIONARY
  5
D2A3
330
D238
100
AcDbDictionary
280
     1
281
     1
  3
ACAD_XREC_ROUNDTRIP
360
D2A4
  0
XRECORD
  5
D2B4
102
{ACAD_REACTORS
330
D2B3
102
}
330
D2B3
100
AcDbXrecord
280
     1
102
DISPLAYNAME
  1
Imperial24
102
FLAGS
 90
        0
  0
XRECORD
  5
D2B6
102
{ACAD_REACTORS
330
D2B5
102
}
330
D2B5
100
AcDbXrecord
280
     1
102
SHADEPLOT
 70
     0
102
SHADEPLOTRESLEVEL
 70
     2
102
SHADEPLOTCUSTOMDPI
 70
   300
  0
XRECORD
  5
D2B8
102
{ACAD_REACTORS
330
D2B7
102
}
330
D2B7
100
AcDbXrecord
280
     1
102
SHADEPLOT
 70
     0
102
SHADEPLOTRESLEVEL
 70
     2
102
SHADEPLOTCUSTOMDPI
 70
   300
  0
XRECORD
  5
D27D
102
{ACAD_REACTORS
330
D216
102
}
330
D216
100
AcDbXrecord
280
     1
102
MATERIAL
148
0.0
149
0.0
149
0.0
 93
        0
 94
      127
282
     0
 72
     0
 77
     0
171
     0
175
     0
179
     0
273
     0
  0
XRECORD
  5
D218
102
{ACAD_REACTORS
330
D216
102
}
330
D216
100
AcDbXrecord
280
     1
270
     1
271
     1
  0
XRECORD
  5
D217
102
{ACAD_REACTORS
330
D216
102
}
330
D216
100
AcDbXrecord
280
     1
270
     1
271
     1
  0
XRECORD
  5
D21B
102
{ACAD_REACTORS
330
D216
102
}
330
D216
100
AcDbXrecord
280
     1
270
     1
271
     1
  0
XRECORD
  5
D21A
102
{ACAD_REACTORS
330
D216
102
}
330
D216
100
AcDbXrecord
280
     1
270
     1
271
     1
  0
XRECORD
  5
D21C
102
{ACAD_REACTORS
330
D216
102
}
330
D216
100
AcDbXrecord
280
     1
270
     1
271
     1
  0
XRECORD
  5
D219
102
{ACAD_REACTORS
330
D216
102
}
330
D216
100
AcDbXrecord
280
     1
270
     1
271
     1
  0
XRECORD
  5
D27C
102
{ACAD_REACTORS
330
D20E
102
}
330
D20E
100
AcDbXrecord
280
     1
102
MATERIAL
148
0.0
149
0.0
149
0.0
 93
        0
 94
      127
282
     0
 72
     0
 77
     0
171
     0
175
     0
179
     0
273
     0
  0
XRECORD
  5
D210
102
{ACAD_REACTORS
330
D20E
102
}
330
D20E
100
AcDbXrecord
280
     1
270
     1
271
     1
  0
XRECORD
  5
D20F
102
{ACAD_REACTORS
330
D20E
102
}
330
D20E
100
AcDbXrecord
280
     1
270
     1
271
     1
  0
XRECORD
  5
D213
102
{ACAD_REACTORS
330
D20E
102
}
330
D20E
100
AcDbXrecord
280
     1
270
     1
271
     1
  0
XRECORD
  5
D212
102
{ACAD_REACTORS
330
D20E
102
}
330
D20E
100
AcDbXrecord
280
     1
270
     1
271
     1
  0
XRECORD
  5
D214
102
{ACAD_REACTORS
330
D20E
102
}
330
D20E
100
AcDbXrecord
280
     1
270
     1
271
     1
  0
XRECORD
  5
D211
102
{ACAD_REACTORS
330
D20E
102
}
330
D20E
100
AcDbXrecord
280
     1
270
     1
271
     1
  0
XRECORD
  5
D27E
102
{ACAD_REACTORS
330
D21E
102
}
330
D21E
100
AcDbXrecord
280
     1
102
MATERIAL
148
0.0
149
0.0
149
0.0
 93
        0
 94
      127
282
     0
 72
     0
 77
     0
171
     0
175
     0
179
     0
273
     0
  0
XRECORD
  5
D220
102
{ACAD_REACTORS
330
D21E
102
}
330
D21E
100
AcDbXrecord
280
     1
270
     1
271
     1
  0
XRECORD
  5
D21F
102
{ACAD_REACTORS
330
D21E
102
}
330
D21E
100
AcDbXrecord
280
     1
270
     1
271
     1
  0
XRECORD
  5
D223
102
{ACAD_REACTORS
330
D21E
102
}
330
D21E
100
AcDbXrecord
280
     1
270
     1
271
     1
  0
XRECORD
  5
D222
102
{ACAD_REACTORS
330
D21E
102
}
330
D21E
100
AcDbXrecord
280
     1
270
     1
271
     1
  0
XRECORD
  5
D224
102
{ACAD_REACTORS
330
D21E
102
}
330
D21E
100
AcDbXrecord
280
     1
270
     1
271
     1
  0
XRECORD
  5
D221
102
{ACAD_REACTORS
330
D21E
102
}
330
D21E
100
AcDbXrecord
280
     1
270
     1
271
     1
  0
XRECORD
  5
D2B2
102
{ACAD_REACTORS
330
D2B1
102
}
330
D2B1
100
AcDbXrecord
280
     1
102
DISPLAYNAME
  1
Imperial24
102
FLAGS
 90
        0
  0
CELLSTYLEMAP
  5
D279
102
{ACAD_REACTORS
330
D278
102
}
330
D278
100
AcDbCellStyleMap
 90
        3
300
CELLSTYLE
  1
TABLEFORMAT_BEGIN
 90
        5
170
     1
 91
        0
 92
    32768
 62
   257
 93
        1
300
CONTENTFORMAT
  1
CONTENTFORMAT_BEGIN
 90
        0
 91
        0
 92
      512
 93
        0
300

 40
0.0
140
1.0
 94
        5
 62
     0
340
CFA5
144
0.25
309
CONTENTFORMAT_END
171
     0
 94
        0
309
TABLEFORMAT_END
  1
CELLSTYLE_BEGIN
 90
        1
 91
        1
300
_TITLE
309
CELLSTYLE_END
300
CELLSTYLE
  1
TABLEFORMAT_BEGIN
 90
        5
170
     1
 91
        0
 92
        0
 62
   257
 93
        1
300
CONTENTFORMAT
  1
CONTENTFORMAT_BEGIN
 90
        0
 91
        0
 92
      512
 93
        0
300

 40
0.0
140
1.0
 94
        5
 62
     0
340
CFA5
144
0.18
309
CONTENTFORMAT_END
171
     0
 94
        0
309
TABLEFORMAT_END
  1
CELLSTYLE_BEGIN
 90
        2
 91
        1
300
_HEADER
309
CELLSTYLE_END
300
CELLSTYLE
  1
TABLEFORMAT_BEGIN
 90
        5
170
     1
 91
        0
 92
        0
 62
   257
 93
        1
300
CONTENTFORMAT
  1
CONTENTFORMAT_BEGIN
 90
        0
 91
        0
 92
      512
 93
        0
300

 40
0.0
140
1.0
 94
        2
 62
     0
340
CFA5
144
0.18
309
CONTENTFORMAT_END
171
     0
 94
        0
309
TABLEFORMAT_END
  1
CELLSTYLE_BEGIN
 90
        3
 91
        2
300
_DATA
309
CELLSTYLE_END
  0
XRECORD
  5
D2AF
102
{ACAD_REACTORS
330
D278
102
}
330
D278
100
AcDbXrecord
280
     1
102
ACAD_ROUNDTRIP_PRE2007_TABLESTYLE
 90
      512
 91
        0
  1

 92
      512
 93
        0
  2

 94
      512
 95
        0
  3

  0
XRECORD
  5
D28A
102
{ACAD_REACTORS
330
D289
102
}
330
D289
100
AcDbXrecord
280
     1
102
RTVSPost2010Prop28
280
     1
102
RTVSPost2010PropOp28
 70
     1
102
RTVSPost2010Prop29
280
     1
102
RTVSPost2010PropOp29
 70
     1
102
RTVSPost2010Prop30
280
     0
102
RTVSPost2010PropOp30
 70
     1
102
RTVSPost2010Prop31
280
     0
102
RTVSPost2010PropOp31
 70
     1
102
RTVSPost2010Prop32
280
     0
102
RTVSPost2010PropOp32
 70
     1
102
RTVSPost2010Prop33
280
     0
102
RTVSPost2010PropOp33
 70
     1
102
RTVSPost2010Prop34
280
     0
102
RTVSPost2010PropOp34
 70
     1
102
RTVSPost2010Prop35
280
     0
102
RTVSPost2010PropOp35
 70
     1
102
RTVSPost2010Prop36
280
     0
102
RTVSPost2010PropOp36
 70
     1
102
RTVSPost2010Prop37
 90
       50
102
RTVSPost2010PropOp37
 70
     1
102
RTVSPost2010Prop38
140
0.0
102
RTVSPost2010PropOp38
 70
     1
102
RTVSPost2010Prop39
140
1.0
102
RTVSPost2010PropOp39
 70
     1
102
RTVSPost2010Prop40
 90
        0
102
RTVSPost2010PropOp40
 70
     1
102
RTVSPost2010Prop41ColorIndex
 90
       18
102
RTVSPost2010Prop41ColorRGB
 90
        0
102
RTVSPost2010PropOp41
 70
     1
102
RTVSPost2010Prop42
 90
       50
102
RTVSPost2010PropOp42
 70
     1
102
RTVSPost2010Prop43
 90
        3
102
RTVSPost2010PropOp43
 70
     1
102
RTVSPost2010Prop44ColorIndex
 90
        5
102
RTVSPost2010Prop44ColorRGB
 90
      255
102
RTVSPost2010PropOp44
 70
     1
102
RTVSPost2010Prop45
280
     0
102
RTVSPost2010PropOp45
 70
     1
102
RTVSPost2010Prop46
 90
       50
102
RTVSPost2010PropOp46
 70
     1
102
RTVSPost2010Prop47
 90
       50
102
RTVSPost2010PropOp47
 70
     1
102
RTVSPost2010Prop48
 90
       50
102
RTVSPost2010PropOp48
 70
     1
102
RTVSPost2010Prop49
280
     0
102
RTVSPost2010PropOp49
 70
     1
102
RTVSPost2010Prop50
 90
       50
102
RTVSPost2010PropOp50
 70
     1
102
RTVSPost2010Prop51ColorIndex
 90
      256
102
RTVSPost2010Prop51ColorRGB
 90
-16777216
102
RTVSPost2010PropOp51
 70
     0
102
RTVSPost2010Prop52
140
1.0
102
RTVSPost2010PropOp52
 70
     0
102
RTVSPost2010Prop53
 90
        2
102
RTVSPost2010PropOp53
 70
     1
102
RTVSPost2010Prop54
  1
strokes_ogs.tif
102
RTVSPost2010PropOp54
 70
     1
102
RTVSPost2010Prop55
280
     0
102
RTVSPost2010PropOp55
 70
     1
102
RTVSPost2010Prop56
140
1.0
102
RTVSPost2010PropOp56
 70
     1
102
RTVSPost2010Prop57
140
1.0
102
RTVSPost2010PropOp57
 70
     1
102
RTVSPropertyOp0
 70
     1
102
RTVSPropertyOp1
 70
     1
102
RTVSPropertyOp2
 70
     1
102
RTVSPropertyOp3
 70
     1
102
RTVSPropertyOp4
 70
     1
102
RTVSPropertyOp5
 70
     1
102
RTVSPropertyOp6
 70
     1
102
RTVSPropertyOp7
 70
     1
102
RTVSPropertyOp8
 70
     1
102
RTVSPropertyOp9
 70
     1
102
RTVSPropertyOp10
 70
     1
102
RTVSPropertyOp11
 70
     1
102
RTVSPropertyOp12
 70
     1
102
RTVSPropertyOp13
 70
     1
102
RTVSPropertyOp14
 70
     1
102
RTVSPropertyOp15
 70
     1
102
RTVSPropertyOp16
 70
     1
102
RTVSPropertyOp17
 70
     1
102
RTVSPropertyOp18
 70
     1
102
RTVSPropertyOp19
 70
     1
102
RTVSPropertyOp20
 70
     1
102
RTVSPropertyOp21
 70
     1
102
RTVSPropertyOp22
 70
     1
102
RTVSPropertyOp23
 70
     1
102
RTVSPropertyOp24
 70
     1
102
RTVSPropertyOp25
 70
     1
102
RTVSPropertyOp26
 70
     1
102
RTVSPropertyOp27
 70
     1
102
RTVSPropertyOp28
 70
     1
102
RTVSPropertyOp29
 70
     1
102
RTVSPropertyOp30
 70
     1
102
RTVSPropertyOp31
 70
     1
102
RTVSPropertyOp32
 70
     1
102
RTVSPropertyOp33
 70
     1
102
RTVSPropertyOp34
 70
     1
102
RTVSPropertyOp35
 70
     1
102
RTVSPropertyOp36
 70
     1
102
RTVSPropertyOp37
 70
     1
102
RTVSPropertyOp38
 70
     1
102
RTVSPropertyOp39
 70
     1
102
RTVSPropertyOp40
 70
     1
102
RTVSPropertyOp41
 70
     1
102
RTVSPropertyOp42
 70
     1
102
RTVSPropertyOp43
 70
     1
102
RTVSPropertyOp44
 70
     1
102
RTVSPropertyOp45
 70
     1
102
RTVSPropertyOp46
 70
     1
102
RTVSPropertyOp47
 70
     1
102
RTVSPropertyOp48
 70
     1
102
RTVSPropertyOp49
 70
     1
102
RTVSPropertyOp50
 70
     1
102
RTVSPropertyOp51
 70
     0
102
RTVSPropertyOp52
 70
     0
102
RTVSPropertyOp53
 70
     1
102
RTVSPropertyOp54
 70
     1
102
RTVSPropertyOp55
 70
     1
102
RTVSPropertyOp56
 70
     1
102
RTVSPropertyOp57
 70
     1
102
RTVSPropertyOp58
 70
     1
102
RTVSPropertyOp59
 70
     1
102
RTVSPropertyOp60
 70
     1
102
RTVSPropertyOp61
 70
     1
102
RTVSPropertyOp62
 70
     1
  0
XRECORD
  5
D288
102
{ACAD_REACTORS
330
D287
102
}
330
D287
100
AcDbXrecord
280
     1
102
RTVSPost2010Prop28
280
     0
102
RTVSPost2010PropOp28
 70
     1
102
RTVSPost2010Prop29
280
     1
102
RTVSPost2010PropOp29
 70
     1
102
RTVSPost2010Prop30
280
     1
102
RTVSPost2010PropOp30
 70
     1
102
RTVSPost2010Prop31
280
     0
102
RTVSPost2010PropOp31
 70
     1
102
RTVSPost2010Prop32
280
     0
102
RTVSPost2010PropOp32
 70
     1
102
RTVSPost2010Prop33
280
     0
102
RTVSPost2010PropOp33
 70
     1
102
RTVSPost2010Prop34
280
     0
102
RTVSPost2010PropOp34
 70
     1
102
RTVSPost2010Prop35
280
     0
102
RTVSPost2010PropOp35
 70
     1
102
RTVSPost2010Prop36
280
     0
102
RTVSPost2010PropOp36
 70
     1
102
RTVSPost2010Prop37
 90
       50
102
RTVSPost2010PropOp37
 70
     1
102
RTVSPost2010Prop38
140
0.0
102
RTVSPost2010PropOp38
 70
     1
102
RTVSPost2010Prop39
140
1.0
102
RTVSPost2010PropOp39
 70
     1
102
RTVSPost2010Prop40
 90
        0
102
RTVSPost2010PropOp40
 70
     1
102
RTVSPost2010Prop41ColorIndex
 90
       18
102
RTVSPost2010Prop41ColorRGB
 90
        0
102
RTVSPost2010PropOp41
 70
     1
102
RTVSPost2010Prop42
 90
       50
102
RTVSPost2010PropOp42
 70
     1
102
RTVSPost2010Prop43
 90
        3
102
RTVSPost2010PropOp43
 70
     1
102
RTVSPost2010Prop44ColorIndex
 90
        5
102
RTVSPost2010Prop44ColorRGB
 90
      255
102
RTVSPost2010PropOp44
 70
     1
102
RTVSPost2010Prop45
280
     0
102
RTVSPost2010PropOp45
 70
     1
102
RTVSPost2010Prop46
 90
       50
102
RTVSPost2010PropOp46
 70
     1
102
RTVSPost2010Prop47
 90
       50
102
RTVSPost2010PropOp47
 70
     1
102
RTVSPost2010Prop48
 90
       50
102
RTVSPost2010PropOp48
 70
     1
102
RTVSPost2010Prop49
280
     0
102
RTVSPost2010PropOp49
 70
     1
102
RTVSPost2010Prop50
 90
       50
102
RTVSPost2010PropOp50
 70
     1
102
RTVSPost2010Prop51ColorIndex
 90
      256
102
RTVSPost2010Prop51ColorRGB
 90
-16777216
102
RTVSPost2010PropOp51
 70
     0
102
RTVSPost2010Prop52
140
1.0
102
RTVSPost2010PropOp52
 70
     0
102
RTVSPost2010Prop53
 90
        2
102
RTVSPost2010PropOp53
 70
     1
102
RTVSPost2010Prop54
  1
strokes_ogs.tif
102
RTVSPost2010PropOp54
 70
     1
102
RTVSPost2010Prop55
280
     0
102
RTVSPost2010PropOp55
 70
     1
102
RTVSPost2010Prop56
140
1.0
102
RTVSPost2010PropOp56
 70
     1
102
RTVSPost2010Prop57
140
1.0
102
RTVSPost2010PropOp57
 70
     1
102
RTVSPropertyOp0
 70
     1
102
RTVSPropertyOp1
 70
     1
102
RTVSPropertyOp2
 70
     1
102
RTVSPropertyOp3
 70
     1
102
RTVSPropertyOp4
 70
     1
102
RTVSPropertyOp5
 70
     1
102
RTVSPropertyOp6
 70
     1
102
RTVSPropertyOp7
 70
     1
102
RTVSPropertyOp8
 70
     1
102
RTVSPropertyOp9
 70
     1
102
RTVSPropertyOp10
 70
     1
102
RTVSPropertyOp11
 70
     1
102
RTVSPropertyOp12
 70
     1
102
RTVSPropertyOp13
 70
     1
102
RTVSPropertyOp14
 70
     1
102
RTVSPropertyOp15
 70
     1
102
RTVSPropertyOp16
 70
     1
102
RTVSPropertyOp17
 70
     1
102
RTVSPropertyOp18
 70
     1
102
RTVSPropertyOp19
 70
     1
102
RTVSPropertyOp20
 70
     1
102
RTVSPropertyOp21
 70
     1
102
RTVSPropertyOp22
 70
     1
102
RTVSPropertyOp23
 70
     1
102
RTVSPropertyOp24
 70
     1
102
RTVSPropertyOp25
 70
     1
102
RTVSPropertyOp26
 70
     1
102
RTVSPropertyOp27
 70
     1
102
RTVSPropertyOp28
 70
     1
102
RTVSPropertyOp29
 70
     1
102
RTVSPropertyOp30
 70
     1
102
RTVSPropertyOp31
 70
     1
102
RTVSPropertyOp32
 70
     1
102
RTVSPropertyOp33
 70
     1
102
RTVSPropertyOp34
 70
     1
102
RTVSPropertyOp35
 70
     1
102
RTVSPropertyOp36
 70
     1
102
RTVSPropertyOp37
 70
     1
102
RTVSPropertyOp38
 70
     1
102
RTVSPropertyOp39
 70
     1
102
RTVSPropertyOp40
 70
     1
102
RTVSPropertyOp41
 70
     1
102
RTVSPropertyOp42
 70
     1
102
RTVSPropertyOp43
 70
     1
102
RTVSPropertyOp44
 70
     1
102
RTVSPropertyOp45
 70
     1
102
RTVSPropertyOp46
 70
     1
102
RTVSPropertyOp47
 70
     1
102
RTVSPropertyOp48
 70
     1
102
RTVSPropertyOp49
 70
     1
102
RTVSPropertyOp50
 70
     1
102
RTVSPropertyOp51
 70
     0
102
RTVSPropertyOp52
 70
     0
102
RTVSPropertyOp53
 70
     1
102
RTVSPropertyOp54
 70
     1
102
RTVSPropertyOp55
 70
     1
102
RTVSPropertyOp56
 70
     1
102
RTVSPropertyOp57
 70
     1
102
RTVSPropertyOp58
 70
     1
102
RTVSPropertyOp59
 70
     1
102
RTVSPropertyOp60
 70
     1
102
RTVSPropertyOp61
 70
     1
102
RTVSPropertyOp62
 70
     1
  0
XRECORD
  5
D296
102
{ACAD_REACTORS
330
D295
102
}
330
D295
100
AcDbXrecord
280
     1
102
RTVSPost2010Prop28
280
     0
102
RTVSPost2010PropOp28
 70
     1
102
RTVSPost2010Prop29
280
     1
102
RTVSPost2010PropOp29
 70
     1
102
RTVSPost2010Prop30
280
     1
102
RTVSPost2010PropOp30
 70
     1
102
RTVSPost2010Prop31
280
     0
102
RTVSPost2010PropOp31
 70
     1
102
RTVSPost2010Prop32
280
     0
102
RTVSPost2010PropOp32
 70
     1
102
RTVSPost2010Prop33
280
     0
102
RTVSPost2010PropOp33
 70
     1
102
RTVSPost2010Prop34
280
     0
102
RTVSPost2010PropOp34
 70
     1
102
RTVSPost2010Prop35
280
     0
102
RTVSPost2010PropOp35
 70
     1
102
RTVSPost2010Prop36
280
     0
102
RTVSPost2010PropOp36
 70
     1
102
RTVSPost2010Prop37
 90
       50
102
RTVSPost2010PropOp37
 70
     1
102
RTVSPost2010Prop38
140
0.0
102
RTVSPost2010PropOp38
 70
     1
102
RTVSPost2010Prop39
140
1.0
102
RTVSPost2010PropOp39
 70
     1
102
RTVSPost2010Prop40
 90
        0
102
RTVSPost2010PropOp40
 70
     1
102
RTVSPost2010Prop41ColorIndex
 90
       18
102
RTVSPost2010Prop41ColorRGB
 90
        0
102
RTVSPost2010PropOp41
 70
     1
102
RTVSPost2010Prop42
 90
       50
102
RTVSPost2010PropOp42
 70
     1
102
RTVSPost2010Prop43
 90
        3
102
RTVSPost2010PropOp43
 70
     1
102
RTVSPost2010Prop44ColorIndex
 90
        5
102
RTVSPost2010Prop44ColorRGB
 90
      255
102
RTVSPost2010PropOp44
 70
     1
102
RTVSPost2010Prop45
280
     0
102
RTVSPost2010PropOp45
 70
     1
102
RTVSPost2010Prop46
 90
       50
102
RTVSPost2010PropOp46
 70
     1
102
RTVSPost2010Prop47
 90
       50
102
RTVSPost2010PropOp47
 70
     1
102
RTVSPost2010Prop48
 90
       50
102
RTVSPost2010PropOp48
 70
     1
102
RTVSPost2010Prop49
280
     0
102
RTVSPost2010PropOp49
 70
     1
102
RTVSPost2010Prop50
 90
       50
102
RTVSPost2010PropOp50
 70
     1
102
RTVSPost2010Prop51ColorIndex
 90
      256
102
RTVSPost2010Prop51ColorRGB
 90
-16777216
102
RTVSPost2010PropOp51
 70
     0
102
RTVSPost2010Prop52
140
1.0
102
RTVSPost2010PropOp52
 70
     0
102
RTVSPost2010Prop53
 90
        2
102
RTVSPost2010PropOp53
 70
     1
102
RTVSPost2010Prop54
  1
strokes_ogs.tif
102
RTVSPost2010PropOp54
 70
     1
102
RTVSPost2010Prop55
280
     0
102
RTVSPost2010PropOp55
 70
     1
102
RTVSPost2010Prop56
140
1.0
102
RTVSPost2010PropOp56
 70
     1
102
RTVSPost2010Prop57
140
1.0
102
RTVSPost2010PropOp57
 70
     1
102
RTVSPropertyOp0
 70
     1
102
RTVSPropertyOp1
 70
     1
102
RTVSPropertyOp2
 70
     1
102
RTVSPropertyOp3
 70
     1
102
RTVSPropertyOp4
 70
     1
102
RTVSPropertyOp5
 70
     1
102
RTVSPropertyOp6
 70
     1
102
RTVSPropertyOp7
 70
     1
102
RTVSPropertyOp8
 70
     1
102
RTVSPropertyOp9
 70
     1
102
RTVSPropertyOp10
 70
     1
102
RTVSPropertyOp11
 70
     1
102
RTVSPropertyOp12
 70
     1
102
RTVSPropertyOp13
 70
     1
102
RTVSPropertyOp14
 70
     1
102
RTVSPropertyOp15
 70
     1
102
RTVSPropertyOp16
 70
     1
102
RTVSPropertyOp17
 70
     1
102
RTVSPropertyOp18
 70
     1
102
RTVSPropertyOp19
 70
     1
102
RTVSPropertyOp20
 70
     1
102
RTVSPropertyOp21
 70
     1
102
RTVSPropertyOp22
 70
     1
102
RTVSPropertyOp23
 70
     1
102
RTVSPropertyOp24
 70
     1
102
RTVSPropertyOp25
 70
     1
102
RTVSPropertyOp26
 70
     1
102
RTVSPropertyOp27
 70
     1
102
RTVSPropertyOp28
 70
     1
102
RTVSPropertyOp29
 70
     1
102
RTVSPropertyOp30
 70
     1
102
RTVSPropertyOp31
 70
     1
102
RTVSPropertyOp32
 70
     1
102
RTVSPropertyOp33
 70
     1
102
RTVSPropertyOp34
 70
     1
102
RTVSPropertyOp35
 70
     1
102
RTVSPropertyOp36
 70
     1
102
RTVSPropertyOp37
 70
     1
102
RTVSPropertyOp38
 70
     1
102
RTVSPropertyOp39
 70
     1
102
RTVSPropertyOp40
 70
     1
102
RTVSPropertyOp41
 70
     1
102
RTVSPropertyOp42
 70
     1
102
RTVSPropertyOp43
 70
     1
102
RTVSPropertyOp44
 70
     1
102
RTVSPropertyOp45
 70
     1
102
RTVSPropertyOp46
 70
     1
102
RTVSPropertyOp47
 70
     1
102
RTVSPropertyOp48
 70
     1
102
RTVSPropertyOp49
 70
     1
102
RTVSPropertyOp50
 70
     1
102
RTVSPropertyOp51
 70
     0
102
RTVSPropertyOp52
 70
     0
102
RTVSPropertyOp53
 70
     1
102
RTVSPropertyOp54
 70
     1
102
RTVSPropertyOp55
 70
     1
102
RTVSPropertyOp56
 70
     1
102
RTVSPropertyOp57
 70
     1
102
RTVSPropertyOp58
 70
     1
102
RTVSPropertyOp59
 70
     1
102
RTVSPropertyOp60
 70
     1
102
RTVSPropertyOp61
 70
     1
102
RTVSPropertyOp62
 70
     1
  0
XRECORD
  5
D29E
102
{ACAD_REACTORS
330
D29D
102
}
330
D29D
100
AcDbXrecord
280
     1
102
RTVSPost2010Prop28
280
     0
102
RTVSPost2010PropOp28
 70
     1
102
RTVSPost2010Prop29
280
     1
102
RTVSPost2010PropOp29
 70
     1
102
RTVSPost2010Prop30
280
     1
102
RTVSPost2010PropOp30
 70
     1
102
RTVSPost2010Prop31
280
     0
102
RTVSPost2010PropOp31
 70
     1
102
RTVSPost2010Prop32
280
     0
102
RTVSPost2010PropOp32
 70
     1
102
RTVSPost2010Prop33
280
     0
102
RTVSPost2010PropOp33
 70
     1
102
RTVSPost2010Prop34
280
     0
102
RTVSPost2010PropOp34
 70
     1
102
RTVSPost2010Prop35
280
     0
102
RTVSPost2010PropOp35
 70
     1
102
RTVSPost2010Prop36
280
     0
102
RTVSPost2010PropOp36
 70
     1
102
RTVSPost2010Prop37
 90
       50
102
RTVSPost2010PropOp37
 70
     1
102
RTVSPost2010Prop38
140
0.0
102
RTVSPost2010PropOp38
 70
     1
102
RTVSPost2010Prop39
140
1.0
102
RTVSPost2010PropOp39
 70
     1
102
RTVSPost2010Prop40
 90
        0
102
RTVSPost2010PropOp40
 70
     1
102
RTVSPost2010Prop41ColorIndex
 90
       18
102
RTVSPost2010Prop41ColorRGB
 90
        0
102
RTVSPost2010PropOp41
 70
     1
102
RTVSPost2010Prop42
 90
       50
102
RTVSPost2010PropOp42
 70
     1
102
RTVSPost2010Prop43
 90
        3
102
RTVSPost2010PropOp43
 70
     1
102
RTVSPost2010Prop44ColorIndex
 90
        5
102
RTVSPost2010Prop44ColorRGB
 90
      255
102
RTVSPost2010PropOp44
 70
     1
102
RTVSPost2010Prop45
280
     0
102
RTVSPost2010PropOp45
 70
     1
102
RTVSPost2010Prop46
 90
       50
102
RTVSPost2010PropOp46
 70
     1
102
RTVSPost2010Prop47
 90
       50
102
RTVSPost2010PropOp47
 70
     1
102
RTVSPost2010Prop48
 90
       50
102
RTVSPost2010PropOp48
 70
     1
102
RTVSPost2010Prop49
280
     0
102
RTVSPost2010PropOp49
 70
     1
102
RTVSPost2010Prop50
 90
       50
102
RTVSPost2010PropOp50
 70
     1
102
RTVSPost2010Prop51ColorIndex
 90
      256
102
RTVSPost2010Prop51ColorRGB
 90
-16777216
102
RTVSPost2010PropOp51
 70
     0
102
RTVSPost2010Prop52
140
1.0
102
RTVSPost2010PropOp52
 70
     0
102
RTVSPost2010Prop53
 90
        2
102
RTVSPost2010PropOp53
 70
     1
102
RTVSPost2010Prop54
  1
strokes_ogs.tif
102
RTVSPost2010PropOp54
 70
     1
102
RTVSPost2010Prop55
280
     0
102
RTVSPost2010PropOp55
 70
     1
102
RTVSPost2010Prop56
140
1.0
102
RTVSPost2010PropOp56
 70
     1
102
RTVSPost2010Prop57
140
1.0
102
RTVSPost2010PropOp57
 70
     1
102
RTVSPropertyOp0
 70
     1
102
RTVSPropertyOp1
 70
     1
102
RTVSPropertyOp2
 70
     1
102
RTVSPropertyOp3
 70
     1
102
RTVSPropertyOp4
 70
     1
102
RTVSPropertyOp5
 70
     1
102
RTVSPropertyOp6
 70
     1
102
RTVSPropertyOp7
 70
     1
102
RTVSPropertyOp8
 70
     1
102
RTVSPropertyOp9
 70
     1
102
RTVSPropertyOp10
 70
     1
102
RTVSPropertyOp11
 70
     1
102
RTVSPropertyOp12
 70
     1
102
RTVSPropertyOp13
 70
     1
102
RTVSPropertyOp14
 70
     1
102
RTVSPropertyOp15
 70
     1
102
RTVSPropertyOp16
 70
     1
102
RTVSPropertyOp17
 70
     1
102
RTVSPropertyOp18
 70
     1
102
RTVSPropertyOp19
 70
     1
102
RTVSPropertyOp20
 70
     1
102
RTVSPropertyOp21
 70
     1
102
RTVSPropertyOp22
 70
     1
102
RTVSPropertyOp23
 70
     1
102
RTVSPropertyOp24
 70
     1
102
RTVSPropertyOp25
 70
     1
102
RTVSPropertyOp26
 70
     1
102
RTVSPropertyOp27
 70
     1
102
RTVSPropertyOp28
 70
     1
102
RTVSPropertyOp29
 70
     1
102
RTVSPropertyOp30
 70
     1
102
RTVSPropertyOp31
 70
     1
102
RTVSPropertyOp32
 70
     1
102
RTVSPropertyOp33
 70
     1
102
RTVSPropertyOp34
 70
     1
102
RTVSPropertyOp35
 70
     1
102
RTVSPropertyOp36
 70
     1
102
RTVSPropertyOp37
 70
     1
102
RTVSPropertyOp38
 70
     1
102
RTVSPropertyOp39
 70
     1
102
RTVSPropertyOp40
 70
     1
102
RTVSPropertyOp41
 70
     1
102
RTVSPropertyOp42
 70
     1
102
RTVSPropertyOp43
 70
     1
102
RTVSPropertyOp44
 70
     1
102
RTVSPropertyOp45
 70
     1
102
RTVSPropertyOp46
 70
     1
102
RTVSPropertyOp47
 70
     1
102
RTVSPropertyOp48
 70
     1
102
RTVSPropertyOp49
 70
     1
102
RTVSPropertyOp50
 70
     1
102
RTVSPropertyOp51
 70
     0
102
RTVSPropertyOp52
 70
     0
102
RTVSPropertyOp53
 70
     1
102
RTVSPropertyOp54
 70
     1
102
RTVSPropertyOp55
 70
     1
102
RTVSPropertyOp56
 70
     1
102
RTVSPropertyOp57
 70
     1
102
RTVSPropertyOp58
 70
     1
102
RTVSPropertyOp59
 70
     1
102
RTVSPropertyOp60
 70
     1
102
RTVSPropertyOp61
 70
     1
102
RTVSPropertyOp62
 70
     1
  0
XRECORD
  5
D290
102
{ACAD_REACTORS
330
D28F
102
}
330
D28F
100
AcDbXrecord
280
     1
102
RTVSPost2010Prop28
280
     0
102
RTVSPost2010PropOp28
 70
     1
102
RTVSPost2010Prop29
280
     1
102
RTVSPost2010PropOp29
 70
     1
102
RTVSPost2010Prop30
280
     1
102
RTVSPost2010PropOp30
 70
     1
102
RTVSPost2010Prop31
280
     0
102
RTVSPost2010PropOp31
 70
     1
102
RTVSPost2010Prop32
280
     0
102
RTVSPost2010PropOp32
 70
     1
102
RTVSPost2010Prop33
280
     0
102
RTVSPost2010PropOp33
 70
     1
102
RTVSPost2010Prop34
280
     0
102
RTVSPost2010PropOp34
 70
     1
102
RTVSPost2010Prop35
280
     0
102
RTVSPost2010PropOp35
 70
     1
102
RTVSPost2010Prop36
280
     0
102
RTVSPost2010PropOp36
 70
     1
102
RTVSPost2010Prop37
 90
       50
102
RTVSPost2010PropOp37
 70
     1
102
RTVSPost2010Prop38
140
0.0
102
RTVSPost2010PropOp38
 70
     1
102
RTVSPost2010Prop39
140
1.0
102
RTVSPost2010PropOp39
 70
     1
102
RTVSPost2010Prop40
 90
        0
102
RTVSPost2010PropOp40
 70
     1
102
RTVSPost2010Prop41ColorIndex
 90
       18
102
RTVSPost2010Prop41ColorRGB
 90
        0
102
RTVSPost2010PropOp41
 70
     1
102
RTVSPost2010Prop42
 90
       50
102
RTVSPost2010PropOp42
 70
     1
102
RTVSPost2010Prop43
 90
        3
102
RTVSPost2010PropOp43
 70
     1
102
RTVSPost2010Prop44ColorIndex
 90
        5
102
RTVSPost2010Prop44ColorRGB
 90
      255
102
RTVSPost2010PropOp44
 70
     1
102
RTVSPost2010Prop45
280
     0
102
RTVSPost2010PropOp45
 70
     1
102
RTVSPost2010Prop46
 90
       50
102
RTVSPost2010PropOp46
 70
     1
102
RTVSPost2010Prop47
 90
       50
102
RTVSPost2010PropOp47
 70
     1
102
RTVSPost2010Prop48
 90
       50
102
RTVSPost2010PropOp48
 70
     1
102
RTVSPost2010Prop49
280
     0
102
RTVSPost2010PropOp49
 70
     1
102
RTVSPost2010Prop50
 90
       50
102
RTVSPost2010PropOp50
 70
     1
102
RTVSPost2010Prop51ColorIndex
 90
      256
102
RTVSPost2010Prop51ColorRGB
 90
-16777216
102
RTVSPost2010PropOp51
 70
     0
102
RTVSPost2010Prop52
140
1.0
102
RTVSPost2010PropOp52
 70
     0
102
RTVSPost2010Prop53
 90
        2
102
RTVSPost2010PropOp53
 70
     1
102
RTVSPost2010Prop54
  1
strokes_ogs.tif
102
RTVSPost2010PropOp54
 70
     1
102
RTVSPost2010Prop55
280
     0
102
RTVSPost2010PropOp55
 70
     1
102
RTVSPost2010Prop56
140
1.0
102
RTVSPost2010PropOp56
 70
     1
102
RTVSPost2010Prop57
140
1.0
102
RTVSPost2010PropOp57
 70
     1
102
RTVSPropertyOp0
 70
     1
102
RTVSPropertyOp1
 70
     1
102
RTVSPropertyOp2
 70
     1
102
RTVSPropertyOp3
 70
     1
102
RTVSPropertyOp4
 70
     1
102
RTVSPropertyOp5
 70
     1
102
RTVSPropertyOp6
 70
     1
102
RTVSPropertyOp7
 70
     1
102
RTVSPropertyOp8
 70
     1
102
RTVSPropertyOp9
 70
     1
102
RTVSPropertyOp10
 70
     1
102
RTVSPropertyOp11
 70
     1
102
RTVSPropertyOp12
 70
     1
102
RTVSPropertyOp13
 70
     1
102
RTVSPropertyOp14
 70
     1
102
RTVSPropertyOp15
 70
     1
102
RTVSPropertyOp16
 70
     1
102
RTVSPropertyOp17
 70
     1
102
RTVSPropertyOp18
 70
     1
102
RTVSPropertyOp19
 70
     1
102
RTVSPropertyOp20
 70
     1
102
RTVSPropertyOp21
 70
     1
102
RTVSPropertyOp22
 70
     1
102
RTVSPropertyOp23
 70
     1
102
RTVSPropertyOp24
 70
     1
102
RTVSPropertyOp25
 70
     1
102
RTVSPropertyOp26
 70
     1
102
RTVSPropertyOp27
 70
     1
102
RTVSPropertyOp28
 70
     1
102
RTVSPropertyOp29
 70
     1
102
RTVSPropertyOp30
 70
     1
102
RTVSPropertyOp31
 70
     1
102
RTVSPropertyOp32
 70
     1
102
RTVSPropertyOp33
 70
     1
102
RTVSPropertyOp34
 70
     1
102
RTVSPropertyOp35
 70
     1
102
RTVSPropertyOp36
 70
     1
102
RTVSPropertyOp37
 70
     1
102
RTVSPropertyOp38
 70
     1
102
RTVSPropertyOp39
 70
     1
102
RTVSPropertyOp40
 70
     1
102
RTVSPropertyOp41
 70
     1
102
RTVSPropertyOp42
 70
     1
102
RTVSPropertyOp43
 70
     1
102
RTVSPropertyOp44
 70
     1
102
RTVSPropertyOp45
 70
     1
102
RTVSPropertyOp46
 70
     1
102
RTVSPropertyOp47
 70
     1
102
RTVSPropertyOp48
 70
     1
102
RTVSPropertyOp49
 70
     1
102
RTVSPropertyOp50
 70
     1
102
RTVSPropertyOp51
 70
     0
102
RTVSPropertyOp52
 70
     0
102
RTVSPropertyOp53
 70
     1
102
RTVSPropertyOp54
 70
     1
102
RTVSPropertyOp55
 70
     1
102
RTVSPropertyOp56
 70
     1
102
RTVSPropertyOp57
 70
     1
102
RTVSPropertyOp58
 70
     1
102
RTVSPropertyOp59
 70
     1
102
RTVSPropertyOp60
 70
     1
102
RTVSPropertyOp61
 70
     1
102
RTVSPropertyOp62
 70
     1
  0
XRECORD
  5
D294
102
{ACAD_REACTORS
330
D293
102
}
330
D293
100
AcDbXrecord
280
     1
102
RTVSPost2010Prop28
280
     0
102
RTVSPost2010PropOp28
 70
     1
102
RTVSPost2010Prop29
280
     1
102
RTVSPost2010PropOp29
 70
     1
102
RTVSPost2010Prop30
280
     1
102
RTVSPost2010PropOp30
 70
     1
102
RTVSPost2010Prop31
280
     0
102
RTVSPost2010PropOp31
 70
     1
102
RTVSPost2010Prop32
280
     0
102
RTVSPost2010PropOp32
 70
     1
102
RTVSPost2010Prop33
280
     0
102
RTVSPost2010PropOp33
 70
     1
102
RTVSPost2010Prop34
280
     0
102
RTVSPost2010PropOp34
 70
     1
102
RTVSPost2010Prop35
280
     0
102
RTVSPost2010PropOp35
 70
     1
102
RTVSPost2010Prop36
280
     0
102
RTVSPost2010PropOp36
 70
     1
102
RTVSPost2010Prop37
 90
       50
102
RTVSPost2010PropOp37
 70
     1
102
RTVSPost2010Prop38
140
0.0
102
RTVSPost2010PropOp38
 70
     1
102
RTVSPost2010Prop39
140
1.0
102
RTVSPost2010PropOp39
 70
     1
102
RTVSPost2010Prop40
 90
        0
102
RTVSPost2010PropOp40
 70
     1
102
RTVSPost2010Prop41ColorIndex
 90
       18
102
RTVSPost2010Prop41ColorRGB
 90
        0
102
RTVSPost2010PropOp41
 70
     1
102
RTVSPost2010Prop42
 90
       50
102
RTVSPost2010PropOp42
 70
     1
102
RTVSPost2010Prop43
 90
        3
102
RTVSPost2010PropOp43
 70
     1
102
RTVSPost2010Prop44ColorIndex
 90
        5
102
RTVSPost2010Prop44ColorRGB
 90
      255
102
RTVSPost2010PropOp44
 70
     1
102
RTVSPost2010Prop45
280
     0
102
RTVSPost2010PropOp45
 70
     1
102
RTVSPost2010Prop46
 90
       50
102
RTVSPost2010PropOp46
 70
     1
102
RTVSPost2010Prop47
 90
       50
102
RTVSPost2010PropOp47
 70
     1
102
RTVSPost2010Prop48
 90
       50
102
RTVSPost2010PropOp48
 70
     1
102
RTVSPost2010Prop49
280
     0
102
RTVSPost2010PropOp49
 70
     1
102
RTVSPost2010Prop50
 90
       50
102
RTVSPost2010PropOp50
 70
     1
102
RTVSPost2010Prop51ColorIndex
 90
      256
102
RTVSPost2010Prop51ColorRGB
 90
-16777216
102
RTVSPost2010PropOp51
 70
     0
102
RTVSPost2010Prop52
140
1.0
102
RTVSPost2010PropOp52
 70
     0
102
RTVSPost2010Prop53
 90
        2
102
RTVSPost2010PropOp53
 70
     1
102
RTVSPost2010Prop54
  1
strokes_ogs.tif
102
RTVSPost2010PropOp54
 70
     1
102
RTVSPost2010Prop55
280
     0
102
RTVSPost2010PropOp55
 70
     1
102
RTVSPost2010Prop56
140
1.0
102
RTVSPost2010PropOp56
 70
     1
102
RTVSPost2010Prop57
140
1.0
102
RTVSPost2010PropOp57
 70
     1
102
RTVSPropertyOp0
 70
     1
102
RTVSPropertyOp1
 70
     1
102
RTVSPropertyOp2
 70
     1
102
RTVSPropertyOp3
 70
     1
102
RTVSPropertyOp4
 70
     1
102
RTVSPropertyOp5
 70
     1
102
RTVSPropertyOp6
 70
     1
102
RTVSPropertyOp7
 70
     1
102
RTVSPropertyOp8
 70
     1
102
RTVSPropertyOp9
 70
     1
102
RTVSPropertyOp10
 70
     1
102
RTVSPropertyOp11
 70
     1
102
RTVSPropertyOp12
 70
     1
102
RTVSPropertyOp13
 70
     1
102
RTVSPropertyOp14
 70
     1
102
RTVSPropertyOp15
 70
     1
102
RTVSPropertyOp16
 70
     1
102
RTVSPropertyOp17
 70
     1
102
RTVSPropertyOp18
 70
     1
102
RTVSPropertyOp19
 70
     1
102
RTVSPropertyOp20
 70
     1
102
RTVSPropertyOp21
 70
     1
102
RTVSPropertyOp22
 70
     1
102
RTVSPropertyOp23
 70
     1
102
RTVSPropertyOp24
 70
     1
102
RTVSPropertyOp25
 70
     1
102
RTVSPropertyOp26
 70
     1
102
RTVSPropertyOp27
 70
     1
102
RTVSPropertyOp28
 70
     1
102
RTVSPropertyOp29
 70
     1
102
RTVSPropertyOp30
 70
     1
102
RTVSPropertyOp31
 70
     1
102
RTVSPropertyOp32
 70
     1
102
RTVSPropertyOp33
 70
     1
102
RTVSPropertyOp34
 70
     1
102
RTVSPropertyOp35
 70
     1
102
RTVSPropertyOp36
 70
     1
102
RTVSPropertyOp37
 70
     1
102
RTVSPropertyOp38
 70
     1
102
RTVSPropertyOp39
 70
     1
102
RTVSPropertyOp40
 70
     1
102
RTVSPropertyOp41
 70
     1
102
RTVSPropertyOp42
 70
     1
102
RTVSPropertyOp43
 70
     1
102
RTVSPropertyOp44
 70
     1
102
RTVSPropertyOp45
 70
     1
102
RTVSPropertyOp46
 70
     1
102
RTVSPropertyOp47
 70
     1
102
RTVSPropertyOp48
 70
     1
102
RTVSPropertyOp49
 70
     1
102
RTVSPropertyOp50
 70
     1
102
RTVSPropertyOp51
 70
     0
102
RTVSPropertyOp52
 70
     0
102
RTVSPropertyOp53
 70
     1
102
RTVSPropertyOp54
 70
     1
102
RTVSPropertyOp55
 70
     1
102
RTVSPropertyOp56
 70
     1
102
RTVSPropertyOp57
 70
     1
102
RTVSPropertyOp58
 70
     1
102
RTVSPropertyOp59
 70
     1
102
RTVSPropertyOp60
 70
     1
102
RTVSPropertyOp61
 70
     1
102
RTVSPropertyOp62
 70
     1
  0
XRECORD
  5
D2AE
102
{ACAD_REACTORS
330
D2AD
102
}
330
D2AD
100
AcDbXrecord
280
     1
102
RTVSPost2010Prop28
280
     0
102
RTVSPost2010PropOp28
 70
     1
102
RTVSPost2010Prop29
280
     1
102
RTVSPost2010PropOp29
 70
     1
102
RTVSPost2010Prop30
280
     1
102
RTVSPost2010PropOp30
 70
     1
102
RTVSPost2010Prop31
280
     0
102
RTVSPost2010PropOp31
 70
     1
102
RTVSPost2010Prop32
280
     0
102
RTVSPost2010PropOp32
 70
     1
102
RTVSPost2010Prop33
280
     0
102
RTVSPost2010PropOp33
 70
     1
102
RTVSPost2010Prop34
280
     0
102
RTVSPost2010PropOp34
 70
     1
102
RTVSPost2010Prop35
280
     0
102
RTVSPost2010PropOp35
 70
     1
102
RTVSPost2010Prop36
280
     0
102
RTVSPost2010PropOp36
 70
     1
102
RTVSPost2010Prop37
 90
       50
102
RTVSPost2010PropOp37
 70
     0
102
RTVSPost2010Prop38
140
0.0
102
RTVSPost2010PropOp38
 70
     0
102
RTVSPost2010Prop39
140
1.0
102
RTVSPost2010PropOp39
 70
     0
102
RTVSPost2010Prop40
 90
        0
102
RTVSPost2010PropOp40
 70
     0
102
RTVSPost2010Prop41ColorIndex
 90
       18
102
RTVSPost2010Prop41ColorRGB
 90
        0
102
RTVSPost2010PropOp41
 70
     0
102
RTVSPost2010Prop42
 90
       50
102
RTVSPost2010PropOp42
 70
     0
102
RTVSPost2010Prop43
 90
        3
102
RTVSPost2010PropOp43
 70
     0
102
RTVSPost2010Prop44ColorIndex
 90
        5
102
RTVSPost2010Prop44ColorRGB
 90
      255
102
RTVSPost2010PropOp44
 70
     0
102
RTVSPost2010Prop45
280
     0
102
RTVSPost2010PropOp45
 70
     1
102
RTVSPost2010Prop46
 90
       50
102
RTVSPost2010PropOp46
 70
     0
102
RTVSPost2010Prop47
 90
       50
102
RTVSPost2010PropOp47
 70
     0
102
RTVSPost2010Prop48
 90
       50
102
RTVSPost2010PropOp48
 70
     0
102
RTVSPost2010Prop49
280
     0
102
RTVSPost2010PropOp49
 70
     1
102
RTVSPost2010Prop50
 90
       50
102
RTVSPost2010PropOp50
 70
     0
102
RTVSPost2010Prop51ColorIndex
 90
      256
102
RTVSPost2010Prop51ColorRGB
 90
-16777216
102
RTVSPost2010PropOp51
 70
     0
102
RTVSPost2010Prop52
140
1.0
102
RTVSPost2010PropOp52
 70
     0
102
RTVSPost2010Prop53
 90
        2
102
RTVSPost2010PropOp53
 70
     0
102
RTVSPost2010Prop54
  1
strokes_ogs.tif
102
RTVSPost2010PropOp54
 70
     0
102
RTVSPost2010Prop55
280
     0
102
RTVSPost2010PropOp55
 70
     1
102
RTVSPost2010Prop56
140
1.0
102
RTVSPost2010PropOp56
 70
     0
102
RTVSPost2010Prop57
140
1.0
102
RTVSPost2010PropOp57
 70
     0
102
RTVSPropertyOp0
 70
     0
102
RTVSPropertyOp1
 70
     0
102
RTVSPropertyOp2
 70
     0
102
RTVSPropertyOp3
 70
     0
102
RTVSPropertyOp4
 70
     0
102
RTVSPropertyOp5
 70
     0
102
RTVSPropertyOp6
 70
     0
102
RTVSPropertyOp7
 70
     0
102
RTVSPropertyOp8
 70
     0
102
RTVSPropertyOp9
 70
     0
102
RTVSPropertyOp10
 70
     0
102
RTVSPropertyOp11
 70
     0
102
RTVSPropertyOp12
 70
     0
102
RTVSPropertyOp13
 70
     0
102
RTVSPropertyOp14
 70
     2
102
RTVSPropertyOp15
 70
     0
102
RTVSPropertyOp16
 70
     0
102
RTVSPropertyOp17
 70
     0
102
RTVSPropertyOp18
 70
     0
102
RTVSPropertyOp19
 70
     0
102
RTVSPropertyOp20
 70
     0
102
RTVSPropertyOp21
 70
     0
102
RTVSPropertyOp22
 70
     0
102
RTVSPropertyOp23
 70
     0
102
RTVSPropertyOp24
 70
     0
102
RTVSPropertyOp25
 70
     0
102
RTVSPropertyOp26
 70
     0
102
RTVSPropertyOp27
 70
     0
102
RTVSPropertyOp28
 70
     1
102
RTVSPropertyOp29
 70
     1
102
RTVSPropertyOp30
 70
     1
102
RTVSPropertyOp31
 70
     1
102
RTVSPropertyOp32
 70
     1
102
RTVSPropertyOp33
 70
     1
102
RTVSPropertyOp34
 70
     1
102
RTVSPropertyOp35
 70
     1
102
RTVSPropertyOp36
 70
     1
102
RTVSPropertyOp37
 70
     0
102
RTVSPropertyOp38
 70
     0
102
RTVSPropertyOp39
 70
     0
102
RTVSPropertyOp40
 70
     0
102
RTVSPropertyOp41
 70
     0
102
RTVSPropertyOp42
 70
     0
102
RTVSPropertyOp43
 70
     0
102
RTVSPropertyOp44
 70
     0
102
RTVSPropertyOp45
 70
     1
102
RTVSPropertyOp46
 70
     0
102
RTVSPropertyOp47
 70
     0
102
RTVSPropertyOp48
 70
     0
102
RTVSPropertyOp49
 70
     1
102
RTVSPropertyOp50
 70
     0
102
RTVSPropertyOp51
 70
     0
102
RTVSPropertyOp52
 70
     0
102
RTVSPropertyOp53
 70
     0
102
RTVSPropertyOp54
 70
     0
102
RTVSPropertyOp55
 70
     1
102
RTVSPropertyOp56
 70
     0
102
RTVSPropertyOp57
 70
     0
102
RTVSPropertyOp58
 70
     0
102
RTVSPropertyOp59
 70
     0
102
RTVSPropertyOp60
 70
     0
102
RTVSPropertyOp61
 70
     0
102
RTVSPropertyOp62
 70
     0
  0
XRECORD
  5
D29C
102
{ACAD_REACTORS
330
D29B
102
}
330
D29B
100
AcDbXrecord
280
     1
102
RTVSPost2010Prop28
280
     0
102
RTVSPost2010PropOp28
 70
     1
102
RTVSPost2010Prop29
280
     1
102
RTVSPost2010PropOp29
 70
     1
102
RTVSPost2010Prop30
280
     1
102
RTVSPost2010PropOp30
 70
     1
102
RTVSPost2010Prop31
280
     0
102
RTVSPost2010PropOp31
 70
     1
102
RTVSPost2010Prop32
280
     0
102
RTVSPost2010PropOp32
 70
     1
102
RTVSPost2010Prop33
280
     0
102
RTVSPost2010PropOp33
 70
     1
102
RTVSPost2010Prop34
280
     0
102
RTVSPost2010PropOp34
 70
     1
102
RTVSPost2010Prop35
280
     0
102
RTVSPost2010PropOp35
 70
     1
102
RTVSPost2010Prop36
280
     0
102
RTVSPost2010PropOp36
 70
     1
102
RTVSPost2010Prop37
 90
       50
102
RTVSPost2010PropOp37
 70
     1
102
RTVSPost2010Prop38
140
0.0
102
RTVSPost2010PropOp38
 70
     1
102
RTVSPost2010Prop39
140
1.0
102
RTVSPost2010PropOp39
 70
     1
102
RTVSPost2010Prop40
 90
        0
102
RTVSPost2010PropOp40
 70
     1
102
RTVSPost2010Prop41ColorIndex
 90
       18
102
RTVSPost2010Prop41ColorRGB
 90
        0
102
RTVSPost2010PropOp41
 70
     1
102
RTVSPost2010Prop42
 90
       50
102
RTVSPost2010PropOp42
 70
     1
102
RTVSPost2010Prop43
 90
        3
102
RTVSPost2010PropOp43
 70
     1
102
RTVSPost2010Prop44ColorIndex
 90
        5
102
RTVSPost2010Prop44ColorRGB
 90
      255
102
RTVSPost2010PropOp44
 70
     1
102
RTVSPost2010Prop45
280
     0
102
RTVSPost2010PropOp45
 70
     1
102
RTVSPost2010Prop46
 90
       50
102
RTVSPost2010PropOp46
 70
     1
102
RTVSPost2010Prop47
 90
       50
102
RTVSPost2010PropOp47
 70
     1
102
RTVSPost2010Prop48
 90
       50
102
RTVSPost2010PropOp48
 70
     1
102
RTVSPost2010Prop49
280
     0
102
RTVSPost2010PropOp49
 70
     1
102
RTVSPost2010Prop50
 90
       50
102
RTVSPost2010PropOp50
 70
     1
102
RTVSPost2010Prop51ColorIndex
 90
      256
102
RTVSPost2010Prop51ColorRGB
 90
-16777216
102
RTVSPost2010PropOp51
 70
     0
102
RTVSPost2010Prop52
140
1.0
102
RTVSPost2010PropOp52
 70
     0
102
RTVSPost2010Prop53
 90
        2
102
RTVSPost2010PropOp53
 70
     1
102
RTVSPost2010Prop54
  1
strokes_ogs.tif
102
RTVSPost2010PropOp54
 70
     1
102
RTVSPost2010Prop55
280
     0
102
RTVSPost2010PropOp55
 70
     1
102
RTVSPost2010Prop56
140
1.0
102
RTVSPost2010PropOp56
 70
     1
102
RTVSPost2010Prop57
140
1.0
102
RTVSPost2010PropOp57
 70
     1
102
RTVSPropertyOp0
 70
     1
102
RTVSPropertyOp1
 70
     1
102
RTVSPropertyOp2
 70
     1
102
RTVSPropertyOp3
 70
     1
102
RTVSPropertyOp4
 70
     1
102
RTVSPropertyOp5
 70
     1
102
RTVSPropertyOp6
 70
     1
102
RTVSPropertyOp7
 70
     1
102
RTVSPropertyOp8
 70
     1
102
RTVSPropertyOp9
 70
     1
102
RTVSPropertyOp10
 70
     1
102
RTVSPropertyOp11
 70
     1
102
RTVSPropertyOp12
 70
     1
102
RTVSPropertyOp13
 70
     1
102
RTVSPropertyOp14
 70
     1
102
RTVSPropertyOp15
 70
     1
102
RTVSPropertyOp16
 70
     1
102
RTVSPropertyOp17
 70
     1
102
RTVSPropertyOp18
 70
     1
102
RTVSPropertyOp19
 70
     1
102
RTVSPropertyOp20
 70
     1
102
RTVSPropertyOp21
 70
     1
102
RTVSPropertyOp22
 70
     1
102
RTVSPropertyOp23
 70
     1
102
RTVSPropertyOp24
 70
     1
102
RTVSPropertyOp25
 70
     1
102
RTVSPropertyOp26
 70
     1
102
RTVSPropertyOp27
 70
     1
102
RTVSPropertyOp28
 70
     1
102
RTVSPropertyOp29
 70
     1
102
RTVSPropertyOp30
 70
     1
102
RTVSPropertyOp31
 70
     1
102
RTVSPropertyOp32
 70
     1
102
RTVSPropertyOp33
 70
     1
102
RTVSPropertyOp34
 70
     1
102
RTVSPropertyOp35
 70
     1
102
RTVSPropertyOp36
 70
     1
102
RTVSPropertyOp37
 70
     1
102
RTVSPropertyOp38
 70
     1
102
RTVSPropertyOp39
 70
     1
102
RTVSPropertyOp40
 70
     1
102
RTVSPropertyOp41
 70
     1
102
RTVSPropertyOp42
 70
     1
102
RTVSPropertyOp43
 70
     1
102
RTVSPropertyOp44
 70
     1
102
RTVSPropertyOp45
 70
     1
102
RTVSPropertyOp46
 70
     1
102
RTVSPropertyOp47
 70
     1
102
RTVSPropertyOp48
 70
     1
102
RTVSPropertyOp49
 70
     1
102
RTVSPropertyOp50
 70
     1
102
RTVSPropertyOp51
 70
     0
102
RTVSPropertyOp52
 70
     0
102
RTVSPropertyOp53
 70
     1
102
RTVSPropertyOp54
 70
     1
102
RTVSPropertyOp55
 70
     1
102
RTVSPropertyOp56
 70
     1
102
RTVSPropertyOp57
 70
     1
102
RTVSPropertyOp58
 70
     1
102
RTVSPropertyOp59
 70
     1
102
RTVSPropertyOp60
 70
     1
102
RTVSPropertyOp61
 70
     1
102
RTVSPropertyOp62
 70
     1
  0
XRECORD
  5
D280
102
{ACAD_REACTORS
330
D27F
102
}
330
D27F
100
AcDbXrecord
280
     1
102
RTVSPost2010Prop28
280
     0
102
RTVSPost2010PropOp28
 70
     1
102
RTVSPost2010Prop29
280
     1
102
RTVSPost2010PropOp29
 70
     1
102
RTVSPost2010Prop30
280
     1
102
RTVSPost2010PropOp30
 70
     1
102
RTVSPost2010Prop31
280
     0
102
RTVSPost2010PropOp31
 70
     1
102
RTVSPost2010Prop32
280
     0
102
RTVSPost2010PropOp32
 70
     1
102
RTVSPost2010Prop33
280
     0
102
RTVSPost2010PropOp33
 70
     1
102
RTVSPost2010Prop34
280
     0
102
RTVSPost2010PropOp34
 70
     1
102
RTVSPost2010Prop35
280
     0
102
RTVSPost2010PropOp35
 70
     1
102
RTVSPost2010Prop36
280
     0
102
RTVSPost2010PropOp36
 70
     1
102
RTVSPost2010Prop37
 90
       50
102
RTVSPost2010PropOp37
 70
     1
102
RTVSPost2010Prop38
140
0.0
102
RTVSPost2010PropOp38
 70
     1
102
RTVSPost2010Prop39
140
1.0
102
RTVSPost2010PropOp39
 70
     1
102
RTVSPost2010Prop40
 90
        0
102
RTVSPost2010PropOp40
 70
     1
102
RTVSPost2010Prop41ColorIndex
 90
       18
102
RTVSPost2010Prop41ColorRGB
 90
        0
102
RTVSPost2010PropOp41
 70
     1
102
RTVSPost2010Prop42
 90
       50
102
RTVSPost2010PropOp42
 70
     1
102
RTVSPost2010Prop43
 90
        3
102
RTVSPost2010PropOp43
 70
     1
102
RTVSPost2010Prop44ColorIndex
 90
        5
102
RTVSPost2010Prop44ColorRGB
 90
      255
102
RTVSPost2010PropOp44
 70
     1
102
RTVSPost2010Prop45
280
     0
102
RTVSPost2010PropOp45
 70
     1
102
RTVSPost2010Prop46
 90
       50
102
RTVSPost2010PropOp46
 70
     1
102
RTVSPost2010Prop47
 90
       50
102
RTVSPost2010PropOp47
 70
     1
102
RTVSPost2010Prop48
 90
       50
102
RTVSPost2010PropOp48
 70
     1
102
RTVSPost2010Prop49
280
     0
102
RTVSPost2010PropOp49
 70
     1
102
RTVSPost2010Prop50
 90
       50
102
RTVSPost2010PropOp50
 70
     1
102
RTVSPost2010Prop51ColorIndex
 90
      256
102
RTVSPost2010Prop51ColorRGB
 90
-16777216
102
RTVSPost2010PropOp51
 70
     0
102
RTVSPost2010Prop52
140
1.0
102
RTVSPost2010PropOp52
 70
     0
102
RTVSPost2010Prop53
 90
        2
102
RTVSPost2010PropOp53
 70
     1
102
RTVSPost2010Prop54
  1
strokes_ogs.tif
102
RTVSPost2010PropOp54
 70
     1
102
RTVSPost2010Prop55
280
     0
102
RTVSPost2010PropOp55
 70
     1
102
RTVSPost2010Prop56
140
1.0
102
RTVSPost2010PropOp56
 70
     1
102
RTVSPost2010Prop57
140
1.0
102
RTVSPost2010PropOp57
 70
     1
102
RTVSPropertyOp0
 70
     1
102
RTVSPropertyOp1
 70
     1
102
RTVSPropertyOp2
 70
     1
102
RTVSPropertyOp3
 70
     1
102
RTVSPropertyOp4
 70
     1
102
RTVSPropertyOp5
 70
     1
102
RTVSPropertyOp6
 70
     1
102
RTVSPropertyOp7
 70
     1
102
RTVSPropertyOp8
 70
     1
102
RTVSPropertyOp9
 70
     1
102
RTVSPropertyOp10
 70
     1
102
RTVSPropertyOp11
 70
     1
102
RTVSPropertyOp12
 70
     1
102
RTVSPropertyOp13
 70
     1
102
RTVSPropertyOp14
 70
     1
102
RTVSPropertyOp15
 70
     1
102
RTVSPropertyOp16
 70
     1
102
RTVSPropertyOp17
 70
     1
102
RTVSPropertyOp18
 70
     1
102
RTVSPropertyOp19
 70
     1
102
RTVSPropertyOp20
 70
     1
102
RTVSPropertyOp21
 70
     1
102
RTVSPropertyOp22
 70
     1
102
RTVSPropertyOp23
 70
     1
102
RTVSPropertyOp24
 70
     1
102
RTVSPropertyOp25
 70
     1
102
RTVSPropertyOp26
 70
     1
102
RTVSPropertyOp27
 70
     1
102
RTVSPropertyOp28
 70
     1
102
RTVSPropertyOp29
 70
     1
102
RTVSPropertyOp30
 70
     1
102
RTVSPropertyOp31
 70
     1
102
RTVSPropertyOp32
 70
     1
102
RTVSPropertyOp33
 70
     1
102
RTVSPropertyOp34
 70
     1
102
RTVSPropertyOp35
 70
     1
102
RTVSPropertyOp36
 70
     1
102
RTVSPropertyOp37
 70
     1
102
RTVSPropertyOp38
 70
     1
102
RTVSPropertyOp39
 70
     1
102
RTVSPropertyOp40
 70
     1
102
RTVSPropertyOp41
 70
     1
102
RTVSPropertyOp42
 70
     1
102
RTVSPropertyOp43
 70
     1
102
RTVSPropertyOp44
 70
     1
102
RTVSPropertyOp45
 70
     1
102
RTVSPropertyOp46
 70
     1
102
RTVSPropertyOp47
 70
     1
102
RTVSPropertyOp48
 70
     1
102
RTVSPropertyOp49
 70
     1
102
RTVSPropertyOp50
 70
     1
102
RTVSPropertyOp51
 70
     0
102
RTVSPropertyOp52
 70
     0
102
RTVSPropertyOp53
 70
     1
102
RTVSPropertyOp54
 70
     1
102
RTVSPropertyOp55
 70
     1
102
RTVSPropertyOp56
 70
     1
102
RTVSPropertyOp57
 70
     1
102
RTVSPropertyOp58
 70
     1
102
RTVSPropertyOp59
 70
     1
102
RTVSPropertyOp60
 70
     1
102
RTVSPropertyOp61
 70
     1
102
RTVSPropertyOp62
 70
     1
  0
XRECORD
  5
D282
102
{ACAD_REACTORS
330
D281
102
}
330
D281
100
AcDbXrecord
280
     1
102
RTVSPost2010Prop28
280
     0
102
RTVSPost2010PropOp28
 70
     1
102
RTVSPost2010Prop29
280
     1
102
RTVSPost2010PropOp29
 70
     1
102
RTVSPost2010Prop30
280
     1
102
RTVSPost2010PropOp30
 70
     1
102
RTVSPost2010Prop31
280
     0
102
RTVSPost2010PropOp31
 70
     1
102
RTVSPost2010Prop32
280
     0
102
RTVSPost2010PropOp32
 70
     1
102
RTVSPost2010Prop33
280
     0
102
RTVSPost2010PropOp33
 70
     1
102
RTVSPost2010Prop34
280
     0
102
RTVSPost2010PropOp34
 70
     1
102
RTVSPost2010Prop35
280
     0
102
RTVSPost2010PropOp35
 70
     1
102
RTVSPost2010Prop36
280
     0
102
RTVSPost2010PropOp36
 70
     1
102
RTVSPost2010Prop37
 90
       50
102
RTVSPost2010PropOp37
 70
     1
102
RTVSPost2010Prop38
140
0.0
102
RTVSPost2010PropOp38
 70
     1
102
RTVSPost2010Prop39
140
1.0
102
RTVSPost2010PropOp39
 70
     1
102
RTVSPost2010Prop40
 90
        0
102
RTVSPost2010PropOp40
 70
     1
102
RTVSPost2010Prop41ColorIndex
 90
       18
102
RTVSPost2010Prop41ColorRGB
 90
        0
102
RTVSPost2010PropOp41
 70
     1
102
RTVSPost2010Prop42
 90
       50
102
RTVSPost2010PropOp42
 70
     1
102
RTVSPost2010Prop43
 90
        3
102
RTVSPost2010PropOp43
 70
     1
102
RTVSPost2010Prop44ColorIndex
 90
        5
102
RTVSPost2010Prop44ColorRGB
 90
      255
102
RTVSPost2010PropOp44
 70
     1
102
RTVSPost2010Prop45
280
     0
102
RTVSPost2010PropOp45
 70
     1
102
RTVSPost2010Prop46
 90
       50
102
RTVSPost2010PropOp46
 70
     1
102
RTVSPost2010Prop47
 90
       50
102
RTVSPost2010PropOp47
 70
     1
102
RTVSPost2010Prop48
 90
       50
102
RTVSPost2010PropOp48
 70
     1
102
RTVSPost2010Prop49
280
     0
102
RTVSPost2010PropOp49
 70
     1
102
RTVSPost2010Prop50
 90
       50
102
RTVSPost2010PropOp50
 70
     1
102
RTVSPost2010Prop51ColorIndex
 90
      256
102
RTVSPost2010Prop51ColorRGB
 90
-16777216
102
RTVSPost2010PropOp51
 70
     0
102
RTVSPost2010Prop52
140
1.0
102
RTVSPost2010PropOp52
 70
     0
102
RTVSPost2010Prop53
 90
        2
102
RTVSPost2010PropOp53
 70
     1
102
RTVSPost2010Prop54
  1
strokes_ogs.tif
102
RTVSPost2010PropOp54
 70
     1
102
RTVSPost2010Prop55
280
     0
102
RTVSPost2010PropOp55
 70
     1
102
RTVSPost2010Prop56
140
1.0
102
RTVSPost2010PropOp56
 70
     1
102
RTVSPost2010Prop57
140
1.0
102
RTVSPost2010PropOp57
 70
     1
102
RTVSPropertyOp0
 70
     1
102
RTVSPropertyOp1
 70
     1
102
RTVSPropertyOp2
 70
     1
102
RTVSPropertyOp3
 70
     1
102
RTVSPropertyOp4
 70
     1
102
RTVSPropertyOp5
 70
     1
102
RTVSPropertyOp6
 70
     1
102
RTVSPropertyOp7
 70
     1
102
RTVSPropertyOp8
 70
     1
102
RTVSPropertyOp9
 70
     1
102
RTVSPropertyOp10
 70
     1
102
RTVSPropertyOp11
 70
     1
102
RTVSPropertyOp12
 70
     1
102
RTVSPropertyOp13
 70
     1
102
RTVSPropertyOp14
 70
     1
102
RTVSPropertyOp15
 70
     1
102
RTVSPropertyOp16
 70
     1
102
RTVSPropertyOp17
 70
     1
102
RTVSPropertyOp18
 70
     1
102
RTVSPropertyOp19
 70
     1
102
RTVSPropertyOp20
 70
     1
102
RTVSPropertyOp21
 70
     1
102
RTVSPropertyOp22
 70
     1
102
RTVSPropertyOp23
 70
     1
102
RTVSPropertyOp24
 70
     1
102
RTVSPropertyOp25
 70
     1
102
RTVSPropertyOp26
 70
     1
102
RTVSPropertyOp27
 70
     1
102
RTVSPropertyOp28
 70
     1
102
RTVSPropertyOp29
 70
     1
102
RTVSPropertyOp30
 70
     1
102
RTVSPropertyOp31
 70
     1
102
RTVSPropertyOp32
 70
     1
102
RTVSPropertyOp33
 70
     1
102
RTVSPropertyOp34
 70
     1
102
RTVSPropertyOp35
 70
     1
102
RTVSPropertyOp36
 70
     1
102
RTVSPropertyOp37
 70
     1
102
RTVSPropertyOp38
 70
     1
102
RTVSPropertyOp39
 70
     1
102
RTVSPropertyOp40
 70
     1
102
RTVSPropertyOp41
 70
     1
102
RTVSPropertyOp42
 70
     1
102
RTVSPropertyOp43
 70
     1
102
RTVSPropertyOp44
 70
     1
102
RTVSPropertyOp45
 70
     1
102
RTVSPropertyOp46
 70
     1
102
RTVSPropertyOp47
 70
     1
102
RTVSPropertyOp48
 70
     1
102
RTVSPropertyOp49
 70
     1
102
RTVSPropertyOp50
 70
     1
102
RTVSPropertyOp51
 70
     0
102
RTVSPropertyOp52
 70
     0
102
RTVSPropertyOp53
 70
     1
102
RTVSPropertyOp54
 70
     1
102
RTVSPropertyOp55
 70
     1
102
RTVSPropertyOp56
 70
     1
102
RTVSPropertyOp57
 70
     1
102
RTVSPropertyOp58
 70
     1
102
RTVSPropertyOp59
 70
     1
102
RTVSPropertyOp60
 70
     1
102
RTVSPropertyOp61
 70
     1
102
RTVSPropertyOp62
 70
     1
  0
XRECORD
  5
D284
102
{ACAD_REACTORS
330
D283
102
}
330
D283
100
AcDbXrecord
280
     1
102
RTVSPost2010Prop28
280
     0
102
RTVSPost2010PropOp28
 70
     1
102
RTVSPost2010Prop29
280
     1
102
RTVSPost2010PropOp29
 70
     1
102
RTVSPost2010Prop30
280
     1
102
RTVSPost2010PropOp30
 70
     1
102
RTVSPost2010Prop31
280
     0
102
RTVSPost2010PropOp31
 70
     1
102
RTVSPost2010Prop32
280
     0
102
RTVSPost2010PropOp32
 70
     1
102
RTVSPost2010Prop33
280
     0
102
RTVSPost2010PropOp33
 70
     1
102
RTVSPost2010Prop34
280
     0
102
RTVSPost2010PropOp34
 70
     1
102
RTVSPost2010Prop35
280
     0
102
RTVSPost2010PropOp35
 70
     1
102
RTVSPost2010Prop36
280
     0
102
RTVSPost2010PropOp36
 70
     1
102
RTVSPost2010Prop37
 90
       50
102
RTVSPost2010PropOp37
 70
     1
102
RTVSPost2010Prop38
140
0.0
102
RTVSPost2010PropOp38
 70
     1
102
RTVSPost2010Prop39
140
1.0
102
RTVSPost2010PropOp39
 70
     1
102
RTVSPost2010Prop40
 90
        0
102
RTVSPost2010PropOp40
 70
     1
102
RTVSPost2010Prop41ColorIndex
 90
       18
102
RTVSPost2010Prop41ColorRGB
 90
        0
102
RTVSPost2010PropOp41
 70
     1
102
RTVSPost2010Prop42
 90
       50
102
RTVSPost2010PropOp42
 70
     1
102
RTVSPost2010Prop43
 90
        3
102
RTVSPost2010PropOp43
 70
     1
102
RTVSPost2010Prop44ColorIndex
 90
        5
102
RTVSPost2010Prop44ColorRGB
 90
      255
102
RTVSPost2010PropOp44
 70
     1
102
RTVSPost2010Prop45
280
     0
102
RTVSPost2010PropOp45
 70
     1
102
RTVSPost2010Prop46
 90
       50
102
RTVSPost2010PropOp46
 70
     1
102
RTVSPost2010Prop47
 90
       50
102
RTVSPost2010PropOp47
 70
     1
102
RTVSPost2010Prop48
 90
       50
102
RTVSPost2010PropOp48
 70
     1
102
RTVSPost2010Prop49
280
     0
102
RTVSPost2010PropOp49
 70
     1
102
RTVSPost2010Prop50
 90
       50
102
RTVSPost2010PropOp50
 70
     1
102
RTVSPost2010Prop51ColorIndex
 90
      256
102
RTVSPost2010Prop51ColorRGB
 90
-16777216
102
RTVSPost2010PropOp51
 70
     0
102
RTVSPost2010Prop52
140
1.0
102
RTVSPost2010PropOp52
 70
     0
102
RTVSPost2010Prop53
 90
        2
102
RTVSPost2010PropOp53
 70
     1
102
RTVSPost2010Prop54
  1
strokes_ogs.tif
102
RTVSPost2010PropOp54
 70
     1
102
RTVSPost2010Prop55
280
     0
102
RTVSPost2010PropOp55
 70
     1
102
RTVSPost2010Prop56
140
1.0
102
RTVSPost2010PropOp56
 70
     1
102
RTVSPost2010Prop57
140
1.0
102
RTVSPost2010PropOp57
 70
     1
102
RTVSPropertyOp0
 70
     1
102
RTVSPropertyOp1
 70
     1
102
RTVSPropertyOp2
 70
     1
102
RTVSPropertyOp3
 70
     1
102
RTVSPropertyOp4
 70
     1
102
RTVSPropertyOp5
 70
     1
102
RTVSPropertyOp6
 70
     1
102
RTVSPropertyOp7
 70
     1
102
RTVSPropertyOp8
 70
     1
102
RTVSPropertyOp9
 70
     1
102
RTVSPropertyOp10
 70
     1
102
RTVSPropertyOp11
 70
     1
102
RTVSPropertyOp12
 70
     1
102
RTVSPropertyOp13
 70
     1
102
RTVSPropertyOp14
 70
     1
102
RTVSPropertyOp15
 70
     1
102
RTVSPropertyOp16
 70
     1
102
RTVSPropertyOp17
 70
     1
102
RTVSPropertyOp18
 70
     1
102
RTVSPropertyOp19
 70
     1
102
RTVSPropertyOp20
 70
     1
102
RTVSPropertyOp21
 70
     1
102
RTVSPropertyOp22
 70
     1
102
RTVSPropertyOp23
 70
     1
102
RTVSPropertyOp24
 70
     1
102
RTVSPropertyOp25
 70
     1
102
RTVSPropertyOp26
 70
     1
102
RTVSPropertyOp27
 70
     1
102
RTVSPropertyOp28
 70
     1
102
RTVSPropertyOp29
 70
     1
102
RTVSPropertyOp30
 70
     1
102
RTVSPropertyOp31
 70
     1
102
RTVSPropertyOp32
 70
     1
102
RTVSPropertyOp33
 70
     1
102
RTVSPropertyOp34
 70
     1
102
RTVSPropertyOp35
 70
     1
102
RTVSPropertyOp36
 70
     1
102
RTVSPropertyOp37
 70
     1
102
RTVSPropertyOp38
 70
     1
102
RTVSPropertyOp39
 70
     1
102
RTVSPropertyOp40
 70
     1
102
RTVSPropertyOp41
 70
     1
102
RTVSPropertyOp42
 70
     1
102
RTVSPropertyOp43
 70
     1
102
RTVSPropertyOp44
 70
     1
102
RTVSPropertyOp45
 70
     1
102
RTVSPropertyOp46
 70
     1
102
RTVSPropertyOp47
 70
     1
102
RTVSPropertyOp48
 70
     1
102
RTVSPropertyOp49
 70
     1
102
RTVSPropertyOp50
 70
     1
102
RTVSPropertyOp51
 70
     0
102
RTVSPropertyOp52
 70
     0
102
RTVSPropertyOp53
 70
     1
102
RTVSPropertyOp54
 70
     1
102
RTVSPropertyOp55
 70
     1
102
RTVSPropertyOp56
 70
     1
102
RTVSPropertyOp57
 70
     1
102
RTVSPropertyOp58
 70
     1
102
RTVSPropertyOp59
 70
     1
102
RTVSPropertyOp60
 70
     1
102
RTVSPropertyOp61
 70
     1
102
RTVSPropertyOp62
 70
     1
  0
XRECORD
  5
D286
102
{ACAD_REACTORS
330
D285
102
}
330
D285
100
AcDbXrecord
280
     1
102
RTVSPost2010Prop28
280
     0
102
RTVSPost2010PropOp28
 70
     1
102
RTVSPost2010Prop29
280
     1
102
RTVSPost2010PropOp29
 70
     1
102
RTVSPost2010Prop30
280
     1
102
RTVSPost2010PropOp30
 70
     1
102
RTVSPost2010Prop31
280
     0
102
RTVSPost2010PropOp31
 70
     1
102
RTVSPost2010Prop32
280
     0
102
RTVSPost2010PropOp32
 70
     1
102
RTVSPost2010Prop33
280
     0
102
RTVSPost2010PropOp33
 70
     1
102
RTVSPost2010Prop34
280
     0
102
RTVSPost2010PropOp34
 70
     1
102
RTVSPost2010Prop35
280
     0
102
RTVSPost2010PropOp35
 70
     1
102
RTVSPost2010Prop36
280
     0
102
RTVSPost2010PropOp36
 70
     1
102
RTVSPost2010Prop37
 90
       50
102
RTVSPost2010PropOp37
 70
     1
102
RTVSPost2010Prop38
140
0.0
102
RTVSPost2010PropOp38
 70
     1
102
RTVSPost2010Prop39
140
1.0
102
RTVSPost2010PropOp39
 70
     1
102
RTVSPost2010Prop40
 90
        0
102
RTVSPost2010PropOp40
 70
     1
102
RTVSPost2010Prop41ColorIndex
 90
       18
102
RTVSPost2010Prop41ColorRGB
 90
        0
102
RTVSPost2010PropOp41
 70
     1
102
RTVSPost2010Prop42
 90
       50
102
RTVSPost2010PropOp42
 70
     1
102
RTVSPost2010Prop43
 90
        3
102
RTVSPost2010PropOp43
 70
     1
102
RTVSPost2010Prop44ColorIndex
 90
        5
102
RTVSPost2010Prop44ColorRGB
 90
      255
102
RTVSPost2010PropOp44
 70
     1
102
RTVSPost2010Prop45
280
     0
102
RTVSPost2010PropOp45
 70
     1
102
RTVSPost2010Prop46
 90
       50
102
RTVSPost2010PropOp46
 70
     1
102
RTVSPost2010Prop47
 90
       50
102
RTVSPost2010PropOp47
 70
     1
102
RTVSPost2010Prop48
 90
       50
102
RTVSPost2010PropOp48
 70
     1
102
RTVSPost2010Prop49
280
     0
102
RTVSPost2010PropOp49
 70
     1
102
RTVSPost2010Prop50
 90
       50
102
RTVSPost2010PropOp50
 70
     1
102
RTVSPost2010Prop51ColorIndex
 90
      256
102
RTVSPost2010Prop51ColorRGB
 90
-16777216
102
RTVSPost2010PropOp51
 70
     0
102
RTVSPost2010Prop52
140
1.0
102
RTVSPost2010PropOp52
 70
     0
102
RTVSPost2010Prop53
 90
        2
102
RTVSPost2010PropOp53
 70
     1
102
RTVSPost2010Prop54
  1
strokes_ogs.tif
102
RTVSPost2010PropOp54
 70
     1
102
RTVSPost2010Prop55
280
     0
102
RTVSPost2010PropOp55
 70
     1
102
RTVSPost2010Prop56
140
1.0
102
RTVSPost2010PropOp56
 70
     1
102
RTVSPost2010Prop57
140
1.0
102
RTVSPost2010PropOp57
 70
     1
102
RTVSPropertyOp0
 70
     1
102
RTVSPropertyOp1
 70
     1
102
RTVSPropertyOp2
 70
     1
102
RTVSPropertyOp3
 70
     1
102
RTVSPropertyOp4
 70
     1
102
RTVSPropertyOp5
 70
     1
102
RTVSPropertyOp6
 70
     1
102
RTVSPropertyOp7
 70
     1
102
RTVSPropertyOp8
 70
     1
102
RTVSPropertyOp9
 70
     1
102
RTVSPropertyOp10
 70
     1
102
RTVSPropertyOp11
 70
     1
102
RTVSPropertyOp12
 70
     1
102
RTVSPropertyOp13
 70
     1
102
RTVSPropertyOp14
 70
     1
102
RTVSPropertyOp15
 70
     1
102
RTVSPropertyOp16
 70
     1
102
RTVSPropertyOp17
 70
     1
102
RTVSPropertyOp18
 70
     1
102
RTVSPropertyOp19
 70
     1
102
RTVSPropertyOp20
 70
     1
102
RTVSPropertyOp21
 70
     1
102
RTVSPropertyOp22
 70
     1
102
RTVSPropertyOp23
 70
     1
102
RTVSPropertyOp24
 70
     1
102
RTVSPropertyOp25
 70
     1
102
RTVSPropertyOp26
 70
     1
102
RTVSPropertyOp27
 70
     1
102
RTVSPropertyOp28
 70
     1
102
RTVSPropertyOp29
 70
     1
102
RTVSPropertyOp30
 70
     1
102
RTVSPropertyOp31
 70
     1
102
RTVSPropertyOp32
 70
     1
102
RTVSPropertyOp33
 70
     1
102
RTVSPropertyOp34
 70
     1
102
RTVSPropertyOp35
 70
     1
102
RTVSPropertyOp36
 70
     1
102
RTVSPropertyOp37
 70
     1
102
RTVSPropertyOp38
 70
     1
102
RTVSPropertyOp39
 70
     1
102
RTVSPropertyOp40
 70
     1
102
RTVSPropertyOp41
 70
     1
102
RTVSPropertyOp42
 70
     1
102
RTVSPropertyOp43
 70
     1
102
RTVSPropertyOp44
 70
     1
102
RTVSPropertyOp45
 70
     1
102
RTVSPropertyOp46
 70
     1
102
RTVSPropertyOp47
 70
     1
102
RTVSPropertyOp48
 70
     1
102
RTVSPropertyOp49
 70
     1
102
RTVSPropertyOp50
 70
     1
102
RTVSPropertyOp51
 70
     0
102
RTVSPropertyOp52
 70
     0
102
RTVSPropertyOp53
 70
     1
102
RTVSPropertyOp54
 70
     1
102
RTVSPropertyOp55
 70
     1
102
RTVSPropertyOp56
 70
     1
102
RTVSPropertyOp57
 70
     1
102
RTVSPropertyOp58
 70
     1
102
RTVSPropertyOp59
 70
     1
102
RTVSPropertyOp60
 70
     1
102
RTVSPropertyOp61
 70
     1
102
RTVSPropertyOp62
 70
     1
  0
XRECORD
  5
D28E
102
{ACAD_REACTORS
330
D28D
102
}
330
D28D
100
AcDbXrecord
280
     1
102
RTVSPost2010Prop28
280
     0
102
RTVSPost2010PropOp28
 70
     1
102
RTVSPost2010Prop29
280
     1
102
RTVSPost2010PropOp29
 70
     1
102
RTVSPost2010Prop30
280
     1
102
RTVSPost2010PropOp30
 70
     1
102
RTVSPost2010Prop31
280
     0
102
RTVSPost2010PropOp31
 70
     1
102
RTVSPost2010Prop32
280
     0
102
RTVSPost2010PropOp32
 70
     1
102
RTVSPost2010Prop33
280
     0
102
RTVSPost2010PropOp33
 70
     1
102
RTVSPost2010Prop34
280
     0
102
RTVSPost2010PropOp34
 70
     1
102
RTVSPost2010Prop35
280
     0
102
RTVSPost2010PropOp35
 70
     1
102
RTVSPost2010Prop36
280
     0
102
RTVSPost2010PropOp36
 70
     1
102
RTVSPost2010Prop37
 90
       50
102
RTVSPost2010PropOp37
 70
     1
102
RTVSPost2010Prop38
140
0.0
102
RTVSPost2010PropOp38
 70
     1
102
RTVSPost2010Prop39
140
1.0
102
RTVSPost2010PropOp39
 70
     1
102
RTVSPost2010Prop40
 90
        0
102
RTVSPost2010PropOp40
 70
     1
102
RTVSPost2010Prop41ColorIndex
 90
       18
102
RTVSPost2010Prop41ColorRGB
 90
        0
102
RTVSPost2010PropOp41
 70
     1
102
RTVSPost2010Prop42
 90
       50
102
RTVSPost2010PropOp42
 70
     1
102
RTVSPost2010Prop43
 90
        3
102
RTVSPost2010PropOp43
 70
     1
102
RTVSPost2010Prop44ColorIndex
 90
        5
102
RTVSPost2010Prop44ColorRGB
 90
      255
102
RTVSPost2010PropOp44
 70
     1
102
RTVSPost2010Prop45
280
     0
102
RTVSPost2010PropOp45
 70
     1
102
RTVSPost2010Prop46
 90
       50
102
RTVSPost2010PropOp46
 70
     1
102
RTVSPost2010Prop47
 90
       50
102
RTVSPost2010PropOp47
 70
     1
102
RTVSPost2010Prop48
 90
       50
102
RTVSPost2010PropOp48
 70
     1
102
RTVSPost2010Prop49
280
     0
102
RTVSPost2010PropOp49
 70
     1
102
RTVSPost2010Prop50
 90
       50
102
RTVSPost2010PropOp50
 70
     1
102
RTVSPost2010Prop51ColorIndex
 90
      256
102
RTVSPost2010Prop51ColorRGB
 90
-16777216
102
RTVSPost2010PropOp51
 70
     0
102
RTVSPost2010Prop52
140
1.0
102
RTVSPost2010PropOp52
 70
     0
102
RTVSPost2010Prop53
 90
        2
102
RTVSPost2010PropOp53
 70
     1
102
RTVSPost2010Prop54
  1
strokes_ogs.tif
102
RTVSPost2010PropOp54
 70
     1
102
RTVSPost2010Prop55
280
     0
102
RTVSPost2010PropOp55
 70
     1
102
RTVSPost2010Prop56
140
1.0
102
RTVSPost2010PropOp56
 70
     1
102
RTVSPost2010Prop57
140
1.0
102
RTVSPost2010PropOp57
 70
     1
102
RTVSPropertyOp0
 70
     1
102
RTVSPropertyOp1
 70
     1
102
RTVSPropertyOp2
 70
     1
102
RTVSPropertyOp3
 70
     1
102
RTVSPropertyOp4
 70
     1
102
RTVSPropertyOp5
 70
     1
102
RTVSPropertyOp6
 70
     1
102
RTVSPropertyOp7
 70
     1
102
RTVSPropertyOp8
 70
     1
102
RTVSPropertyOp9
 70
     1
102
RTVSPropertyOp10
 70
     1
102
RTVSPropertyOp11
 70
     1
102
RTVSPropertyOp12
 70
     1
102
RTVSPropertyOp13
 70
     1
102
RTVSPropertyOp14
 70
     1
102
RTVSPropertyOp15
 70
     1
102
RTVSPropertyOp16
 70
     1
102
RTVSPropertyOp17
 70
     1
102
RTVSPropertyOp18
 70
     1
102
RTVSPropertyOp19
 70
     1
102
RTVSPropertyOp20
 70
     1
102
RTVSPropertyOp21
 70
     1
102
RTVSPropertyOp22
 70
     1
102
RTVSPropertyOp23
 70
     1
102
RTVSPropertyOp24
 70
     1
102
RTVSPropertyOp25
 70
     1
102
RTVSPropertyOp26
 70
     1
102
RTVSPropertyOp27
 70
     1
102
RTVSPropertyOp28
 70
     1
102
RTVSPropertyOp29
 70
     1
102
RTVSPropertyOp30
 70
     1
102
RTVSPropertyOp31
 70
     1
102
RTVSPropertyOp32
 70
     1
102
RTVSPropertyOp33
 70
     1
102
RTVSPropertyOp34
 70
     1
102
RTVSPropertyOp35
 70
     1
102
RTVSPropertyOp36
 70
     1
102
RTVSPropertyOp37
 70
     1
102
RTVSPropertyOp38
 70
     1
102
RTVSPropertyOp39
 70
     1
102
RTVSPropertyOp40
 70
     1
102
RTVSPropertyOp41
 70
     1
102
RTVSPropertyOp42
 70
     1
102
RTVSPropertyOp43
 70
     1
102
RTVSPropertyOp44
 70
     1
102
RTVSPropertyOp45
 70
     1
102
RTVSPropertyOp46
 70
     1
102
RTVSPropertyOp47
 70
     1
102
RTVSPropertyOp48
 70
     1
102
RTVSPropertyOp49
 70
     1
102
RTVSPropertyOp50
 70
     1
102
RTVSPropertyOp51
 70
     0
102
RTVSPropertyOp52
 70
     0
102
RTVSPropertyOp53
 70
     1
102
RTVSPropertyOp54
 70
     1
102
RTVSPropertyOp55
 70
     1
102
RTVSPropertyOp56
 70
     1
102
RTVSPropertyOp57
 70
     1
102
RTVSPropertyOp58
 70
     1
102
RTVSPropertyOp59
 70
     1
102
RTVSPropertyOp60
 70
     1
102
RTVSPropertyOp61
 70
     1
102
RTVSPropertyOp62
 70
     1
  0
XRECORD
  5
D2AA
102
{ACAD_REACTORS
330
D2A9
102
}
330
D2A9
100
AcDbXrecord
280
     1
102
RTVSPost2010Prop28
280
     0
102
RTVSPost2010PropOp28
 70
     1
102
RTVSPost2010Prop29
280
     1
102
RTVSPost2010PropOp29
 70
     1
102
RTVSPost2010Prop30
280
     1
102
RTVSPost2010PropOp30
 70
     1
102
RTVSPost2010Prop31
280
     0
102
RTVSPost2010PropOp31
 70
     1
102
RTVSPost2010Prop32
280
     0
102
RTVSPost2010PropOp32
 70
     1
102
RTVSPost2010Prop33
280
     0
102
RTVSPost2010PropOp33
 70
     1
102
RTVSPost2010Prop34
280
     0
102
RTVSPost2010PropOp34
 70
     1
102
RTVSPost2010Prop35
280
     0
102
RTVSPost2010PropOp35
 70
     1
102
RTVSPost2010Prop36
280
     0
102
RTVSPost2010PropOp36
 70
     1
102
RTVSPost2010Prop37
 90
       50
102
RTVSPost2010PropOp37
 70
     0
102
RTVSPost2010Prop38
140
0.0
102
RTVSPost2010PropOp38
 70
     0
102
RTVSPost2010Prop39
140
1.0
102
RTVSPost2010PropOp39
 70
     0
102
RTVSPost2010Prop40
 90
        0
102
RTVSPost2010PropOp40
 70
     0
102
RTVSPost2010Prop41ColorIndex
 90
       18
102
RTVSPost2010Prop41ColorRGB
 90
        0
102
RTVSPost2010PropOp41
 70
     0
102
RTVSPost2010Prop42
 90
       50
102
RTVSPost2010PropOp42
 70
     0
102
RTVSPost2010Prop43
 90
        3
102
RTVSPost2010PropOp43
 70
     0
102
RTVSPost2010Prop44ColorIndex
 90
        5
102
RTVSPost2010Prop44ColorRGB
 90
      255
102
RTVSPost2010PropOp44
 70
     0
102
RTVSPost2010Prop45
280
     0
102
RTVSPost2010PropOp45
 70
     1
102
RTVSPost2010Prop46
 90
       50
102
RTVSPost2010PropOp46
 70
     0
102
RTVSPost2010Prop47
 90
       50
102
RTVSPost2010PropOp47
 70
     0
102
RTVSPost2010Prop48
 90
       50
102
RTVSPost2010PropOp48
 70
     0
102
RTVSPost2010Prop49
280
     0
102
RTVSPost2010PropOp49
 70
     1
102
RTVSPost2010Prop50
 90
       50
102
RTVSPost2010PropOp50
 70
     0
102
RTVSPost2010Prop51ColorIndex
 90
      256
102
RTVSPost2010Prop51ColorRGB
 90
-16777216
102
RTVSPost2010PropOp51
 70
     0
102
RTVSPost2010Prop52
140
1.0
102
RTVSPost2010PropOp52
 70
     0
102
RTVSPost2010Prop53
 90
        2
102
RTVSPost2010PropOp53
 70
     0
102
RTVSPost2010Prop54
  1
strokes_ogs.tif
102
RTVSPost2010PropOp54
 70
     0
102
RTVSPost2010Prop55
280
     0
102
RTVSPost2010PropOp55
 70
     1
102
RTVSPost2010Prop56
140
1.0
102
RTVSPost2010PropOp56
 70
     0
102
RTVSPost2010Prop57
140
1.0
102
RTVSPost2010PropOp57
 70
     0
102
RTVSPropertyOp0
 70
     0
102
RTVSPropertyOp1
 70
     0
102
RTVSPropertyOp2
 70
     0
102
RTVSPropertyOp3
 70
     0
102
RTVSPropertyOp4
 70
     0
102
RTVSPropertyOp5
 70
     0
102
RTVSPropertyOp6
 70
     0
102
RTVSPropertyOp7
 70
     0
102
RTVSPropertyOp8
 70
     0
102
RTVSPropertyOp9
 70
     0
102
RTVSPropertyOp10
 70
     0
102
RTVSPropertyOp11
 70
     0
102
RTVSPropertyOp12
 70
     0
102
RTVSPropertyOp13
 70
     0
102
RTVSPropertyOp14
 70
     2
102
RTVSPropertyOp15
 70
     0
102
RTVSPropertyOp16
 70
     0
102
RTVSPropertyOp17
 70
     0
102
RTVSPropertyOp18
 70
     0
102
RTVSPropertyOp19
 70
     0
102
RTVSPropertyOp20
 70
     0
102
RTVSPropertyOp21
 70
     0
102
RTVSPropertyOp22
 70
     0
102
RTVSPropertyOp23
 70
     0
102
RTVSPropertyOp24
 70
     0
102
RTVSPropertyOp25
 70
     0
102
RTVSPropertyOp26
 70
     0
102
RTVSPropertyOp27
 70
     0
102
RTVSPropertyOp28
 70
     1
102
RTVSPropertyOp29
 70
     1
102
RTVSPropertyOp30
 70
     1
102
RTVSPropertyOp31
 70
     1
102
RTVSPropertyOp32
 70
     1
102
RTVSPropertyOp33
 70
     1
102
RTVSPropertyOp34
 70
     1
102
RTVSPropertyOp35
 70
     1
102
RTVSPropertyOp36
 70
     1
102
RTVSPropertyOp37
 70
     0
102
RTVSPropertyOp38
 70
     0
102
RTVSPropertyOp39
 70
     0
102
RTVSPropertyOp40
 70
     0
102
RTVSPropertyOp41
 70
     0
102
RTVSPropertyOp42
 70
     0
102
RTVSPropertyOp43
 70
     0
102
RTVSPropertyOp44
 70
     0
102
RTVSPropertyOp45
 70
     1
102
RTVSPropertyOp46
 70
     0
102
RTVSPropertyOp47
 70
     0
102
RTVSPropertyOp48
 70
     0
102
RTVSPropertyOp49
 70
     1
102
RTVSPropertyOp50
 70
     0
102
RTVSPropertyOp51
 70
     0
102
RTVSPropertyOp52
 70
     0
102
RTVSPropertyOp53
 70
     0
102
RTVSPropertyOp54
 70
     0
102
RTVSPropertyOp55
 70
     1
102
RTVSPropertyOp56
 70
     0
102
RTVSPropertyOp57
 70
     0
102
RTVSPropertyOp58
 70
     0
102
RTVSPropertyOp59
 70
     0
102
RTVSPropertyOp60
 70
     0
102
RTVSPropertyOp61
 70
     0
102
RTVSPropertyOp62
 70
     0
  0
XRECORD
  5
D29A
102
{ACAD_REACTORS
330
D299
102
}
330
D299
100
AcDbXrecord
280
     1
102
RTVSPost2010Prop28
280
     0
102
RTVSPost2010PropOp28
 70
     1
102
RTVSPost2010Prop29
280
     1
102
RTVSPost2010PropOp29
 70
     1
102
RTVSPost2010Prop30
280
     1
102
RTVSPost2010PropOp30
 70
     1
102
RTVSPost2010Prop31
280
     0
102
RTVSPost2010PropOp31
 70
     1
102
RTVSPost2010Prop32
280
     0
102
RTVSPost2010PropOp32
 70
     1
102
RTVSPost2010Prop33
280
     0
102
RTVSPost2010PropOp33
 70
     1
102
RTVSPost2010Prop34
280
     0
102
RTVSPost2010PropOp34
 70
     1
102
RTVSPost2010Prop35
280
     0
102
RTVSPost2010PropOp35
 70
     1
102
RTVSPost2010Prop36
280
     0
102
RTVSPost2010PropOp36
 70
     1
102
RTVSPost2010Prop37
 90
       50
102
RTVSPost2010PropOp37
 70
     1
102
RTVSPost2010Prop38
140
0.0
102
RTVSPost2010PropOp38
 70
     1
102
RTVSPost2010Prop39
140
1.0
102
RTVSPost2010PropOp39
 70
     1
102
RTVSPost2010Prop40
 90
        0
102
RTVSPost2010PropOp40
 70
     1
102
RTVSPost2010Prop41ColorIndex
 90
       18
102
RTVSPost2010Prop41ColorRGB
 90
        0
102
RTVSPost2010PropOp41
 70
     1
102
RTVSPost2010Prop42
 90
       50
102
RTVSPost2010PropOp42
 70
     1
102
RTVSPost2010Prop43
 90
        3
102
RTVSPost2010PropOp43
 70
     1
102
RTVSPost2010Prop44ColorIndex
 90
        5
102
RTVSPost2010Prop44ColorRGB
 90
      255
102
RTVSPost2010PropOp44
 70
     1
102
RTVSPost2010Prop45
280
     0
102
RTVSPost2010PropOp45
 70
     1
102
RTVSPost2010Prop46
 90
       50
102
RTVSPost2010PropOp46
 70
     1
102
RTVSPost2010Prop47
 90
       50
102
RTVSPost2010PropOp47
 70
     1
102
RTVSPost2010Prop48
 90
       50
102
RTVSPost2010PropOp48
 70
     1
102
RTVSPost2010Prop49
280
     0
102
RTVSPost2010PropOp49
 70
     1
102
RTVSPost2010Prop50
 90
       50
102
RTVSPost2010PropOp50
 70
     1
102
RTVSPost2010Prop51ColorIndex
 90
      256
102
RTVSPost2010Prop51ColorRGB
 90
-16777216
102
RTVSPost2010PropOp51
 70
     0
102
RTVSPost2010Prop52
140
1.0
102
RTVSPost2010PropOp52
 70
     0
102
RTVSPost2010Prop53
 90
        2
102
RTVSPost2010PropOp53
 70
     1
102
RTVSPost2010Prop54
  1
strokes_ogs.tif
102
RTVSPost2010PropOp54
 70
     1
102
RTVSPost2010Prop55
280
     0
102
RTVSPost2010PropOp55
 70
     1
102
RTVSPost2010Prop56
140
1.0
102
RTVSPost2010PropOp56
 70
     1
102
RTVSPost2010Prop57
140
1.0
102
RTVSPost2010PropOp57
 70
     1
102
RTVSPropertyOp0
 70
     1
102
RTVSPropertyOp1
 70
     1
102
RTVSPropertyOp2
 70
     1
102
RTVSPropertyOp3
 70
     1
102
RTVSPropertyOp4
 70
     1
102
RTVSPropertyOp5
 70
     1
102
RTVSPropertyOp6
 70
     1
102
RTVSPropertyOp7
 70
     1
102
RTVSPropertyOp8
 70
     1
102
RTVSPropertyOp9
 70
     1
102
RTVSPropertyOp10
 70
     1
102
RTVSPropertyOp11
 70
     1
102
RTVSPropertyOp12
 70
     1
102
RTVSPropertyOp13
 70
     1
102
RTVSPropertyOp14
 70
     1
102
RTVSPropertyOp15
 70
     1
102
RTVSPropertyOp16
 70
     1
102
RTVSPropertyOp17
 70
     1
102
RTVSPropertyOp18
 70
     1
102
RTVSPropertyOp19
 70
     1
102
RTVSPropertyOp20
 70
     1
102
RTVSPropertyOp21
 70
     1
102
RTVSPropertyOp22
 70
     1
102
RTVSPropertyOp23
 70
     1
102
RTVSPropertyOp24
 70
     1
102
RTVSPropertyOp25
 70
     1
102
RTVSPropertyOp26
 70
     1
102
RTVSPropertyOp27
 70
     1
102
RTVSPropertyOp28
 70
     1
102
RTVSPropertyOp29
 70
     1
102
RTVSPropertyOp30
 70
     1
102
RTVSPropertyOp31
 70
     1
102
RTVSPropertyOp32
 70
     1
102
RTVSPropertyOp33
 70
     1
102
RTVSPropertyOp34
 70
     1
102
RTVSPropertyOp35
 70
     1
102
RTVSPropertyOp36
 70
     1
102
RTVSPropertyOp37
 70
     1
102
RTVSPropertyOp38
 70
     1
102
RTVSPropertyOp39
 70
     1
102
RTVSPropertyOp40
 70
     1
102
RTVSPropertyOp41
 70
     1
102
RTVSPropertyOp42
 70
     1
102
RTVSPropertyOp43
 70
     1
102
RTVSPropertyOp44
 70
     1
102
RTVSPropertyOp45
 70
     1
102
RTVSPropertyOp46
 70
     1
102
RTVSPropertyOp47
 70
     1
102
RTVSPropertyOp48
 70
     1
102
RTVSPropertyOp49
 70
     1
102
RTVSPropertyOp50
 70
     1
102
RTVSPropertyOp51
 70
     0
102
RTVSPropertyOp52
 70
     0
102
RTVSPropertyOp53
 70
     1
102
RTVSPropertyOp54
 70
     1
102
RTVSPropertyOp55
 70
     1
102
RTVSPropertyOp56
 70
     1
102
RTVSPropertyOp57
 70
     1
102
RTVSPropertyOp58
 70
     1
102
RTVSPropertyOp59
 70
     1
102
RTVSPropertyOp60
 70
     1
102
RTVSPropertyOp61
 70
     1
102
RTVSPropertyOp62
 70
     1
  0
XRECORD
  5
D2AC
102
{ACAD_REACTORS
330
D2AB
102
}
330
D2AB
100
AcDbXrecord
280
     1
102
RTVSPost2010Prop28
280
     0
102
RTVSPost2010PropOp28
 70
     1
102
RTVSPost2010Prop29
280
     1
102
RTVSPost2010PropOp29
 70
     1
102
RTVSPost2010Prop30
280
     1
102
RTVSPost2010PropOp30
 70
     1
102
RTVSPost2010Prop31
280
     0
102
RTVSPost2010PropOp31
 70
     1
102
RTVSPost2010Prop32
280
     0
102
RTVSPost2010PropOp32
 70
     1
102
RTVSPost2010Prop33
280
     0
102
RTVSPost2010PropOp33
 70
     1
102
RTVSPost2010Prop34
280
     0
102
RTVSPost2010PropOp34
 70
     1
102
RTVSPost2010Prop35
280
     0
102
RTVSPost2010PropOp35
 70
     1
102
RTVSPost2010Prop36
280
     0
102
RTVSPost2010PropOp36
 70
     1
102
RTVSPost2010Prop37
 90
       50
102
RTVSPost2010PropOp37
 70
     0
102
RTVSPost2010Prop38
140
0.0
102
RTVSPost2010PropOp38
 70
     0
102
RTVSPost2010Prop39
140
1.0
102
RTVSPost2010PropOp39
 70
     0
102
RTVSPost2010Prop40
 90
        0
102
RTVSPost2010PropOp40
 70
     0
102
RTVSPost2010Prop41ColorIndex
 90
       18
102
RTVSPost2010Prop41ColorRGB
 90
        0
102
RTVSPost2010PropOp41
 70
     0
102
RTVSPost2010Prop42
 90
       50
102
RTVSPost2010PropOp42
 70
     0
102
RTVSPost2010Prop43
 90
        3
102
RTVSPost2010PropOp43
 70
     0
102
RTVSPost2010Prop44ColorIndex
 90
        5
102
RTVSPost2010Prop44ColorRGB
 90
      255
102
RTVSPost2010PropOp44
 70
     0
102
RTVSPost2010Prop45
280
     0
102
RTVSPost2010PropOp45
 70
     1
102
RTVSPost2010Prop46
 90
       50
102
RTVSPost2010PropOp46
 70
     0
102
RTVSPost2010Prop47
 90
       50
102
RTVSPost2010PropOp47
 70
     0
102
RTVSPost2010Prop48
 90
       50
102
RTVSPost2010PropOp48
 70
     0
102
RTVSPost2010Prop49
280
     0
102
RTVSPost2010PropOp49
 70
     1
102
RTVSPost2010Prop50
 90
       50
102
RTVSPost2010PropOp50
 70
     0
102
RTVSPost2010Prop51ColorIndex
 90
      256
102
RTVSPost2010Prop51ColorRGB
 90
-16777216
102
RTVSPost2010PropOp51
 70
     0
102
RTVSPost2010Prop52
140
1.0
102
RTVSPost2010PropOp52
 70
     0
102
RTVSPost2010Prop53
 90
        2
102
RTVSPost2010PropOp53
 70
     0
102
RTVSPost2010Prop54
  1
strokes_ogs.tif
102
RTVSPost2010PropOp54
 70
     0
102
RTVSPost2010Prop55
280
     0
102
RTVSPost2010PropOp55
 70
     1
102
RTVSPost2010Prop56
140
1.0
102
RTVSPost2010PropOp56
 70
     0
102
RTVSPost2010Prop57
140
1.0
102
RTVSPost2010PropOp57
 70
     0
102
RTVSPropertyOp0
 70
     0
102
RTVSPropertyOp1
 70
     0
102
RTVSPropertyOp2
 70
     0
102
RTVSPropertyOp3
 70
     0
102
RTVSPropertyOp4
 70
     0
102
RTVSPropertyOp5
 70
     0
102
RTVSPropertyOp6
 70
     0
102
RTVSPropertyOp7
 70
     0
102
RTVSPropertyOp8
 70
     0
102
RTVSPropertyOp9
 70
     0
102
RTVSPropertyOp10
 70
     0
102
RTVSPropertyOp11
 70
     0
102
RTVSPropertyOp12
 70
     0
102
RTVSPropertyOp13
 70
     0
102
RTVSPropertyOp14
 70
     2
102
RTVSPropertyOp15
 70
     0
102
RTVSPropertyOp16
 70
     0
102
RTVSPropertyOp17
 70
     0
102
RTVSPropertyOp18
 70
     0
102
RTVSPropertyOp19
 70
     0
102
RTVSPropertyOp20
 70
     0
102
RTVSPropertyOp21
 70
     0
102
RTVSPropertyOp22
 70
     0
102
RTVSPropertyOp23
 70
     0
102
RTVSPropertyOp24
 70
     0
102
RTVSPropertyOp25
 70
     0
102
RTVSPropertyOp26
 70
     0
102
RTVSPropertyOp27
 70
     0
102
RTVSPropertyOp28
 70
     1
102
RTVSPropertyOp29
 70
     1
102
RTVSPropertyOp30
 70
     1
102
RTVSPropertyOp31
 70
     1
102
RTVSPropertyOp32
 70
     1
102
RTVSPropertyOp33
 70
     1
102
RTVSPropertyOp34
 70
     1
102
RTVSPropertyOp35
 70
     1
102
RTVSPropertyOp36
 70
     1
102
RTVSPropertyOp37
 70
     0
102
RTVSPropertyOp38
 70
     0
102
RTVSPropertyOp39
 70
     0
102
RTVSPropertyOp40
 70
     0
102
RTVSPropertyOp41
 70
     0
102
RTVSPropertyOp42
 70
     0
102
RTVSPropertyOp43
 70
     0
102
RTVSPropertyOp44
 70
     0
102
RTVSPropertyOp45
 70
     1
102
RTVSPropertyOp46
 70
     0
102
RTVSPropertyOp47
 70
     0
102
RTVSPropertyOp48
 70
     0
102
RTVSPropertyOp49
 70
     1
102
RTVSPropertyOp50
 70
     0
102
RTVSPropertyOp51
 70
     0
102
RTVSPropertyOp52
 70
     0
102
RTVSPropertyOp53
 70
     0
102
RTVSPropertyOp54
 70
     0
102
RTVSPropertyOp55
 70
     1
102
RTVSPropertyOp56
 70
     0
102
RTVSPropertyOp57
 70
     0
102
RTVSPropertyOp58
 70
     0
102
RTVSPropertyOp59
 70
     0
102
RTVSPropertyOp60
 70
     0
102
RTVSPropertyOp61
 70
     0
102
RTVSPropertyOp62
 70
     0
  0
XRECORD
  5
D292
102
{ACAD_REACTORS
330
D291
102
}
330
D291
100
AcDbXrecord
280
     1
102
RTVSPost2010Prop28
280
     0
102
RTVSPost2010PropOp28
 70
     1
102
RTVSPost2010Prop29
280
     1
102
RTVSPost2010PropOp29
 70
     1
102
RTVSPost2010Prop30
280
     1
102
RTVSPost2010PropOp30
 70
     1
102
RTVSPost2010Prop31
280
     0
102
RTVSPost2010PropOp31
 70
     1
102
RTVSPost2010Prop32
280
     0
102
RTVSPost2010PropOp32
 70
     1
102
RTVSPost2010Prop33
280
     0
102
RTVSPost2010PropOp33
 70
     1
102
RTVSPost2010Prop34
280
     0
102
RTVSPost2010PropOp34
 70
     1
102
RTVSPost2010Prop35
280
     0
102
RTVSPost2010PropOp35
 70
     1
102
RTVSPost2010Prop36
280
     0
102
RTVSPost2010PropOp36
 70
     1
102
RTVSPost2010Prop37
 90
       50
102
RTVSPost2010PropOp37
 70
     1
102
RTVSPost2010Prop38
140
0.0
102
RTVSPost2010PropOp38
 70
     1
102
RTVSPost2010Prop39
140
1.0
102
RTVSPost2010PropOp39
 70
     1
102
RTVSPost2010Prop40
 90
        0
102
RTVSPost2010PropOp40
 70
     1
102
RTVSPost2010Prop41ColorIndex
 90
       18
102
RTVSPost2010Prop41ColorRGB
 90
        0
102
RTVSPost2010PropOp41
 70
     1
102
RTVSPost2010Prop42
 90
       50
102
RTVSPost2010PropOp42
 70
     1
102
RTVSPost2010Prop43
 90
        3
102
RTVSPost2010PropOp43
 70
     1
102
RTVSPost2010Prop44ColorIndex
 90
        5
102
RTVSPost2010Prop44ColorRGB
 90
      255
102
RTVSPost2010PropOp44
 70
     1
102
RTVSPost2010Prop45
280
     0
102
RTVSPost2010PropOp45
 70
     1
102
RTVSPost2010Prop46
 90
       50
102
RTVSPost2010PropOp46
 70
     1
102
RTVSPost2010Prop47
 90
       50
102
RTVSPost2010PropOp47
 70
     1
102
RTVSPost2010Prop48
 90
       50
102
RTVSPost2010PropOp48
 70
     1
102
RTVSPost2010Prop49
280
     0
102
RTVSPost2010PropOp49
 70
     1
102
RTVSPost2010Prop50
 90
       50
102
RTVSPost2010PropOp50
 70
     1
102
RTVSPost2010Prop51ColorIndex
 90
      256
102
RTVSPost2010Prop51ColorRGB
 90
-16777216
102
RTVSPost2010PropOp51
 70
     0
102
RTVSPost2010Prop52
140
1.0
102
RTVSPost2010PropOp52
 70
     0
102
RTVSPost2010Prop53
 90
        2
102
RTVSPost2010PropOp53
 70
     1
102
RTVSPost2010Prop54
  1
strokes_ogs.tif
102
RTVSPost2010PropOp54
 70
     1
102
RTVSPost2010Prop55
280
     0
102
RTVSPost2010PropOp55
 70
     1
102
RTVSPost2010Prop56
140
1.0
102
RTVSPost2010PropOp56
 70
     1
102
RTVSPost2010Prop57
140
1.0
102
RTVSPost2010PropOp57
 70
     1
102
RTVSPropertyOp0
 70
     1
102
RTVSPropertyOp1
 70
     1
102
RTVSPropertyOp2
 70
     1
102
RTVSPropertyOp3
 70
     1
102
RTVSPropertyOp4
 70
     1
102
RTVSPropertyOp5
 70
     1
102
RTVSPropertyOp6
 70
     1
102
RTVSPropertyOp7
 70
     1
102
RTVSPropertyOp8
 70
     1
102
RTVSPropertyOp9
 70
     1
102
RTVSPropertyOp10
 70
     1
102
RTVSPropertyOp11
 70
     1
102
RTVSPropertyOp12
 70
     1
102
RTVSPropertyOp13
 70
     1
102
RTVSPropertyOp14
 70
     1
102
RTVSPropertyOp15
 70
     1
102
RTVSPropertyOp16
 70
     1
102
RTVSPropertyOp17
 70
     1
102
RTVSPropertyOp18
 70
     1
102
RTVSPropertyOp19
 70
     1
102
RTVSPropertyOp20
 70
     1
102
RTVSPropertyOp21
 70
     1
102
RTVSPropertyOp22
 70
     1
102
RTVSPropertyOp23
 70
     1
102
RTVSPropertyOp24
 70
     1
102
RTVSPropertyOp25
 70
     1
102
RTVSPropertyOp26
 70
     1
102
RTVSPropertyOp27
 70
     1
102
RTVSPropertyOp28
 70
     1
102
RTVSPropertyOp29
 70
     1
102
RTVSPropertyOp30
 70
     1
102
RTVSPropertyOp31
 70
     1
102
RTVSPropertyOp32
 70
     1
102
RTVSPropertyOp33
 70
     1
102
RTVSPropertyOp34
 70
     1
102
RTVSPropertyOp35
 70
     1
102
RTVSPropertyOp36
 70
     1
102
RTVSPropertyOp37
 70
     1
102
RTVSPropertyOp38
 70
     1
102
RTVSPropertyOp39
 70
     1
102
RTVSPropertyOp40
 70
     1
102
RTVSPropertyOp41
 70
     1
102
RTVSPropertyOp42
 70
     1
102
RTVSPropertyOp43
 70
     1
102
RTVSPropertyOp44
 70
     1
102
RTVSPropertyOp45
 70
     1
102
RTVSPropertyOp46
 70
     1
102
RTVSPropertyOp47
 70
     1
102
RTVSPropertyOp48
 70
     1
102
RTVSPropertyOp49
 70
     1
102
RTVSPropertyOp50
 70
     1
102
RTVSPropertyOp51
 70
     0
102
RTVSPropertyOp52
 70
     0
102
RTVSPropertyOp53
 70
     1
102
RTVSPropertyOp54
 70
     1
102
RTVSPropertyOp55
 70
     1
102
RTVSPropertyOp56
 70
     1
102
RTVSPropertyOp57
 70
     1
102
RTVSPropertyOp58
 70
     1
102
RTVSPropertyOp59
 70
     1
102
RTVSPropertyOp60
 70
     1
102
RTVSPropertyOp61
 70
     1
102
RTVSPropertyOp62
 70
     1
  0
XRECORD
  5
D2A8
102
{ACAD_REACTORS
330
D2A7
102
}
330
D2A7
100
AcDbXrecord
280
     1
102
RTVSPost2010Prop28
280
     0
102
RTVSPost2010PropOp28
 70
     1
102
RTVSPost2010Prop29
280
     1
102
RTVSPost2010PropOp29
 70
     1
102
RTVSPost2010Prop30
280
     1
102
RTVSPost2010PropOp30
 70
     1
102
RTVSPost2010Prop31
280
     0
102
RTVSPost2010PropOp31
 70
     1
102
RTVSPost2010Prop32
280
     0
102
RTVSPost2010PropOp32
 70
     1
102
RTVSPost2010Prop33
280
     0
102
RTVSPost2010PropOp33
 70
     1
102
RTVSPost2010Prop34
280
     0
102
RTVSPost2010PropOp34
 70
     1
102
RTVSPost2010Prop35
280
     0
102
RTVSPost2010PropOp35
 70
     1
102
RTVSPost2010Prop36
280
     0
102
RTVSPost2010PropOp36
 70
     1
102
RTVSPost2010Prop37
 90
       50
102
RTVSPost2010PropOp37
 70
     1
102
RTVSPost2010Prop38
140
0.0
102
RTVSPost2010PropOp38
 70
     1
102
RTVSPost2010Prop39
140
1.0
102
RTVSPost2010PropOp39
 70
     1
102
RTVSPost2010Prop40
 90
        0
102
RTVSPost2010PropOp40
 70
     1
102
RTVSPost2010Prop41ColorIndex
 90
       18
102
RTVSPost2010Prop41ColorRGB
 90
        0
102
RTVSPost2010PropOp41
 70
     1
102
RTVSPost2010Prop42
 90
       50
102
RTVSPost2010PropOp42
 70
     1
102
RTVSPost2010Prop43
 90
        3
102
RTVSPost2010PropOp43
 70
     1
102
RTVSPost2010Prop44ColorIndex
 90
        5
102
RTVSPost2010Prop44ColorRGB
 90
      255
102
RTVSPost2010PropOp44
 70
     1
102
RTVSPost2010Prop45
280
     0
102
RTVSPost2010PropOp45
 70
     1
102
RTVSPost2010Prop46
 90
       50
102
RTVSPost2010PropOp46
 70
     1
102
RTVSPost2010Prop47
 90
       50
102
RTVSPost2010PropOp47
 70
     1
102
RTVSPost2010Prop48
 90
       50
102
RTVSPost2010PropOp48
 70
     1
102
RTVSPost2010Prop49
280
     0
102
RTVSPost2010PropOp49
 70
     1
102
RTVSPost2010Prop50
 90
       50
102
RTVSPost2010PropOp50
 70
     1
102
RTVSPost2010Prop51ColorIndex
 90
      256
102
RTVSPost2010Prop51ColorRGB
 90
-16777216
102
RTVSPost2010PropOp51
 70
     0
102
RTVSPost2010Prop52
140
1.0
102
RTVSPost2010PropOp52
 70
     0
102
RTVSPost2010Prop53
 90
        2
102
RTVSPost2010PropOp53
 70
     1
102
RTVSPost2010Prop54
  1
strokes_ogs.tif
102
RTVSPost2010PropOp54
 70
     1
102
RTVSPost2010Prop55
280
     0
102
RTVSPost2010PropOp55
 70
     1
102
RTVSPost2010Prop56
140
1.0
102
RTVSPost2010PropOp56
 70
     1
102
RTVSPost2010Prop57
140
1.0
102
RTVSPost2010PropOp57
 70
     1
102
RTVSPropertyOp0
 70
     1
102
RTVSPropertyOp1
 70
     1
102
RTVSPropertyOp2
 70
     1
102
RTVSPropertyOp3
 70
     1
102
RTVSPropertyOp4
 70
     1
102
RTVSPropertyOp5
 70
     1
102
RTVSPropertyOp6
 70
     1
102
RTVSPropertyOp7
 70
     1
102
RTVSPropertyOp8
 70
     1
102
RTVSPropertyOp9
 70
     1
102
RTVSPropertyOp10
 70
     1
102
RTVSPropertyOp11
 70
     1
102
RTVSPropertyOp12
 70
     1
102
RTVSPropertyOp13
 70
     1
102
RTVSPropertyOp14
 70
     1
102
RTVSPropertyOp15
 70
     1
102
RTVSPropertyOp16
 70
     1
102
RTVSPropertyOp17
 70
     1
102
RTVSPropertyOp18
 70
     1
102
RTVSPropertyOp19
 70
     1
102
RTVSPropertyOp20
 70
     1
102
RTVSPropertyOp21
 70
     1
102
RTVSPropertyOp22
 70
     1
102
RTVSPropertyOp23
 70
     1
102
RTVSPropertyOp24
 70
     1
102
RTVSPropertyOp25
 70
     1
102
RTVSPropertyOp26
 70
     1
102
RTVSPropertyOp27
 70
     1
102
RTVSPropertyOp28
 70
     1
102
RTVSPropertyOp29
 70
     1
102
RTVSPropertyOp30
 70
     1
102
RTVSPropertyOp31
 70
     1
102
RTVSPropertyOp32
 70
     1
102
RTVSPropertyOp33
 70
     1
102
RTVSPropertyOp34
 70
     1
102
RTVSPropertyOp35
 70
     1
102
RTVSPropertyOp36
 70
     1
102
RTVSPropertyOp37
 70
     1
102
RTVSPropertyOp38
 70
     1
102
RTVSPropertyOp39
 70
     1
102
RTVSPropertyOp40
 70
     1
102
RTVSPropertyOp41
 70
     1
102
RTVSPropertyOp42
 70
     1
102
RTVSPropertyOp43
 70
     1
102
RTVSPropertyOp44
 70
     1
102
RTVSPropertyOp45
 70
     1
102
RTVSPropertyOp46
 70
     1
102
RTVSPropertyOp47
 70
     1
102
RTVSPropertyOp48
 70
     1
102
RTVSPropertyOp49
 70
     1
102
RTVSPropertyOp50
 70
     1
102
RTVSPropertyOp51
 70
     0
102
RTVSPropertyOp52
 70
     0
102
RTVSPropertyOp53
 70
     1
102
RTVSPropertyOp54
 70
     1
102
RTVSPropertyOp55
 70
     1
102
RTVSPropertyOp56
 70
     1
102
RTVSPropertyOp57
 70
     1
102
RTVSPropertyOp58
 70
     1
102
RTVSPropertyOp59
 70
     1
102
RTVSPropertyOp60
 70
     1
102
RTVSPropertyOp61
 70
     1
102
RTVSPropertyOp62
 70
     1
  0
XRECORD
  5
D2A6
102
{ACAD_REACTORS
330
D2A5
102
}
330
D2A5
100
AcDbXrecord
280
     1
102
RTVSPost2010Prop28
280
     0
102
RTVSPost2010PropOp28
 70
     1
102
RTVSPost2010Prop29
280
     1
102
RTVSPost2010PropOp29
 70
     1
102
RTVSPost2010Prop30
280
     1
102
RTVSPost2010PropOp30
 70
     1
102
RTVSPost2010Prop31
280
     0
102
RTVSPost2010PropOp31
 70
     1
102
RTVSPost2010Prop32
280
     0
102
RTVSPost2010PropOp32
 70
     1
102
RTVSPost2010Prop33
280
     0
102
RTVSPost2010PropOp33
 70
     1
102
RTVSPost2010Prop34
280
     0
102
RTVSPost2010PropOp34
 70
     1
102
RTVSPost2010Prop35
280
     0
102
RTVSPost2010PropOp35
 70
     1
102
RTVSPost2010Prop36
280
     0
102
RTVSPost2010PropOp36
 70
     1
102
RTVSPost2010Prop37
 90
       50
102
RTVSPost2010PropOp37
 70
     1
102
RTVSPost2010Prop38
140
0.0
102
RTVSPost2010PropOp38
 70
     1
102
RTVSPost2010Prop39
140
1.0
102
RTVSPost2010PropOp39
 70
     1
102
RTVSPost2010Prop40
 90
        0
102
RTVSPost2010PropOp40
 70
     1
102
RTVSPost2010Prop41ColorIndex
 90
       18
102
RTVSPost2010Prop41ColorRGB
 90
        0
102
RTVSPost2010PropOp41
 70
     1
102
RTVSPost2010Prop42
 90
       50
102
RTVSPost2010PropOp42
 70
     1
102
RTVSPost2010Prop43
 90
        3
102
RTVSPost2010PropOp43
 70
     1
102
RTVSPost2010Prop44ColorIndex
 90
        5
102
RTVSPost2010Prop44ColorRGB
 90
      255
102
RTVSPost2010PropOp44
 70
     1
102
RTVSPost2010Prop45
280
     0
102
RTVSPost2010PropOp45
 70
     1
102
RTVSPost2010Prop46
 90
       50
102
RTVSPost2010PropOp46
 70
     1
102
RTVSPost2010Prop47
 90
       50
102
RTVSPost2010PropOp47
 70
     1
102
RTVSPost2010Prop48
 90
       50
102
RTVSPost2010PropOp48
 70
     1
102
RTVSPost2010Prop49
280
     0
102
RTVSPost2010PropOp49
 70
     1
102
RTVSPost2010Prop50
 90
       50
102
RTVSPost2010PropOp50
 70
     1
102
RTVSPost2010Prop51ColorIndex
 90
      256
102
RTVSPost2010Prop51ColorRGB
 90
-16777216
102
RTVSPost2010PropOp51
 70
     0
102
RTVSPost2010Prop52
140
1.0
102
RTVSPost2010PropOp52
 70
     0
102
RTVSPost2010Prop53
 90
        2
102
RTVSPost2010PropOp53
 70
     1
102
RTVSPost2010Prop54
  1
strokes_ogs.tif
102
RTVSPost2010PropOp54
 70
     1
102
RTVSPost2010Prop55
280
     0
102
RTVSPost2010PropOp55
 70
     1
102
RTVSPost2010Prop56
140
1.0
102
RTVSPost2010PropOp56
 70
     1
102
RTVSPost2010Prop57
140
1.0
102
RTVSPost2010PropOp57
 70
     1
102
RTVSPropertyOp0
 70
     1
102
RTVSPropertyOp1
 70
     1
102
RTVSPropertyOp2
 70
     1
102
RTVSPropertyOp3
 70
     1
102
RTVSPropertyOp4
 70
     1
102
RTVSPropertyOp5
 70
     1
102
RTVSPropertyOp6
 70
     1
102
RTVSPropertyOp7
 70
     1
102
RTVSPropertyOp8
 70
     1
102
RTVSPropertyOp9
 70
     1
102
RTVSPropertyOp10
 70
     1
102
RTVSPropertyOp11
 70
     1
102
RTVSPropertyOp12
 70
     1
102
RTVSPropertyOp13
 70
     1
102
RTVSPropertyOp14
 70
     1
102
RTVSPropertyOp15
 70
     1
102
RTVSPropertyOp16
 70
     1
102
RTVSPropertyOp17
 70
     1
102
RTVSPropertyOp18
 70
     1
102
RTVSPropertyOp19
 70
     1
102
RTVSPropertyOp20
 70
     1
102
RTVSPropertyOp21
 70
     1
102
RTVSPropertyOp22
 70
     1
102
RTVSPropertyOp23
 70
     1
102
RTVSPropertyOp24
 70
     1
102
RTVSPropertyOp25
 70
     1
102
RTVSPropertyOp26
 70
     1
102
RTVSPropertyOp27
 70
     1
102
RTVSPropertyOp28
 70
     1
102
RTVSPropertyOp29
 70
     1
102
RTVSPropertyOp30
 70
     1
102
RTVSPropertyOp31
 70
     1
102
RTVSPropertyOp32
 70
     1
102
RTVSPropertyOp33
 70
     1
102
RTVSPropertyOp34
 70
     1
102
RTVSPropertyOp35
 70
     1
102
RTVSPropertyOp36
 70
     1
102
RTVSPropertyOp37
 70
     1
102
RTVSPropertyOp38
 70
     1
102
RTVSPropertyOp39
 70
     1
102
RTVSPropertyOp40
 70
     1
102
RTVSPropertyOp41
 70
     1
102
RTVSPropertyOp42
 70
     1
102
RTVSPropertyOp43
 70
     1
102
RTVSPropertyOp44
 70
     1
102
RTVSPropertyOp45
 70
     1
102
RTVSPropertyOp46
 70
     1
102
RTVSPropertyOp47
 70
     1
102
RTVSPropertyOp48
 70
     1
102
RTVSPropertyOp49
 70
     1
102
RTVSPropertyOp50
 70
     1
102
RTVSPropertyOp51
 70
     0
102
RTVSPropertyOp52
 70
     0
102
RTVSPropertyOp53
 70
     1
102
RTVSPropertyOp54
 70
     1
102
RTVSPropertyOp55
 70
     1
102
RTVSPropertyOp56
 70
     1
102
RTVSPropertyOp57
 70
     1
102
RTVSPropertyOp58
 70
     1
102
RTVSPropertyOp59
 70
     1
102
RTVSPropertyOp60
 70
     1
102
RTVSPropertyOp61
 70
     1
102
RTVSPropertyOp62
 70
     1
  0
XRECORD
  5
D2A0
102
{ACAD_REACTORS
330
D29F
102
}
330
D29F
100
AcDbXrecord
280
     1
102
RTVSPost2010Prop28
280
     0
102
RTVSPost2010PropOp28
 70
     1
102
RTVSPost2010Prop29
280
     1
102
RTVSPost2010PropOp29
 70
     1
102
RTVSPost2010Prop30
280
     1
102
RTVSPost2010PropOp30
 70
     1
102
RTVSPost2010Prop31
280
     0
102
RTVSPost2010PropOp31
 70
     1
102
RTVSPost2010Prop32
280
     0
102
RTVSPost2010PropOp32
 70
     1
102
RTVSPost2010Prop33
280
     0
102
RTVSPost2010PropOp33
 70
     1
102
RTVSPost2010Prop34
280
     0
102
RTVSPost2010PropOp34
 70
     1
102
RTVSPost2010Prop35
280
     0
102
RTVSPost2010PropOp35
 70
     1
102
RTVSPost2010Prop36
280
     0
102
RTVSPost2010PropOp36
 70
     1
102
RTVSPost2010Prop37
 90
       50
102
RTVSPost2010PropOp37
 70
     1
102
RTVSPost2010Prop38
140
0.0
102
RTVSPost2010PropOp38
 70
     1
102
RTVSPost2010Prop39
140
1.0
102
RTVSPost2010PropOp39
 70
     1
102
RTVSPost2010Prop40
 90
        0
102
RTVSPost2010PropOp40
 70
     1
102
RTVSPost2010Prop41ColorIndex
 90
       18
102
RTVSPost2010Prop41ColorRGB
 90
        0
102
RTVSPost2010PropOp41
 70
     1
102
RTVSPost2010Prop42
 90
       50
102
RTVSPost2010PropOp42
 70
     1
102
RTVSPost2010Prop43
 90
        3
102
RTVSPost2010PropOp43
 70
     1
102
RTVSPost2010Prop44ColorIndex
 90
        5
102
RTVSPost2010Prop44ColorRGB
 90
      255
102
RTVSPost2010PropOp44
 70
     1
102
RTVSPost2010Prop45
280
     0
102
RTVSPost2010PropOp45
 70
     1
102
RTVSPost2010Prop46
 90
       50
102
RTVSPost2010PropOp46
 70
     1
102
RTVSPost2010Prop47
 90
       50
102
RTVSPost2010PropOp47
 70
     1
102
RTVSPost2010Prop48
 90
       50
102
RTVSPost2010PropOp48
 70
     1
102
RTVSPost2010Prop49
280
     0
102
RTVSPost2010PropOp49
 70
     1
102
RTVSPost2010Prop50
 90
       50
102
RTVSPost2010PropOp50
 70
     1
102
RTVSPost2010Prop51ColorIndex
 90
      256
102
RTVSPost2010Prop51ColorRGB
 90
-16777216
102
RTVSPost2010PropOp51
 70
     0
102
RTVSPost2010Prop52
140
1.0
102
RTVSPost2010PropOp52
 70
     0
102
RTVSPost2010Prop53
 90
        2
102
RTVSPost2010PropOp53
 70
     1
102
RTVSPost2010Prop54
  1
strokes_ogs.tif
102
RTVSPost2010PropOp54
 70
     1
102
RTVSPost2010Prop55
280
     0
102
RTVSPost2010PropOp55
 70
     1
102
RTVSPost2010Prop56
140
1.0
102
RTVSPost2010PropOp56
 70
     1
102
RTVSPost2010Prop57
140
1.0
102
RTVSPost2010PropOp57
 70
     1
102
RTVSPropertyOp0
 70
     1
102
RTVSPropertyOp1
 70
     1
102
RTVSPropertyOp2
 70
     1
102
RTVSPropertyOp3
 70
     1
102
RTVSPropertyOp4
 70
     1
102
RTVSPropertyOp5
 70
     1
102
RTVSPropertyOp6
 70
     1
102
RTVSPropertyOp7
 70
     1
102
RTVSPropertyOp8
 70
     1
102
RTVSPropertyOp9
 70
     1
102
RTVSPropertyOp10
 70
     1
102
RTVSPropertyOp11
 70
     1
102
RTVSPropertyOp12
 70
     1
102
RTVSPropertyOp13
 70
     1
102
RTVSPropertyOp14
 70
     1
102
RTVSPropertyOp15
 70
     1
102
RTVSPropertyOp16
 70
     1
102
RTVSPropertyOp17
 70
     1
102
RTVSPropertyOp18
 70
     1
102
RTVSPropertyOp19
 70
     1
102
RTVSPropertyOp20
 70
     1
102
RTVSPropertyOp21
 70
     1
102
RTVSPropertyOp22
 70
     1
102
RTVSPropertyOp23
 70
     1
102
RTVSPropertyOp24
 70
     1
102
RTVSPropertyOp25
 70
     1
102
RTVSPropertyOp26
 70
     1
102
RTVSPropertyOp27
 70
     1
102
RTVSPropertyOp28
 70
     1
102
RTVSPropertyOp29
 70
     1
102
RTVSPropertyOp30
 70
     1
102
RTVSPropertyOp31
 70
     1
102
RTVSPropertyOp32
 70
     1
102
RTVSPropertyOp33
 70
     1
102
RTVSPropertyOp34
 70
     1
102
RTVSPropertyOp35
 70
     1
102
RTVSPropertyOp36
 70
     1
102
RTVSPropertyOp37
 70
     1
102
RTVSPropertyOp38
 70
     1
102
RTVSPropertyOp39
 70
     1
102
RTVSPropertyOp40
 70
     1
102
RTVSPropertyOp41
 70
     1
102
RTVSPropertyOp42
 70
     1
102
RTVSPropertyOp43
 70
     1
102
RTVSPropertyOp44
 70
     1
102
RTVSPropertyOp45
 70
     1
102
RTVSPropertyOp46
 70
     1
102
RTVSPropertyOp47
 70
     1
102
RTVSPropertyOp48
 70
     1
102
RTVSPropertyOp49
 70
     1
102
RTVSPropertyOp50
 70
     1
102
RTVSPropertyOp51
 70
     0
102
RTVSPropertyOp52
 70
     0
102
RTVSPropertyOp53
 70
     1
102
RTVSPropertyOp54
 70
     1
102
RTVSPropertyOp55
 70
     1
102
RTVSPropertyOp56
 70
     1
102
RTVSPropertyOp57
 70
     1
102
RTVSPropertyOp58
 70
     1
102
RTVSPropertyOp59
 70
     1
102
RTVSPropertyOp60
 70
     1
102
RTVSPropertyOp61
 70
     1
102
RTVSPropertyOp62
 70
     1
  0
XRECORD
  5
D2A2
102
{ACAD_REACTORS
330
D2A1
102
}
330
D2A1
100
AcDbXrecord
280
     1
102
RTVSPost2010Prop28
280
     0
102
RTVSPost2010PropOp28
 70
     1
102
RTVSPost2010Prop29
280
     1
102
RTVSPost2010PropOp29
 70
     1
102
RTVSPost2010Prop30
280
     1
102
RTVSPost2010PropOp30
 70
     1
102
RTVSPost2010Prop31
280
     0
102
RTVSPost2010PropOp31
 70
     1
102
RTVSPost2010Prop32
280
     0
102
RTVSPost2010PropOp32
 70
     1
102
RTVSPost2010Prop33
280
     0
102
RTVSPost2010PropOp33
 70
     1
102
RTVSPost2010Prop34
280
     0
102
RTVSPost2010PropOp34
 70
     1
102
RTVSPost2010Prop35
280
     0
102
RTVSPost2010PropOp35
 70
     1
102
RTVSPost2010Prop36
280
     0
102
RTVSPost2010PropOp36
 70
     1
102
RTVSPost2010Prop37
 90
       50
102
RTVSPost2010PropOp37
 70
     1
102
RTVSPost2010Prop38
140
0.0
102
RTVSPost2010PropOp38
 70
     1
102
RTVSPost2010Prop39
140
1.0
102
RTVSPost2010PropOp39
 70
     1
102
RTVSPost2010Prop40
 90
        0
102
RTVSPost2010PropOp40
 70
     1
102
RTVSPost2010Prop41ColorIndex
 90
       18
102
RTVSPost2010Prop41ColorRGB
 90
        0
102
RTVSPost2010PropOp41
 70
     1
102
RTVSPost2010Prop42
 90
       50
102
RTVSPost2010PropOp42
 70
     1
102
RTVSPost2010Prop43
 90
        3
102
RTVSPost2010PropOp43
 70
     1
102
RTVSPost2010Prop44ColorIndex
 90
        5
102
RTVSPost2010Prop44ColorRGB
 90
      255
102
RTVSPost2010PropOp44
 70
     1
102
RTVSPost2010Prop45
280
     0
102
RTVSPost2010PropOp45
 70
     1
102
RTVSPost2010Prop46
 90
       50
102
RTVSPost2010PropOp46
 70
     1
102
RTVSPost2010Prop47
 90
       50
102
RTVSPost2010PropOp47
 70
     1
102
RTVSPost2010Prop48
 90
       50
102
RTVSPost2010PropOp48
 70
     1
102
RTVSPost2010Prop49
280
     0
102
RTVSPost2010PropOp49
 70
     1
102
RTVSPost2010Prop50
 90
       50
102
RTVSPost2010PropOp50
 70
     1
102
RTVSPost2010Prop51ColorIndex
 90
      256
102
RTVSPost2010Prop51ColorRGB
 90
-16777216
102
RTVSPost2010PropOp51
 70
     0
102
RTVSPost2010Prop52
140
1.0
102
RTVSPost2010PropOp52
 70
     0
102
RTVSPost2010Prop53
 90
        2
102
RTVSPost2010PropOp53
 70
     1
102
RTVSPost2010Prop54
  1
strokes_ogs.tif
102
RTVSPost2010PropOp54
 70
     1
102
RTVSPost2010Prop55
280
     0
102
RTVSPost2010PropOp55
 70
     1
102
RTVSPost2010Prop56
140
1.0
102
RTVSPost2010PropOp56
 70
     1
102
RTVSPost2010Prop57
140
1.0
102
RTVSPost2010PropOp57
 70
     1
102
RTVSPropertyOp0
 70
     1
102
RTVSPropertyOp1
 70
     1
102
RTVSPropertyOp2
 70
     1
102
RTVSPropertyOp3
 70
     1
102
RTVSPropertyOp4
 70
     1
102
RTVSPropertyOp5
 70
     1
102
RTVSPropertyOp6
 70
     1
102
RTVSPropertyOp7
 70
     1
102
RTVSPropertyOp8
 70
     1
102
RTVSPropertyOp9
 70
     1
102
RTVSPropertyOp10
 70
     1
102
RTVSPropertyOp11
 70
     1
102
RTVSPropertyOp12
 70
     1
102
RTVSPropertyOp13
 70
     1
102
RTVSPropertyOp14
 70
     1
102
RTVSPropertyOp15
 70
     1
102
RTVSPropertyOp16
 70
     1
102
RTVSPropertyOp17
 70
     1
102
RTVSPropertyOp18
 70
     1
102
RTVSPropertyOp19
 70
     1
102
RTVSPropertyOp20
 70
     1
102
RTVSPropertyOp21
 70
     1
102
RTVSPropertyOp22
 70
     1
102
RTVSPropertyOp23
 70
     1
102
RTVSPropertyOp24
 70
     1
102
RTVSPropertyOp25
 70
     1
102
RTVSPropertyOp26
 70
     1
102
RTVSPropertyOp27
 70
     1
102
RTVSPropertyOp28
 70
     1
102
RTVSPropertyOp29
 70
     1
102
RTVSPropertyOp30
 70
     1
102
RTVSPropertyOp31
 70
     1
102
RTVSPropertyOp32
 70
     1
102
RTVSPropertyOp33
 70
     1
102
RTVSPropertyOp34
 70
     1
102
RTVSPropertyOp35
 70
     1
102
RTVSPropertyOp36
 70
     1
102
RTVSPropertyOp37
 70
     1
102
RTVSPropertyOp38
 70
     1
102
RTVSPropertyOp39
 70
     1
102
RTVSPropertyOp40
 70
     1
102
RTVSPropertyOp41
 70
     1
102
RTVSPropertyOp42
 70
     1
102
RTVSPropertyOp43
 70
     1
102
RTVSPropertyOp44
 70
     1
102
RTVSPropertyOp45
 70
     1
102
RTVSPropertyOp46
 70
     1
102
RTVSPropertyOp47
 70
     1
102
RTVSPropertyOp48
 70
     1
102
RTVSPropertyOp49
 70
     1
102
RTVSPropertyOp50
 70
     1
102
RTVSPropertyOp51
 70
     0
102
RTVSPropertyOp52
 70
     0
102
RTVSPropertyOp53
 70
     1
102
RTVSPropertyOp54
 70
     1
102
RTVSPropertyOp55
 70
     1
102
RTVSPropertyOp56
 70
     1
102
RTVSPropertyOp57
 70
     1
102
RTVSPropertyOp58
 70
     1
102
RTVSPropertyOp59
 70
     1
102
RTVSPropertyOp60
 70
     1
102
RTVSPropertyOp61
 70
     1
102
RTVSPropertyOp62
 70
     1
  0
XRECORD
  5
D298
102
{ACAD_REACTORS
330
D297
102
}
330
D297
100
AcDbXrecord
280
     1
102
RTVSPost2010Prop28
280
     0
102
RTVSPost2010PropOp28
 70
     1
102
RTVSPost2010Prop29
280
     1
102
RTVSPost2010PropOp29
 70
     1
102
RTVSPost2010Prop30
280
     1
102
RTVSPost2010PropOp30
 70
     1
102
RTVSPost2010Prop31
280
     0
102
RTVSPost2010PropOp31
 70
     1
102
RTVSPost2010Prop32
280
     0
102
RTVSPost2010PropOp32
 70
     1
102
RTVSPost2010Prop33
280
     0
102
RTVSPost2010PropOp33
 70
     1
102
RTVSPost2010Prop34
280
     0
102
RTVSPost2010PropOp34
 70
     1
102
RTVSPost2010Prop35
280
     0
102
RTVSPost2010PropOp35
 70
     1
102
RTVSPost2010Prop36
280
     0
102
RTVSPost2010PropOp36
 70
     1
102
RTVSPost2010Prop37
 90
       50
102
RTVSPost2010PropOp37
 70
     1
102
RTVSPost2010Prop38
140
0.0
102
RTVSPost2010PropOp38
 70
     1
102
RTVSPost2010Prop39
140
1.0
102
RTVSPost2010PropOp39
 70
     1
102
RTVSPost2010Prop40
 90
        0
102
RTVSPost2010PropOp40
 70
     1
102
RTVSPost2010Prop41ColorIndex
 90
       18
102
RTVSPost2010Prop41ColorRGB
 90
        0
102
RTVSPost2010PropOp41
 70
     1
102
RTVSPost2010Prop42
 90
       50
102
RTVSPost2010PropOp42
 70
     1
102
RTVSPost2010Prop43
 90
        3
102
RTVSPost2010PropOp43
 70
     1
102
RTVSPost2010Prop44ColorIndex
 90
        5
102
RTVSPost2010Prop44ColorRGB
 90
      255
102
RTVSPost2010PropOp44
 70
     1
102
RTVSPost2010Prop45
280
     0
102
RTVSPost2010PropOp45
 70
     1
102
RTVSPost2010Prop46
 90
       50
102
RTVSPost2010PropOp46
 70
     1
102
RTVSPost2010Prop47
 90
       50
102
RTVSPost2010PropOp47
 70
     1
102
RTVSPost2010Prop48
 90
       50
102
RTVSPost2010PropOp48
 70
     1
102
RTVSPost2010Prop49
280
     0
102
RTVSPost2010PropOp49
 70
     1
102
RTVSPost2010Prop50
 90
       50
102
RTVSPost2010PropOp50
 70
     1
102
RTVSPost2010Prop51ColorIndex
 90
      256
102
RTVSPost2010Prop51ColorRGB
 90
-16777216
102
RTVSPost2010PropOp51
 70
     0
102
RTVSPost2010Prop52
140
1.0
102
RTVSPost2010PropOp52
 70
     0
102
RTVSPost2010Prop53
 90
        2
102
RTVSPost2010PropOp53
 70
     1
102
RTVSPost2010Prop54
  1
strokes_ogs.tif
102
RTVSPost2010PropOp54
 70
     1
102
RTVSPost2010Prop55
280
     0
102
RTVSPost2010PropOp55
 70
     1
102
RTVSPost2010Prop56
140
1.0
102
RTVSPost2010PropOp56
 70
     1
102
RTVSPost2010Prop57
140
1.0
102
RTVSPost2010PropOp57
 70
     1
102
RTVSPropertyOp0
 70
     1
102
RTVSPropertyOp1
 70
     1
102
RTVSPropertyOp2
 70
     1
102
RTVSPropertyOp3
 70
     1
102
RTVSPropertyOp4
 70
     1
102
RTVSPropertyOp5
 70
     1
102
RTVSPropertyOp6
 70
     1
102
RTVSPropertyOp7
 70
     1
102
RTVSPropertyOp8
 70
     1
102
RTVSPropertyOp9
 70
     1
102
RTVSPropertyOp10
 70
     1
102
RTVSPropertyOp11
 70
     1
102
RTVSPropertyOp12
 70
     1
102
RTVSPropertyOp13
 70
     1
102
RTVSPropertyOp14
 70
     1
102
RTVSPropertyOp15
 70
     1
102
RTVSPropertyOp16
 70
     1
102
RTVSPropertyOp17
 70
     1
102
RTVSPropertyOp18
 70
     1
102
RTVSPropertyOp19
 70
     1
102
RTVSPropertyOp20
 70
     1
102
RTVSPropertyOp21
 70
     1
102
RTVSPropertyOp22
 70
     1
102
RTVSPropertyOp23
 70
     1
102
RTVSPropertyOp24
 70
     1
102
RTVSPropertyOp25
 70
     1
102
RTVSPropertyOp26
 70
     1
102
RTVSPropertyOp27
 70
     1
102
RTVSPropertyOp28
 70
     1
102
RTVSPropertyOp29
 70
     1
102
RTVSPropertyOp30
 70
     1
102
RTVSPropertyOp31
 70
     1
102
RTVSPropertyOp32
 70
     1
102
RTVSPropertyOp33
 70
     1
102
RTVSPropertyOp34
 70
     1
102
RTVSPropertyOp35
 70
     1
102
RTVSPropertyOp36
 70
     1
102
RTVSPropertyOp37
 70
     1
102
RTVSPropertyOp38
 70
     1
102
RTVSPropertyOp39
 70
     1
102
RTVSPropertyOp40
 70
     1
102
RTVSPropertyOp41
 70
     1
102
RTVSPropertyOp42
 70
     1
102
RTVSPropertyOp43
 70
     1
102
RTVSPropertyOp44
 70
     1
102
RTVSPropertyOp45
 70
     1
102
RTVSPropertyOp46
 70
     1
102
RTVSPropertyOp47
 70
     1
102
RTVSPropertyOp48
 70
     1
102
RTVSPropertyOp49
 70
     1
102
RTVSPropertyOp50
 70
     1
102
RTVSPropertyOp51
 70
     0
102
RTVSPropertyOp52
 70
     0
102
RTVSPropertyOp53
 70
     1
102
RTVSPropertyOp54
 70
     1
102
RTVSPropertyOp55
 70
     1
102
RTVSPropertyOp56
 70
     1
102
RTVSPropertyOp57
 70
     1
102
RTVSPropertyOp58
 70
     1
102
RTVSPropertyOp59
 70
     1
102
RTVSPropertyOp60
 70
     1
102
RTVSPropertyOp61
 70
     1
102
RTVSPropertyOp62
 70
     1
  0
XRECORD
  5
D28C
102
{ACAD_REACTORS
330
D28B
102
}
330
D28B
100
AcDbXrecord
280
     1
102
RTVSPost2010Prop28
280
     0
102
RTVSPost2010PropOp28
 70
     1
102
RTVSPost2010Prop29
280
     1
102
RTVSPost2010PropOp29
 70
     1
102
RTVSPost2010Prop30
280
     1
102
RTVSPost2010PropOp30
 70
     1
102
RTVSPost2010Prop31
280
     0
102
RTVSPost2010PropOp31
 70
     1
102
RTVSPost2010Prop32
280
     0
102
RTVSPost2010PropOp32
 70
     1
102
RTVSPost2010Prop33
280
     0
102
RTVSPost2010PropOp33
 70
     1
102
RTVSPost2010Prop34
280
     0
102
RTVSPost2010PropOp34
 70
     1
102
RTVSPost2010Prop35
280
     0
102
RTVSPost2010PropOp35
 70
     1
102
RTVSPost2010Prop36
280
     0
102
RTVSPost2010PropOp36
 70
     1
102
RTVSPost2010Prop37
 90
       50
102
RTVSPost2010PropOp37
 70
     1
102
RTVSPost2010Prop38
140
0.0
102
RTVSPost2010PropOp38
 70
     1
102
RTVSPost2010Prop39
140
1.0
102
RTVSPost2010PropOp39
 70
     1
102
RTVSPost2010Prop40
 90
        0
102
RTVSPost2010PropOp40
 70
     1
102
RTVSPost2010Prop41ColorIndex
 90
       18
102
RTVSPost2010Prop41ColorRGB
 90
        0
102
RTVSPost2010PropOp41
 70
     1
102
RTVSPost2010Prop42
 90
       50
102
RTVSPost2010PropOp42
 70
     1
102
RTVSPost2010Prop43
 90
        3
102
RTVSPost2010PropOp43
 70
     1
102
RTVSPost2010Prop44ColorIndex
 90
        5
102
RTVSPost2010Prop44ColorRGB
 90
      255
102
RTVSPost2010PropOp44
 70
     1
102
RTVSPost2010Prop45
280
     0
102
RTVSPost2010PropOp45
 70
     1
102
RTVSPost2010Prop46
 90
       50
102
RTVSPost2010PropOp46
 70
     1
102
RTVSPost2010Prop47
 90
       50
102
RTVSPost2010PropOp47
 70
     1
102
RTVSPost2010Prop48
 90
       50
102
RTVSPost2010PropOp48
 70
     1
102
RTVSPost2010Prop49
280
     0
102
RTVSPost2010PropOp49
 70
     1
102
RTVSPost2010Prop50
 90
       50
102
RTVSPost2010PropOp50
 70
     1
102
RTVSPost2010Prop51ColorIndex
 90
      256
102
RTVSPost2010Prop51ColorRGB
 90
-16777216
102
RTVSPost2010PropOp51
 70
     0
102
RTVSPost2010Prop52
140
1.0
102
RTVSPost2010PropOp52
 70
     0
102
RTVSPost2010Prop53
 90
        2
102
RTVSPost2010PropOp53
 70
     1
102
RTVSPost2010Prop54
  1
strokes_ogs.tif
102
RTVSPost2010PropOp54
 70
     1
102
RTVSPost2010Prop55
280
     0
102
RTVSPost2010PropOp55
 70
     1
102
RTVSPost2010Prop56
140
1.0
102
RTVSPost2010PropOp56
 70
     1
102
RTVSPost2010Prop57
140
1.0
102
RTVSPost2010PropOp57
 70
     1
102
RTVSPropertyOp0
 70
     1
102
RTVSPropertyOp1
 70
     1
102
RTVSPropertyOp2
 70
     1
102
RTVSPropertyOp3
 70
     1
102
RTVSPropertyOp4
 70
     1
102
RTVSPropertyOp5
 70
     1
102
RTVSPropertyOp6
 70
     1
102
RTVSPropertyOp7
 70
     1
102
RTVSPropertyOp8
 70
     1
102
RTVSPropertyOp9
 70
     1
102
RTVSPropertyOp10
 70
     1
102
RTVSPropertyOp11
 70
     1
102
RTVSPropertyOp12
 70
     1
102
RTVSPropertyOp13
 70
     1
102
RTVSPropertyOp14
 70
     1
102
RTVSPropertyOp15
 70
     1
102
RTVSPropertyOp16
 70
     1
102
RTVSPropertyOp17
 70
     1
102
RTVSPropertyOp18
 70
     1
102
RTVSPropertyOp19
 70
     1
102
RTVSPropertyOp20
 70
     1
102
RTVSPropertyOp21
 70
     1
102
RTVSPropertyOp22
 70
     1
102
RTVSPropertyOp23
 70
     1
102
RTVSPropertyOp24
 70
     1
102
RTVSPropertyOp25
 70
     1
102
RTVSPropertyOp26
 70
     1
102
RTVSPropertyOp27
 70
     1
102
RTVSPropertyOp28
 70
     1
102
RTVSPropertyOp29
 70
     1
102
RTVSPropertyOp30
 70
     1
102
RTVSPropertyOp31
 70
     1
102
RTVSPropertyOp32
 70
     1
102
RTVSPropertyOp33
 70
     1
102
RTVSPropertyOp34
 70
     1
102
RTVSPropertyOp35
 70
     1
102
RTVSPropertyOp36
 70
     1
102
RTVSPropertyOp37
 70
     1
102
RTVSPropertyOp38
 70
     1
102
RTVSPropertyOp39
 70
     1
102
RTVSPropertyOp40
 70
     1
102
RTVSPropertyOp41
 70
     1
102
RTVSPropertyOp42
 70
     1
102
RTVSPropertyOp43
 70
     1
102
RTVSPropertyOp44
 70
     1
102
RTVSPropertyOp45
 70
     1
102
RTVSPropertyOp46
 70
     1
102
RTVSPropertyOp47
 70
     1
102
RTVSPropertyOp48
 70
     1
102
RTVSPropertyOp49
 70
     1
102
RTVSPropertyOp50
 70
     1
102
RTVSPropertyOp51
 70
     0
102
RTVSPropertyOp52
 70
     0
102
RTVSPropertyOp53
 70
     1
102
RTVSPropertyOp54
 70
     1
102
RTVSPropertyOp55
 70
     1
102
RTVSPropertyOp56
 70
     1
102
RTVSPropertyOp57
 70
     1
102
RTVSPropertyOp58
 70
     1
102
RTVSPropertyOp59
 70
     1
102
RTVSPropertyOp60
 70
     1
102
RTVSPropertyOp61
 70
     1
102
RTVSPropertyOp62
 70
     1
  0
XRECORD
  5
D2A4
102
{ACAD_REACTORS
330
D2A3
102
}
330
D2A3
100
AcDbXrecord
280
     1
102
RTVSPost2010Prop28
280
     0
102
RTVSPost2010PropOp28
 70
     1
102
RTVSPost2010Prop29
280
     1
102
RTVSPost2010PropOp29
 70
     1
102
RTVSPost2010Prop30
280
     1
102
RTVSPost2010PropOp30
 70
     1
102
RTVSPost2010Prop31
280
     0
102
RTVSPost2010PropOp31
 70
     1
102
RTVSPost2010Prop32
280
     0
102
RTVSPost2010PropOp32
 70
     1
102
RTVSPost2010Prop33
280
     0
102
RTVSPost2010PropOp33
 70
     1
102
RTVSPost2010Prop34
280
     0
102
RTVSPost2010PropOp34
 70
     1
102
RTVSPost2010Prop35
280
     0
102
RTVSPost2010PropOp35
 70
     1
102
RTVSPost2010Prop36
280
     0
102
RTVSPost2010PropOp36
 70
     1
102
RTVSPost2010Prop37
 90
       50
102
RTVSPost2010PropOp37
 70
     1
102
RTVSPost2010Prop38
140
0.0
102
RTVSPost2010PropOp38
 70
     1
102
RTVSPost2010Prop39
140
1.0
102
RTVSPost2010PropOp39
 70
     1
102
RTVSPost2010Prop40
 90
        0
102
RTVSPost2010PropOp40
 70
     1
102
RTVSPost2010Prop41ColorIndex
 90
       18
102
RTVSPost2010Prop41ColorRGB
 90
        0
102
RTVSPost2010PropOp41
 70
     1
102
RTVSPost2010Prop42
 90
       50
102
RTVSPost2010PropOp42
 70
     1
102
RTVSPost2010Prop43
 90
        3
102
RTVSPost2010PropOp43
 70
     1
102
RTVSPost2010Prop44ColorIndex
 90
        5
102
RTVSPost2010Prop44ColorRGB
 90
      255
102
RTVSPost2010PropOp44
 70
     1
102
RTVSPost2010Prop45
280
     0
102
RTVSPost2010PropOp45
 70
     1
102
RTVSPost2010Prop46
 90
       50
102
RTVSPost2010PropOp46
 70
     1
102
RTVSPost2010Prop47
 90
       50
102
RTVSPost2010PropOp47
 70
     1
102
RTVSPost2010Prop48
 90
       50
102
RTVSPost2010PropOp48
 70
     1
102
RTVSPost2010Prop49
280
     0
102
RTVSPost2010PropOp49
 70
     1
102
RTVSPost2010Prop50
 90
       50
102
RTVSPost2010PropOp50
 70
     1
102
RTVSPost2010Prop51ColorIndex
 90
      256
102
RTVSPost2010Prop51ColorRGB
 90
-16777216
102
RTVSPost2010PropOp51
 70
     0
102
RTVSPost2010Prop52
140
1.0
102
RTVSPost2010PropOp52
 70
     0
102
RTVSPost2010Prop53
 90
        2
102
RTVSPost2010PropOp53
 70
     1
102
RTVSPost2010Prop54
  1
strokes_ogs.tif
102
RTVSPost2010PropOp54
 70
     1
102
RTVSPost2010Prop55
280
     0
102
RTVSPost2010PropOp55
 70
     1
102
RTVSPost2010Prop56
140
1.0
102
RTVSPost2010PropOp56
 70
     1
102
RTVSPost2010Prop57
140
1.0
102
RTVSPost2010PropOp57
 70
     1
102
RTVSPropertyOp0
 70
     1
102
RTVSPropertyOp1
 70
     1
102
RTVSPropertyOp2
 70
     1
102
RTVSPropertyOp3
 70
     1
102
RTVSPropertyOp4
 70
     1
102
RTVSPropertyOp5
 70
     1
102
RTVSPropertyOp6
 70
     1
102
RTVSPropertyOp7
 70
     1
102
RTVSPropertyOp8
 70
     1
102
RTVSPropertyOp9
 70
     1
102
RTVSPropertyOp10
 70
     1
102
RTVSPropertyOp11
 70
     1
102
RTVSPropertyOp12
 70
     1
102
RTVSPropertyOp13
 70
     1
102
RTVSPropertyOp14
 70
     1
102
RTVSPropertyOp15
 70
     1
102
RTVSPropertyOp16
 70
     1
102
RTVSPropertyOp17
 70
     1
102
RTVSPropertyOp18
 70
     1
102
RTVSPropertyOp19
 70
     1
102
RTVSPropertyOp20
 70
     1
102
RTVSPropertyOp21
 70
     1
102
RTVSPropertyOp22
 70
     1
102
RTVSPropertyOp23
 70
     1
102
RTVSPropertyOp24
 70
     1
102
RTVSPropertyOp25
 70
     1
102
RTVSPropertyOp26
 70
     1
102
RTVSPropertyOp27
 70
     1
102
RTVSPropertyOp28
 70
     1
102
RTVSPropertyOp29
 70
     1
102
RTVSPropertyOp30
 70
     1
102
RTVSPropertyOp31
 70
     1
102
RTVSPropertyOp32
 70
     1
102
RTVSPropertyOp33
 70
     1
102
RTVSPropertyOp34
 70
     1
102
RTVSPropertyOp35
 70
     1
102
RTVSPropertyOp36
 70
     1
102
RTVSPropertyOp37
 70
     1
102
RTVSPropertyOp38
 70
     1
102
RTVSPropertyOp39
 70
     1
102
RTVSPropertyOp40
 70
     1
102
RTVSPropertyOp41
 70
     1
102
RTVSPropertyOp42
 70
     1
102
RTVSPropertyOp43
 70
     1
102
RTVSPropertyOp44
 70
     1
102
RTVSPropertyOp45
 70
     1
102
RTVSPropertyOp46
 70
     1
102
RTVSPropertyOp47
 70
     1
102
RTVSPropertyOp48
 70
     1
102
RTVSPropertyOp49
 70
     1
102
RTVSPropertyOp50
 70
     1
102
RTVSPropertyOp51
 70
     0
102
RTVSPropertyOp52
 70
     0
102
RTVSPropertyOp53
 70
     1
102
RTVSPropertyOp54
 70
     1
102
RTVSPropertyOp55
 70
     1
102
RTVSPropertyOp56
 70
     1
102
RTVSPropertyOp57
 70
     1
102
RTVSPropertyOp58
 70
     1
102
RTVSPropertyOp59
 70
     1
102
RTVSPropertyOp60
 70
     1
102
RTVSPropertyOp61
 70
     1
102
RTVSPropertyOp62
 70
     1
  0
ENDSEC
  0
EOF
