  0
SECTION
  2
HEADER
  9
$ACADVER
  1
AC1015
  9
$DWGCODEPAGE
  3
ANSI_932
  9
$LTSCALE
 40
20.0
  9
$FILLMODE
 70
     1
  9
$CLAYER
  8
0
  9
$PDMODE
 70
     0
  9
$SPLFRAME
 70
     0
  9
$SPLINETYPE
 70
     6
  9
$SPLINESEGS
 70
     8
  9
$DIMASZ
 40
2.000000
  9
$DIMEXE
 40
1.500000
  9
$DIMEXO
 40
0.800000
  9
$DIMTAD
 70
     1
  9
$DIMTIH
 70
     0
  9
$DIMTOH
 70
     0
  9
$DIMTVP
 40
0.500000
  9
$DIMTXT
 40
3.100000
  9
$EXTMIN
 10
0.000000
 20
0.000000
 30
0.000000
  9
$EXTMAX
 10
297.000000
 20
420.000000
 30
0.000000
  9
$MEASUREMENT
 70
  1
  9
$LIMMIN
 10
0.000000
 20
0.000000
  9
$LIMMAX
 10
297.000000
 20
420.000000
  9
$HANDSEED
  5
17B
  9
$LWDISPLAY
290
     0
  9
$DIMBLK
  1
_OPEN
  9
$DIMDEC
 70
     2
  9
$DIMADEC
 70
     2
  9
$DIMAUNIT
 70
     0
  9
$DIMZIN
 70
     8
  9
$DIMAZIN
 70
     2
  9
$DIMTOFL
 70
     1
  0
ENDSEC
  0
SECTION
  2
CLASSES
  0
ENDSEC
  0
SECTION
  2
TABLES
  0
TABLE
  2
VPORT
  5
14A
100
AcDbSymbolTable
 70
     1
  0
VPORT
  5
14B
100
AcDbSymbolTableRecord
100
AcDbViewportTableRecord
  2
*ACTIVE
 70
     0
 12
209.991520
 22
139.240370
 40
258.480741
 41
1.547438
  0
ENDTAB
  0
TABLE
  2
LTYPE
  5
14C
100
AcDbSymbolTable
 70
     3
  0
LTYPE
  5
14D
100
AcDbSymbolTableRecord
100
AcDbLinetypeTableRecord
  2
BYBLOCK
 70
     0
  3

 72
    65
 73
     0
 40
0.0
  0
LTYPE
  5
14E
100
AcDbSymbolTableRecord
100
AcDbLinetypeTableRecord
  2
BYLAYER
 70
     0
  3

 72
    65
 73
     0
 40
0.0
  0
LTYPE
  5
14F
100
AcDbSymbolTableRecord
100
AcDbLinetypeTableRecord
  2
CONTINUOUS
 70
     0
  3
Solid line (NEC CAE2D for Win R15.2 : 2020.03.04)
 72
    65
 73
     0
 40
0.0
  0
LTYPE
  5
150
100
AcDbSymbolTableRecord
100
AcDbLinetypeTableRecord
  2
DASHED
 70
     0
  3
__ __ __ __ __ __ __ __ __ __ __ __ __ _
 72
    65
 73
     2
 40
0.75
 49
0.5
 74
     0
 49
-0.25
 74
     0
  0
LTYPE
  5
151
100
AcDbSymbolTableRecord
100
AcDbLinetypeTableRecord
  2
CENTER
 70
     0
  3
____ _ ____ _ ____ _ ____ _ ____ _ ____
 72
    65
 73
     4
 40
2.0
 49
1.25
 74
     0
 49
-0.25
 74
     0
 49
0.25
 74
     0
 49
-0.25
 74
     0
  0
ENDTAB
  0
TABLE
  2
LAYER
  5
152
100
AcDbSymbolTable
 70
    10
  0
LAYER
  5
153
100
AcDbSymbolTableRecord
100
AcDbLayerTableRecord
  2
0
 70
     0
 62
     7
  6
CONTINUOUS
370
    -3
390

  0
LAYER
  5
154
100
AcDbSymbolTableRecord
100
AcDbLayerTableRecord
  2
DXF0
 70
     0
 62
     7
  6
CONTINUOUS
370
    -3
390

  0
LAYER
  5
155
100
AcDbSymbolTableRecord
100
AcDbLayerTableRecord
  2
4
 70
     0
 62
     1
  6
CONTINUOUS
370
    -3
390

  0
LAYER
  5
156
100
AcDbSymbolTableRecord
100
AcDbLayerTableRecord
  2
5
 70
     0
 62
     6
  6
CONTINUOUS
370
    -3
390

  0
LAYER
  5
157
100
AcDbSymbolTableRecord
100
AcDbLayerTableRecord
  2
1
 70
     0
 62
     7
  6
CONTINUOUS
370
    -3
390

  0
LAYER
  5
158
100
AcDbSymbolTableRecord
100
AcDbLayerTableRecord
  2
2
 70
     0
 62
     4
  6
CONTINUOUS
370
    -3
390

  0
LAYER
  5
159
100
AcDbSymbolTableRecord
100
AcDbLayerTableRecord
  2
3
 70
     0
 62
     2
  6
CONTINUOUS
370
    -3
390

  0
LAYER
  5
15A
100
AcDbSymbolTableRecord
100
AcDbLayerTableRecord
  2
6
 70
     0
 62
     5
  6
CONTINUOUS
370
    -3
390

  0
LAYER
  5
15B
100
AcDbSymbolTableRecord
100
AcDbLayerTableRecord
  2
7
 70
     0
 62
     7
  6
CONTINUOUS
370
    -3
390

  0
LAYER
  5
15C
100
AcDbSymbolTableRecord
100
AcDbLayerTableRecord
  2
DXF1023
 70
     0
 62
    16
  6
CONTINUOUS
370
    -3
390

  0
ENDTAB
  0
TABLE
  2
STYLE
  5
15D
100
AcDbSymbolTable
 70
     4
  0
STYLE
  5
15E
100
AcDbSymbolTableRecord
100
AcDbTextStyleTableRecord
  2
STANDARD
 70
    64
 40
0.0
 41
1.0
 50
0.0
 71
     0
 42
3.000000000000000
  3
TXT
  4

  0
STYLE
  5
15F
100
AcDbSymbolTableRecord
100
AcDbTextStyleTableRecord
  2
ANKTATE
 70
    68
 40
0.0
 41
1.0
 50
0.0
 71
     0
 42
3.000000000000000
  3
TXT
  4

  0
STYLE
  5
160
100
AcDbSymbolTableRecord
100
AcDbTextStyleTableRecord
  2
KNJYOKO
 70
    64
 40
0.0
 41
1.0
 50
0.0
 71
     0
 42
3.000000000000000
  3
TXT
  4
BIGFONT
  0
STYLE
  5
161
100
AcDbSymbolTableRecord
100
AcDbTextStyleTableRecord
  2
KNJTATE
 70
    68
 40
0.0
 41
1.0
 50
0.0
 71
     0
 42
3.000000000000000
  3
TXT
  4
BIGFONT
  0
ENDTAB
  0
TABLE
  2
VIEW
  5
162
100
AcDbSymbolTable
 70
     0
  0
ENDTAB
  0
TABLE
  2
UCS
  5
163
100
AcDbSymbolTable
 70
     0
  0
ENDTAB
  0
TABLE
  2
APPID
  5
164
100
AcDbSymbolTable
 70
     1
  0
APPID
  5
165
100
AcDbSymbolTableRecord
100
AcDbRegAppTableRecord
  2
ACAD
 70
     0
  0
ENDTAB
  0
TABLE
  2
DIMSTYLE
  5
166
100
AcDbSymbolTable
 70
     2
100
AcDbDimStyleTable
  0
DIMSTYLE
105
167
100
AcDbSymbolTableRecord
100
AcDbDimStyleTableRecord
  2
STANDARD
 70
     0
 41
2.000000
 44
1.500000
 42
0.800000
145
0.661290
140
3.100000
144
1.000000
146
0.645161
340
15E
  0
DIMSTYLE
105
168
100
AcDbSymbolTableRecord
100
AcDbDimStyleTableRecord
  2
DXF001
 70
     0
 41
2.000000
 44
1.500000
 42
0.800000
145
0.661290
140
3.100000
144
1.000000
146
0.645161
 77
     1
 73
     0
 74
     0
271
     2
179
     2
275
     0
 78
     8
 79
     2
172
     1
340
15E
  0
ENDTAB
  0
TABLE
  2
BLOCK_RECORD
  5
169
100
AcDbSymbolTable
 70
    12
  0
BLOCK_RECORD
  5
16A
100
AcDbSymbolTableRecord
100
AcDbBlockTableRecord
  2
*MODEL_SPACE
  0
BLOCK_RECORD
  5
16B
100
AcDbSymbolTableRecord
100
AcDbBlockTableRecord
  2
*PAPER_SPACE
  0
BLOCK_RECORD
  5
16C
100
AcDbSymbolTableRecord
100
AcDbBlockTableRecord
  2
*PAPER_SPACE0
  0
BLOCK_RECORD
  5
1
100
AcDbSymbolTableRecord
100
AcDbBlockTableRecord
  2
_NONE
  0
BLOCK_RECORD
  5
4
100
AcDbSymbolTableRecord
100
AcDbBlockTableRecord
  2
_CLOSED
  0
BLOCK_RECORD
  5
B
100
AcDbSymbolTableRecord
100
AcDbBlockTableRecord
  2
_DOT
  0
BLOCK_RECORD
  5
13
100
AcDbSymbolTableRecord
100
AcDbBlockTableRecord
  2
_OPEN
  0
BLOCK_RECORD
  5
19
100
AcDbSymbolTableRecord
100
AcDbBlockTableRecord
  2
_ORIGIN
  0
BLOCK_RECORD
  5
1E
100
AcDbSymbolTableRecord
100
AcDbBlockTableRecord
  2
_OPEN30
  0
BLOCK_RECORD
  5
24
100
AcDbSymbolTableRecord
100
AcDbBlockTableRecord
  2
_BOXFILLED
  0
BLOCK_RECORD
  5
29
100
AcDbSymbolTableRecord
100
AcDbBlockTableRecord
  2
_BOXBLANK
  0
BLOCK_RECORD
  5
31
100
AcDbSymbolTableRecord
100
AcDbBlockTableRecord
  2
_OBLIQUE
  0
BLOCK_RECORD
  5
35
100
AcDbSymbolTableRecord
100
AcDbBlockTableRecord
  2
_OPEN90
  0
BLOCK_RECORD
  5
3B
100
AcDbSymbolTableRecord
100
AcDbBlockTableRecord
  2
_CLOSEDBLANK
  0
BLOCK_RECORD
  5
41
100
AcDbSymbolTableRecord
100
AcDbBlockTableRecord
  2
_DOTBLANK
  0
ENDTAB
  0
ENDSEC
  0
SECTION
  2
BLOCKS
  0
BLOCK
  5
16D
100
AcDbEntity
  8
0
100
AcDbBlockBegin
  2
*MODEL_SPACE
 70
     0
 10
0.0
 20
0.0
 30
0.0
  3
*MODEL_SPACE
  1

  0
ENDBLK
  5
16E
100
AcDbEntity
  8
0
100
AcDbBlockEnd
  0
BLOCK
  5
16F
100
AcDbEntity
  8
0
100
AcDbBlockBegin
  2
*PAPER_SPACE
 70
     0
 10
0.0
 20
0.0
 30
0.0
  3
*PAPER_SPACE
  1

  0
ENDBLK
  5
170
100
AcDbEntity
  8
0
100
AcDbBlockEnd
  0
BLOCK
  5
171
100
AcDbEntity
  8
0
100
AcDbBlockBegin
  2
*PAPER_SPACE0
 70
     0
 10
0.0
 20
0.0
 30
0.0
  3
*PAPER_SPACE0
  1

  0
ENDBLK
  5
172
100
AcDbEntity
  8
0
100
AcDbBlockEnd
  0
BLOCK
  5
2
330
1
100
AcDbEntity
  8
0
100
AcDbBlockBegin
  2
_NONE
 70
     0
 10
0.0
 20
0.0
 30
0.0
  3
_NONE
  1

  0
ENDBLK
  5
3
330
1
100
AcDbEntity
  8
0
100
AcDbBlockEnd
  0
BLOCK
  5
5
330
4
100
AcDbEntity
  8
0
100
AcDbBlockBegin
  2
_CLOSED
 70
     0
 10
0.0
 20
0.0
 30
0.0
  3
_CLOSED
  1

  0
LINE
  5
6
330
4
100
AcDbEntity
  8
0
  6
BYBLOCK
 62
     0
370
    -2
100
AcDbLine
 10
-1.0
 20
0.166667
 30
0.0
 11
0.0
 21
0.0
 31
0.0
  0
LINE
  5
7
330
4
100
AcDbEntity
  8
0
  6
BYBLOCK
 62
     0
370
    -2
100
AcDbLine
 10
0.0
 20
0.0
 30
0.0
 11
-1.0
 21
-0.166667
 31
0.0
  0
LINE
  5
8
330
4
100
AcDbEntity
  8
0
  6
BYBLOCK
 62
     0
370
    -2
100
AcDbLine
 10
-1.0
 20
0.166667
 30
0.0
 11
-1.0
 21
-0.166667
 31
0.0
  0
LINE
  5
9
330
4
100
AcDbEntity
  8
0
  6
BYBLOCK
 62
     0
370
    -2
100
AcDbLine
 10
0.0
 20
0.0
 30
0.0
 11
-1.0
 21
0.0
 31
0.0
  0
ENDBLK
  5
A
330
4
100
AcDbEntity
  8
0
100
AcDbBlockEnd
  0
BLOCK
  5
C
330
B
100
AcDbEntity
  8
0
100
AcDbBlockBegin
  2
_DOT
 70
     0
 10
0.0
 20
0.0
 30
0.0
  3
_DOT
  1

  0
POLYLINE
  5
D
330
B
100
AcDbEntity
  8
0
  6
BYBLOCK
 62
     0
370
    -2
100
AcDb2dPolyline
 66
     1
 10
0.0
 20
0.0
 30
0.0
 70
     1
 40
0.5
 41
0.5
  0
VERTEX
  5
E
330
B
100
AcDbEntity
  8
0
  6
BYBLOCK
 62
     0
370
    -2
100
AcDbVertex
100
AcDb2dVertex
 10
-0.25
 20
0.0
 30
0.0
 42
1.0
  0
VERTEX
  5
F
330
B
100
AcDbEntity
  8
0
  6
BYBLOCK
 62
     0
370
    -2
100
AcDbVertex
100
AcDb2dVertex
 10
0.25
 20
0.0
 30
0.0
 42
1.0
  0
SEQEND
  5
10
330
B
100
AcDbEntity
  8
0
  6
BYBLOCK
 62
     0
370
    -2
  0
LINE
  5
11
330
B
100
AcDbEntity
  8
0
  6
BYBLOCK
 62
     0
370
    -2
100
AcDbLine
 10
-0.5
 20
0.0
 30
0.0
 11
-1.0
 21
0.0
 31
0.0
  0
ENDBLK
  5
12
330
B
100
AcDbEntity
  8
0
100
AcDbBlockEnd
  0
BLOCK
  5
14
330
13
100
AcDbEntity
  8
0
100
AcDbBlockBegin
  2
_OPEN
 70
     0
 10
0.0
 20
0.0
 30
0.0
  3
_OPEN
  1

  0
LINE
  5
15
330
13
100
AcDbEntity
  8
0
  6
BYBLOCK
 62
     0
370
    -2
100
AcDbLine
 10
-1.0
 20
0.166667
 30
0.0
 11
0.0
 21
0.0
 31
0.0
  0
LINE
  5
16
330
13
100
AcDbEntity
  8
0
  6
BYBLOCK
 62
     0
370
    -2
100
AcDbLine
 10
0.0
 20
0.0
 30
0.0
 11
-1.0
 21
-0.166667
 31
0.0
  0
LINE
  5
17
330
13
100
AcDbEntity
  8
0
  6
BYBLOCK
 62
     0
370
    -2
100
AcDbLine
 10
0.0
 20
0.0
 30
0.0
 11
-1.0
 21
0.0
 31
0.0
  0
ENDBLK
  5
18
330
13
100
AcDbEntity
  8
0
100
AcDbBlockEnd
  0
BLOCK
  5
1A
330
19
100
AcDbEntity
  8
0
100
AcDbBlockBegin
  2
_ORIGIN
 70
     0
 10
0.0
 20
0.0
 30
0.0
  3
_ORIGIN
  1

  0
CIRCLE
  5
1B
330
19
100
AcDbEntity
  8
0
  6
BYBLOCK
 62
     0
370
    -2
100
AcDbCircle
 10
0.0
 20
0.0
 30
0.0
 40
0.5
  0
LINE
  5
1C
330
19
100
AcDbEntity
  8
0
  6
BYBLOCK
 62
     0
370
    -2
100
AcDbLine
 10
0.0
 20
0.0
 30
0.0
 11
-1.0
 21
0.0
 31
0.0
  0
ENDBLK
  5
1D
330
19
100
AcDbEntity
  8
0
100
AcDbBlockEnd
  0
BLOCK
  5
1F
330
1E
100
AcDbEntity
  8
0
100
AcDbBlockBegin
  2
_OPEN30
 70
     0
 10
0.0
 20
0.0
 30
0.0
  3
_OPEN30
  1

  0
LINE
  5
20
330
1E
100
AcDbEntity
  8
0
  6
BYBLOCK
 62
     0
370
    -2
100
AcDbLine
 10
-1.0
 20
0.267949
 30
0.0
 11
0.0
 21
0.0
 31
0.0
  0
LINE
  5
21
330
1E
100
AcDbEntity
  8
0
  6
BYBLOCK
 62
     0
370
    -2
100
AcDbLine
 10
0.0
 20
0.0
 30
0.0
 11
-1.0
 21
-0.267949
 31
0.0
  0
LINE
  5
22
330
1E
100
AcDbEntity
  8
0
  6
BYBLOCK
 62
     0
370
    -2
100
AcDbLine
 10
0.0
 20
0.0
 30
0.0
 11
-1.0
 21
0.0
 31
0.0
  0
ENDBLK
  5
23
330
1E
100
AcDbEntity
  8
0
100
AcDbBlockEnd
  0
BLOCK
  5
25
330
24
100
AcDbEntity
  8
0
100
AcDbBlockBegin
  2
_BOXFILLED
 70
     0
 10
0.0
 20
0.0
 30
0.0
  3
_BOXFILLED
  1

  0
SOLID
  5
26
330
24
100
AcDbEntity
  8
0
  6
BYBLOCK
 62
     0
370
    -2
100
AcDbTrace
 10
-0.5
 20
0.5
 30
0.0
 11
0.5
 21
0.5
 31
0.0
 12
-0.5
 22
-0.5
 32
0.0
 13
0.5
 23
-0.5
 33
0.0
  0
LINE
  5
27
330
24
100
AcDbEntity
  8
0
  6
BYBLOCK
 62
     0
370
    -2
100
AcDbLine
 10
-0.5
 20
0.0
 30
0.0
 11
-1.0
 21
0.0
 31
0.0
  0
ENDBLK
  5
28
330
24
100
AcDbEntity
  8
0
100
AcDbBlockEnd
  0
BLOCK
  5
2A
330
29
100
AcDbEntity
  8
0
100
AcDbBlockBegin
  2
_BOXBLANK
 70
     0
 10
0.0
 20
0.0
 30
0.0
  3
_BOXBLANK
  1

  0
LINE
  5
2B
330
29
100
AcDbEntity
  8
0
  6
BYBLOCK
 62
     0
370
    -2
100
AcDbLine
 10
-0.5
 20
-0.5
 30
0.0
 11
0.5
 21
-0.5
 31
0.0
  0
LINE
  5
2C
330
29
100
AcDbEntity
  8
0
  6
BYBLOCK
 62
     0
370
    -2
100
AcDbLine
 10
0.5
 20
-0.5
 30
0.0
 11
0.5
 21
0.5
 31
0.0
  0
LINE
  5
2D
330
29
100
AcDbEntity
  8
0
  6
BYBLOCK
 62
     0
370
    -2
100
AcDbLine
 10
0.5
 20
0.5
 30
0.0
 11
-0.5
 21
0.5
 31
0.0
  0
LINE
  5
2E
330
29
100
AcDbEntity
  8
0
  6
BYBLOCK
 62
     0
370
    -2
100
AcDbLine
 10
-0.5
 20
0.5
 30
0.0
 11
-0.5
 21
-0.5
 31
0.0
  0
LINE
  5
2F
330
29
100
AcDbEntity
  8
0
  6
BYBLOCK
 62
     0
370
    -2
100
AcDbLine
 10
-0.5
 20
0.0
 30
0.0
 11
-1.0
 21
0.0
 31
0.0
  0
ENDBLK
  5
30
330
29
100
AcDbEntity
  8
0
100
AcDbBlockEnd
  0
BLOCK
  5
32
330
31
100
AcDbEntity
  8
0
100
AcDbBlockBegin
  2
_OBLIQUE
 70
     0
 10
0.0
 20
0.0
 30
0.0
  3
_OBLIQUE
  1

  0
LINE
  5
33
330
31
100
AcDbEntity
  8
0
  6
BYBLOCK
 62
     0
370
    -2
100
AcDbLine
 10
-0.5
 20
-0.5
 30
0.0
 11
0.5
 21
0.5
 31
0.0
  0
ENDBLK
  5
34
330
31
100
AcDbEntity
  8
0
100
AcDbBlockEnd
  0
BLOCK
  5
36
330
35
100
AcDbEntity
  8
0
100
AcDbBlockBegin
  2
_OPEN90
 70
     0
 10
0.0
 20
0.0
 30
0.0
  3
_OPEN90
  1

  0
LINE
  5
37
330
35
100
AcDbEntity
  8
0
  6
BYBLOCK
 62
     0
370
    -2
100
AcDbLine
 10
-0.5
 20
0.5
 30
0.0
 11
0.0
 21
0.0
 31
0.0
  0
LINE
  5
38
330
35
100
AcDbEntity
  8
0
  6
BYBLOCK
 62
     0
370
    -2
100
AcDbLine
 10
0.0
 20
0.0
 30
0.0
 11
-0.5
 21
-0.5
 31
0.0
  0
LINE
  5
39
330
35
100
AcDbEntity
  8
0
  6
BYBLOCK
 62
     0
370
    -2
100
AcDbLine
 10
0.0
 20
0.0
 30
0.0
 11
-1.0
 21
0.0
 31
0.0
  0
ENDBLK
  5
3A
330
35
100
AcDbEntity
  8
0
100
AcDbBlockEnd
  0
BLOCK
  5
3C
330
3B
100
AcDbEntity
  8
0
100
AcDbBlockBegin
  2
_CLOSEDBLANK
 70
     0
 10
0.0
 20
0.0
 30
0.0
  3
_CLOSEDBLANK
  1

  0
LINE
  5
3D
330
3B
100
AcDbEntity
  8
0
  6
BYBLOCK
 62
     0
370
    -2
100
AcDbLine
 10
-1.0
 20
0.1666666666666666
 30
0.0
 11
0.0
 21
0.0
 31
0.0
  0
LINE
  5
3E
330
3B
100
AcDbEntity
  8
0
  6
BYBLOCK
 62
     0
370
    -2
100
AcDbLine
 10
0.0
 20
0.0
 30
0.0
 11
-1.0
 21
-0.1666666666666666
 31
0.0
  0
LINE
  5
3F
330
3B
100
AcDbEntity
  8
0
  6
BYBLOCK
 62
     0
370
    -2
100
AcDbLine
 10
-1.0
 20
0.1666666666666666
 30
0.0
 11
-1.0
 21
-0.1666666666666666
 31
0.0
  0
ENDBLK
  5
40
330
3B
100
AcDbEntity
  8
0
100
AcDbBlockEnd
  0
BLOCK
  5
42
330
41
100
AcDbEntity
  8
0
100
AcDbBlockBegin
  2
_DOTBLANK
 70
     0
 10
0.0
 20
0.0
 30
0.0
  3
_DOTBLANK
  1

  0
CIRCLE
  5
43
330
41
100
AcDbEntity
  8
0
  6
BYBLOCK
 62
     0
370
    -2
100
AcDbCircle
 10
0.0
 20
0.0
 30
0.0
 40
0.5
  0
LINE
  5
44
330
41
100
AcDbEntity
  8
0
  6
BYBLOCK
 62
     0
370
    -2
100
AcDbLine
 10
-0.5
 20
0.0
 30
0.0
 11
-1.0
 21
0.0
 31
0.0
  0
ENDBLK
  5
45
330
41
100
AcDbEntity
  8
0
100
AcDbBlockEnd
  0
ENDSEC
  0
SECTION
  2
ENTITIES
  0
MTEXT
  5
46
100
AcDbEntity
  8
7
  6
CONTINUOUS
 62
7
100
AcDbMText
 10
9.999997526638502
 20
18.00000076076889
 30
0.0000000000000000
 40
3.000000000000000
 41
0.0000000000000000
 44
0.6739999771118164
 71
     7
 72
     1
  1
{\H0.94x;{TYPE No.TM-322-75-B-B}}
 11
1.000000000000000
 21
0.0000000000000000
 31
0.0000000000000000
  7
STANDARD
  0
LINE
  5
47
100
AcDbEntity
  8
1
  6
CONTINUOUS
 62
7
100
AcDbLine
 10
149.0717301069603
 20
262.9807409788319
 30
0.0000000000000000
 11
149.4391939713133
 21
258.4007652689217
 31
0.0000000000000000
  0
LINE
  5
48
100
AcDbEntity
  8
1
  6
CONTINUOUS
 62
7
100
AcDbLine
 10
154.5894709951555
 20
258.3976236634986
 30
0.0000000000000000
 11
154.9717301069602
 21
262.9807409788320
 31
0.0000000000000000
  0
LINE
  5
49
100
AcDbEntity
  8
4
  6
CENTER
 62
1
100
AcDbLine
 10
367.4830421246682
 20
111.8812310195037
 30
0.0000000000000000
 11
367.4830421246682
 21
199.8812310197659
 31
0.0000000000000000
  0
ARC
  5
4A
100
AcDbEntity
  8
1
  6
CONTINUOUS
 62
7
100
AcDbCircle
 10
388.1811052639586
 20
115.3812310198134
 30
0.0000000000000000
 40
1.500000000000000
100
AcDbArc
 50
180.0000000000000
 51
270.0000000000000
  0
ARC
  5
4B
100
AcDbEntity
  8
1
  6
CONTINUOUS
 62
7
100
AcDbCircle
 10
405.9830421246173
 20
115.3812310198540
 30
0.0000000000000000
 40
1.500000000000000
100
AcDbArc
 50
270.0000000000000
 51
360.0000000000000
  0
ARC
  5
4C
100
AcDbEntity
  8
1
  6
CONTINUOUS
 62
7
100
AcDbCircle
 10
346.7849789853778
 20
115.3812310198133
 30
0.0000000000000000
 40
1.500000000000000
100
AcDbArc
 50
270.0000000000000
 51
360.0000000000000
  0
ARC
  5
4D
100
AcDbEntity
  8
1
  6
CONTINUOUS
 62
7
100
AcDbCircle
 10
328.9830421247192
 20
115.3812310198539
 30
0.0000000000000000
 40
1.500000000000000
100
AcDbArc
 50
180.0000000000000
 51
270.0000000000000
  0
LINE
  5
4E
100
AcDbEntity
  8
1
  6
CONTINUOUS
 62
7
100
AcDbLine
 10
346.7849789853744
 20
113.8812310198133
 30
0.0000000000000000
 11
328.9830421247156
 21
113.8812310198539
 31
0.0000000000000000
  0
LINE
  5
4F
100
AcDbEntity
  8
1
  6
CONTINUOUS
 62
7
100
AcDbLine
 10
388.1811052639621
 20
113.8812310198134
 30
0.0000000000000000
 11
405.9830421246208
 21
113.8812310198540
 31
0.0000000000000000
  0
ARC
  5
50
100
AcDbEntity
  8
1
  6
CONTINUOUS
 62
7
100
AcDbCircle
 10
385.6811052639585
 20
174.0792941588973
 30
0.0000000000000000
 40
1.000000000000000
100
AcDbArc
 50
0.0000000000000000
 51
90.00000000000000
  0
ARC
  5
51
100
AcDbEntity
  8
1
  6
CONTINUOUS
 62
7
100
AcDbCircle
 10
349.2849789853777
 20
174.0792941588972
 30
0.0000000000000000
 40
1.000000000000000
100
AcDbArc
 50
90.00000000000000
 51
180.0000000000000
  0
LINE
  5
52
100
AcDbEntity
  8
1
  6
CONTINUOUS
 62
7
100
AcDbLine
 10
407.4830421246174
 20
113.3812310198574
 30
0.0000000000000000
 11
407.4830421246174
 21
194.3812310197809
 31
0.0000000000000000
  0
LINE
  5
53
100
AcDbEntity
  8
1
  6
CONTINUOUS
 62
7
100
AcDbLine
 10
327.4830421247191
 20
113.3812310197655
 30
0.0000000000000000
 11
327.4830421247187
 21
194.3812310197654
 31
0.0000000000000000
  0
LINE
  5
54
100
AcDbEntity
  8
1
  6
CONTINUOUS
 62
7
100
AcDbLine
 10
348.2849789853777
 20
113.3812310197663
 30
0.0000000000000000
 11
348.2849789853775
 21
174.0792941588972
 31
0.0000000000000000
  0
ARC
  5
55
100
AcDbEntity
  8
1
  6
CONTINUOUS
 62
7
100
AcDbCircle
 10
363.5330421246589
 20
197.3812310197725
 30
0.0000000000000000
 40
1.000000000000000
100
AcDbArc
 50
0.0000000000000000
 51
90.00000000000000
  0
ARC
  5
56
100
AcDbEntity
  8
1
  6
CONTINUOUS
 62
7
100
AcDbCircle
 10
371.4330421246778
 20
197.3812310197741
 30
0.0000000000000000
 40
1.000000000000000
100
AcDbArc
 50
90.00000000000000
 51
180.0000000000000
  0
LINE
  5
57
100
AcDbEntity
  8
1
  6
CONTINUOUS
 62
7
100
AcDbLine
 10
370.4330421246780
 20
192.8812310196839
 30
0.0000000000000000
 11
370.4330421246780
 21
197.3238738264521
 31
0.0000000000000000
  0
ARC
  5
58
100
AcDbEntity
  8
1
  6
CONTINUOUS
 62
7
100
AcDbCircle
 10
367.4830421246684
 20
192.8812310196839
 30
0.0000000000000000
 40
2.950000000009537
100
AcDbArc
 50
180.0000000000000
 51
360.0000000000000
  0
LINE
  5
59
100
AcDbEntity
  8
1
  6
CONTINUOUS
 62
7
100
AcDbLine
 10
364.5330421246588
 20
197.3812310197725
 30
0.0000000000000000
 11
364.5330421246588
 21
192.8812310196839
 31
0.0000000000000000
  0
LINE
  5
5A
100
AcDbEntity
  8
1
  6
CONTINUOUS
 62
7
100
AcDbLine
 10
385.6811052639585
 20
175.0792941588971
 30
0.0000000000000000
 11
349.2849789853777
 21
175.0792941588971
 31
0.0000000000000000
  0
ARC
  5
5B
100
AcDbEntity
  8
1
  6
CONTINUOUS
 62
7
100
AcDbCircle
 10
370.9830421246687
 20
197.3812310197738
 30
0.0000000000000000
 40
1.000000000000000
100
AcDbArc
 50
90.00000000000000
 51
180.0000000000000
  0
ARC
  5
5C
100
AcDbEntity
  8
1
  6
CONTINUOUS
 62
7
100
AcDbCircle
 10
363.9830421246685
 20
197.3812310197724
 30
0.0000000000000000
 40
1.000000000000000
100
AcDbArc
 50
0.0000000000000000
 51
90.00000000000000
  0
LINE
  5
5D
100
AcDbEntity
  8
1
  6
CONTINUOUS
 62
7
100
AcDbLine
 10
369.9830421246682
 20
192.8812310196843
 30
0.0000000000000000
 11
369.9830421246685
 21
197.3812310197741
 31
0.0000000000000000
  0
LINE
  5
5E
100
AcDbEntity
  8
1
  6
CONTINUOUS
 62
7
100
AcDbLine
 10
364.9830421246682
 20
192.8812310196843
 30
0.0000000000000000
 11
364.9830421246686
 21
197.3812310197727
 31
0.0000000000000000
  0
LINE
  5
5F
100
AcDbEntity
  8
1
  6
CONTINUOUS
 62
7
100
AcDbLine
 10
386.6811052639586
 20
113.3812310198099
 30
0.0000000000000000
 11
386.6811052639586
 21
174.0792941588973
 31
0.0000000000000000
  0
ARC
  5
60
100
AcDbEntity
  8
1
  6
CONTINUOUS
 62
7
100
AcDbCircle
 10
407.9830421246174
 20
115.3812310198585
 30
0.0000000000000000
 40
2.000000000000000
100
AcDbArc
 50
270.0000000000000
 51
360.0000000000000
  0
ARC
  5
61
100
AcDbEntity
  8
1
  6
CONTINUOUS
 62
7
100
AcDbCircle
 10
385.9830421247061
 20
115.3812310198084
 30
0.0000000000000000
 40
2.000000000000000
100
AcDbArc
 50
180.0000000000000
 51
270.0000000000000
  0
ARC
  5
62
100
AcDbEntity
  8
1
  6
CONTINUOUS
 62
7
100
AcDbCircle
 10
348.9830421245463
 20
115.3812310197662
 30
0.0000000000000000
 40
2.000000000000000
100
AcDbArc
 50
270.0000000000000
 51
360.0000000000000
  0
ARC
  5
63
100
AcDbEntity
  8
1
  6
CONTINUOUS
 62
7
100
AcDbCircle
 10
326.9830421247192
 20
115.3812310197655
 30
0.0000000000000000
 40
2.000000000000000
100
AcDbArc
 50
180.0000000000000
 51
270.0000000000000
  0
ARC
  5
64
100
AcDbEntity
  8
1
  6
CONTINUOUS
 62
7
100
AcDbCircle
 10
373.8075974449835
 20
194.3812310197744
 30
0.0000000000000000
 40
1.500000000000000
100
AcDbArc
 50
90.00000000000000
 51
193.3423637979080
  0
ARC
  5
65
100
AcDbEntity
  8
1
  6
CONTINUOUS
 62
7
100
AcDbCircle
 10
361.1584868043523
 20
194.3812310197719
 30
0.0000000000000000
 40
1.500000000000000
100
AcDbArc
 50
346.6576362021145
 51
450.0000000000000
  0
ARC
  5
66
100
AcDbEntity
  8
1
  6
CONTINUOUS
 62
7
100
AcDbCircle
 10
367.4830421246682
 20
192.8812310196839
 30
0.0000000000000000
 40
5.000000000000000
100
AcDbArc
 50
166.6576362021150
 51
373.3423637979085
  0
LINE
  5
67
100
AcDbEntity
  8
1
  6
CONTINUOUS
 62
7
100
AcDbLine
 10
373.8075974449832
 20
195.8812310197746
 30
0.0000000000000000
 11
405.9830421246173
 21
195.8812310197810
 31
0.0000000000000000
  0
LINE
  5
68
100
AcDbEntity
  8
1
  6
CONTINUOUS
 62
7
100
AcDbLine
 10
328.9830421247192
 20
195.8812310197656
 30
0.0000000000000000
 11
361.1584868043518
 21
195.8812310197720
 31
0.0000000000000000
  0
CIRCLE
  5
69
100
AcDbEntity
  8
1
  6
CONTINUOUS
 62
7
100
AcDbCircle
 10
367.4830421246682
 20
192.8812310196839
 30
0.0000000000000000
 40
2.500000000000000
  0
LINE
  5
6A
100
AcDbEntity
  8
1
  6
CONTINUOUS
 62
7
100
AcDbLine
 10
350.9830421245463
 20
115.3812310197662
 30
0.0000000000000000
 11
350.9830421245463
 21
168.3812310196777
 31
0.0000000000000000
  0
LINE
  5
6B
100
AcDbEntity
  8
1
  6
CONTINUOUS
 62
7
100
AcDbLine
 10
379.9830421245899
 20
172.3812310196777
 30
0.0000000000000000
 11
354.9830421245463
 21
172.3812310196777
 31
0.0000000000000000
  0
LINE
  5
6C
100
AcDbEntity
  8
1
  6
CONTINUOUS
 62
7
100
AcDbLine
 10
383.9830421247061
 20
115.3812310198041
 30
0.0000000000000000
 11
383.9830421245943
 21
168.3812310196862
 31
0.0000000000000000
  0
LINE
  5
6D
100
AcDbEntity
  8
1
  6
CONTINUOUS
 62
7
100
AcDbLine
 10
409.9830421246173
 20
194.3812310197809
 30
0.0000000000000000
 11
409.9830421246173
 21
115.3812310198585
 31
0.0000000000000000
  0
LINE
  5
6E
100
AcDbEntity
  8
1
  6
CONTINUOUS
 62
7
100
AcDbLine
 10
328.9830421247192
 20
198.3812310197656
 30
0.0000000000000000
 11
405.9830421246176
 21
198.3812310197811
 31
0.0000000000000000
  0
LINE
  5
6F
100
AcDbEntity
  8
1
  6
CONTINUOUS
 62
7
100
AcDbLine
 10
324.9830421247192
 20
115.3812310197655
 30
0.0000000000000000
 11
324.9830421247192
 21
194.3812310197654
 31
0.0000000000000000
  0
LINE
  5
70
100
AcDbEntity
  8
1
  6
CONTINUOUS
 62
7
100
AcDbLine
 10
348.9830421245465
 20
113.3812310197663
 30
0.0000000000000000
 11
326.9830421247192
 21
113.3812310197655
 31
0.0000000000000000
  0
LINE
  5
71
100
AcDbEntity
  8
1
  6
CONTINUOUS
 62
7
100
AcDbLine
 10
385.9830421247107
 20
113.3812310198084
 30
0.0000000000000000
 11
407.9830421246218
 21
113.3812310198585
 31
0.0000000000000000
  0
ARC
  5
72
100
AcDbEntity
  8
1
  6
CONTINUOUS
 62
7
100
AcDbCircle
 10
328.9830421247192
 20
194.3812310197654
 30
0.0000000000000000
 40
1.500000000000000
100
AcDbArc
 50
90.00000000000000
 51
180.0000000000000
  0
ARC
  5
73
100
AcDbEntity
  8
1
  6
CONTINUOUS
 62
7
100
AcDbCircle
 10
405.9830421246173
 20
194.3812310197809
 30
0.0000000000000000
 40
1.500000000000000
100
AcDbArc
 50
0.0000000000000000
 51
90.00000000000000
  0
ARC
  5
74
100
AcDbEntity
  8
1
  6
CONTINUOUS
 62
7
100
AcDbCircle
 10
354.9830421245463
 20
168.3812310196777
 30
0.0000000000000000
 40
4.000000000000000
100
AcDbArc
 50
90.00000000000000
 51
180.0000000000004
  0
ARC
  5
75
100
AcDbEntity
  8
1
  6
CONTINUOUS
 62
7
100
AcDbCircle
 10
379.9830421245899
 20
168.3812310196777
 30
0.0000000000000000
 40
4.000000000000000
100
AcDbArc
 50
1.302755000000000e-10
 51
90.00000000000000
  0
ARC
  5
76
100
AcDbEntity
  8
1
  6
CONTINUOUS
 62
7
100
AcDbCircle
 10
405.9830421246173
 20
194.3812310197809
 30
0.0000000000000000
 40
4.000000000000000
100
AcDbArc
 50
0.0000000000000000
 51
90.00000000000000
  0
ARC
  5
77
100
AcDbEntity
  8
1
  6
CONTINUOUS
 62
7
100
AcDbCircle
 10
328.9830421247192
 20
194.3812310197654
 30
0.0000000000000000
 40
4.000000000000000
100
AcDbArc
 50
90.00000000000000
 51
180.0000000000000
  0
ARC
  5
78
100
AcDbEntity
  8
1
  6
CONTINUOUS
 62
7
100
AcDbCircle
 10
157.8079293377421
 20
262.9807409788320
 30
0.0000000000000000
 40
0.5000000000000000
100
AcDbArc
 50
90.00000000000000
 51
180.0000000000000
  0
ARC
  5
79
100
AcDbEntity
  8
1
  6
CONTINUOUS
 62
7
100
AcDbCircle
 10
112.5216539545558
 20
262.9807409788320
 30
0.0000000000000000
 40
0.5000000000000000
100
AcDbArc
 50
90.00000000000000
 51
180.0000000000000
  0
LINE
  5
7A
100
AcDbEntity
  8
1
  6
CONTINUOUS
 62
7
100
AcDbLine
 10
109.5217301070656
 20
31.71299195630320
 30
0.0000000000000000
 11
194.5217301069219
 21
31.71299195630320
 31
0.0000000000000000
  0
ARC
  5
7B
100
AcDbEntity
  8
3
  6
DASHED
 62
2
100
AcDbCircle
 10
260.2938485108150
 20
189.3365935810379
 30
0.0000000000000000
 40
4.000000000000000
100
AcDbArc
 50
180.0000000000000
 51
219.9868862449342
  0
LINE
  5
7C
100
AcDbEntity
  8
3
  6
DASHED
 62
2
100
AcDbLine
 10
257.2290823383103
 20
186.7661445331335
 30
0.0000000000000000
 11
268.6943594018201
 21
173.0960064958572
 31
0.0000000000000000
  0
ARC
  5
7D
100
AcDbEntity
  8
3
  6
DASHED
 62
2
100
AcDbCircle
 10
270.2267424880724
 20
174.3812310198094
 30
0.0000000000000000
 40
2.000000000000000
100
AcDbArc
 50
219.9868862449330
 51
270.0000000000000
  0
ARC
  5
7E
100
AcDbEntity
  8
1
  6
CONTINUOUS
 62
7
100
AcDbCircle
 10
270.2938485108143
 20
195.7675681110453
 30
0.0000000000000000
 40
0.5000000000000000
100
AcDbArc
 50
0.0000000000000000
 51
90.99999999999849
  0
ARC
  5
7F
100
AcDbEntity
  8
1
  6
CONTINUOUS
 62
7
100
AcDbCircle
 10
270.2938485108143
 20
114.3811548673439
 30
0.0000000000000000
 40
0.5000000000000000
100
AcDbArc
 50
270.0000000000000
 51
360.0000000000000
  0
LINE
  5
80
100
AcDbEntity
  8
1
  6
CONTINUOUS
 62
7
100
AcDbLine
 10
270.7938485108143
 20
114.3812310198386
 30
0.0000000000000000
 11
270.7938485108143
 21
195.7675681110453
 31
0.0000000000000000
  0
ARC
  5
81
100
AcDbEntity
  8
1
  6
CONTINUOUS
 62
7
100
AcDbCircle
 10
260.2938485108151
 20
194.2060710583078
 30
0.0000000000000000
 40
4.000000000000000
100
AcDbArc
 50
91.00000000000013
 51
180.0000000000000
  0
ARC
  5
82
100
AcDbEntity
  8
1
  6
CONTINUOUS
 62
7
100
AcDbCircle
 10
258.2938485108150
 20
115.5909964550651
 30
0.0000000000000000
 40
2.000000000000000
100
AcDbArc
 50
180.0000000000000
 51
268.9999999999998
  0
LINE
  5
83
100
AcDbEntity
  8
1
  6
CONTINUOUS
 62
7
100
AcDbLine
 10
256.2938485108150
 20
157.3812310193879
 30
0.0000000000000000
 11
256.2938485108150
 21
170.3812310193978
 31
0.0000000000000000
  0
LINE
  5
84
100
AcDbEntity
  8
1
  6
CONTINUOUS
 62
7
100
AcDbLine
 10
268.7938485108151
 20
155.8812310193359
 30
0.0000000000000000
 11
268.7938485108151
 21
158.8812310194400
 31
0.0000000000000000
  0
LINE
  5
85
100
AcDbEntity
  8
1
  6
CONTINUOUS
 62
7
100
AcDbLine
 10
268.7938485108151
 20
168.8812310193457
 30
0.0000000000000000
 11
268.7938485108151
 21
171.8812310194496
 31
0.0000000000000000
  0
LINE
  5
86
100
AcDbEntity
  8
1
  6
CONTINUOUS
 62
7
100
AcDbLine
 10
260.2938485108150
 20
177.7243767697982
 30
0.0000000000000000
 11
265.2938485108151
 21
177.7243767697982
 31
0.0000000000000000
  0
LINE
  5
87
100
AcDbEntity
  8
1
  6
CONTINUOUS
 62
7
100
AcDbLine
 10
268.7938485108151
 20
181.8812310193466
 30
0.0000000000000000
 11
268.7938485108151
 21
184.8812310194468
 31
0.0000000000000000
  0
LINE
  5
88
100
AcDbEntity
  8
1
  6
CONTINUOUS
 62
7
100
AcDbLine
 10
265.2938485108151
 20
189.0380852689951
 30
0.0000000000000000
 11
260.2938485108150
 21
189.0380852689951
 31
0.0000000000000000
  0
LINE
  5
89
100
AcDbEntity
  8
1
  6
CONTINUOUS
 62
7
100
AcDbLine
 10
256.2938485108150
 20
170.3812310193978
 30
0.0000000000000000
 11
256.2938485108150
 21
183.3812310193967
 31
0.0000000000000000
  0
LINE
  5
8A
100
AcDbEntity
  8
1
  6
CONTINUOUS
 62
7
100
AcDbLine
 10
270.2938485108143
 20
113.3812310198386
 30
0.0000000000000000
 11
270.2938485108143
 21
198.3812310197656
 31
0.0000000000000000
  0
LINE
  5
8B
100
AcDbEntity
  8
1
  6
CONTINUOUS
 62
7
100
AcDbLine
 10
256.2938485108150
 20
115.5909964550651
 30
0.0000000000000000
 11
256.2938485108150
 21
194.2060710583078
 31
0.0000000000000000
  0
LINE
  5
8C
100
AcDbEntity
  8
1
  6
CONTINUOUS
 62
7
100
AcDbLine
 10
270.2938485108144
 20
113.3812310198386
 30
0.0000000000000000
 11
258.2589436979404
 21
113.5913010647523
 31
0.0000000000000000
  0
LINE
  5
8D
100
AcDbEntity
  8
1
  6
CONTINUOUS
 62
7
100
AcDbLine
 10
260.2240388850661
 20
198.2054618389334
 30
0.0000000000000000
 11
270.2938485108144
 21
198.3812310197657
 31
0.0000000000000000
  0
ARC
  5
8E
100
AcDbEntity
  8
1
  6
CONTINUOUS
 62
7
100
AcDbCircle
 10
171.7197932462767
 20
31.71299195631269
 30
0.0000000000000000
 40
0.5000000000000000
100
AcDbArc
 50
180.0000000000000
 51
270.0000000000000
  0
LINE
  5
8F
100
AcDbEntity
  8
1
  6
CONTINUOUS
 62
7
100
AcDbLine
 10
168.5217301070287
 20
31.78009797902603
 30
0.0000000000000000
 11
168.5217301070286
 21
31.71299195632495
 31
0.0000000000000000
  0
ARC
  5
90
100
AcDbEntity
  8
1
  6
CONTINUOUS
 62
7
100
AcDbCircle
 10
132.3236669677289
 20
31.71299195631103
 30
0.0000000000000000
 40
0.5000000000000000
100
AcDbArc
 50
270.0000000000000
 51
360.0000000000000
  0
ARC
  5
91
100
AcDbEntity
  8
1
  6
CONTINUOUS
 62
7
100
AcDbCircle
 10
112.5217301070449
 20
31.71299195630338
 30
0.0000000000000000
 40
0.5000000000000000
100
AcDbArc
 50
180.0000000000000
 51
270.0000000000000
  0
ARC
  5
92
100
AcDbEntity
  8
1
  6
CONTINUOUS
 62
7
100
AcDbCircle
 10
191.5217301069431
 20
31.71299195633384
 30
0.0000000000000000
 40
0.5000000000000000
100
AcDbArc
 50
270.0000000000000
 51
360.0000000000000
  0
LINE
  5
93
100
AcDbEntity
  8
1
  6
CONTINUOUS
 62
7
100
AcDbLine
 10
112.5217301070451
 20
31.21299195630338
 30
0.0000000000000000
 11
191.5217301069433
 21
31.21299195633383
 31
0.0000000000000000
  0
ARC
  5
94
100
AcDbEntity
  8
1
  6
CONTINUOUS
 62
7
100
AcDbCircle
 10
133.5245951779714
 20
31.78143438277249
 30
0.0000000000000000
 40
1.997135376121635
100
AcDbArc
 50
359.9616599350116
 51
410.0514538206677
  0
ARC
  5
95
100
AcDbEntity
  8
1
  6
CONTINUOUS
 62
7
100
AcDbCircle
 10
170.5217301070286
 20
31.78009797902603
 30
0.0000000000000000
 40
2.000000000000000
100
AcDbArc
 50
129.9868862449339
 51
180.0000000000000
  0
ARC
  5
96
100
AcDbEntity
  8
1
  6
CONTINUOUS
 62
7
100
AcDbCircle
 10
118.5663675456705
 20
41.71299195633432
 30
0.0000000000000000
 40
1.500000000000000
100
AcDbArc
 50
50.01311375506574
 51
90.00000000000000
  0
LINE
  5
97
100
AcDbEntity
  8
1
  6
CONTINUOUS
 62
7
100
AcDbLine
 10
132.8236669677006
 20
31.71299195633500
 30
0.0000000000000000
 11
119.5302859386347
 21
42.86227927102356
 31
0.0000000000000000
  0
LINE
  5
98
100
AcDbEntity
  8
1
  6
CONTINUOUS
 62
7
100
AcDbLine
 10
113.5217301070449
 20
43.21299195633431
 30
0.0000000000000000
 11
118.5663675456705
 21
43.21299195633431
 31
0.0000000000000000
  0
ARC
  5
99
100
AcDbEntity
  8
1
  6
CONTINUOUS
 62
7
100
AcDbCircle
 10
113.5217301070449
 20
41.71299195633432
 30
0.0000000000000000
 40
1.500000000000000
100
AcDbArc
 50
90.00000000000000
 51
180.0000000000000
  0
LINE
  5
9A
100
AcDbEntity
  8
1
  6
CONTINUOUS
 62
7
100
AcDbLine
 10
112.0217301070449
 20
41.71299195633432
 30
0.0000000000000000
 11
112.0217301070449
 21
31.71299195630567
 31
0.0000000000000000
  0
ARC
  5
9B
100
AcDbEntity
  8
1
  6
CONTINUOUS
 62
7
100
AcDbCircle
 10
185.4770926683176
 20
41.71299195633432
 30
0.0000000000000000
 40
1.500000000000000
100
AcDbArc
 50
90.00000000000000
 51
129.9868862449342
  0
LINE
  5
9C
100
AcDbEntity
  8
1
  6
CONTINUOUS
 62
7
100
AcDbLine
 10
171.2197932462873
 20
31.71299195633506
 30
0.0000000000000000
 11
184.5131742753534
 21
42.86227927102371
 31
0.0000000000000000
  0
LINE
  5
9D
100
AcDbEntity
  8
1
  6
CONTINUOUS
 62
7
100
AcDbLine
 10
190.5217301069431
 20
43.21299195633431
 30
0.0000000000000000
 11
185.4770926683176
 21
43.21299195633431
 31
0.0000000000000000
  0
ARC
  5
9E
100
AcDbEntity
  8
1
  6
CONTINUOUS
 62
7
100
AcDbCircle
 10
190.5217301069431
 20
41.71299195633432
 30
0.0000000000000000
 40
1.500000000000000
100
AcDbArc
 50
0.0000000000000000
 51
90.00000000000000
  0
LINE
  5
9F
100
AcDbEntity
  8
1
  6
CONTINUOUS
 62
7
100
AcDbLine
 10
192.0217301069431
 20
41.71299195633432
 30
0.0000000000000000
 11
192.0217301069431
 21
31.71299195630567
 31
0.0000000000000000
  0
LINE
  5
A0
100
AcDbEntity
  8
1
  6
CONTINUOUS
 62
7
100
AcDbLine
 10
190.3465701454637
 20
45.71299195633431
 30
0.0000000000000000
 11
113.6968900685239
 21
45.71299195633431
 31
0.0000000000000000
  0
ARC
  5
A1
100
AcDbEntity
  8
1
  6
CONTINUOUS
 62
7
100
AcDbCircle
 10
185.4770926683176
 20
41.71299195633432
 30
0.0000000000000000
 40
4.000000000000000
100
AcDbArc
 50
90.00000000000000
 51
129.9868862449342
  0
LINE
  5
A2
100
AcDbEntity
  8
1
  6
CONTINUOUS
 62
7
100
AcDbLine
 10
169.2365055830764
 20
33.31248106527830
 30
0.0000000000000000
 11
182.9066436204133
 21
44.77775812883889
 31
0.0000000000000000
  0
LINE
  5
A3
100
AcDbEntity
  8
1
  6
CONTINUOUS
 62
7
100
AcDbLine
 10
194.3459609260893
 20
41.78280158208338
 30
0.0000000000000000
 11
194.5217301069219
 21
31.71299195630320
 31
0.0000000000000000
  0
ARC
  5
A4
100
AcDbEntity
  8
1
  6
CONTINUOUS
 62
7
100
AcDbCircle
 10
118.5663675456703
 20
41.71299195633432
 30
0.0000000000000000
 40
4.000000000000000
100
AcDbArc
 50
50.01311375506574
 51
90.00000000000000
  0
LINE
  5
A5
100
AcDbEntity
  8
1
  6
CONTINUOUS
 62
7
100
AcDbLine
 10
134.8069546309114
 20
33.31248106527826
 30
0.0000000000000000
 11
121.1368165935745
 21
44.77775812883885
 31
0.0000000000000000
  0
LINE
  5
A6
100
AcDbEntity
  8
1
  6
CONTINUOUS
 62
7
100
AcDbLine
 10
109.6974992878984
 20
41.78280158208345
 30
0.0000000000000000
 11
109.5217301070656
 21
31.71299195630320
 31
0.0000000000000000
  0
ARC
  5
A7
100
AcDbEntity
  8
1
  6
CONTINUOUS
 62
7
100
AcDbCircle
 10
146.2355308761782
 20
262.9807409788320
 30
0.0000000000000000
 40
0.5000000000000000
100
AcDbArc
 50
0.0000000000000000
 51
90.00000000000000
  0
ARC
  5
A8
100
AcDbEntity
  8
1
  6
CONTINUOUS
 62
7
100
AcDbCircle
 10
191.5218062593645
 20
262.9807409788320
 30
0.0000000000000000
 40
0.5000000000000000
100
AcDbArc
 50
0.0000000000000000
 51
90.00000000000000
  0
LINE
  5
A9
100
AcDbEntity
  8
1
  6
CONTINUOUS
 62
7
100
AcDbLine
 10
112.5216539545558
 20
263.4807409788320
 30
0.0000000000000000
 11
191.5218062593645
 21
263.4807409788320
 31
0.0000000000000000
  0
LINE
  5
AA
100
AcDbEntity
  8
1
  6
CONTINUOUS
 62
7
100
AcDbLine
 10
150.4359907840210
 20
257.4807409788320
 30
0.0000000000000000
 11
153.5929312258077
 21
257.4807409788320
 31
0.0000000000000000
  0
LINE
  5
AB
100
AcDbEntity
  8
1
  6
CONTINUOUS
 62
7
100
AcDbLine
 10
109.5217301070112
 20
262.9807409788320
 30
0.0000000000000000
 11
194.5217301069094
 21
262.9807409788320
 31
0.0000000000000000
  0
ARC
  5
AC
100
AcDbEntity
  8
1
  6
CONTINUOUS
 62
7
100
AcDbCircle
 10
113.6968900684691
 20
252.9807409788323
 30
0.0000000000000000
 40
4.000000000000000
100
AcDbArc
 50
181.0000000000001
 51
270.0000000000000
  0
ARC
  5
AD
100
AcDbEntity
  8
1
  6
CONTINUOUS
 62
7
100
AcDbCircle
 10
190.3465701454517
 20
252.9807409788328
 30
0.0000000000000000
 40
4.000000000000000
100
AcDbArc
 50
270.0000000000000
 51
358.9999999999998
  0
LINE
  5
AE
100
AcDbEntity
  8
1
  6
CONTINUOUS
 62
7
100
AcDbLine
 10
109.5217301070112
 20
262.9807409788319
 30
0.0000000000000000
 11
109.6974992878434
 21
252.9109313530830
 31
0.0000000000000000
  0
LINE
  5
AF
100
AcDbEntity
  8
4
  6
CENTER
 62
1
100
AcDbLine
 10
152.0217301069602
 20
243.9807409788326
 30
0.0000000000000000
 11
152.0217301069602
 21
268.4807409788320
 31
0.0000000000000000
  0
LINE
  5
B0
100
AcDbEntity
  8
1
  6
CONTINUOUS
 62
7
100
AcDbLine
 10
194.5217301069094
 20
262.9807409788321
 30
0.0000000000000000
 11
194.3459609260773
 21
252.9109313530838
 31
0.0000000000000000
  0
LINE
  5
B1
100
AcDbEntity
  8
1
  6
CONTINUOUS
 62
7
100
AcDbLine
 10
190.3465701454517
 20
248.9807409788328
 30
0.0000000000000000
 11
113.6968900684691
 21
248.9807409788323
 31
0.0000000000000000
  0
LINE
  5
B2
100
AcDbEntity
  8
4
  6
CENTER
 62
1
100
AcDbLine
 10
187.5217301071193
 20
183.3812310193875
 30
0.0000000000000000
 11
198.0217301071193
 21
183.3812310193874
 31
0.0000000000000000
  0
LINE
  5
B3
100
AcDbEntity
  8
4
  6
CENTER
 62
1
100
AcDbLine
 10
187.5217301071171
 20
170.3812310193895
 30
0.0000000000000000
 11
198.0217301070897
 21
170.3812310193877
 31
0.0000000000000000
  0
LINE
  5
B4
100
AcDbEntity
  8
4
  6
CENTER
 62
1
100
AcDbLine
 10
187.5217301070600
 20
157.3812310193876
 30
0.0000000000000000
 11
198.0217301070600
 21
157.3812310193874
 31
0.0000000000000000
  0
ARC
  5
B5
100
AcDbEntity
  8
1
  6
CONTINUOUS
 62
7
100
AcDbCircle
 10
111.5217301070116
 20
115.3812310197501
 30
0.0000000000000000
 40
2.000000000000000
100
AcDbArc
 50
180.0000000000000
 51
270.0000000000000
  0
ARC
  5
B6
100
AcDbEntity
  8
1
  6
CONTINUOUS
 62
7
100
AcDbCircle
 10
133.5217301068380
 20
115.3812310197509
 30
0.0000000000000000
 40
2.000000000000000
100
AcDbArc
 50
270.0000000000000
 51
360.0000000000000
  0
ARC
  5
B7
100
AcDbEntity
  8
1
  6
CONTINUOUS
 62
7
100
AcDbCircle
 10
170.5217301069991
 20
115.3812310197932
 30
0.0000000000000000
 40
2.000000000000000
100
AcDbArc
 50
180.0000000000000
 51
270.0000000000000
  0
ARC
  5
B8
100
AcDbEntity
  8
1
  6
CONTINUOUS
 62
7
100
AcDbCircle
 10
192.5217301069099
 20
115.3812310198432
 30
0.0000000000000000
 40
2.000000000000000
100
AcDbArc
 50
270.0000000000000
 51
360.0000000000000
  0
LINE
  5
B9
100
AcDbEntity
  8
1
  6
CONTINUOUS
 62
7
100
AcDbLine
 10
135.5217301068380
 20
172.3812310197506
 30
0.0000000000000000
 11
122.2539631539139
 21
185.6489979727145
 31
0.0000000000000000
  0
LINE
  5
BA
100
AcDbEntity
  8
1
  6
CONTINUOUS
 62
7
100
AcDbLine
 10
168.5217301068862
 20
172.3812310197509
 30
0.0000000000000000
 11
181.7894970599934
 21
185.6489979727404
 31
0.0000000000000000
  0
ARC
  5
BB
100
AcDbEntity
  8
1
  6
CONTINUOUS
 62
7
100
AcDbCircle
 10
180.0217301070374
 20
183.8812310197637
 30
0.0000000000000000
 40
4.000000000000000
100
AcDbArc
 50
0.0000000000000000
 51
90.00000000000000
  0
ARC
  5
BC
100
AcDbEntity
  8
1
  6
CONTINUOUS
 62
7
100
AcDbCircle
 10
124.0217301068840
 20
183.8812310197521
 30
0.0000000000000000
 40
4.000000000000000
100
AcDbArc
 50
90.00000000000000
 51
180.0000000000000
  0
LINE
  5
BD
100
AcDbEntity
  8
1
  6
CONTINUOUS
 62
7
100
AcDbLine
 10
120.0217301068841
 20
115.3812310197505
 30
0.0000000000000000
 11
120.0217301068841
 21
183.8812310197616
 31
0.0000000000000000
  0
LINE
  5
BE
100
AcDbEntity
  8
1
  6
CONTINUOUS
 62
7
100
AcDbLine
 10
152.0217301069607
 20
172.3812310197506
 30
0.0000000000000000
 11
139.5217301068488
 21
172.3812310197506
 31
0.0000000000000000
  0
LINE
  5
BF
100
AcDbEntity
  8
1
  6
CONTINUOUS
 62
7
100
AcDbLine
 10
124.0217301068832
 20
187.8812310197521
 30
0.0000000000000000
 11
180.0217301070366
 21
187.8812310197638
 31
0.0000000000000000
  0
LINE
  5
C0
100
AcDbEntity
  8
4
  6
CENTER
 62
1
100
AcDbLine
 10
156.0217301069607
 20
192.8812310197569
 30
0.0000000000000000
 11
148.0217301069607
 21
192.8812310197569
 31
0.0000000000000000
  0
CIRCLE
  5
C1
100
AcDbEntity
  8
1
  6
CONTINUOUS
 62
7
100
AcDbCircle
 10
152.0217301069607
 20
192.8812310197569
 30
0.0000000000000000
 40
2.500000000000000
  0
LINE
  5
C2
100
AcDbEntity
  8
1
  6
CONTINUOUS
 62
7
100
AcDbLine
 10
184.0217301070374
 20
115.3812310197505
 30
0.0000000000000000
 11
184.0217301070374
 21
183.8812310197616
 31
0.0000000000000000
  0
LINE
  5
C3
100
AcDbEntity
  8
4
  6
CENTER
 62
1
100
AcDbLine
 10
116.5217301068614
 20
157.3812310193876
 30
0.0000000000000000
 11
106.0217301068614
 21
157.3812310193876
 31
0.0000000000000000
  0
LINE
  5
C4
100
AcDbEntity
  8
4
  6
CENTER
 62
1
100
AcDbLine
 10
116.5217301068044
 20
170.3812310193895
 30
0.0000000000000000
 11
106.0217301068318
 21
170.3812310193877
 31
0.0000000000000000
  0
LINE
  5
C5
100
AcDbEntity
  8
4
  6
CENTER
 62
1
100
AcDbLine
 10
116.5217301068022
 20
183.3812310193875
 30
0.0000000000000000
 11
106.0217301068022
 21
183.3812310193875
 31
0.0000000000000000
  0
LINE
  5
C6
100
AcDbEntity
  8
1
  6
CONTINUOUS
 62
7
100
AcDbLine
 10
111.5217301070116
 20
113.3812310197501
 30
0.0000000000000000
 11
133.5217301068381
 21
113.3812310197510
 31
0.0000000000000000
  0
LINE
  5
C7
100
AcDbEntity
  8
1
  6
CONTINUOUS
 62
7
100
AcDbLine
 10
170.5217301070037
 20
113.3812310197931
 30
0.0000000000000000
 11
192.5217301069144
 21
113.3812310198432
 31
0.0000000000000000
  0
LINE
  5
C8
100
AcDbEntity
  8
4
  6
CENTER
 62
1
100
AcDbLine
 10
152.0217301069607
 20
114.8812310197255
 30
0.0000000000000000
 11
152.0217301069607
 21
199.8812310197255
 31
0.0000000000000000
  0
LINE
  5
C9
100
AcDbEntity
  8
1
  6
CONTINUOUS
 62
7
100
AcDbLine
 10
109.5217301070116
 20
115.3812310197501
 30
0.0000000000000000
 11
109.5217301070116
 21
194.3812310197501
 31
0.0000000000000000
  0
LINE
  5
CA
100
AcDbEntity
  8
1
  6
CONTINUOUS
 62
7
100
AcDbLine
 10
194.5217301069099
 20
115.3812310198432
 30
0.0000000000000000
 11
194.5217301069099
 21
194.3812310197656
 31
0.0000000000000000
  0
LINE
  5
CB
100
AcDbEntity
  8
1
  6
CONTINUOUS
 62
7
100
AcDbLine
 10
164.5217301068941
 20
172.3812310197506
 30
0.0000000000000000
 11
139.5217301068488
 21
172.3812310197506
 31
0.0000000000000000
  0
LINE
  5
CC
100
AcDbEntity
  8
1
  6
CONTINUOUS
 62
7
100
AcDbLine
 10
109.5217301070116
 20
163.7057863396532
 30
0.0000000000000000
 11
109.5217301070116
 21
164.0566756991361
 31
0.0000000000000000
  0
LINE
  5
CD
100
AcDbEntity
  8
1
  6
CONTINUOUS
 62
7
100
AcDbLine
 10
194.5217301069099
 20
177.0566756989570
 30
0.0000000000000000
 11
194.5217301069099
 21
176.7057863396306
 31
0.0000000000000000
  0
LINE
  5
CE
100
AcDbEntity
  8
1
  6
CONTINUOUS
 62
7
100
AcDbLine
 10
194.5217301069099
 20
164.0566756989570
 30
0.0000000000000000
 11
194.5217301069099
 21
163.7057863396305
 31
0.0000000000000000
  0
LINE
  5
CF
100
AcDbEntity
  8
1
  6
CONTINUOUS
 62
7
100
AcDbLine
 10
109.5217301070116
 20
176.7057863396391
 30
0.0000000000000000
 11
109.5217301070116
 21
177.0566756991502
 31
0.0000000000000000
  0
LINE
  5
D0
100
AcDbEntity
  8
1
  6
CONTINUOUS
 62
7
100
AcDbLine
 10
113.5217301070116
 20
198.3812310197501
 30
0.0000000000000000
 11
190.5217301069100
 21
198.3812310197656
 31
0.0000000000000000
  0
LINE
  5
D1
100
AcDbEntity
  8
1
  6
CONTINUOUS
 62
7
100
AcDbLine
 10
135.5217301068380
 20
168.3812310197507
 30
0.0000000000000000
 11
135.5217301068380
 21
115.3812310197509
 31
0.0000000000000000
  0
LINE
  5
D2
100
AcDbEntity
  8
1
  6
CONTINUOUS
 62
7
100
AcDbLine
 10
168.5217301069991
 20
115.3812310197892
 30
0.0000000000000000
 11
168.5217301068941
 21
168.3812310197594
 31
0.0000000000000000
  0
ARC
  5
D3
100
AcDbEntity
  8
1
  6
CONTINUOUS
 62
7
100
AcDbCircle
 10
196.5217301069099
 20
157.3812310192939
 30
0.0000000000000000
 40
6.000000000000000
100
AcDbArc
 50
115.3769335251525
 51
244.6230664748483
  0
ARC
  5
D4
100
AcDbEntity
  8
1
  6
CONTINUOUS
 62
7
100
AcDbCircle
 10
193.5217301069099
 20
163.7057863396305
 30
0.0000000000000000
 40
1.000000000000000
100
AcDbArc
 50
295.3769335251525
 51
360.0000000000000
  0
ARC
  5
D5
100
AcDbEntity
  8
1
  6
CONTINUOUS
 62
7
100
AcDbCircle
 10
107.5217301068022
 20
183.3812310193875
 30
0.0000000000000000
 40
6.000000000000000
100
AcDbArc
 50
295.3769335270493
 51
424.6230664729505
  0
ARC
  5
D6
100
AcDbEntity
  8
1
  6
CONTINUOUS
 62
7
100
AcDbCircle
 10
110.5217301070116
 20
177.0566756991502
 30
0.0000000000000000
 40
1.000000000000000
100
AcDbArc
 50
115.3769335270494
 51
180.0000000000000
  0
ARC
  5
D7
100
AcDbEntity
  8
1
  6
CONTINUOUS
 62
7
100
AcDbCircle
 10
193.5217301069099
 20
189.7057863396305
 30
0.0000000000000000
 40
1.000000000000000
100
AcDbArc
 50
295.3769335251525
 51
360.0000000000000
  0
ARC
  5
D8
100
AcDbEntity
  8
1
  6
CONTINUOUS
 62
7
100
AcDbCircle
 10
107.5217301068614
 20
157.3812310193876
 30
0.0000000000000000
 40
6.000000000000000
100
AcDbArc
 50
295.3769335265123
 51
424.6230664734877
  0
ARC
  5
D9
100
AcDbEntity
  8
1
  6
CONTINUOUS
 62
7
100
AcDbCircle
 10
107.5217301068317
 20
170.3812310193876
 30
0.0000000000000000
 40
6.000000000000000
100
AcDbArc
 50
295.3769335267809
 51
424.6230664732191
  0
ARC
  5
DA
100
AcDbEntity
  8
1
  6
CONTINUOUS
 62
7
100
AcDbCircle
 10
110.5217301070116
 20
164.0566756991361
 30
0.0000000000000000
 40
1.000000000000000
100
AcDbArc
 50
115.3769335267817
 51
180.0000000000000
  0
ARC
  5
DB
100
AcDbEntity
  8
1
  6
CONTINUOUS
 62
7
100
AcDbCircle
 10
193.5217301069099
 20
176.7057863396306
 30
0.0000000000000000
 40
1.000000000000000
100
AcDbArc
 50
295.3769335251525
 51
360.0000000000000
  0
ARC
  5
DC
100
AcDbEntity
  8
1
  6
CONTINUOUS
 62
7
100
AcDbCircle
 10
196.5217301069099
 20
183.3812310192939
 30
0.0000000000000000
 40
6.000000000000000
100
AcDbArc
 50
115.3769335251525
 51
244.6230664748483
  0
ARC
  5
DD
100
AcDbEntity
  8
1
  6
CONTINUOUS
 62
7
100
AcDbCircle
 10
110.5217301070116
 20
151.0566756991220
 30
0.0000000000000000
 40
1.000000000000000
100
AcDbArc
 50
115.3769335265122
 51
180.0000000000000
  0
ARC
  5
DE
100
AcDbEntity
  8
1
  6
CONTINUOUS
 62
7
100
AcDbCircle
 10
196.5217301069099
 20
170.3812310192939
 30
0.0000000000000000
 40
6.000000000000000
100
AcDbArc
 50
115.3769335251525
 51
244.6230664748483
  0
ARC
  5
DF
100
AcDbEntity
  8
1
  6
CONTINUOUS
 62
7
100
AcDbCircle
 10
113.5217301070116
 20
194.3812310197501
 30
0.0000000000000000
 40
4.000000000000000
100
AcDbArc
 50
90.00000000000000
 51
180.0000000000000
  0
ARC
  5
E0
100
AcDbEntity
  8
1
  6
CONTINUOUS
 62
7
100
AcDbCircle
 10
190.5217301069099
 20
194.3812310197656
 30
0.0000000000000000
 40
4.000000000000000
100
AcDbArc
 50
0.0000000000000000
 51
90.00000000000000
  0
ARC
  5
E1
100
AcDbEntity
  8
1
  6
CONTINUOUS
 62
7
100
AcDbCircle
 10
193.5217301069099
 20
151.0566756989570
 30
0.0000000000000000
 40
1.000000000000000
100
AcDbArc
 50
0.0000000000000000
 51
64.62306647484675
  0
ARC
  5
E2
100
AcDbEntity
  8
1
  6
CONTINUOUS
 62
7
100
AcDbCircle
 10
110.5217301070116
 20
189.7057863396249
 30
0.0000000000000000
 40
1.000000000000000
100
AcDbArc
 50
179.9999999999996
 51
244.6230664729506
  0
ARC
  5
E3
100
AcDbEntity
  8
1
  6
CONTINUOUS
 62
7
100
AcDbCircle
 10
193.5217301069099
 20
177.0566756989570
 30
0.0000000000000000
 40
1.000000000000000
100
AcDbArc
 50
4.071000000000000e-13
 51
64.62306647484675
  0
ARC
  5
E4
100
AcDbEntity
  8
1
  6
CONTINUOUS
 62
7
100
AcDbCircle
 10
193.5217301069099
 20
164.0566756989570
 30
0.0000000000000000
 40
1.000000000000000
100
AcDbArc
 50
0.0000000000000000
 51
64.62306647484675
  0
ARC
  5
E5
100
AcDbEntity
  8
1
  6
CONTINUOUS
 62
7
100
AcDbCircle
 10
110.5217301070116
 20
176.7057863396391
 30
0.0000000000000000
 40
1.000000000000000
100
AcDbArc
 50
180.0000000000000
 51
244.6230664732182
  0
ARC
  5
E6
100
AcDbEntity
  8
1
  6
CONTINUOUS
 62
7
100
AcDbCircle
 10
110.5217301070116
 20
163.7057863396532
 30
0.0000000000000000
 40
1.000000000000000
100
AcDbArc
 50
180.0000000000000
 51
244.6230664734877
  0
ARC
  5
E7
100
AcDbEntity
  8
1
  6
CONTINUOUS
 62
7
100
AcDbCircle
 10
139.5217301068488
 20
168.3812310197507
 30
0.0000000000000000
 40
4.000000000000000
100
AcDbArc
 50
90.00000000000000
 51
180.0000000000016
  0
ARC
  5
E8
100
AcDbEntity
  8
1
  6
CONTINUOUS
 62
7
100
AcDbCircle
 10
164.5217301068941
 20
168.3812310197507
 30
0.0000000000000000
 40
4.000000000000000
100
AcDbArc
 50
1.302755000000000e-10
 51
90.00000000000000
  0
ARC
  5
E9
100
AcDbEntity
  8
1
  6
CONTINUOUS
 62
7
100
AcDbCircle
 10
113.6968900685239
 20
41.71299195633432
 30
0.0000000000000000
 40
4.000000000000000
100
AcDbArc
 50
90.00000000000000
 51
179.0000000000000
  0
ARC
  5
EA
100
AcDbEntity
  8
1
  6
CONTINUOUS
 62
7
100
AcDbCircle
 10
190.3465701454637
 20
41.71299195633432
 30
0.0000000000000000
 40
4.000000000000000
100
AcDbArc
 50
0.9999999999991743
 51
90.00000000000000
  0
LINE
  5
EB
100
AcDbEntity
  8
1
  6
CONTINUOUS
 62
7
100
AcDbLine
 10
135.5217301069588
 20
31.78009797902603
 30
0.0000000000000000
 11
135.5217301069589
 21
31.71299195632495
 31
0.0000000000000000
  0
ARC
  5
EC
100
AcDbEntity
  8
1
  6
CONTINUOUS
 62
7
100
AcDbCircle
 10
265.2938485108151
 20
185.9155286009026
 30
0.0000000000000000
 40
3.122556668092669
100
AcDbArc
 50
40.09680372168598
 51
90.00000000000000
  0
ARC
  5
ED
100
AcDbEntity
  8
1
  6
CONTINUOUS
 62
7
100
AcDbCircle
 10
264.0654415688801
 20
184.8812310194467
 30
0.0000000000000000
 40
4.728406941935019
100
AcDbArc
 50
3.444000000000000e-13
 51
40.09680372168586
  0
ARC
  5
EE
100
AcDbEntity
  8
1
  6
CONTINUOUS
 62
7
100
AcDbCircle
 10
264.0654415688801
 20
181.8812310193466
 30
0.0000000000000000
 40
4.728406941935019
100
AcDbArc
 50
319.9031962783141
 51
359.9999999999996
  0
ARC
  5
EF
100
AcDbEntity
  8
1
  6
CONTINUOUS
 62
7
100
AcDbCircle
 10
265.2938485108151
 20
180.8469334378907
 30
0.0000000000000000
 40
3.122556668092669
100
AcDbArc
 50
270.0000000000000
 51
319.9031962783140
  0
ARC
  5
F0
100
AcDbEntity
  8
1
  6
CONTINUOUS
 62
7
100
AcDbCircle
 10
258.6693261196708
 20
186.5057534105910
 30
0.0000000000000000
 40
2.297421597934973
100
AcDbArc
 50
106.4561778291785
 51
174.4982684057298
  0
ARC
  5
F1
100
AcDbEntity
  8
1
  6
CONTINUOUS
 62
7
100
AcDbCircle
 10
260.2938485108150
 20
181.0060145662898
 30
0.0000000000000000
 40
8.032070702705386
100
AcDbArc
 50
90.00000000000000
 51
106.4561778291785
  0
ARC
  5
F2
100
AcDbEntity
  8
1
  6
CONTINUOUS
 62
7
100
AcDbCircle
 10
275.5352934386925
 20
184.8812310194468
 30
0.0000000000000000
 40
19.24144492787753
100
AcDbArc
 50
174.4982684057299
 51
180.0000000000000
  0
ARC
  5
F3
100
AcDbEntity
  8
1
  6
CONTINUOUS
 62
7
100
AcDbCircle
 10
258.6693261196708
 20
180.2567086282022
 30
0.0000000000000000
 40
2.297421597934973
100
AcDbArc
 50
185.5017315942701
 51
253.5438221708214
  0
ARC
  5
F4
100
AcDbEntity
  8
1
  6
CONTINUOUS
 62
7
100
AcDbCircle
 10
275.5352934386925
 20
181.8812310193465
 30
0.0000000000000000
 40
19.24144492787753
100
AcDbArc
 50
179.9999999999999
 51
185.5017315942700
  0
ARC
  5
F5
100
AcDbEntity
  8
1
  6
CONTINUOUS
 62
7
100
AcDbCircle
 10
260.2938485108150
 20
185.7564474725034
 30
0.0000000000000000
 40
8.032070702705386
100
AcDbArc
 50
253.5438221708214
 51
270.0000000000000
  0
LINE
  5
F6
100
AcDbEntity
  8
1
  6
CONTINUOUS
 62
7
100
AcDbLine
 10
265.2938485108151
 20
176.0380852689982
 30
0.0000000000000000
 11
260.2938485108150
 21
176.0380852689982
 31
0.0000000000000000
  0
LINE
  5
F7
100
AcDbEntity
  8
1
  6
CONTINUOUS
 62
7
100
AcDbLine
 10
260.2938485108150
 20
164.7243767698011
 30
0.0000000000000000
 11
265.2938485108151
 21
164.7243767698011
 31
0.0000000000000000
  0
ARC
  5
F8
100
AcDbEntity
  8
1
  6
CONTINUOUS
 62
7
100
AcDbCircle
 10
258.6693261196708
 20
167.2567086282051
 30
0.0000000000000000
 40
2.297421597934973
100
AcDbArc
 50
185.5017315942701
 51
253.5438221708214
  0
ARC
  5
F9
100
AcDbEntity
  8
1
  6
CONTINUOUS
 62
7
100
AcDbCircle
 10
260.2938485108150
 20
172.7564474725063
 30
0.0000000000000000
 40
8.032070702705386
100
AcDbArc
 50
253.5438221708214
 51
270.0000000000000
  0
ARC
  5
FA
100
AcDbEntity
  8
1
  6
CONTINUOUS
 62
7
100
AcDbCircle
 10
275.5352934386925
 20
168.8812310193494
 30
0.0000000000000000
 40
19.24144492787753
100
AcDbArc
 50
179.9999999999999
 51
185.5017315942700
  0
ARC
  5
FB
100
AcDbEntity
  8
1
  6
CONTINUOUS
 62
7
100
AcDbCircle
 10
258.6693261196708
 20
173.5057534105940
 30
0.0000000000000000
 40
2.297421597934973
100
AcDbArc
 50
106.4561778291785
 51
174.4982684057298
  0
ARC
  5
FC
100
AcDbEntity
  8
1
  6
CONTINUOUS
 62
7
100
AcDbCircle
 10
275.5352934386925
 20
171.8812310194496
 30
0.0000000000000000
 40
19.24144492787753
100
AcDbArc
 50
174.4982684057299
 51
180.0000000000000
  0
ARC
  5
FD
100
AcDbEntity
  8
1
  6
CONTINUOUS
 62
7
100
AcDbCircle
 10
260.2938485108150
 20
168.0060145662928
 30
0.0000000000000000
 40
8.032070702705386
100
AcDbArc
 50
90.00000000000000
 51
106.4561778291785
  0
ARC
  5
FE
100
AcDbEntity
  8
1
  6
CONTINUOUS
 62
7
100
AcDbCircle
 10
265.2938485108151
 20
167.8469334378936
 30
0.0000000000000000
 40
3.122556668092669
100
AcDbArc
 50
270.0000000000000
 51
319.9031962783140
  0
ARC
  5
FF
100
AcDbEntity
  8
1
  6
CONTINUOUS
 62
7
100
AcDbCircle
 10
264.0654415688801
 20
168.8812310193495
 30
0.0000000000000000
 40
4.728406941935019
100
AcDbArc
 50
319.9031962783141
 51
359.9999999999996
  0
ARC
  5
100
100
AcDbEntity
  8
1
  6
CONTINUOUS
 62
7
100
AcDbCircle
 10
264.0654415688801
 20
171.8812310194496
 30
0.0000000000000000
 40
4.728406941935019
100
AcDbArc
 50
3.444000000000000e-13
 51
40.09680372168586
  0
ARC
  5
101
100
AcDbEntity
  8
1
  6
CONTINUOUS
 62
7
100
AcDbCircle
 10
265.2938485108151
 20
172.9155286009055
 30
0.0000000000000000
 40
3.122556668092669
100
AcDbArc
 50
40.09680372168598
 51
90.00000000000000
  0
LINE
  5
102
100
AcDbEntity
  8
1
  6
CONTINUOUS
 62
7
100
AcDbLine
 10
265.2938485108151
 20
163.0380852689885
 30
0.0000000000000000
 11
260.2938485108150
 21
163.0380852689885
 31
0.0000000000000000
  0
LINE
  5
103
100
AcDbEntity
  8
1
  6
CONTINUOUS
 62
7
100
AcDbLine
 10
260.2938485108150
 20
151.7243767697914
 30
0.0000000000000000
 11
265.2938485108151
 21
151.7243767697914
 31
0.0000000000000000
  0
ARC
  5
104
100
AcDbEntity
  8
1
  6
CONTINUOUS
 62
7
100
AcDbCircle
 10
258.6693261196708
 20
154.2567086281955
 30
0.0000000000000000
 40
2.297421597934973
100
AcDbArc
 50
185.5017315942701
 51
253.5438221708214
  0
ARC
  5
105
100
AcDbEntity
  8
1
  6
CONTINUOUS
 62
7
100
AcDbCircle
 10
260.2938485108150
 20
159.7564474724967
 30
0.0000000000000000
 40
8.032070702705386
100
AcDbArc
 50
253.5438221708214
 51
270.0000000000000
  0
ARC
  5
106
100
AcDbEntity
  8
1
  6
CONTINUOUS
 62
7
100
AcDbCircle
 10
275.5352934386925
 20
155.8812310193398
 30
0.0000000000000000
 40
19.24144492787753
100
AcDbArc
 50
179.9999999999999
 51
185.5017315942700
  0
ARC
  5
107
100
AcDbEntity
  8
1
  6
CONTINUOUS
 62
7
100
AcDbCircle
 10
258.6693261196708
 20
160.5057534105843
 30
0.0000000000000000
 40
2.297421597934973
100
AcDbArc
 50
106.4561778291785
 51
174.4982684057298
  0
ARC
  5
108
100
AcDbEntity
  8
1
  6
CONTINUOUS
 62
7
100
AcDbCircle
 10
275.5352934386925
 20
158.8812310194400
 30
0.0000000000000000
 40
19.24144492787753
100
AcDbArc
 50
174.4982684057299
 51
180.0000000000000
  0
ARC
  5
109
100
AcDbEntity
  8
1
  6
CONTINUOUS
 62
7
100
AcDbCircle
 10
260.2938485108150
 20
155.0060145662831
 30
0.0000000000000000
 40
8.032070702705386
100
AcDbArc
 50
90.00000000000000
 51
106.4561778291785
  0
ARC
  5
10A
100
AcDbEntity
  8
1
  6
CONTINUOUS
 62
7
100
AcDbCircle
 10
265.2938485108151
 20
154.8469334378840
 30
0.0000000000000000
 40
3.122556668092669
100
AcDbArc
 50
270.0000000000000
 51
319.9031962783140
  0
ARC
  5
10B
100
AcDbEntity
  8
1
  6
CONTINUOUS
 62
7
100
AcDbCircle
 10
264.0654415688801
 20
155.8812310193398
 30
0.0000000000000000
 40
4.728406941935019
100
AcDbArc
 50
319.9031962783141
 51
359.9999999999996
  0
ARC
  5
10C
100
AcDbEntity
  8
1
  6
CONTINUOUS
 62
7
100
AcDbCircle
 10
264.0654415688801
 20
158.8812310194400
 30
0.0000000000000000
 40
4.728406941935019
100
AcDbArc
 50
3.444000000000000e-13
 51
40.09680372168586
  0
ARC
  5
10D
100
AcDbEntity
  8
1
  6
CONTINUOUS
 62
7
100
AcDbCircle
 10
265.2938485108151
 20
159.9155286008958
 30
0.0000000000000000
 40
3.122556668092669
100
AcDbArc
 50
40.09680372168598
 51
90.00000000000000
  0
ARC
  5
10E
100
AcDbEntity
  8
1
  6
CONTINUOUS
 62
7
100
AcDbCircle
 10
186.0217301070374
 20
115.3812310197932
 30
0.0000000000000000
 40
2.000000000000000
100
AcDbArc
 50
180.0000000000000
 51
270.0000000000000
  0
ARC
  5
10F
100
AcDbEntity
  8
1
  6
CONTINUOUS
 62
7
100
AcDbCircle
 10
118.0217301068841
 20
115.3812310197509
 30
0.0000000000000000
 40
2.000000000000000
100
AcDbArc
 50
270.0000000000000
 51
360.0000000000000
  0
LINE
  5
110
100
AcDbEntity
  8
4
  6
CENTER
 62
1
100
AcDbLine
 10
152.0217301069938
 20
26.21299195633489
 30
0.0000000000000000
 11
152.0217301069938
 21
50.71299195633432
 31
0.0000000000000000
  0
ARC
  5
111
100
AcDbEntity
  8
1
  6
CONTINUOUS
 62
7
100
AcDbCircle
 10
150.4359907840210
 20
258.4807409788320
 30
0.0000000000000000
 40
1.000000000000000
100
AcDbArc
 50
184.5871695425368
 51
270.0000000000000
  0
ARC
  5
112
100
AcDbEntity
  8
1
  6
CONTINUOUS
 62
7
100
AcDbCircle
 10
153.5929312258077
 20
258.4807409788320
 30
0.0000000000000000
 40
1.000000000000000
100
AcDbArc
 50
270.0000000000000
 51
355.2322281605666
  0
LINE
  5
113
100
AcDbEntity
  8
3
  6
DASHED
 62
2
100
AcDbLine
 10
270.2267424880724
 20
172.3812310197506
 30
0.0000000000000000
 11
270.2938485108143
 21
172.3812310197506
 31
0.0000000000000000
  0
LINE
  5
114
100
AcDbEntity
  8
3
  6
DASHED
 62
2
100
AcDbLine
 10
46.81437787561102
 20
186.7661445331335
 30
0.0000000000000000
 11
35.34910081210131
 21
173.0960064958572
 31
0.0000000000000000
  0
LINE
  5
115
100
AcDbEntity
  8
1
  6
CONTINUOUS
 62
7
100
AcDbLine
 10
43.74961170310638
 20
151.7243767697914
 30
0.0000000000000000
 11
38.74961170310625
 21
151.7243767697914
 31
0.0000000000000000
  0
LINE
  5
116
100
AcDbEntity
  8
1
  6
CONTINUOUS
 62
7
100
AcDbLine
 10
38.74961170310625
 20
163.0380852689885
 30
0.0000000000000000
 11
43.74961170310638
 21
163.0380852689885
 31
0.0000000000000000
  0
LINE
  5
117
100
AcDbEntity
  8
1
  6
CONTINUOUS
 62
7
100
AcDbLine
 10
43.74961170310638
 20
164.7243767698011
 30
0.0000000000000000
 11
38.74961170310625
 21
164.7243767698011
 31
0.0000000000000000
  0
LINE
  5
118
100
AcDbEntity
  8
1
  6
CONTINUOUS
 62
7
100
AcDbLine
 10
38.74961170310625
 20
176.0380852689982
 30
0.0000000000000000
 11
43.74961170310638
 21
176.0380852689982
 31
0.0000000000000000
  0
LINE
  5
119
100
AcDbEntity
  8
1
  6
CONTINUOUS
 62
7
100
AcDbLine
 10
43.81942132885542
 20
198.2054618389334
 30
0.0000000000000000
 11
33.74961170310713
 21
198.3812310197657
 31
0.0000000000000000
  0
LINE
  5
11A
100
AcDbEntity
  8
1
  6
CONTINUOUS
 62
7
100
AcDbLine
 10
33.74961170310699
 20
113.3812310198386
 30
0.0000000000000000
 11
45.78451651598098
 21
113.5913010647523
 31
0.0000000000000000
  0
LINE
  5
11B
100
AcDbEntity
  8
1
  6
CONTINUOUS
 62
7
100
AcDbLine
 10
38.74961170310625
 20
189.0380852689951
 30
0.0000000000000000
 11
43.74961170310638
 21
189.0380852689951
 31
0.0000000000000000
  0
LINE
  5
11C
100
AcDbEntity
  8
1
  6
CONTINUOUS
 62
7
100
AcDbLine
 10
43.74961170310638
 20
177.7243767697982
 30
0.0000000000000000
 11
38.74961170310625
 21
177.7243767697982
 31
0.0000000000000000
  0
ARC
  5
11D
100
AcDbEntity
  8
1
  6
CONTINUOUS
 62
7
100
AcDbCircle
 10
45.37413409425056
 20
180.2567086282022
 30
0.0000000000000000
 40
2.297421597934973
100
AcDbArc
 50
286.4561778291785
 51
354.4982684057298
  0
LINE
  5
11E
100
AcDbEntity
  8
1
  6
CONTINUOUS
 62
7
100
AcDbLine
 10
47.74961170310638
 20
115.5909964550651
 30
0.0000000000000000
 11
47.74961170310638
 21
194.2060710583078
 31
0.0000000000000000
  0
LINE
  5
11F
100
AcDbEntity
  8
1
  6
CONTINUOUS
 62
7
100
AcDbLine
 10
47.74961170310638
 20
170.3812310193978
 30
0.0000000000000000
 11
47.74961170310638
 21
183.3812310193967
 31
0.0000000000000000
  0
ARC
  5
120
100
AcDbEntity
  8
1
  6
CONTINUOUS
 62
7
100
AcDbCircle
 10
45.74961170310638
 20
115.5909964550651
 30
0.0000000000000000
 40
2.000000000000000
100
AcDbArc
 50
271.0000000000000
 51
360.0000000000000
  0
LINE
  5
121
100
AcDbEntity
  8
1
  6
CONTINUOUS
 62
7
100
AcDbLine
 10
47.74961170310638
 20
157.3812310193879
 30
0.0000000000000000
 11
47.74961170310638
 21
170.3812310193978
 31
0.0000000000000000
  0
ARC
  5
122
100
AcDbEntity
  8
1
  6
CONTINUOUS
 62
7
100
AcDbCircle
 10
28.50816677522886
 20
155.8812310193398
 30
0.0000000000000000
 40
19.24144492787753
100
AcDbArc
 50
354.4982684057299
 51
360.0000000000001
  0
ARC
  5
123
100
AcDbEntity
  8
1
  6
CONTINUOUS
 62
7
100
AcDbCircle
 10
43.74961170310638
 20
159.7564474724967
 30
0.0000000000000000
 40
8.032070702705386
100
AcDbArc
 50
270.0000000000000
 51
286.4561778291783
  0
ARC
  5
124
100
AcDbEntity
  8
1
  6
CONTINUOUS
 62
7
100
AcDbCircle
 10
45.37413409425056
 20
154.2567086281955
 30
0.0000000000000000
 40
2.297421597934973
100
AcDbArc
 50
286.4561778291785
 51
354.4982684057298
  0
ARC
  5
125
100
AcDbEntity
  8
1
  6
CONTINUOUS
 62
7
100
AcDbCircle
 10
28.50816677522886
 20
168.8812310193494
 30
0.0000000000000000
 40
19.24144492787753
100
AcDbArc
 50
354.4982684057299
 51
360.0000000000001
  0
ARC
  5
126
100
AcDbEntity
  8
1
  6
CONTINUOUS
 62
7
100
AcDbCircle
 10
43.74961170310638
 20
155.0060145662831
 30
0.0000000000000000
 40
8.032070702705386
100
AcDbArc
 50
73.54382217082150
 51
90.00000000000000
  0
ARC
  5
127
100
AcDbEntity
  8
1
  6
CONTINUOUS
 62
7
100
AcDbCircle
 10
28.50816677522886
 20
158.8812310194400
 30
0.0000000000000000
 40
19.24144492787753
100
AcDbArc
 50
359.9999999999998
 51
365.5017315942700
  0
ARC
  5
128
100
AcDbEntity
  8
1
  6
CONTINUOUS
 62
7
100
AcDbCircle
 10
45.37413409425056
 20
160.5057534105843
 30
0.0000000000000000
 40
2.297421597934973
100
AcDbArc
 50
5.501731594270148
 51
73.54382217082144
  0
ARC
  5
129
100
AcDbEntity
  8
1
  6
CONTINUOUS
 62
7
100
AcDbCircle
 10
43.74961170310638
 20
172.7564474725063
 30
0.0000000000000000
 40
8.032070702705386
100
AcDbArc
 50
270.0000000000000
 51
286.4561778291783
  0
ARC
  5
12A
100
AcDbEntity
  8
1
  6
CONTINUOUS
 62
7
100
AcDbCircle
 10
45.37413409425056
 20
167.2567086282051
 30
0.0000000000000000
 40
2.297421597934973
100
AcDbArc
 50
286.4561778291785
 51
354.4982684057298
  0
ARC
  5
12B
100
AcDbEntity
  8
1
  6
CONTINUOUS
 62
7
100
AcDbCircle
 10
43.74961170310638
 20
168.0060145662928
 30
0.0000000000000000
 40
8.032070702705386
100
AcDbArc
 50
73.54382217082150
 51
90.00000000000000
  0
ARC
  5
12C
100
AcDbEntity
  8
1
  6
CONTINUOUS
 62
7
100
AcDbCircle
 10
28.50816677522886
 20
171.8812310194496
 30
0.0000000000000000
 40
19.24144492787753
100
AcDbArc
 50
359.9999999999998
 51
365.5017315942700
  0
ARC
  5
12D
100
AcDbEntity
  8
1
  6
CONTINUOUS
 62
7
100
AcDbCircle
 10
45.37413409425056
 20
173.5057534105940
 30
0.0000000000000000
 40
2.297421597934973
100
AcDbArc
 50
5.501731594270148
 51
73.54382217082144
  0
ARC
  5
12E
100
AcDbEntity
  8
1
  6
CONTINUOUS
 62
7
100
AcDbCircle
 10
43.74961170310638
 20
185.7564474725034
 30
0.0000000000000000
 40
8.032070702705386
100
AcDbArc
 50
270.0000000000000
 51
286.4561778291783
  0
ARC
  5
12F
100
AcDbEntity
  8
3
  6
DASHED
 62
2
100
AcDbCircle
 10
43.74961170310638
 20
189.3365935810379
 30
0.0000000000000000
 40
4.000000000000000
100
AcDbArc
 50
320.0131137550657
 51
360.0000000000000
  0
ARC
  5
130
100
AcDbEntity
  8
1
  6
CONTINUOUS
 62
7
100
AcDbCircle
 10
28.50816677522886
 20
181.8812310193465
 30
0.0000000000000000
 40
19.24144492787753
100
AcDbArc
 50
354.4982684057299
 51
360.0000000000001
  0
ARC
  5
131
100
AcDbEntity
  8
1
  6
CONTINUOUS
 62
7
100
AcDbCircle
 10
45.37413409425056
 20
186.5057534105910
 30
0.0000000000000000
 40
2.297421597934973
100
AcDbArc
 50
5.501731594270148
 51
73.54382217082144
  0
ARC
  5
132
100
AcDbEntity
  8
1
  6
CONTINUOUS
 62
7
100
AcDbCircle
 10
28.50816677522886
 20
184.8812310194468
 30
0.0000000000000000
 40
19.24144492787753
100
AcDbArc
 50
359.9999999999998
 51
365.5017315942700
  0
ARC
  5
133
100
AcDbEntity
  8
1
  6
CONTINUOUS
 62
7
100
AcDbCircle
 10
43.74961170310638
 20
181.0060145662898
 30
0.0000000000000000
 40
8.032070702705386
100
AcDbArc
 50
73.54382217082150
 51
90.00000000000000
  0
ARC
  5
134
100
AcDbEntity
  8
1
  6
CONTINUOUS
 62
7
100
AcDbCircle
 10
43.74961170310625
 20
194.2060710583078
 30
0.0000000000000000
 40
4.000000000000000
100
AcDbArc
 50
6.999999999999999e-15
 51
88.99999999999987
  0
ARC
  5
135
100
AcDbEntity
  8
1
  6
CONTINUOUS
 62
7
100
AcDbCircle
 10
38.74961170310625
 20
180.8469334378907
 30
0.0000000000000000
 40
3.122556668092669
100
AcDbArc
 50
220.0968037216859
 51
270.0000000000000
  0
ARC
  5
136
100
AcDbEntity
  8
1
  6
CONTINUOUS
 62
7
100
AcDbCircle
 10
39.97801864504129
 20
181.8812310193466
 30
0.0000000000000000
 40
4.728406941935019
100
AcDbArc
 50
180.0000000000004
 51
220.0968037216858
  0
LINE
  5
137
100
AcDbEntity
  8
1
  6
CONTINUOUS
 62
7
100
AcDbLine
 10
33.74961170310712
 20
113.3812310198386
 30
0.0000000000000000
 11
33.74961170310712
 21
198.3812310197656
 31
0.0000000000000000
  0
LINE
  5
138
100
AcDbEntity
  8
1
  6
CONTINUOUS
 62
7
100
AcDbLine
 10
33.24961170310712
 20
114.3812310198386
 30
0.0000000000000000
 11
33.24961170310712
 21
195.7675681110453
 31
0.0000000000000000
  0
ARC
  5
139
100
AcDbEntity
  8
1
  6
CONTINUOUS
 62
7
100
AcDbCircle
 10
33.74961170310712
 20
114.3811548673439
 30
0.0000000000000000
 40
0.5000000000000000
100
AcDbArc
 50
180.0000000000000
 51
270.0000000000000
  0
LINE
  5
13A
100
AcDbEntity
  8
1
  6
CONTINUOUS
 62
7
100
AcDbLine
 10
35.24961170310628
 20
155.8812310193359
 30
0.0000000000000000
 11
35.24961170310628
 21
158.8812310194400
 31
0.0000000000000000
  0
ARC
  5
13B
100
AcDbEntity
  8
1
  6
CONTINUOUS
 62
7
100
AcDbCircle
 10
39.97801864504129
 20
155.8812310193398
 30
0.0000000000000000
 40
4.728406941935019
100
AcDbArc
 50
180.0000000000004
 51
220.0968037216858
  0
ARC
  5
13C
100
AcDbEntity
  8
1
  6
CONTINUOUS
 62
7
100
AcDbCircle
 10
38.74961170310625
 20
154.8469334378840
 30
0.0000000000000000
 40
3.122556668092669
100
AcDbArc
 50
220.0968037216859
 51
270.0000000000000
  0
ARC
  5
13D
100
AcDbEntity
  8
1
  6
CONTINUOUS
 62
7
100
AcDbCircle
 10
39.97801864504129
 20
168.8812310193495
 30
0.0000000000000000
 40
4.728406941935019
100
AcDbArc
 50
180.0000000000004
 51
220.0968037216858
  0
ARC
  5
13E
100
AcDbEntity
  8
1
  6
CONTINUOUS
 62
7
100
AcDbCircle
 10
38.74961170310625
 20
159.9155286008958
 30
0.0000000000000000
 40
3.122556668092669
100
AcDbArc
 50
90.00000000000000
 51
139.9031962783140
  0
ARC
  5
13F
100
AcDbEntity
  8
1
  6
CONTINUOUS
 62
7
100
AcDbCircle
 10
39.97801864504129
 20
158.8812310194400
 30
0.0000000000000000
 40
4.728406941935019
100
AcDbArc
 50
139.9031962783141
 51
179.9999999999996
  0
ARC
  5
140
100
AcDbEntity
  8
1
  6
CONTINUOUS
 62
7
100
AcDbCircle
 10
38.74961170310625
 20
167.8469334378936
 30
0.0000000000000000
 40
3.122556668092669
100
AcDbArc
 50
220.0968037216859
 51
270.0000000000000
  0
ARC
  5
141
100
AcDbEntity
  8
3
  6
DASHED
 62
2
100
AcDbCircle
 10
33.81671772584900
 20
174.3812310198094
 30
0.0000000000000000
 40
2.000000000000000
100
AcDbArc
 50
270.0000000000000
 51
320.0131137550668
  0
ARC
  5
142
100
AcDbEntity
  8
1
  6
CONTINUOUS
 62
7
100
AcDbCircle
 10
38.74961170310625
 20
172.9155286009055
 30
0.0000000000000000
 40
3.122556668092669
100
AcDbArc
 50
90.00000000000000
 51
139.9031962783140
  0
ARC
  5
143
100
AcDbEntity
  8
1
  6
CONTINUOUS
 62
7
100
AcDbCircle
 10
39.97801864504129
 20
171.8812310194496
 30
0.0000000000000000
 40
4.728406941935019
100
AcDbArc
 50
139.9031962783141
 51
179.9999999999996
  0
LINE
  5
144
100
AcDbEntity
  8
1
  6
CONTINUOUS
 62
7
100
AcDbLine
 10
35.24961170310628
 20
168.8812310193457
 30
0.0000000000000000
 11
35.24961170310628
 21
171.8812310194496
 31
0.0000000000000000
  0
LINE
  5
145
100
AcDbEntity
  8
3
  6
DASHED
 62
2
100
AcDbLine
 10
33.81671772584900
 20
172.3812310197506
 30
0.0000000000000000
 11
33.74961170310706
 21
172.3812310197506
 31
0.0000000000000000
  0
ARC
  5
146
100
AcDbEntity
  8
1
  6
CONTINUOUS
 62
7
100
AcDbCircle
 10
39.97801864504129
 20
184.8812310194467
 30
0.0000000000000000
 40
4.728406941935019
100
AcDbArc
 50
139.9031962783141
 51
179.9999999999996
  0
ARC
  5
147
100
AcDbEntity
  8
1
  6
CONTINUOUS
 62
7
100
AcDbCircle
 10
38.74961170310625
 20
185.9155286009026
 30
0.0000000000000000
 40
3.122556668092669
100
AcDbArc
 50
90.00000000000000
 51
139.9031962783140
  0
LINE
  5
148
100
AcDbEntity
  8
1
  6
CONTINUOUS
 62
7
100
AcDbLine
 10
35.24961170310628
 20
181.8812310193466
 30
0.0000000000000000
 11
35.24961170310628
 21
184.8812310194468
 31
0.0000000000000000
  0
ARC
  5
149
100
AcDbEntity
  8
1
  6
CONTINUOUS
 62
7
100
AcDbCircle
 10
33.74961170310712
 20
195.7675681110453
 30
0.0000000000000000
 40
0.5000000000000000
100
AcDbArc
 50
89.00000000000151
 51
180.0000000000000
  0
ENDSEC
  0
SECTION
  2
OBJECTS
  0
DICTIONARY
  5
173
100
AcDbDictionary
  3
ACAD_GROUP
350
174
  3
ACAD_LAYOUT
350
175
  3
ACAD_MLINESTYLE
350
176
  0
DICTIONARY
  5
174
102
{ACAD_REACTORS
330
173
102
}
330
173
100
AcDbDictionary
  0
DICTIONARY
  5
175
102
{ACAD_REACTORS
330
173
102
}
330
173
100
AcDbDictionary
  3
Model
350
177
  3
ﾚｲｱｳﾄ1
350
178
  3
ﾚｲｱｳﾄ2
350
179
  0
DICTIONARY
  5
176
102
{ACAD_REACTORS
330
173
102
}
330
173
100
AcDbDictionary
  3
STANDARD
350
17A
  0
LAYOUT
  5
177
102
{ACAD_REACTORS
330
175
102
}
330
175
100
AcDbPlotSettings
 70
11952
  4
A3
 44
297.000000
 45
420.000000
 73
  1
 72
  1
100
AcDbLayout
  1
Model
 71
0
330
16A
  0
LAYOUT
  5
178
102
{ACAD_REACTORS
330
175
102
}
330
175
100
AcDbPlotSettings
100
AcDbLayout
  1
ﾚｲｱｳﾄ1
 71
1
330
16B
  0
LAYOUT
  5
179
102
{ACAD_REACTORS
330
175
102
}
330
175
100
AcDbPlotSettings
100
AcDbLayout
  1
ﾚｲｱｳﾄ2
 71
2
330
16C
  0
MLINESTYLE
  5
17A
102
{ACAD_REACTORS
330
176
102
}
330
176
100
AcDbMlineStyle
  2
STANDARD
 70
     0
  3

 62
   256
 51
90.00
 52
90.00
 71
     2
 49
0.50
 62
   256
  6
BYLAYER
 49
-0.50
 62
   256
  6
BYLAYER
  0
ENDSEC
  0
EOF
