ISO-10303-21;
HEADER;
FILE_DESCRIPTION (( 'STEP AP214' ),
    '1' );
FILE_NAME ('TM_339_20_20.STEP',
    '2016-05-09T04:51:53',
    ( '' ),
    ( '' ),
    'SwSTEP 2.0',
    'SolidWorks 2015',
    '' );
FILE_SCHEMA (( 'AUTOMOTIVE_DESIGN' ));
ENDSEC;

DATA;
#1 = ORIENTED_EDGE ( 'NONE', *, *, #61, .F. ) ;
#2 = LINE ( 'NONE', #191, #194 ) ;
#3 = DIRECTION ( 'NONE',  ( -0.0000000000000000000, -0.0000000000000000000, 1.000000000000000000 ) ) ;
#4 = CARTESIAN_POINT ( 'NONE',  ( 20.00000000000000000, 1000.000000000000000, 20.00000000000000000 ) ) ;
#5 = CARTESIAN_POINT ( 'NONE',  ( 0.0000000000000000000, 200.0000000000000000, 0.0000000000000000000 ) ) ;
#6 = PRODUCT_DEFINITION_CONTEXT ( 'detailed design', #234, 'design' ) ;
#7 = EDGE_CURVE ( 'NONE', #44, #217, #125, .T. ) ;
#8 = DIRECTION ( 'NONE',  ( 1.000000000000000000, 0.0000000000000000000, 0.0000000000000000000 ) ) ;
#9 = VECTOR ( 'NONE', #96, 1000.000000000000000 ) ;
#10 = PRESENTATION_STYLE_ASSIGNMENT (( #182 ) ) ;
#11 = SHAPE_DEFINITION_REPRESENTATION ( #76, #142 ) ;
#12 = MECHANICAL_DESIGN_GEOMETRIC_PRESENTATION_REPRESENTATION (  '', ( #41 ), #57 ) ;
#13 = ORIENTED_EDGE ( 'NONE', *, *, #98, .F. ) ;
#14 = APPLICATION_PROTOCOL_DEFINITION ( 'draft international standard', 'automotive_design', 1998, #145 ) ;
#15 = LINE ( 'NONE', #22, #26 ) ;
#16 = DIRECTION ( 'NONE',  ( 0.0000000000000000000, 0.0000000000000000000, 1.000000000000000000 ) ) ;
#17 = FACE_OUTER_BOUND ( 'NONE', #71, .T. ) ;
#18 = EDGE_LOOP ( 'NONE', ( #160, #176, #84, #122 ) ) ;
#19 = EDGE_CURVE ( 'NONE', #88, #56, #169, .T. ) ;
#20 = LINE ( 'NONE', #231, #216 ) ;
#21 = ORIENTED_EDGE ( 'NONE', *, *, #98, .T. ) ;
#22 = CARTESIAN_POINT ( 'NONE',  ( 0.0000000000000000000, 0.0000000000000000000, 20.00000000000000000 ) ) ;
#23 =( LENGTH_UNIT ( ) NAMED_UNIT ( * ) SI_UNIT ( .MILLI., .METRE. ) );
#24 = DIRECTION ( 'NONE',  ( -1.000000000000000000, -0.0000000000000000000, -0.0000000000000000000 ) ) ;
#25 = DIRECTION ( 'NONE',  ( -0.0000000000000000000, 1.000000000000000000, 0.0000000000000000000 ) ) ;
#26 = VECTOR ( 'NONE', #131, 1000.000000000000000 ) ;
#27 = VERTEX_POINT ( 'NONE', #173 ) ;
#28 = EDGE_CURVE ( 'NONE', #27, #44, #20, .T. ) ;
#29 = ORIENTED_EDGE ( 'NONE', *, *, #28, .F. ) ;
#30 = PRODUCT_CONTEXT ( 'NONE', #46, 'mechanical' ) ;
#31 = DIRECTION ( 'NONE',  ( 1.000000000000000000, 0.0000000000000000000, 0.0000000000000000000 ) ) ;
#32 = DIRECTION ( 'NONE',  ( 0.0000000000000000000, 0.0000000000000000000, 1.000000000000000000 ) ) ;
#33 = ORIENTED_EDGE ( 'NONE', *, *, #61, .T. ) ;
#34 = PLANE ( 'NONE',  #80 ) ;
#35 = CARTESIAN_POINT ( 'NONE',  ( 0.0000000000000000000, 200.0000000000000000, 0.0000000000000000000 ) ) ;
#36 = AXIS2_PLACEMENT_3D ( 'NONE', #157, #137, #8 ) ;
#37 = CARTESIAN_POINT ( 'NONE',  ( 20.00000000000000000, 200.0000000000000000, 0.0000000000000000000 ) ) ;
#38 =( NAMED_UNIT ( * ) SI_UNIT ( $, .STERADIAN. ) SOLID_ANGLE_UNIT ( ) );
#39 = CARTESIAN_POINT ( 'NONE',  ( 0.0000000000000000000, 200.0000000000000000, 20.00000000000000000 ) ) ;
#40 = DIRECTION ( 'NONE',  ( -0.0000000000000000000, -0.0000000000000000000, 1.000000000000000000 ) ) ;
#41 = STYLED_ITEM ( 'NONE', ( #141 ), #195 ) ;
#42 = ORIENTED_EDGE ( 'NONE', *, *, #139, .F. ) ;
#43 = FACE_OUTER_BOUND ( 'NONE', #18, .T. ) ;
#44 = VERTEX_POINT ( 'NONE', #135 ) ;
#45 = LINE ( 'NONE', #119, #9 ) ;
#46 = APPLICATION_CONTEXT ( 'automotive_design' ) ;
#47 = ORIENTED_EDGE ( 'NONE', *, *, #232, .F. ) ;
#48 =( LENGTH_UNIT ( ) NAMED_UNIT ( * ) SI_UNIT ( .MILLI., .METRE. ) );
#49 = EDGE_CURVE ( 'NONE', #88, #44, #224, .T. ) ;
#50 = FACE_OUTER_BOUND ( 'NONE', #233, .T. ) ;
#51 = SURFACE_STYLE_FILL_AREA ( #207 ) ;
#52 = PLANE ( 'NONE',  #36 ) ;
#53 = FACE_OUTER_BOUND ( 'NONE', #167, .T. ) ;
#54 = DIRECTION ( 'NONE',  ( -1.000000000000000000, 0.0000000000000000000, 0.0000000000000000000 ) ) ;
#55 = DIRECTION ( 'NONE',  ( 1.000000000000000000, 0.0000000000000000000, 0.0000000000000000000 ) ) ;
#56 = VERTEX_POINT ( 'NONE', #37 ) ;
#57 =( GEOMETRIC_REPRESENTATION_CONTEXT ( 3 ) GLOBAL_UNCERTAINTY_ASSIGNED_CONTEXT ( ( #151 ) ) GLOBAL_UNIT_ASSIGNED_CONTEXT ( ( #23, #156, #38 ) ) REPRESENTATION_CONTEXT ( 'NONE', 'WORKASPACE' ) );
#58 = ADVANCED_FACE ( 'NONE', ( #163 ), #75, .T. ) ;
#59 = DIRECTION ( 'NONE',  ( -1.000000000000000000, 0.0000000000000000000, 0.0000000000000000000 ) ) ;
#60 = SURFACE_STYLE_USAGE ( .BOTH. , #174 ) ;
#61 = EDGE_CURVE ( 'NONE', #138, #27, #15, .T. ) ;
#62 = COLOUR_RGB ( '',0.7921568627450980000, 0.8196078431372548800, 0.9333333333333333500 ) ;
#63 = ORIENTED_EDGE ( 'NONE', *, *, #28, .T. ) ;
#64 = ORIENTED_EDGE ( 'NONE', *, *, #214, .T. ) ;
#65 = AXIS2_PLACEMENT_3D ( 'NONE', #120, #25, #79 ) ;
#66 = CARTESIAN_POINT ( 'NONE',  ( 0.0000000000000000000, 0.0000000000000000000, 0.0000000000000000000 ) ) ;
#67 = LINE ( 'NONE', #186, #196 ) ;
#68 = FACE_OUTER_BOUND ( 'NONE', #183, .T. ) ;
#69 = SURFACE_SIDE_STYLE ('',( #51 ) ) ;
#70 = VECTOR ( 'NONE', #117, 1000.000000000000000 ) ;
#71 = EDGE_LOOP ( 'NONE', ( #152, #73, #107, #21 ) ) ;
#72 = CARTESIAN_POINT ( 'NONE',  ( 20.00000000000000000, 0.0000000000000000000, 0.0000000000000000000 ) ) ;
#73 = ORIENTED_EDGE ( 'NONE', *, *, #227, .F. ) ;
#74 = PLANE ( 'NONE',  #199 ) ;
#75 = PLANE ( 'NONE',  #149 ) ;
#76 = PRODUCT_DEFINITION_SHAPE ( 'NONE', 'NONE',  #165 ) ;
#77 =( GEOMETRIC_REPRESENTATION_CONTEXT ( 3 ) GLOBAL_UNCERTAINTY_ASSIGNED_CONTEXT ( ( #106 ) ) GLOBAL_UNIT_ASSIGNED_CONTEXT ( ( #198, #124, #222 ) ) REPRESENTATION_CONTEXT ( 'NONE', 'WORKASPACE' ) );
#78 = DIRECTION ( 'NONE',  ( 1.000000000000000000, -0.0000000000000000000, -0.0000000000000000000 ) ) ;
#79 = DIRECTION ( 'NONE',  ( 1.000000000000000000, 0.0000000000000000000, 0.0000000000000000000 ) ) ;
#80 = AXIS2_PLACEMENT_3D ( 'NONE', #150, #90, #209 ) ;
#81 = VERTEX_POINT ( 'NONE', #92 ) ;
#82 = CARTESIAN_POINT ( 'NONE',  ( 0.0000000000000000000, 200.0000000000000000, 0.0000000000000000000 ) ) ;
#83 = APPLICATION_PROTOCOL_DEFINITION ( 'draft international standard', 'automotive_design', 1998, #234 ) ;
#84 = ORIENTED_EDGE ( 'NONE', *, *, #19, .T. ) ;
#85 = DIRECTION ( 'NONE',  ( 1.000000000000000000, 0.0000000000000000000, 0.0000000000000000000 ) ) ;
#86 = AXIS2_PLACEMENT_3D ( 'NONE', #215, #190, #59 ) ;
#87 = FILL_AREA_STYLE_COLOUR ( '', #103 ) ;
#88 = VERTEX_POINT ( 'NONE', #35 ) ;
#89 = SHAPE_REPRESENTATION_RELATIONSHIP ( 'NONE' , 'NONE' ,  #235, #178 ) ;
#90 = DIRECTION ( 'NONE',  ( 1.000000000000000000, 0.0000000000000000000, 0.0000000000000000000 ) ) ;
#91 = DIRECTION ( 'NONE',  ( 0.0000000000000000000, -1.000000000000000000, 0.0000000000000000000 ) ) ;
#92 = CARTESIAN_POINT ( 'NONE',  ( 0.0000000000000000000, 200.0000000000000000, 20.00000000000000000 ) ) ;
#93 = CARTESIAN_POINT ( 'NONE',  ( 0.0000000000000000000, 0.0000000000000000000, 0.0000000000000000000 ) ) ;
#94 = PLANE ( 'NONE',  #86 ) ;
#95 = PLANE ( 'NONE',  #65 ) ;
#96 = DIRECTION ( 'NONE',  ( 0.0000000000000000000, -1.000000000000000000, 0.0000000000000000000 ) ) ;
#97 = LINE ( 'NONE', #39, #200 ) ;
#98 = EDGE_CURVE ( 'NONE', #99, #138, #210, .T. ) ;
#99 = VERTEX_POINT ( 'NONE', #228 ) ;
#100 = AXIS2_PLACEMENT_3D ( 'NONE', #168, #161, #101 ) ;
#101 = DIRECTION ( 'NONE',  ( 1.000000000000000000, 0.0000000000000000000, 0.0000000000000000000 ) ) ;
#102 = CONTEXT_DEPENDENT_SHAPE_REPRESENTATION ( #223, #109 ) ;
#103 = COLOUR_RGB ( '',0.7921568627450980000, 0.8196078431372548800, 0.9333333333333333500 ) ;
#104 = PRODUCT_CONTEXT ( 'NONE', #145, 'mechanical' ) ;
#105 = VECTOR ( 'NONE', #91, 1000.000000000000000 ) ;
#106 = UNCERTAINTY_MEASURE_WITH_UNIT (LENGTH_MEASURE( 1.000000000000000100E-005 ), #198, 'distance_accuracy_value', 'NONE');
#107 = ORIENTED_EDGE ( 'NONE', *, *, #139, .T. ) ;
#108 =( NAMED_UNIT ( * ) SI_UNIT ( $, .STERADIAN. ) SOLID_ANGLE_UNIT ( ) );
#109 = PRODUCT_DEFINITION_SHAPE ( 'NONE', 'NONE',  #239 ) ;
#110 = PRODUCT ( 'TM_339_20_20', 'TM_339_20_20', '', ( #30 ) ) ;
#111 =( GEOMETRIC_REPRESENTATION_CONTEXT ( 3 ) GLOBAL_UNCERTAINTY_ASSIGNED_CONTEXT ( ( #206 ) ) GLOBAL_UNIT_ASSIGNED_CONTEXT ( ( #237, #128, #225 ) ) REPRESENTATION_CONTEXT ( 'NONE', 'WORKASPACE' ) );
#112 = VECTOR ( 'NONE', #229, 1000.000000000000000 ) ;
#113 = FILL_AREA_STYLE ('',( #184 ) ) ;
#114 = ORIENTED_EDGE ( 'NONE', *, *, #49, .T. ) ;
#115 = CARTESIAN_POINT ( 'NONE',  ( 0.0000000000000000000, 1000.000000000000000, 20.00000000000000000 ) ) ;
#116 = ORIENTED_EDGE ( 'NONE', *, *, #19, .F. ) ;
#117 = DIRECTION ( 'NONE',  ( 1.000000000000000000, -0.0000000000000000000, -0.0000000000000000000 ) ) ;
#118 = STYLED_ITEM ( 'NONE', ( #10 ), #178 ) ;
#119 = CARTESIAN_POINT ( 'NONE',  ( 20.00000000000000000, 1000.000000000000000, 0.0000000000000000000 ) ) ;
#120 = CARTESIAN_POINT ( 'NONE',  ( 0.0000000000000000000, 0.0000000000000000000, 0.0000000000000000000 ) ) ;
#121 = VECTOR ( 'NONE', #78, 1000.000000000000000 ) ;
#122 = ORIENTED_EDGE ( 'NONE', *, *, #227, .T. ) ;
#123 = VECTOR ( 'NONE', #40, 1000.000000000000000 ) ;
#124 =( NAMED_UNIT ( * ) PLANE_ANGLE_UNIT ( ) SI_UNIT ( $, .RADIAN. ) );
#125 = LINE ( 'NONE', #93, #70 ) ;
#126 = APPLICATION_PROTOCOL_DEFINITION ( 'draft international standard', 'automotive_design', 1998, #162 ) ;
#127 = AXIS2_PLACEMENT_3D ( 'NONE', #66, #201, #85 ) ;
#128 =( NAMED_UNIT ( * ) PLANE_ANGLE_UNIT ( ) SI_UNIT ( $, .RADIAN. ) );
#129 = PRESENTATION_LAYER_ASSIGNMENT (  '', '', ( #118 ) ) ;
#130 = PRODUCT ( 'rubber foam', 'rubber foam', '', ( #104 ) ) ;
#131 = DIRECTION ( 'NONE',  ( -1.000000000000000000, -0.0000000000000000000, -0.0000000000000000000 ) ) ;
#132 = UNCERTAINTY_MEASURE_WITH_UNIT (LENGTH_MEASURE( 1.000000000000000100E-005 ), #48, 'distance_accuracy_value', 'NONE');
#133 = CARTESIAN_POINT ( 'NONE',  ( 0.0000000000000000000, 1000.000000000000000, 0.0000000000000000000 ) ) ;
#134 = ADVANCED_FACE ( 'NONE', ( #53 ), #74, .T. ) ;
#135 = CARTESIAN_POINT ( 'NONE',  ( 0.0000000000000000000, 0.0000000000000000000, 0.0000000000000000000 ) ) ;
#136 = CARTESIAN_POINT ( 'NONE',  ( 20.00000000000000000, 0.0000000000000000000, 0.0000000000000000000 ) ) ;
#137 = DIRECTION ( 'NONE',  ( 0.0000000000000000000, 0.0000000000000000000, 1.000000000000000000 ) ) ;
#138 = VERTEX_POINT ( 'NONE', #211 ) ;
#139 = EDGE_CURVE ( 'NONE', #56, #99, #67, .T. ) ;
#140 = PRODUCT_DEFINITION ( 'UNKNOWN', '', #203, #6 ) ;
#141 = PRESENTATION_STYLE_ASSIGNMENT (( #60 ) ) ;
#142 = SHAPE_REPRESENTATION ( 'TM_339_20_20', ( #127, #208 ), #111 ) ;
#143 = MECHANICAL_DESIGN_GEOMETRIC_PRESENTATION_REPRESENTATION (  '', ( #118 ), #155 ) ;
#144 = ORIENTED_EDGE ( 'NONE', *, *, #232, .T. ) ;
#145 = APPLICATION_CONTEXT ( 'automotive_design' ) ;
#146 = VECTOR ( 'NONE', #179, 1000.000000000000000 ) ;
#147 = DIRECTION ( 'NONE',  ( 1.000000000000000000, 0.0000000000000000000, 0.0000000000000000000 ) ) ;
#148 = ITEM_DEFINED_TRANSFORMATION ( 'NONE', 'NONE', #208,  #100 ) ;
#149 = AXIS2_PLACEMENT_3D ( 'NONE', #5, #187, #55 ) ;
#150 = CARTESIAN_POINT ( 'NONE',  ( 20.00000000000000000, 1000.000000000000000, 0.0000000000000000000 ) ) ;
#151 = UNCERTAINTY_MEASURE_WITH_UNIT (LENGTH_MEASURE( 1.000000000000000100E-005 ), #23, 'distance_accuracy_value', 'NONE');
#152 = ORIENTED_EDGE ( 'NONE', *, *, #197, .F. ) ;
#153 = ADVANCED_FACE ( 'NONE', ( #17 ), #34, .T. ) ;
#154 = DIRECTION ( 'NONE',  ( -0.0000000000000000000, -0.0000000000000000000, -1.000000000000000000 ) ) ;
#155 =( GEOMETRIC_REPRESENTATION_CONTEXT ( 3 ) GLOBAL_UNCERTAINTY_ASSIGNED_CONTEXT ( ( #132 ) ) GLOBAL_UNIT_ASSIGNED_CONTEXT ( ( #48, #226, #108 ) ) REPRESENTATION_CONTEXT ( 'NONE', 'WORKASPACE' ) );
#156 =( NAMED_UNIT ( * ) PLANE_ANGLE_UNIT ( ) SI_UNIT ( $, .RADIAN. ) );
#157 = CARTESIAN_POINT ( 'NONE',  ( 20.00000000000000000, 1000.000000000000000, 20.00000000000000000 ) ) ;
#158 = PRESENTATION_LAYER_ASSIGNMENT (  '', '', ( #41 ) ) ;
#159 = SURFACE_STYLE_FILL_AREA ( #113 ) ;
#160 = ORIENTED_EDGE ( 'NONE', *, *, #7, .F. ) ;
#161 = DIRECTION ( 'NONE',  ( 0.0000000000000000000, 0.0000000000000000000, 1.000000000000000000 ) ) ;
#162 = APPLICATION_CONTEXT ( 'automotive_design' ) ;
#163 = FACE_OUTER_BOUND ( 'NONE', #170, .T. ) ;
#164 = ORIENTED_EDGE ( 'NONE', *, *, #7, .T. ) ;
#165 = PRODUCT_DEFINITION ( 'UNKNOWN', '', #177, #221 ) ;
#166 = CARTESIAN_POINT ( 'NONE',  ( 0.0000000000000000000, 0.0000000000000000000, 0.0000000000000000000 ) ) ;
#167 = EDGE_LOOP ( 'NONE', ( #29, #212, #144, #114 ) ) ;
#168 = CARTESIAN_POINT ( 'NONE',  ( 0.0000000000000000000, 0.0000000000000000000, 0.0000000000000000000 ) ) ;
#169 = LINE ( 'NONE', #188, #121 ) ;
#170 = EDGE_LOOP ( 'NONE', ( #116, #47, #220, #42 ) ) ;
#171 = DIRECTION ( 'NONE',  ( 0.0000000000000000000, 0.0000000000000000000, 1.000000000000000000 ) ) ;
#172 = LINE ( 'NONE', #72, #123 ) ;
#173 = CARTESIAN_POINT ( 'NONE',  ( 0.0000000000000000000, 0.0000000000000000000, 20.00000000000000000 ) ) ;
#174 = SURFACE_SIDE_STYLE ('',( #159 ) ) ;
#175 = ORIENTED_EDGE ( 'NONE', *, *, #197, .T. ) ;
#176 = ORIENTED_EDGE ( 'NONE', *, *, #49, .F. ) ;
#177 = PRODUCT_DEFINITION_FORMATION_WITH_SPECIFIED_SOURCE ( 'ANY', '', #110, .NOT_KNOWN. ) ;
#178 = ADVANCED_BREP_SHAPE_REPRESENTATION ( '', ( #195, #100 ), #77 ) ;
#179 = DIRECTION ( 'NONE',  ( -0.0000000000000000000, -0.0000000000000000000, -1.000000000000000000 ) ) ;
#180 = APPLICATION_PROTOCOL_DEFINITION ( 'draft international standard', 'automotive_design', 1998, #46 ) ;
#181 = PRODUCT_DEFINITION_SHAPE ( 'NONE', 'NONE',  #140 ) ;
#182 = SURFACE_STYLE_USAGE ( .BOTH. , #69 ) ;
#183 = EDGE_LOOP ( 'NONE', ( #164, #175, #33, #63 ) ) ;
#184 = FILL_AREA_STYLE_COLOUR ( '', #62 ) ;
#185 = PRODUCT_RELATED_PRODUCT_CATEGORY ( 'part', '', ( #110 ) ) ;
#186 = CARTESIAN_POINT ( 'NONE',  ( 20.00000000000000000, 200.0000000000000000, 0.0000000000000000000 ) ) ;
#187 = DIRECTION ( 'NONE',  ( -0.0000000000000000000, 1.000000000000000000, 0.0000000000000000000 ) ) ;
#188 = CARTESIAN_POINT ( 'NONE',  ( 0.0000000000000000000, 200.0000000000000000, 0.0000000000000000000 ) ) ;
#189 = AXIS2_PLACEMENT_3D ( 'NONE', #238, #32, #31 ) ;
#190 = DIRECTION ( 'NONE',  ( 0.0000000000000000000, 0.0000000000000000000, -1.000000000000000000 ) ) ;
#191 = CARTESIAN_POINT ( 'NONE',  ( 0.0000000000000000000, 1000.000000000000000, 20.00000000000000000 ) ) ;
#192 = DIRECTION ( 'NONE',  ( 0.0000000000000000000, -1.000000000000000000, 0.0000000000000000000 ) ) ;
#193 = ORIENTED_EDGE ( 'NONE', *, *, #218, .T. ) ;
#194 = VECTOR ( 'NONE', #192, 1000.000000000000000 ) ;
#195 = MANIFOLD_SOLID_BREP ( '²ÝÎß°Ä1', #205 ) ;
#196 = VECTOR ( 'NONE', #3, 1000.000000000000000 ) ;
#197 = EDGE_CURVE ( 'NONE', #217, #138, #172, .T. ) ;
#198 =( LENGTH_UNIT ( ) NAMED_UNIT ( * ) SI_UNIT ( .MILLI., .METRE. ) );
#199 = AXIS2_PLACEMENT_3D ( 'NONE', #115, #54, #171 ) ;
#200 = VECTOR ( 'NONE', #24, 1000.000000000000000 ) ;
#201 = DIRECTION ( 'NONE',  ( 0.0000000000000000000, 0.0000000000000000000, 1.000000000000000000 ) ) ;
#202 = SHAPE_DEFINITION_REPRESENTATION ( #181, #235 ) ;
#203 = PRODUCT_DEFINITION_FORMATION_WITH_SPECIFIED_SOURCE ( 'ANY', '', #130, .NOT_KNOWN. ) ;
#204 = ADVANCED_FACE ( 'NONE', ( #50 ), #52, .T. ) ;
#205 = CLOSED_SHELL ( 'NONE', ( #230, #153, #204, #134, #58, #213 ) ) ;
#206 = UNCERTAINTY_MEASURE_WITH_UNIT (LENGTH_MEASURE( 1.000000000000000100E-005 ), #237, 'distance_accuracy_value', 'NONE');
#207 = FILL_AREA_STYLE ('',( #87 ) ) ;
#208 = AXIS2_PLACEMENT_3D ( 'NONE', #166, #16, #147 ) ;
#209 = DIRECTION ( 'NONE',  ( 0.0000000000000000000, 0.0000000000000000000, -1.000000000000000000 ) ) ;
#210 = LINE ( 'NONE', #4, #105 ) ;
#211 = CARTESIAN_POINT ( 'NONE',  ( 20.00000000000000000, 0.0000000000000000000, 20.00000000000000000 ) ) ;
#212 = ORIENTED_EDGE ( 'NONE', *, *, #218, .F. ) ;
#213 = ADVANCED_FACE ( 'NONE', ( #68 ), #95, .F. ) ;
#214 = EDGE_CURVE ( 'NONE', #99, #81, #97, .T. ) ;
#215 = CARTESIAN_POINT ( 'NONE',  ( 0.0000000000000000000, 1000.000000000000000, 0.0000000000000000000 ) ) ;
#216 = VECTOR ( 'NONE', #154, 1000.000000000000000 ) ;
#217 = VERTEX_POINT ( 'NONE', #136 ) ;
#218 = EDGE_CURVE ( 'NONE', #81, #27, #2, .T. ) ;
#219 = PRODUCT_RELATED_PRODUCT_CATEGORY ( 'part', '', ( #130 ) ) ;
#220 = ORIENTED_EDGE ( 'NONE', *, *, #214, .F. ) ;
#221 = PRODUCT_DEFINITION_CONTEXT ( 'detailed design', #162, 'design' ) ;
#222 =( NAMED_UNIT ( * ) SI_UNIT ( $, .STERADIAN. ) SOLID_ANGLE_UNIT ( ) );
#223 =( REPRESENTATION_RELATIONSHIP ('NONE','NONE', #142, #235 ) REPRESENTATION_RELATIONSHIP_WITH_TRANSFORMATION ( #148 )SHAPE_REPRESENTATION_RELATIONSHIP( ) );
#224 = LINE ( 'NONE', #133, #112 ) ;
#225 =( NAMED_UNIT ( * ) SI_UNIT ( $, .STERADIAN. ) SOLID_ANGLE_UNIT ( ) );
#226 =( NAMED_UNIT ( * ) PLANE_ANGLE_UNIT ( ) SI_UNIT ( $, .RADIAN. ) );
#227 = EDGE_CURVE ( 'NONE', #56, #217, #45, .T. ) ;
#228 = CARTESIAN_POINT ( 'NONE',  ( 20.00000000000000000, 200.0000000000000000, 20.00000000000000000 ) ) ;
#229 = DIRECTION ( 'NONE',  ( 0.0000000000000000000, -1.000000000000000000, 0.0000000000000000000 ) ) ;
#230 = ADVANCED_FACE ( 'NONE', ( #43 ), #94, .T. ) ;
#231 = CARTESIAN_POINT ( 'NONE',  ( 0.0000000000000000000, 0.0000000000000000000, 0.0000000000000000000 ) ) ;
#232 = EDGE_CURVE ( 'NONE', #81, #88, #236, .T. ) ;
#233 = EDGE_LOOP ( 'NONE', ( #1, #13, #64, #193 ) ) ;
#234 = APPLICATION_CONTEXT ( 'automotive_design' ) ;
#235 = SHAPE_REPRESENTATION ( 'rubber foam', ( #100 ), #77 ) ;
#236 = LINE ( 'NONE', #82, #146 ) ;
#237 =( LENGTH_UNIT ( ) NAMED_UNIT ( * ) SI_UNIT ( .MILLI., .METRE. ) );
#238 = CARTESIAN_POINT ( 'NONE',  ( 0.0000000000000000000, 0.0000000000000000000, 0.0000000000000000000 ) ) ;
#239 = NEXT_ASSEMBLY_USAGE_OCCURRENCE ( 'NAUO1', ' ', ' ', #165, #140, $ ) ;
ENDSEC;
END-ISO-10303-21;
