ISO-10303-21;
HEADER;
FILE_DESCRIPTION (( 'STEP AP214' ),
    '1' );
FILE_NAME ('TM_340W_12.STEP',
    '2016-05-09T07:51:05',
    ( '' ),
    ( '' ),
    'SwSTEP 2.0',
    'SolidWorks 2015',
    '' );
FILE_SCHEMA (( 'AUTOMOTIVE_DESIGN' ));
ENDSEC;

DATA;
#1 =( NAMED_UNIT ( * ) PLANE_ANGLE_UNIT ( ) SI_UNIT ( $, .RADIAN. ) );
#2 = DIRECTION ( 'NONE',  ( 1.000000000000000000, 0.0000000000000000000, 0.0000000000000000000 ) ) ;
#3 =( NAMED_UNIT ( * ) PLANE_ANGLE_UNIT ( ) SI_UNIT ( $, .RADIAN. ) );
#4 = STYLED_ITEM ( 'NONE', ( #112 ), #109 ) ;
#5 = CARTESIAN_POINT ( 'NONE',  ( 0.0000000000000000000, 0.0000000000000000000, 0.0000000000000000000 ) ) ;
#6 = CARTESIAN_POINT ( 'NONE',  ( 0.0000000000000000000, 0.0000000000000000000, 0.0000000000000000000 ) ) ;
#7 = PRODUCT_DEFINITION_SHAPE ( 'NONE', 'NONE',  #128 ) ;
#8 = SURFACE_SIDE_STYLE ('',( #58 ) ) ;
#9 =( NAMED_UNIT ( * ) PLANE_ANGLE_UNIT ( ) SI_UNIT ( $, .RADIAN. ) );
#10 = VERTEX_POINT ( 'NONE', #48 ) ;
#11 = DIRECTION ( 'NONE',  ( 0.0000000000000000000, 0.0000000000000000000, 1.000000000000000000 ) ) ;
#12 =( REPRESENTATION_RELATIONSHIP ('NONE','NONE', #132, #129 ) REPRESENTATION_RELATIONSHIP_WITH_TRANSFORMATION ( #190 )SHAPE_REPRESENTATION_RELATIONSHIP( ) );
#13 = ORIENTED_EDGE ( 'NONE', *, *, #20, .F. ) ;
#14 = UNCERTAINTY_MEASURE_WITH_UNIT (LENGTH_MEASURE( 1.000000000000000100E-005 ), #116, 'distance_accuracy_value', 'NONE');
#15 = ORIENTED_EDGE ( 'NONE', *, *, #236, .T. ) ;
#16 = VERTEX_POINT ( 'NONE', #216 ) ;
#17 = VECTOR ( 'NONE', #191, 1000.000000000000000 ) ;
#18 = PRESENTATION_LAYER_ASSIGNMENT (  '', '', ( #4 ) ) ;
#19 = PRODUCT_DEFINITION_FORMATION_WITH_SPECIFIED_SOURCE ( 'ANY', '', #223, .NOT_KNOWN. ) ;
#20 = EDGE_CURVE ( 'NONE', #234, #97, #56, .T. ) ;
#21 = PRESENTATION_STYLE_ASSIGNMENT (( #28 ) ) ;
#22 = DIRECTION ( 'NONE',  ( 0.0000000000000000000, 0.0000000000000000000, 1.000000000000000000 ) ) ;
#23 = FACE_OUTER_BOUND ( 'NONE', #188, .T. ) ;
#24 = PLANE ( 'NONE',  #174 ) ;
#25 = DIRECTION ( 'NONE',  ( -0.0000000000000000000, 1.000000000000000000, 0.0000000000000000000 ) ) ;
#26 = COLOUR_RGB ( '',0.7921568627450980000, 0.8196078431372548800, 0.9333333333333333500 ) ;
#27 =( GEOMETRIC_REPRESENTATION_CONTEXT ( 3 ) GLOBAL_UNCERTAINTY_ASSIGNED_CONTEXT ( ( #14 ) ) GLOBAL_UNIT_ASSIGNED_CONTEXT ( ( #116, #1, #135 ) ) REPRESENTATION_CONTEXT ( 'NONE', 'WORKASPACE' ) );
#28 = SURFACE_STYLE_USAGE ( .BOTH. , #202 ) ;
#29 = ORIENTED_EDGE ( 'NONE', *, *, #117, .T. ) ;
#30 = DIRECTION ( 'NONE',  ( 0.0000000000000000000, 0.0000000000000000000, -1.000000000000000000 ) ) ;
#31 = CARTESIAN_POINT ( 'NONE',  ( 0.0000000000000000000, 1000.000000000000000, 15.00000000000000000 ) ) ;
#32 = DIRECTION ( 'NONE',  ( 1.000000000000000000, -0.0000000000000000000, -0.0000000000000000000 ) ) ;
#33 = APPLICATION_CONTEXT ( 'automotive_design' ) ;
#34 = AXIS2_PLACEMENT_3D ( 'NONE', #62, #30, #154 ) ;
#35 = MECHANICAL_DESIGN_GEOMETRIC_PRESENTATION_REPRESENTATION (  '', ( #4 ), #45 ) ;
#36 = PRODUCT_RELATED_PRODUCT_CATEGORY ( 'part', '', ( #223 ) ) ;
#37 = EDGE_CURVE ( 'NONE', #10, #113, #229, .T. ) ;
#38 = ORIENTED_EDGE ( 'NONE', *, *, #107, .F. ) ;
#39 = SHAPE_DEFINITION_REPRESENTATION ( #224, #132 ) ;
#40 = LINE ( 'NONE', #197, #165 ) ;
#41 = FACE_OUTER_BOUND ( 'NONE', #206, .T. ) ;
#42 = CARTESIAN_POINT ( 'NONE',  ( 15.00000000000000000, 0.0000000000000000000, 15.00000000000000000 ) ) ;
#43 = EDGE_CURVE ( 'NONE', #97, #16, #148, .T. ) ;
#44 = PLANE ( 'NONE',  #152 ) ;
#45 =( GEOMETRIC_REPRESENTATION_CONTEXT ( 3 ) GLOBAL_UNCERTAINTY_ASSIGNED_CONTEXT ( ( #189 ) ) GLOBAL_UNIT_ASSIGNED_CONTEXT ( ( #194, #9, #145 ) ) REPRESENTATION_CONTEXT ( 'NONE', 'WORKASPACE' ) );
#46 = CARTESIAN_POINT ( 'NONE',  ( 0.0000000000000000000, 0.0000000000000000000, 0.0000000000000000000 ) ) ;
#47 = PRODUCT_DEFINITION_FORMATION_WITH_SPECIFIED_SOURCE ( 'ANY', '', #193, .NOT_KNOWN. ) ;
#48 = CARTESIAN_POINT ( 'NONE',  ( 0.0000000000000000000, 200.0000000000000000, 0.0000000000000000000 ) ) ;
#49 = CARTESIAN_POINT ( 'NONE',  ( 0.0000000000000000000, 200.0000000000000000, 0.0000000000000000000 ) ) ;
#50 = DIRECTION ( 'NONE',  ( 0.0000000000000000000, 0.0000000000000000000, 1.000000000000000000 ) ) ;
#51 = APPLICATION_CONTEXT ( 'automotive_design' ) ;
#52 = VECTOR ( 'NONE', #85, 1000.000000000000000 ) ;
#53 = LINE ( 'NONE', #99, #214 ) ;
#54 = ORIENTED_EDGE ( 'NONE', *, *, #205, .T. ) ;
#55 =( GEOMETRIC_REPRESENTATION_CONTEXT ( 3 ) GLOBAL_UNCERTAINTY_ASSIGNED_CONTEXT ( ( #184 ) ) GLOBAL_UNIT_ASSIGNED_CONTEXT ( ( #137, #3, #120 ) ) REPRESENTATION_CONTEXT ( 'NONE', 'WORKASPACE' ) );
#56 = LINE ( 'NONE', #157, #178 ) ;
#57 = PRODUCT_RELATED_PRODUCT_CATEGORY ( 'part', '', ( #193 ) ) ;
#58 = SURFACE_STYLE_FILL_AREA ( #159 ) ;
#59 = ORIENTED_EDGE ( 'NONE', *, *, #187, .F. ) ;
#60 = DIRECTION ( 'NONE',  ( 0.0000000000000000000, -1.000000000000000000, 0.0000000000000000000 ) ) ;
#61 = FILL_AREA_STYLE_COLOUR ( '', #200 ) ;
#62 = CARTESIAN_POINT ( 'NONE',  ( 0.0000000000000000000, 1000.000000000000000, 0.0000000000000000000 ) ) ;
#63 = LINE ( 'NONE', #6, #88 ) ;
#64 = DIRECTION ( 'NONE',  ( -1.000000000000000000, -0.0000000000000000000, -0.0000000000000000000 ) ) ;
#65 = DIRECTION ( 'NONE',  ( 0.0000000000000000000, 0.0000000000000000000, 1.000000000000000000 ) ) ;
#66 = CARTESIAN_POINT ( 'NONE',  ( 0.0000000000000000000, 0.0000000000000000000, 0.0000000000000000000 ) ) ;
#67 = ORIENTED_EDGE ( 'NONE', *, *, #215, .F. ) ;
#68 = PRODUCT_CONTEXT ( 'NONE', #51, 'mechanical' ) ;
#69 = FACE_OUTER_BOUND ( 'NONE', #208, .T. ) ;
#70 = ORIENTED_EDGE ( 'NONE', *, *, #117, .F. ) ;
#71 = LINE ( 'NONE', #101, #78 ) ;
#72 = ORIENTED_EDGE ( 'NONE', *, *, #232, .T. ) ;
#73 = ORIENTED_EDGE ( 'NONE', *, *, #37, .T. ) ;
#74 = AXIS2_PLACEMENT_3D ( 'NONE', #49, #25, #151 ) ;
#75 = MANIFOLD_SOLID_BREP ( '²ÝÎß°Ä1', #77 ) ;
#76 = DIRECTION ( 'NONE',  ( 1.000000000000000000, 0.0000000000000000000, 0.0000000000000000000 ) ) ;
#77 = CLOSED_SHELL ( 'NONE', ( #201, #150, #180, #131, #94, #217 ) ) ;
#78 = VECTOR ( 'NONE', #213, 1000.000000000000000 ) ;
#79 = LINE ( 'NONE', #81, #238 ) ;
#80 = MECHANICAL_DESIGN_GEOMETRIC_PRESENTATION_REPRESENTATION (  '', ( #221 ), #55 ) ;
#81 = CARTESIAN_POINT ( 'NONE',  ( 0.0000000000000000000, 1000.000000000000000, 0.0000000000000000000 ) ) ;
#82 = DIRECTION ( 'NONE',  ( 1.000000000000000000, 0.0000000000000000000, 0.0000000000000000000 ) ) ;
#83 = AXIS2_PLACEMENT_3D ( 'NONE', #160, #50, #181 ) ;
#84 = DIRECTION ( 'NONE',  ( -1.000000000000000000, -0.0000000000000000000, -0.0000000000000000000 ) ) ;
#85 = DIRECTION ( 'NONE',  ( 0.0000000000000000000, -1.000000000000000000, 0.0000000000000000000 ) ) ;
#86 = FILL_AREA_STYLE ('',( #211 ) ) ;
#87 = VECTOR ( 'NONE', #173, 1000.000000000000000 ) ;
#88 = VECTOR ( 'NONE', #32, 1000.000000000000000 ) ;
#89 = DIRECTION ( 'NONE',  ( 1.000000000000000000, 0.0000000000000000000, 0.0000000000000000000 ) ) ;
#90 = APPLICATION_PROTOCOL_DEFINITION ( 'draft international standard', 'automotive_design', 1998, #204 ) ;
#91 = LINE ( 'NONE', #142, #17 ) ;
#92 = PRESENTATION_LAYER_ASSIGNMENT (  '', '', ( #221 ) ) ;
#93 = CONTEXT_DEPENDENT_SHAPE_REPRESENTATION ( #12, #104 ) ;
#94 = ADVANCED_FACE ( 'NONE', ( #119 ), #105, .T. ) ;
#95 = AXIS2_PLACEMENT_3D ( 'NONE', #66, #203, #89 ) ;
#96 = CARTESIAN_POINT ( 'NONE',  ( 15.00000000000000000, 1000.000000000000000, 0.0000000000000000000 ) ) ;
#97 = VERTEX_POINT ( 'NONE', #100 ) ;
#98 = DIRECTION ( 'NONE',  ( -0.0000000000000000000, -0.0000000000000000000, -1.000000000000000000 ) ) ;
#99 = CARTESIAN_POINT ( 'NONE',  ( 15.00000000000000000, 1000.000000000000000, 15.00000000000000000 ) ) ;
#100 = CARTESIAN_POINT ( 'NONE',  ( 0.0000000000000000000, 200.0000000000000000, 15.00000000000000000 ) ) ;
#101 = CARTESIAN_POINT ( 'NONE',  ( 15.00000000000000000, 200.0000000000000000, 0.0000000000000000000 ) ) ;
#102 = PLANE ( 'NONE',  #226 ) ;
#103 = DIRECTION ( 'NONE',  ( 1.000000000000000000, -0.0000000000000000000, -0.0000000000000000000 ) ) ;
#104 = PRODUCT_DEFINITION_SHAPE ( 'NONE', 'NONE',  #239 ) ;
#105 = PLANE ( 'NONE',  #74 ) ;
#106 =( NAMED_UNIT ( * ) PLANE_ANGLE_UNIT ( ) SI_UNIT ( $, .RADIAN. ) );
#107 = EDGE_CURVE ( 'NONE', #212, #161, #63, .T. ) ;
#108 = PRODUCT_CONTEXT ( 'NONE', #33, 'mechanical' ) ;
#109 = ADVANCED_BREP_SHAPE_REPRESENTATION ( '', ( #75, #237 ), #27 ) ;
#110 =( GEOMETRIC_REPRESENTATION_CONTEXT ( 3 ) GLOBAL_UNCERTAINTY_ASSIGNED_CONTEXT ( ( #166 ) ) GLOBAL_UNIT_ASSIGNED_CONTEXT ( ( #218, #106, #233 ) ) REPRESENTATION_CONTEXT ( 'NONE', 'WORKASPACE' ) );
#111 = ORIENTED_EDGE ( 'NONE', *, *, #205, .F. ) ;
#112 = PRESENTATION_STYLE_ASSIGNMENT (( #122 ) ) ;
#113 = VERTEX_POINT ( 'NONE', #153 ) ;
#114 = ORIENTED_EDGE ( 'NONE', *, *, #187, .T. ) ;
#115 = CARTESIAN_POINT ( 'NONE',  ( 15.00000000000000000, 0.0000000000000000000, 0.0000000000000000000 ) ) ;
#116 =( LENGTH_UNIT ( ) NAMED_UNIT ( * ) SI_UNIT ( .MILLI., .METRE. ) );
#117 = EDGE_CURVE ( 'NONE', #113, #161, #91, .T. ) ;
#118 = DIRECTION ( 'NONE',  ( -0.0000000000000000000, 1.000000000000000000, 0.0000000000000000000 ) ) ;
#119 = FACE_OUTER_BOUND ( 'NONE', #156, .T. ) ;
#120 =( NAMED_UNIT ( * ) SI_UNIT ( $, .STERADIAN. ) SOLID_ANGLE_UNIT ( ) );
#121 = AXIS2_PLACEMENT_3D ( 'NONE', #210, #11, #146 ) ;
#122 = SURFACE_STYLE_USAGE ( .BOTH. , #8 ) ;
#123 = SHAPE_REPRESENTATION_RELATIONSHIP ( 'NONE' , 'NONE' ,  #129, #109 ) ;
#124 = APPLICATION_PROTOCOL_DEFINITION ( 'draft international standard', 'automotive_design', 1998, #235 ) ;
#125 = EDGE_CURVE ( 'NONE', #10, #212, #79, .T. ) ;
#126 = ORIENTED_EDGE ( 'NONE', *, *, #141, .T. ) ;
#127 = ORIENTED_EDGE ( 'NONE', *, *, #37, .F. ) ;
#128 = PRODUCT_DEFINITION ( 'UNKNOWN', '', #47, #130 ) ;
#129 = SHAPE_REPRESENTATION ( 'rubber foam', ( #237 ), #27 ) ;
#130 = PRODUCT_DEFINITION_CONTEXT ( 'detailed design', #235, 'design' ) ;
#131 = ADVANCED_FACE ( 'NONE', ( #169 ), #44, .T. ) ;
#132 = SHAPE_REPRESENTATION ( 'TM_340W_12', ( #121, #95 ), #110 ) ;
#133 = ORIENTED_EDGE ( 'NONE', *, *, #141, .F. ) ;
#134 = DIRECTION ( 'NONE',  ( -1.000000000000000000, 0.0000000000000000000, 0.0000000000000000000 ) ) ;
#135 =( NAMED_UNIT ( * ) SI_UNIT ( $, .STERADIAN. ) SOLID_ANGLE_UNIT ( ) );
#136 = DIRECTION ( 'NONE',  ( 0.0000000000000000000, -1.000000000000000000, 0.0000000000000000000 ) ) ;
#137 =( LENGTH_UNIT ( ) NAMED_UNIT ( * ) SI_UNIT ( .MILLI., .METRE. ) );
#138 = SHAPE_DEFINITION_REPRESENTATION ( #7, #129 ) ;
#139 = PLANE ( 'NONE',  #34 ) ;
#140 = EDGE_LOOP ( 'NONE', ( #67, #222, #15, #147 ) ) ;
#141 = EDGE_CURVE ( 'NONE', #161, #143, #225, .T. ) ;
#142 = CARTESIAN_POINT ( 'NONE',  ( 15.00000000000000000, 1000.000000000000000, 0.0000000000000000000 ) ) ;
#143 = VERTEX_POINT ( 'NONE', #42 ) ;
#144 = FACE_OUTER_BOUND ( 'NONE', #199, .T. ) ;
#145 =( NAMED_UNIT ( * ) SI_UNIT ( $, .STERADIAN. ) SOLID_ANGLE_UNIT ( ) );
#146 = DIRECTION ( 'NONE',  ( 1.000000000000000000, 0.0000000000000000000, 0.0000000000000000000 ) ) ;
#147 = ORIENTED_EDGE ( 'NONE', *, *, #125, .T. ) ;
#148 = LINE ( 'NONE', #31, #52 ) ;
#149 = ORIENTED_EDGE ( 'NONE', *, *, #236, .F. ) ;
#150 = ADVANCED_FACE ( 'NONE', ( #69 ), #209, .T. ) ;
#151 = DIRECTION ( 'NONE',  ( 1.000000000000000000, 0.0000000000000000000, 0.0000000000000000000 ) ) ;
#152 = AXIS2_PLACEMENT_3D ( 'NONE', #170, #134, #22 ) ;
#153 = CARTESIAN_POINT ( 'NONE',  ( 15.00000000000000000, 200.0000000000000000, 0.0000000000000000000 ) ) ;
#154 = DIRECTION ( 'NONE',  ( -1.000000000000000000, 0.0000000000000000000, 0.0000000000000000000 ) ) ;
#155 = PRODUCT_DEFINITION ( 'UNKNOWN', '', #19, #164 ) ;
#156 = EDGE_LOOP ( 'NONE', ( #127, #149, #13, #59 ) ) ;
#157 = CARTESIAN_POINT ( 'NONE',  ( 0.0000000000000000000, 200.0000000000000000, 15.00000000000000000 ) ) ;
#158 = VECTOR ( 'NONE', #228, 1000.000000000000000 ) ;
#159 = FILL_AREA_STYLE ('',( #61 ) ) ;
#160 = CARTESIAN_POINT ( 'NONE',  ( 0.0000000000000000000, 0.0000000000000000000, 0.0000000000000000000 ) ) ;
#161 = VERTEX_POINT ( 'NONE', #227 ) ;
#162 = LINE ( 'NONE', #5, #158 ) ;
#163 = ORIENTED_EDGE ( 'NONE', *, *, #43, .T. ) ;
#164 = PRODUCT_DEFINITION_CONTEXT ( 'detailed design', #204, 'design' ) ;
#165 = VECTOR ( 'NONE', #84, 1000.000000000000000 ) ;
#166 = UNCERTAINTY_MEASURE_WITH_UNIT (LENGTH_MEASURE( 1.000000000000000100E-005 ), #218, 'distance_accuracy_value', 'NONE');
#167 = ORIENTED_EDGE ( 'NONE', *, *, #215, .T. ) ;
#168 = DIRECTION ( 'NONE',  ( 0.0000000000000000000, 0.0000000000000000000, -1.000000000000000000 ) ) ;
#169 = FACE_OUTER_BOUND ( 'NONE', #140, .T. ) ;
#170 = CARTESIAN_POINT ( 'NONE',  ( 0.0000000000000000000, 1000.000000000000000, 15.00000000000000000 ) ) ;
#171 = CARTESIAN_POINT ( 'NONE',  ( 15.00000000000000000, 200.0000000000000000, 15.00000000000000000 ) ) ;
#172 = VECTOR ( 'NONE', #103, 1000.000000000000000 ) ;
#173 = DIRECTION ( 'NONE',  ( -0.0000000000000000000, -0.0000000000000000000, 1.000000000000000000 ) ) ;
#174 = AXIS2_PLACEMENT_3D ( 'NONE', #175, #195, #82 ) ;
#175 = CARTESIAN_POINT ( 'NONE',  ( 15.00000000000000000, 1000.000000000000000, 15.00000000000000000 ) ) ;
#176 = ORIENTED_EDGE ( 'NONE', *, *, #232, .F. ) ;
#177 = CARTESIAN_POINT ( 'NONE',  ( 0.0000000000000000000, 0.0000000000000000000, 0.0000000000000000000 ) ) ;
#178 = VECTOR ( 'NONE', #64, 1000.000000000000000 ) ;
#179 = DIRECTION ( 'NONE',  ( 1.000000000000000000, 0.0000000000000000000, 0.0000000000000000000 ) ) ;
#180 = ADVANCED_FACE ( 'NONE', ( #23 ), #24, .T. ) ;
#181 = DIRECTION ( 'NONE',  ( 1.000000000000000000, 0.0000000000000000000, 0.0000000000000000000 ) ) ;
#182 = APPLICATION_PROTOCOL_DEFINITION ( 'draft international standard', 'automotive_design', 1998, #51 ) ;
#183 = SURFACE_STYLE_FILL_AREA ( #86 ) ;
#184 = UNCERTAINTY_MEASURE_WITH_UNIT (LENGTH_MEASURE( 1.000000000000000100E-005 ), #137, 'distance_accuracy_value', 'NONE');
#185 = ORIENTED_EDGE ( 'NONE', *, *, #107, .T. ) ;
#186 = ORIENTED_EDGE ( 'NONE', *, *, #125, .F. ) ;
#187 = EDGE_CURVE ( 'NONE', #113, #234, #71, .T. ) ;
#188 = EDGE_LOOP ( 'NONE', ( #111, #176, #219, #163 ) ) ;
#189 = UNCERTAINTY_MEASURE_WITH_UNIT (LENGTH_MEASURE( 1.000000000000000100E-005 ), #194, 'distance_accuracy_value', 'NONE');
#190 = ITEM_DEFINED_TRANSFORMATION ( 'NONE', 'NONE', #95,  #237 ) ;
#191 = DIRECTION ( 'NONE',  ( 0.0000000000000000000, -1.000000000000000000, 0.0000000000000000000 ) ) ;
#192 = CARTESIAN_POINT ( 'NONE',  ( 0.0000000000000000000, 200.0000000000000000, 0.0000000000000000000 ) ) ;
#193 = PRODUCT ( 'rubber foam', 'rubber foam', '', ( #108 ) ) ;
#194 =( LENGTH_UNIT ( ) NAMED_UNIT ( * ) SI_UNIT ( .MILLI., .METRE. ) );
#195 = DIRECTION ( 'NONE',  ( 0.0000000000000000000, 0.0000000000000000000, 1.000000000000000000 ) ) ;
#196 = AXIS2_PLACEMENT_3D ( 'NONE', #96, #76, #168 ) ;
#197 = CARTESIAN_POINT ( 'NONE',  ( 0.0000000000000000000, 0.0000000000000000000, 15.00000000000000000 ) ) ;
#198 = CARTESIAN_POINT ( 'NONE',  ( 0.0000000000000000000, 200.0000000000000000, 0.0000000000000000000 ) ) ;
#199 = EDGE_LOOP ( 'NONE', ( #185, #126, #54, #167 ) ) ;
#200 = COLOUR_RGB ( '',0.7921568627450980000, 0.8196078431372548800, 0.9333333333333333500 ) ;
#201 = ADVANCED_FACE ( 'NONE', ( #41 ), #139, .T. ) ;
#202 = SURFACE_SIDE_STYLE ('',( #183 ) ) ;
#203 = DIRECTION ( 'NONE',  ( 0.0000000000000000000, 0.0000000000000000000, 1.000000000000000000 ) ) ;
#204 = APPLICATION_CONTEXT ( 'automotive_design' ) ;
#205 = EDGE_CURVE ( 'NONE', #143, #16, #40, .T. ) ;
#206 = EDGE_LOOP ( 'NONE', ( #38, #186, #73, #29 ) ) ;
#207 = VECTOR ( 'NONE', #98, 1000.000000000000000 ) ;
#208 = EDGE_LOOP ( 'NONE', ( #133, #70, #114, #72 ) ) ;
#209 = PLANE ( 'NONE',  #196 ) ;
#210 = CARTESIAN_POINT ( 'NONE',  ( 0.0000000000000000000, 0.0000000000000000000, 0.0000000000000000000 ) ) ;
#211 = FILL_AREA_STYLE_COLOUR ( '', #26 ) ;
#212 = VERTEX_POINT ( 'NONE', #177 ) ;
#213 = DIRECTION ( 'NONE',  ( -0.0000000000000000000, -0.0000000000000000000, 1.000000000000000000 ) ) ;
#214 = VECTOR ( 'NONE', #136, 1000.000000000000000 ) ;
#215 = EDGE_CURVE ( 'NONE', #16, #212, #162, .T. ) ;
#216 = CARTESIAN_POINT ( 'NONE',  ( 0.0000000000000000000, 0.0000000000000000000, 15.00000000000000000 ) ) ;
#217 = ADVANCED_FACE ( 'NONE', ( #144 ), #102, .F. ) ;
#218 =( LENGTH_UNIT ( ) NAMED_UNIT ( * ) SI_UNIT ( .MILLI., .METRE. ) );
#219 = ORIENTED_EDGE ( 'NONE', *, *, #20, .T. ) ;
#220 = APPLICATION_PROTOCOL_DEFINITION ( 'draft international standard', 'automotive_design', 1998, #33 ) ;
#221 = STYLED_ITEM ( 'NONE', ( #21 ), #75 ) ;
#222 = ORIENTED_EDGE ( 'NONE', *, *, #43, .F. ) ;
#223 = PRODUCT ( 'TM_340W_12', 'TM_340W_12', '', ( #68 ) ) ;
#224 = PRODUCT_DEFINITION_SHAPE ( 'NONE', 'NONE',  #155 ) ;
#225 = LINE ( 'NONE', #115, #87 ) ;
#226 = AXIS2_PLACEMENT_3D ( 'NONE', #46, #118, #2 ) ;
#227 = CARTESIAN_POINT ( 'NONE',  ( 15.00000000000000000, 0.0000000000000000000, 0.0000000000000000000 ) ) ;
#228 = DIRECTION ( 'NONE',  ( -0.0000000000000000000, -0.0000000000000000000, -1.000000000000000000 ) ) ;
#229 = LINE ( 'NONE', #198, #172 ) ;
#230 = CARTESIAN_POINT ( 'NONE',  ( 0.0000000000000000000, 0.0000000000000000000, 0.0000000000000000000 ) ) ;
#231 = LINE ( 'NONE', #192, #207 ) ;
#232 = EDGE_CURVE ( 'NONE', #234, #143, #53, .T. ) ;
#233 =( NAMED_UNIT ( * ) SI_UNIT ( $, .STERADIAN. ) SOLID_ANGLE_UNIT ( ) );
#234 = VERTEX_POINT ( 'NONE', #171 ) ;
#235 = APPLICATION_CONTEXT ( 'automotive_design' ) ;
#236 = EDGE_CURVE ( 'NONE', #97, #10, #231, .T. ) ;
#237 = AXIS2_PLACEMENT_3D ( 'NONE', #230, #65, #179 ) ;
#238 = VECTOR ( 'NONE', #60, 1000.000000000000000 ) ;
#239 = NEXT_ASSEMBLY_USAGE_OCCURRENCE ( 'NAUO1', ' ', ' ', #155, #128, $ ) ;
ENDSEC;
END-ISO-10303-21;
