ISO-10303-21;
HEADER;
FILE_DESCRIPTION (( 'STEP AP214' ),
    '1' );
FILE_NAME ('TM_340W_2.STEP',
    '2016-05-09T07:21:32',
    ( '' ),
    ( '' ),
    'SwSTEP 2.0',
    'SolidWorks 2015',
    '' );
FILE_SCHEMA (( 'AUTOMOTIVE_DESIGN' ));
ENDSEC;

DATA;
#1 = EDGE_LOOP ( 'NONE', ( #32, #172, #84, #43 ) ) ;
#2 = AXIS2_PLACEMENT_3D ( 'NONE', #50, #130, #103 ) ;
#3 = PLANE ( 'NONE',  #56 ) ;
#4 = VERTEX_POINT ( 'NONE', #238 ) ;
#5 = EDGE_LOOP ( 'NONE', ( #200, #44, #217, #164 ) ) ;
#6 = CARTESIAN_POINT ( 'NONE',  ( 0.0000000000000000000, 200.0000000000000000, 0.0000000000000000000 ) ) ;
#7 = UNCERTAINTY_MEASURE_WITH_UNIT (LENGTH_MEASURE( 1.000000000000000100E-005 ), #9, 'distance_accuracy_value', 'NONE');
#8 =( LENGTH_UNIT ( ) NAMED_UNIT ( * ) SI_UNIT ( .MILLI., .METRE. ) );
#9 =( LENGTH_UNIT ( ) NAMED_UNIT ( * ) SI_UNIT ( .MILLI., .METRE. ) );
#10 = DIRECTION ( 'NONE',  ( 0.0000000000000000000, 0.0000000000000000000, 1.000000000000000000 ) ) ;
#11 = DIRECTION ( 'NONE',  ( 0.0000000000000000000, 0.0000000000000000000, 1.000000000000000000 ) ) ;
#12 = EDGE_CURVE ( 'NONE', #89, #81, #111, .T. ) ;
#13 = DIRECTION ( 'NONE',  ( 0.0000000000000000000, 0.0000000000000000000, 1.000000000000000000 ) ) ;
#14 = PRESENTATION_LAYER_ASSIGNMENT (  '', '', ( #38 ) ) ;
#15 = CARTESIAN_POINT ( 'NONE',  ( 0.0000000000000000000, 0.0000000000000000000, 0.0000000000000000000 ) ) ;
#16 = DIRECTION ( 'NONE',  ( 1.000000000000000000, 0.0000000000000000000, 0.0000000000000000000 ) ) ;
#17 =( NAMED_UNIT ( * ) SI_UNIT ( $, .STERADIAN. ) SOLID_ANGLE_UNIT ( ) );
#18 = ADVANCED_FACE ( 'NONE', ( #74 ), #3, .F. ) ;
#19 = DIRECTION ( 'NONE',  ( -0.0000000000000000000, 1.000000000000000000, 0.0000000000000000000 ) ) ;
#20 = ADVANCED_FACE ( 'NONE', ( #21 ), #230, .T. ) ;
#21 = FACE_OUTER_BOUND ( 'NONE', #233, .T. ) ;
#22 = CARTESIAN_POINT ( 'NONE',  ( 0.0000000000000000000, 200.0000000000000000, 5.000000000000000000 ) ) ;
#23 = PRODUCT_DEFINITION_SHAPE ( 'NONE', 'NONE',  #239 ) ;
#24 = DIRECTION ( 'NONE',  ( 0.0000000000000000000, -1.000000000000000000, 0.0000000000000000000 ) ) ;
#25 = PLANE ( 'NONE',  #95 ) ;
#26 = AXIS2_PLACEMENT_3D ( 'NONE', #144, #53, #106 ) ;
#27 = VECTOR ( 'NONE', #125, 1000.000000000000000 ) ;
#28 =( REPRESENTATION_RELATIONSHIP ('NONE','NONE', #185, #183 ) REPRESENTATION_RELATIONSHIP_WITH_TRANSFORMATION ( #110 )SHAPE_REPRESENTATION_RELATIONSHIP( ) );
#29 = PRODUCT_DEFINITION_SHAPE ( 'NONE', 'NONE',  #147 ) ;
#30 = DIRECTION ( 'NONE',  ( 0.0000000000000000000, 0.0000000000000000000, -1.000000000000000000 ) ) ;
#31 = SURFACE_STYLE_FILL_AREA ( #198 ) ;
#32 = ORIENTED_EDGE ( 'NONE', *, *, #212, .T. ) ;
#33 = CARTESIAN_POINT ( 'NONE',  ( 0.0000000000000000000, 200.0000000000000000, 0.0000000000000000000 ) ) ;
#34 = LINE ( 'NONE', #80, #182 ) ;
#35 = APPLICATION_PROTOCOL_DEFINITION ( 'draft international standard', 'automotive_design', 1998, #68 ) ;
#36 = COLOUR_RGB ( '',0.7921568627450980000, 0.8196078431372548800, 0.9333333333333333500 ) ;
#37 = PRESENTATION_LAYER_ASSIGNMENT (  '', '', ( #231 ) ) ;
#38 = STYLED_ITEM ( 'NONE', ( #59 ), #201 ) ;
#39 = ORIENTED_EDGE ( 'NONE', *, *, #90, .T. ) ;
#40 = EDGE_CURVE ( 'NONE', #118, #208, #77, .T. ) ;
#41 = DIRECTION ( 'NONE',  ( 0.0000000000000000000, 0.0000000000000000000, 1.000000000000000000 ) ) ;
#42 = CARTESIAN_POINT ( 'NONE',  ( 0.0000000000000000000, 0.0000000000000000000, 0.0000000000000000000 ) ) ;
#43 = ORIENTED_EDGE ( 'NONE', *, *, #121, .T. ) ;
#44 = ORIENTED_EDGE ( 'NONE', *, *, #12, .F. ) ;
#45 = SHAPE_DEFINITION_REPRESENTATION ( #29, #183 ) ;
#46 = ORIENTED_EDGE ( 'NONE', *, *, #169, .T. ) ;
#47 = DIRECTION ( 'NONE',  ( -1.000000000000000000, 0.0000000000000000000, 0.0000000000000000000 ) ) ;
#48 = DIRECTION ( 'NONE',  ( 1.000000000000000000, 0.0000000000000000000, 0.0000000000000000000 ) ) ;
#49 =( GEOMETRIC_REPRESENTATION_CONTEXT ( 3 ) GLOBAL_UNCERTAINTY_ASSIGNED_CONTEXT ( ( #86 ) ) GLOBAL_UNIT_ASSIGNED_CONTEXT ( ( #8, #194, #226 ) ) REPRESENTATION_CONTEXT ( 'NONE', 'WORKASPACE' ) );
#50 = CARTESIAN_POINT ( 'NONE',  ( 0.0000000000000000000, 0.0000000000000000000, 0.0000000000000000000 ) ) ;
#51 = ORIENTED_EDGE ( 'NONE', *, *, #146, .F. ) ;
#52 = LINE ( 'NONE', #156, #27 ) ;
#53 = DIRECTION ( 'NONE',  ( 0.0000000000000000000, 0.0000000000000000000, 1.000000000000000000 ) ) ;
#54 = APPLICATION_PROTOCOL_DEFINITION ( 'draft international standard', 'automotive_design', 1998, #148 ) ;
#55 = PRODUCT_DEFINITION_FORMATION_WITH_SPECIFIED_SOURCE ( 'ANY', '', #70, .NOT_KNOWN. ) ;
#56 = AXIS2_PLACEMENT_3D ( 'NONE', #94, #19, #16 ) ;
#57 = ORIENTED_EDGE ( 'NONE', *, *, #212, .F. ) ;
#58 = EDGE_LOOP ( 'NONE', ( #219, #165, #141, #57 ) ) ;
#59 = PRESENTATION_STYLE_ASSIGNMENT (( #104 ) ) ;
#60 = DIRECTION ( 'NONE',  ( 1.000000000000000000, 0.0000000000000000000, 0.0000000000000000000 ) ) ;
#61 = VECTOR ( 'NONE', #60, 1000.000000000000000 ) ;
#62 =( GEOMETRIC_REPRESENTATION_CONTEXT ( 3 ) GLOBAL_UNCERTAINTY_ASSIGNED_CONTEXT ( ( #7 ) ) GLOBAL_UNIT_ASSIGNED_CONTEXT ( ( #9, #123, #145 ) ) REPRESENTATION_CONTEXT ( 'NONE', 'WORKASPACE' ) );
#63 = CARTESIAN_POINT ( 'NONE',  ( 0.0000000000000000000, 0.0000000000000000000, 0.0000000000000000000 ) ) ;
#64 = EDGE_CURVE ( 'NONE', #81, #168, #214, .T. ) ;
#65 = CARTESIAN_POINT ( 'NONE',  ( 10.00000000000000000, 0.0000000000000000000, 0.0000000000000000000 ) ) ;
#66 = VECTOR ( 'NONE', #41, 1000.000000000000000 ) ;
#67 = AXIS2_PLACEMENT_3D ( 'NONE', #154, #13, #48 ) ;
#68 = APPLICATION_CONTEXT ( 'automotive_design' ) ;
#69 = SHAPE_REPRESENTATION_RELATIONSHIP ( 'NONE' , 'NONE' ,  #183, #187 ) ;
#70 = PRODUCT ( 'rubber foam', 'rubber foam', '', ( #99 ) ) ;
#71 = ORIENTED_EDGE ( 'NONE', *, *, #12, .T. ) ;
#72 = CARTESIAN_POINT ( 'NONE',  ( 0.0000000000000000000, 1000.000000000000000, 5.000000000000000000 ) ) ;
#73 = ORIENTED_EDGE ( 'NONE', *, *, #64, .T. ) ;
#74 = FACE_OUTER_BOUND ( 'NONE', #58, .T. ) ;
#75 = DIRECTION ( 'NONE',  ( -0.0000000000000000000, 1.000000000000000000, 0.0000000000000000000 ) ) ;
#76 = ORIENTED_EDGE ( 'NONE', *, *, #121, .F. ) ;
#77 = LINE ( 'NONE', #91, #186 ) ;
#78 = LINE ( 'NONE', #102, #166 ) ;
#79 = CARTESIAN_POINT ( 'NONE',  ( 10.00000000000000000, 0.0000000000000000000, 5.000000000000000000 ) ) ;
#80 = CARTESIAN_POINT ( 'NONE',  ( 10.00000000000000000, 1000.000000000000000, 5.000000000000000000 ) ) ;
#81 = VERTEX_POINT ( 'NONE', #221 ) ;
#82 = AXIS2_PLACEMENT_3D ( 'NONE', #170, #97, #124 ) ;
#83 = ORIENTED_EDGE ( 'NONE', *, *, #105, .F. ) ;
#84 = ORIENTED_EDGE ( 'NONE', *, *, #40, .F. ) ;
#85 = DIRECTION ( 'NONE',  ( 0.0000000000000000000, 0.0000000000000000000, -1.000000000000000000 ) ) ;
#86 = UNCERTAINTY_MEASURE_WITH_UNIT (LENGTH_MEASURE( 1.000000000000000100E-005 ), #8, 'distance_accuracy_value', 'NONE');
#87 = DIRECTION ( 'NONE',  ( 1.000000000000000000, 0.0000000000000000000, 0.0000000000000000000 ) ) ;
#88 = VECTOR ( 'NONE', #189, 1000.000000000000000 ) ;
#89 = VERTEX_POINT ( 'NONE', #22 ) ;
#90 = EDGE_CURVE ( 'NONE', #4, #89, #178, .T. ) ;
#91 = CARTESIAN_POINT ( 'NONE',  ( 10.00000000000000000, 200.0000000000000000, 5.000000000000000000 ) ) ;
#92 = PRODUCT ( 'TM_340W_2', 'TM_340W_2', '', ( #179 ) ) ;
#93 = ORIENTED_EDGE ( 'NONE', *, *, #146, .T. ) ;
#94 = CARTESIAN_POINT ( 'NONE',  ( 0.0000000000000000000, 0.0000000000000000000, 0.0000000000000000000 ) ) ;
#95 = AXIS2_PLACEMENT_3D ( 'NONE', #122, #157, #197 ) ;
#96 = LINE ( 'NONE', #79, #229 ) ;
#97 = DIRECTION ( 'NONE',  ( 1.000000000000000000, 0.0000000000000000000, 0.0000000000000000000 ) ) ;
#98 = VERTEX_POINT ( 'NONE', #158 ) ;
#99 = PRODUCT_CONTEXT ( 'NONE', #148, 'mechanical' ) ;
#100 =( NAMED_UNIT ( * ) SI_UNIT ( $, .STERADIAN. ) SOLID_ANGLE_UNIT ( ) );
#101 =( LENGTH_UNIT ( ) NAMED_UNIT ( * ) SI_UNIT ( .MILLI., .METRE. ) );
#102 = CARTESIAN_POINT ( 'NONE',  ( 10.00000000000000000, 1000.000000000000000, 0.0000000000000000000 ) ) ;
#103 = DIRECTION ( 'NONE',  ( 1.000000000000000000, 0.0000000000000000000, 0.0000000000000000000 ) ) ;
#104 = SURFACE_STYLE_USAGE ( .BOTH. , #138 ) ;
#105 = EDGE_CURVE ( 'NONE', #89, #118, #180, .T. ) ;
#106 = DIRECTION ( 'NONE',  ( 1.000000000000000000, 0.0000000000000000000, 0.0000000000000000000 ) ) ;
#107 = CONTEXT_DEPENDENT_SHAPE_REPRESENTATION ( #28, #23 ) ;
#108 = CARTESIAN_POINT ( 'NONE',  ( 0.0000000000000000000, 200.0000000000000000, 5.000000000000000000 ) ) ;
#109 = FACE_OUTER_BOUND ( 'NONE', #115, .T. ) ;
#110 = ITEM_DEFINED_TRANSFORMATION ( 'NONE', 'NONE', #202,  #26 ) ;
#111 = LINE ( 'NONE', #196, #181 ) ;
#112 = MECHANICAL_DESIGN_GEOMETRIC_PRESENTATION_REPRESENTATION (  '', ( #231 ), #184 ) ;
#113 = LINE ( 'NONE', #65, #88 ) ;
#114 = VECTOR ( 'NONE', #205, 1000.000000000000000 ) ;
#115 = EDGE_LOOP ( 'NONE', ( #73, #76, #83, #71 ) ) ;
#116 = FACE_OUTER_BOUND ( 'NONE', #5, .T. ) ;
#117 = SHAPE_DEFINITION_REPRESENTATION ( #192, #185 ) ;
#118 = VERTEX_POINT ( 'NONE', #167 ) ;
#119 = EDGE_CURVE ( 'NONE', #4, #135, #223, .T. ) ;
#120 = CARTESIAN_POINT ( 'NONE',  ( 0.0000000000000000000, 1000.000000000000000, 0.0000000000000000000 ) ) ;
#121 = EDGE_CURVE ( 'NONE', #118, #168, #34, .T. ) ;
#122 = CARTESIAN_POINT ( 'NONE',  ( 10.00000000000000000, 1000.000000000000000, 5.000000000000000000 ) ) ;
#123 =( NAMED_UNIT ( * ) PLANE_ANGLE_UNIT ( ) SI_UNIT ( $, .RADIAN. ) );
#124 = DIRECTION ( 'NONE',  ( 0.0000000000000000000, 0.0000000000000000000, -1.000000000000000000 ) ) ;
#125 = DIRECTION ( 'NONE',  ( -1.000000000000000000, 0.0000000000000000000, 0.0000000000000000000 ) ) ;
#126 = VECTOR ( 'NONE', #140, 1000.000000000000000 ) ;
#127 = PLANE ( 'NONE',  #210 ) ;
#128 = ORIENTED_EDGE ( 'NONE', *, *, #119, .F. ) ;
#129 = APPLICATION_CONTEXT ( 'automotive_design' ) ;
#130 = DIRECTION ( 'NONE',  ( 0.0000000000000000000, 0.0000000000000000000, 1.000000000000000000 ) ) ;
#131 = PRODUCT_DEFINITION ( 'UNKNOWN', '', #209, #134 ) ;
#132 = AXIS2_PLACEMENT_3D ( 'NONE', #6, #75, #87 ) ;
#133 = DIRECTION ( 'NONE',  ( 0.0000000000000000000, -1.000000000000000000, 0.0000000000000000000 ) ) ;
#134 = PRODUCT_DEFINITION_CONTEXT ( 'detailed design', #129, 'design' ) ;
#135 = VERTEX_POINT ( 'NONE', #42 ) ;
#136 = COLOUR_RGB ( '',0.7921568627450980000, 0.8196078431372548800, 0.9333333333333333500 ) ;
#137 = FACE_OUTER_BOUND ( 'NONE', #222, .T. ) ;
#138 = SURFACE_SIDE_STYLE ('',( #155 ) ) ;
#139 = UNCERTAINTY_MEASURE_WITH_UNIT (LENGTH_MEASURE( 1.000000000000000100E-005 ), #211, 'distance_accuracy_value', 'NONE');
#140 = DIRECTION ( 'NONE',  ( 1.000000000000000000, 0.0000000000000000000, 0.0000000000000000000 ) ) ;
#141 = ORIENTED_EDGE ( 'NONE', *, *, #169, .F. ) ;
#142 = ORIENTED_EDGE ( 'NONE', *, *, #149, .T. ) ;
#143 = SURFACE_STYLE_USAGE ( .BOTH. , #161 ) ;
#144 = CARTESIAN_POINT ( 'NONE',  ( 0.0000000000000000000, 0.0000000000000000000, 0.0000000000000000000 ) ) ;
#145 =( NAMED_UNIT ( * ) SI_UNIT ( $, .STERADIAN. ) SOLID_ANGLE_UNIT ( ) );
#146 = EDGE_CURVE ( 'NONE', #208, #4, #52, .T. ) ;
#147 = PRODUCT_DEFINITION ( 'UNKNOWN', '', #55, #236 ) ;
#148 = APPLICATION_CONTEXT ( 'automotive_design' ) ;
#149 = EDGE_CURVE ( 'NONE', #208, #98, #78, .T. ) ;
#150 = VECTOR ( 'NONE', #191, 1000.000000000000000 ) ;
#151 = CARTESIAN_POINT ( 'NONE',  ( 0.0000000000000000000, 0.0000000000000000000, 0.0000000000000000000 ) ) ;
#152 = CLOSED_SHELL ( 'NONE', ( #224, #162, #232, #227, #20, #18 ) ) ;
#153 = CARTESIAN_POINT ( 'NONE',  ( 10.00000000000000000, 0.0000000000000000000, 5.000000000000000000 ) ) ;
#154 = CARTESIAN_POINT ( 'NONE',  ( 10.00000000000000000, 1000.000000000000000, 0.0000000000000000000 ) ) ;
#155 = SURFACE_STYLE_FILL_AREA ( #235 ) ;
#156 = CARTESIAN_POINT ( 'NONE',  ( 10.00000000000000000, 200.0000000000000000, 0.0000000000000000000 ) ) ;
#157 = DIRECTION ( 'NONE',  ( -1.000000000000000000, 0.0000000000000000000, 0.0000000000000000000 ) ) ;
#158 = CARTESIAN_POINT ( 'NONE',  ( 10.00000000000000000, 0.0000000000000000000, 0.0000000000000000000 ) ) ;
#159 = APPLICATION_CONTEXT ( 'automotive_design' ) ;
#160 = PLANE ( 'NONE',  #67 ) ;
#161 = SURFACE_SIDE_STYLE ('',( #31 ) ) ;
#162 = ADVANCED_FACE ( 'NONE', ( #195 ), #25, .F. ) ;
#163 = PRODUCT_RELATED_PRODUCT_CATEGORY ( 'part', '', ( #92 ) ) ;
#164 = ORIENTED_EDGE ( 'NONE', *, *, #119, .T. ) ;
#165 = ORIENTED_EDGE ( 'NONE', *, *, #173, .F. ) ;
#166 = VECTOR ( 'NONE', #190, 1000.000000000000000 ) ;
#167 = CARTESIAN_POINT ( 'NONE',  ( 10.00000000000000000, 200.0000000000000000, 5.000000000000000000 ) ) ;
#168 = VERTEX_POINT ( 'NONE', #153 ) ;
#169 = EDGE_CURVE ( 'NONE', #98, #135, #113, .T. ) ;
#170 = CARTESIAN_POINT ( 'NONE',  ( 0.0000000000000000000, 1000.000000000000000, 0.0000000000000000000 ) ) ;
#171 = MECHANICAL_DESIGN_GEOMETRIC_PRESENTATION_REPRESENTATION (  '', ( #38 ), #62 ) ;
#172 = ORIENTED_EDGE ( 'NONE', *, *, #149, .F. ) ;
#173 = EDGE_CURVE ( 'NONE', #135, #81, #203, .T. ) ;
#174 =( NAMED_UNIT ( * ) PLANE_ANGLE_UNIT ( ) SI_UNIT ( $, .RADIAN. ) );
#175 = PLANE ( 'NONE',  #82 ) ;
#176 = DIRECTION ( 'NONE',  ( 0.0000000000000000000, 0.0000000000000000000, -1.000000000000000000 ) ) ;
#177 =( NAMED_UNIT ( * ) PLANE_ANGLE_UNIT ( ) SI_UNIT ( $, .RADIAN. ) );
#178 = LINE ( 'NONE', #33, #114 ) ;
#179 = PRODUCT_CONTEXT ( 'NONE', #68, 'mechanical' ) ;
#180 = LINE ( 'NONE', #108, #126 ) ;
#181 = VECTOR ( 'NONE', #133, 1000.000000000000000 ) ;
#182 = VECTOR ( 'NONE', #24, 1000.000000000000000 ) ;
#183 = SHAPE_REPRESENTATION ( 'rubber foam', ( #26 ), #206 ) ;
#184 =( GEOMETRIC_REPRESENTATION_CONTEXT ( 3 ) GLOBAL_UNCERTAINTY_ASSIGNED_CONTEXT ( ( #220 ) ) GLOBAL_UNIT_ASSIGNED_CONTEXT ( ( #101, #177, #100 ) ) REPRESENTATION_CONTEXT ( 'NONE', 'WORKASPACE' ) );
#185 = SHAPE_REPRESENTATION ( 'TM_340W_2', ( #2, #202 ), #49 ) ;
#186 = VECTOR ( 'NONE', #176, 1000.000000000000000 ) ;
#187 = ADVANCED_BREP_SHAPE_REPRESENTATION ( '', ( #201, #26 ), #206 ) ;
#188 = PRODUCT_RELATED_PRODUCT_CATEGORY ( 'part', '', ( #70 ) ) ;
#189 = DIRECTION ( 'NONE',  ( -1.000000000000000000, 0.0000000000000000000, 0.0000000000000000000 ) ) ;
#190 = DIRECTION ( 'NONE',  ( 0.0000000000000000000, -1.000000000000000000, 0.0000000000000000000 ) ) ;
#191 = DIRECTION ( 'NONE',  ( 0.0000000000000000000, -1.000000000000000000, 0.0000000000000000000 ) ) ;
#192 = PRODUCT_DEFINITION_SHAPE ( 'NONE', 'NONE',  #131 ) ;
#193 = APPLICATION_PROTOCOL_DEFINITION ( 'draft international standard', 'automotive_design', 1998, #159 ) ;
#194 =( NAMED_UNIT ( * ) PLANE_ANGLE_UNIT ( ) SI_UNIT ( $, .RADIAN. ) );
#195 = FACE_OUTER_BOUND ( 'NONE', #1, .T. ) ;
#196 = CARTESIAN_POINT ( 'NONE',  ( 0.0000000000000000000, 1000.000000000000000, 5.000000000000000000 ) ) ;
#197 = DIRECTION ( 'NONE',  ( 0.0000000000000000000, 0.0000000000000000000, 1.000000000000000000 ) ) ;
#198 = FILL_AREA_STYLE ('',( #234 ) ) ;
#199 = ORIENTED_EDGE ( 'NONE', *, *, #105, .T. ) ;
#200 = ORIENTED_EDGE ( 'NONE', *, *, #173, .T. ) ;
#201 = MANIFOLD_SOLID_BREP ( '²ÝÎß°Ä1', #152 ) ;
#202 = AXIS2_PLACEMENT_3D ( 'NONE', #151, #11, #204 ) ;
#203 = LINE ( 'NONE', #15, #66 ) ;
#204 = DIRECTION ( 'NONE',  ( 1.000000000000000000, 0.0000000000000000000, 0.0000000000000000000 ) ) ;
#205 = DIRECTION ( 'NONE',  ( 0.0000000000000000000, 0.0000000000000000000, 1.000000000000000000 ) ) ;
#206 =( GEOMETRIC_REPRESENTATION_CONTEXT ( 3 ) GLOBAL_UNCERTAINTY_ASSIGNED_CONTEXT ( ( #139 ) ) GLOBAL_UNIT_ASSIGNED_CONTEXT ( ( #211, #174, #17 ) ) REPRESENTATION_CONTEXT ( 'NONE', 'WORKASPACE' ) );
#207 = FILL_AREA_STYLE_COLOUR ( '', #136 ) ;
#208 = VERTEX_POINT ( 'NONE', #225 ) ;
#209 = PRODUCT_DEFINITION_FORMATION_WITH_SPECIFIED_SOURCE ( 'ANY', '', #92, .NOT_KNOWN. ) ;
#210 = AXIS2_PLACEMENT_3D ( 'NONE', #72, #30, #47 ) ;
#211 =( LENGTH_UNIT ( ) NAMED_UNIT ( * ) SI_UNIT ( .MILLI., .METRE. ) );
#212 = EDGE_CURVE ( 'NONE', #168, #98, #96, .T. ) ;
#213 = APPLICATION_PROTOCOL_DEFINITION ( 'draft international standard', 'automotive_design', 1998, #129 ) ;
#214 = LINE ( 'NONE', #218, #61 ) ;
#215 = PRESENTATION_STYLE_ASSIGNMENT (( #143 ) ) ;
#216 = ORIENTED_EDGE ( 'NONE', *, *, #40, .T. ) ;
#217 = ORIENTED_EDGE ( 'NONE', *, *, #90, .F. ) ;
#218 = CARTESIAN_POINT ( 'NONE',  ( 0.0000000000000000000, 0.0000000000000000000, 5.000000000000000000 ) ) ;
#219 = ORIENTED_EDGE ( 'NONE', *, *, #64, .F. ) ;
#220 = UNCERTAINTY_MEASURE_WITH_UNIT (LENGTH_MEASURE( 1.000000000000000100E-005 ), #101, 'distance_accuracy_value', 'NONE');
#221 = CARTESIAN_POINT ( 'NONE',  ( 0.0000000000000000000, 0.0000000000000000000, 5.000000000000000000 ) ) ;
#222 = EDGE_LOOP ( 'NONE', ( #46, #128, #51, #142 ) ) ;
#223 = LINE ( 'NONE', #120, #150 ) ;
#224 = ADVANCED_FACE ( 'NONE', ( #109 ), #127, .F. ) ;
#225 = CARTESIAN_POINT ( 'NONE',  ( 10.00000000000000000, 200.0000000000000000, 0.0000000000000000000 ) ) ;
#226 =( NAMED_UNIT ( * ) SI_UNIT ( $, .STERADIAN. ) SOLID_ANGLE_UNIT ( ) );
#227 = ADVANCED_FACE ( 'NONE', ( #116 ), #175, .F. ) ;
#228 = DIRECTION ( 'NONE',  ( 1.000000000000000000, 0.0000000000000000000, 0.0000000000000000000 ) ) ;
#229 = VECTOR ( 'NONE', #85, 1000.000000000000000 ) ;
#230 = PLANE ( 'NONE',  #132 ) ;
#231 = STYLED_ITEM ( 'NONE', ( #215 ), #187 ) ;
#232 = ADVANCED_FACE ( 'NONE', ( #137 ), #160, .F. ) ;
#233 = EDGE_LOOP ( 'NONE', ( #199, #216, #93, #39 ) ) ;
#234 = FILL_AREA_STYLE_COLOUR ( '', #36 ) ;
#235 = FILL_AREA_STYLE ('',( #207 ) ) ;
#236 = PRODUCT_DEFINITION_CONTEXT ( 'detailed design', #159, 'design' ) ;
#237 = AXIS2_PLACEMENT_3D ( 'NONE', #63, #10, #228 ) ;
#238 = CARTESIAN_POINT ( 'NONE',  ( 0.0000000000000000000, 200.0000000000000000, 0.0000000000000000000 ) ) ;
#239 = NEXT_ASSEMBLY_USAGE_OCCURRENCE ( 'NAUO1', ' ', ' ', #131, #147, $ ) ;
ENDSEC;
END-ISO-10303-21;
