ISO-10303-21;
HEADER;
FILE_DESCRIPTION (( 'STEP AP214' ),
    '1' );
FILE_NAME ('TM_340_12.STEP',
    '2016-05-09T05:42:11',
    ( '' ),
    ( '' ),
    'SwSTEP 2.0',
    'SolidWorks 2015',
    '' );
FILE_SCHEMA (( 'AUTOMOTIVE_DESIGN' ));
ENDSEC;

DATA;
#1 = CARTESIAN_POINT ( 'NONE',  ( 0.0000000000000000000, 200.0000000000000000, 0.0000000000000000000 ) ) ;
#2 = CARTESIAN_POINT ( 'NONE',  ( 0.0000000000000000000, 0.0000000000000000000, 15.00000000000000000 ) ) ;
#3 = VERTEX_POINT ( 'NONE', #170 ) ;
#4 = VERTEX_POINT ( 'NONE', #149 ) ;
#5 = AXIS2_PLACEMENT_3D ( 'NONE', #132, #118, #13 ) ;
#6 = EDGE_CURVE ( 'NONE', #4, #205, #41, .T. ) ;
#7 = LINE ( 'NONE', #14, #156 ) ;
#8 = DIRECTION ( 'NONE',  ( -1.000000000000000000, -0.0000000000000000000, -0.0000000000000000000 ) ) ;
#9 = PRODUCT_CONTEXT ( 'NONE', #47, 'mechanical' ) ;
#10 =( NAMED_UNIT ( * ) PLANE_ANGLE_UNIT ( ) SI_UNIT ( $, .RADIAN. ) );
#11 = CARTESIAN_POINT ( 'NONE',  ( 0.0000000000000000000, 0.0000000000000000000, 0.0000000000000000000 ) ) ;
#12 = ORIENTED_EDGE ( 'NONE', *, *, #6, .F. ) ;
#13 = DIRECTION ( 'NONE',  ( 1.000000000000000000, 0.0000000000000000000, 0.0000000000000000000 ) ) ;
#14 = CARTESIAN_POINT ( 'NONE',  ( 0.0000000000000000000, 200.0000000000000000, 0.0000000000000000000 ) ) ;
#15 = COLOUR_RGB ( '',0.7921568627450980000, 0.8196078431372548800, 0.9333333333333333500 ) ;
#16 =( NAMED_UNIT ( * ) SI_UNIT ( $, .STERADIAN. ) SOLID_ANGLE_UNIT ( ) );
#17 = CARTESIAN_POINT ( 'NONE',  ( 0.0000000000000000000, 200.0000000000000000, 15.00000000000000000 ) ) ;
#18 = PLANE ( 'NONE',  #5 ) ;
#19 = CARTESIAN_POINT ( 'NONE',  ( 15.00000000000000000, 200.0000000000000000, 0.0000000000000000000 ) ) ;
#20 = EDGE_CURVE ( 'NONE', #4, #67, #135, .T. ) ;
#21 = CONTEXT_DEPENDENT_SHAPE_REPRESENTATION ( #44, #96 ) ;
#22 = PRESENTATION_LAYER_ASSIGNMENT (  '', '', ( #138 ) ) ;
#23 = FACE_OUTER_BOUND ( 'NONE', #78, .T. ) ;
#24 = PRODUCT_RELATED_PRODUCT_CATEGORY ( 'part', '', ( #178 ) ) ;
#25 = DIRECTION ( 'NONE',  ( 0.0000000000000000000, -1.000000000000000000, 0.0000000000000000000 ) ) ;
#26 = UNCERTAINTY_MEASURE_WITH_UNIT (LENGTH_MEASURE( 1.000000000000000100E-005 ), #27, 'distance_accuracy_value', 'NONE');
#27 =( LENGTH_UNIT ( ) NAMED_UNIT ( * ) SI_UNIT ( .MILLI., .METRE. ) );
#28 = EDGE_CURVE ( 'NONE', #205, #136, #164, .T. ) ;
#29 =( LENGTH_UNIT ( ) NAMED_UNIT ( * ) SI_UNIT ( .MILLI., .METRE. ) );
#30 =( LENGTH_UNIT ( ) NAMED_UNIT ( * ) SI_UNIT ( .MILLI., .METRE. ) );
#31 = CARTESIAN_POINT ( 'NONE',  ( 15.00000000000000000, 1000.000000000000000, 0.0000000000000000000 ) ) ;
#32 = ADVANCED_FACE ( 'NONE', ( #115 ), #86, .F. ) ;
#33 = DIRECTION ( 'NONE',  ( 0.0000000000000000000, -1.000000000000000000, 0.0000000000000000000 ) ) ;
#34 = ORIENTED_EDGE ( 'NONE', *, *, #196, .T. ) ;
#35 =( LENGTH_UNIT ( ) NAMED_UNIT ( * ) SI_UNIT ( .MILLI., .METRE. ) );
#36 = PLANE ( 'NONE',  #94 ) ;
#37 = CARTESIAN_POINT ( 'NONE',  ( 0.0000000000000000000, 1000.000000000000000, 15.00000000000000000 ) ) ;
#38 = ORIENTED_EDGE ( 'NONE', *, *, #223, .F. ) ;
#39 = AXIS2_PLACEMENT_3D ( 'NONE', #238, #219, #103 ) ;
#40 = ORIENTED_EDGE ( 'NONE', *, *, #28, .T. ) ;
#41 = LINE ( 'NONE', #76, #45 ) ;
#42 = SURFACE_STYLE_FILL_AREA ( #184 ) ;
#43 = EDGE_LOOP ( 'NONE', ( #211, #174, #152, #109 ) ) ;
#44 =( REPRESENTATION_RELATIONSHIP ('NONE','NONE', #231, #232 ) REPRESENTATION_RELATIONSHIP_WITH_TRANSFORMATION ( #64 )SHAPE_REPRESENTATION_RELATIONSHIP( ) );
#45 = VECTOR ( 'NONE', #25, 1000.000000000000000 ) ;
#46 = LINE ( 'NONE', #204, #137 ) ;
#47 = APPLICATION_CONTEXT ( 'automotive_design' ) ;
#48 = DIRECTION ( 'NONE',  ( 0.0000000000000000000, 0.0000000000000000000, 1.000000000000000000 ) ) ;
#49 = MECHANICAL_DESIGN_GEOMETRIC_PRESENTATION_REPRESENTATION (  '', ( #140 ), #79 ) ;
#50 = SURFACE_SIDE_STYLE ('',( #153 ) ) ;
#51 = PRODUCT_DEFINITION_SHAPE ( 'NONE', 'NONE',  #93 ) ;
#52 = AXIS2_PLACEMENT_3D ( 'NONE', #197, #186, #59 ) ;
#53 = ORIENTED_EDGE ( 'NONE', *, *, #20, .T. ) ;
#54 = CARTESIAN_POINT ( 'NONE',  ( 15.00000000000000000, 0.0000000000000000000, 15.00000000000000000 ) ) ;
#55 = SURFACE_SIDE_STYLE ('',( #42 ) ) ;
#56 = FILL_AREA_STYLE_COLOUR ( '', #81 ) ;
#57 = DIRECTION ( 'NONE',  ( -0.0000000000000000000, -0.0000000000000000000, 1.000000000000000000 ) ) ;
#58 = ORIENTED_EDGE ( 'NONE', *, *, #230, .T. ) ;
#59 = DIRECTION ( 'NONE',  ( 1.000000000000000000, 0.0000000000000000000, 0.0000000000000000000 ) ) ;
#60 = EDGE_CURVE ( 'NONE', #83, #4, #88, .T. ) ;
#61 = PRESENTATION_STYLE_ASSIGNMENT (( #169 ) ) ;
#62 = ADVANCED_FACE ( 'NONE', ( #218 ), #208, .T. ) ;
#63 = CLOSED_SHELL ( 'NONE', ( #191, #176, #133, #62, #141, #32 ) ) ;
#64 = ITEM_DEFINED_TRANSFORMATION ( 'NONE', 'NONE', #155,  #229 ) ;
#65 = ORIENTED_EDGE ( 'NONE', *, *, #157, .F. ) ;
#66 = VECTOR ( 'NONE', #131, 1000.000000000000000 ) ;
#67 = VERTEX_POINT ( 'NONE', #172 ) ;
#68 = LINE ( 'NONE', #217, #144 ) ;
#69 = VECTOR ( 'NONE', #202, 1000.000000000000000 ) ;
#70 = ORIENTED_EDGE ( 'NONE', *, *, #20, .F. ) ;
#71 = LINE ( 'NONE', #37, #146 ) ;
#72 = APPLICATION_PROTOCOL_DEFINITION ( 'draft international standard', 'automotive_design', 1998, #98 ) ;
#73 = EDGE_LOOP ( 'NONE', ( #102, #12, #53, #91 ) ) ;
#74 =( NAMED_UNIT ( * ) PLANE_ANGLE_UNIT ( ) SI_UNIT ( $, .RADIAN. ) );
#75 = EDGE_CURVE ( 'NONE', #3, #205, #175, .T. ) ;
#76 = CARTESIAN_POINT ( 'NONE',  ( 15.00000000000000000, 1000.000000000000000, 15.00000000000000000 ) ) ;
#77 = FILL_AREA_STYLE_COLOUR ( '', #15 ) ;
#78 = EDGE_LOOP ( 'NONE', ( #92, #38, #70, #190 ) ) ;
#79 =( GEOMETRIC_REPRESENTATION_CONTEXT ( 3 ) GLOBAL_UNCERTAINTY_ASSIGNED_CONTEXT ( ( #221 ) ) GLOBAL_UNIT_ASSIGNED_CONTEXT ( ( #30, #145, #129 ) ) REPRESENTATION_CONTEXT ( 'NONE', 'WORKASPACE' ) );
#80 = CARTESIAN_POINT ( 'NONE',  ( 0.0000000000000000000, 200.0000000000000000, 0.0000000000000000000 ) ) ;
#81 = COLOUR_RGB ( '',0.7921568627450980000, 0.8196078431372548800, 0.9333333333333333500 ) ;
#82 =( GEOMETRIC_REPRESENTATION_CONTEXT ( 3 ) GLOBAL_UNCERTAINTY_ASSIGNED_CONTEXT ( ( #106 ) ) GLOBAL_UNIT_ASSIGNED_CONTEXT ( ( #35, #148, #16 ) ) REPRESENTATION_CONTEXT ( 'NONE', 'WORKASPACE' ) );
#83 = VERTEX_POINT ( 'NONE', #185 ) ;
#84 = EDGE_LOOP ( 'NONE', ( #65, #111, #179, #34 ) ) ;
#85 = DIRECTION ( 'NONE',  ( 0.0000000000000000000, 0.0000000000000000000, 1.000000000000000000 ) ) ;
#86 = PLANE ( 'NONE',  #52 ) ;
#87 = ORIENTED_EDGE ( 'NONE', *, *, #75, .F. ) ;
#88 = LINE ( 'NONE', #19, #159 ) ;
#89 = PRODUCT ( 'rubber foam', 'rubber foam', '', ( #95 ) ) ;
#90 = ORIENTED_EDGE ( 'NONE', *, *, #75, .T. ) ;
#91 = ORIENTED_EDGE ( 'NONE', *, *, #125, .T. ) ;
#92 = ORIENTED_EDGE ( 'NONE', *, *, #209, .F. ) ;
#93 = PRODUCT_DEFINITION ( 'UNKNOWN', '', #236, #203 ) ;
#94 = AXIS2_PLACEMENT_3D ( 'NONE', #200, #119, #220 ) ;
#95 = PRODUCT_CONTEXT ( 'NONE', #98, 'mechanical' ) ;
#96 = PRODUCT_DEFINITION_SHAPE ( 'NONE', 'NONE',  #239 ) ;
#97 = PRODUCT_DEFINITION_FORMATION_WITH_SPECIFIED_SOURCE ( 'ANY', '', #178, .NOT_KNOWN. ) ;
#98 = APPLICATION_CONTEXT ( 'automotive_design' ) ;
#99 = DIRECTION ( 'NONE',  ( 1.000000000000000000, 0.0000000000000000000, 0.0000000000000000000 ) ) ;
#100 = DIRECTION ( 'NONE',  ( 0.0000000000000000000, 0.0000000000000000000, 1.000000000000000000 ) ) ;
#101 = CARTESIAN_POINT ( 'NONE',  ( 0.0000000000000000000, 0.0000000000000000000, 0.0000000000000000000 ) ) ;
#102 = ORIENTED_EDGE ( 'NONE', *, *, #28, .F. ) ;
#103 = DIRECTION ( 'NONE',  ( -1.000000000000000000, 0.0000000000000000000, 0.0000000000000000000 ) ) ;
#104 = VECTOR ( 'NONE', #33, 1000.000000000000000 ) ;
#105 = PLANE ( 'NONE',  #39 ) ;
#106 = UNCERTAINTY_MEASURE_WITH_UNIT (LENGTH_MEASURE( 1.000000000000000100E-005 ), #35, 'distance_accuracy_value', 'NONE');
#107 = DIRECTION ( 'NONE',  ( 1.000000000000000000, 0.0000000000000000000, 0.0000000000000000000 ) ) ;
#108 = CARTESIAN_POINT ( 'NONE',  ( 15.00000000000000000, 0.0000000000000000000, 0.0000000000000000000 ) ) ;
#109 = ORIENTED_EDGE ( 'NONE', *, *, #234, .T. ) ;
#110 = VECTOR ( 'NONE', #237, 1000.000000000000000 ) ;
#111 = ORIENTED_EDGE ( 'NONE', *, *, #125, .F. ) ;
#112 =( GEOMETRIC_REPRESENTATION_CONTEXT ( 3 ) GLOBAL_UNCERTAINTY_ASSIGNED_CONTEXT ( ( #26 ) ) GLOBAL_UNIT_ASSIGNED_CONTEXT ( ( #27, #74, #143 ) ) REPRESENTATION_CONTEXT ( 'NONE', 'WORKASPACE' ) );
#113 = PRODUCT_DEFINITION_CONTEXT ( 'detailed design', #126, 'design' ) ;
#114 = LINE ( 'NONE', #201, #66 ) ;
#115 = FACE_OUTER_BOUND ( 'NONE', #150, .T. ) ;
#116 = DIRECTION ( 'NONE',  ( 0.0000000000000000000, 0.0000000000000000000, 1.000000000000000000 ) ) ;
#117 = CARTESIAN_POINT ( 'NONE',  ( 0.0000000000000000000, 0.0000000000000000000, 0.0000000000000000000 ) ) ;
#118 = DIRECTION ( 'NONE',  ( 0.0000000000000000000, 0.0000000000000000000, 1.000000000000000000 ) ) ;
#119 = DIRECTION ( 'NONE',  ( 1.000000000000000000, 0.0000000000000000000, 0.0000000000000000000 ) ) ;
#120 = DIRECTION ( 'NONE',  ( -0.0000000000000000000, -0.0000000000000000000, -1.000000000000000000 ) ) ;
#121 = DIRECTION ( 'NONE',  ( -1.000000000000000000, 0.0000000000000000000, 0.0000000000000000000 ) ) ;
#122 = FACE_OUTER_BOUND ( 'NONE', #73, .T. ) ;
#123 = EDGE_LOOP ( 'NONE', ( #87, #227, #173, #213 ) ) ;
#124 = VECTOR ( 'NONE', #57, 1000.000000000000000 ) ;
#125 = EDGE_CURVE ( 'NONE', #67, #136, #71, .T. ) ;
#126 = APPLICATION_CONTEXT ( 'automotive_design' ) ;
#127 =( NAMED_UNIT ( * ) SI_UNIT ( $, .STERADIAN. ) SOLID_ANGLE_UNIT ( ) );
#128 = SHAPE_DEFINITION_REPRESENTATION ( #51, #232 ) ;
#129 =( NAMED_UNIT ( * ) SI_UNIT ( $, .STERADIAN. ) SOLID_ANGLE_UNIT ( ) );
#130 = CARTESIAN_POINT ( 'NONE',  ( 0.0000000000000000000, 0.0000000000000000000, 0.0000000000000000000 ) ) ;
#131 = DIRECTION ( 'NONE',  ( 1.000000000000000000, -0.0000000000000000000, -0.0000000000000000000 ) ) ;
#132 = CARTESIAN_POINT ( 'NONE',  ( 15.00000000000000000, 1000.000000000000000, 15.00000000000000000 ) ) ;
#133 = ADVANCED_FACE ( 'NONE', ( #122 ), #18, .T. ) ;
#134 = CARTESIAN_POINT ( 'NONE',  ( 0.0000000000000000000, 1000.000000000000000, 15.00000000000000000 ) ) ;
#135 = LINE ( 'NONE', #17, #189 ) ;
#136 = VERTEX_POINT ( 'NONE', #2 ) ;
#137 = VECTOR ( 'NONE', #120, 1000.000000000000000 ) ;
#138 = STYLED_ITEM ( 'NONE', ( #61 ), #180 ) ;
#139 = LINE ( 'NONE', #31, #110 ) ;
#140 = STYLED_ITEM ( 'NONE', ( #154 ), #161 ) ;
#141 = ADVANCED_FACE ( 'NONE', ( #23 ), #183, .T. ) ;
#142 = APPLICATION_PROTOCOL_DEFINITION ( 'draft international standard', 'automotive_design', 1998, #47 ) ;
#143 =( NAMED_UNIT ( * ) SI_UNIT ( $, .STERADIAN. ) SOLID_ANGLE_UNIT ( ) );
#144 = VECTOR ( 'NONE', #166, 1000.000000000000000 ) ;
#145 =( NAMED_UNIT ( * ) PLANE_ANGLE_UNIT ( ) SI_UNIT ( $, .RADIAN. ) );
#146 = VECTOR ( 'NONE', #206, 1000.000000000000000 ) ;
#147 = DIRECTION ( 'NONE',  ( -0.0000000000000000000, -0.0000000000000000000, -1.000000000000000000 ) ) ;
#148 =( NAMED_UNIT ( * ) PLANE_ANGLE_UNIT ( ) SI_UNIT ( $, .RADIAN. ) );
#149 = CARTESIAN_POINT ( 'NONE',  ( 15.00000000000000000, 200.0000000000000000, 15.00000000000000000 ) ) ;
#150 = EDGE_LOOP ( 'NONE', ( #58, #90, #40, #235 ) ) ;
#151 = DIRECTION ( 'NONE',  ( -0.0000000000000000000, -0.0000000000000000000, 1.000000000000000000 ) ) ;
#152 = ORIENTED_EDGE ( 'NONE', *, *, #209, .T. ) ;
#153 = SURFACE_STYLE_FILL_AREA ( #182 ) ;
#154 = PRESENTATION_STYLE_ASSIGNMENT (( #165 ) ) ;
#155 = AXIS2_PLACEMENT_3D ( 'NONE', #198, #48, #163 ) ;
#156 = VECTOR ( 'NONE', #147, 1000.000000000000000 ) ;
#157 = EDGE_CURVE ( 'NONE', #136, #233, #46, .T. ) ;
#158 = UNCERTAINTY_MEASURE_WITH_UNIT (LENGTH_MEASURE( 1.000000000000000100E-005 ), #29, 'distance_accuracy_value', 'NONE');
#159 = VECTOR ( 'NONE', #151, 1000.000000000000000 ) ;
#160 = APPLICATION_PROTOCOL_DEFINITION ( 'draft international standard', 'automotive_design', 1998, #195 ) ;
#161 = ADVANCED_BREP_SHAPE_REPRESENTATION ( '', ( #180, #229 ), #112 ) ;
#162 = PRODUCT_DEFINITION ( 'UNKNOWN', '', #97, #113 ) ;
#163 = DIRECTION ( 'NONE',  ( 1.000000000000000000, 0.0000000000000000000, 0.0000000000000000000 ) ) ;
#164 = LINE ( 'NONE', #193, #69 ) ;
#165 = SURFACE_STYLE_USAGE ( .BOTH. , #50 ) ;
#166 = DIRECTION ( 'NONE',  ( 1.000000000000000000, -0.0000000000000000000, -0.0000000000000000000 ) ) ;
#167 = AXIS2_PLACEMENT_3D ( 'NONE', #134, #121, #85 ) ;
#168 = CARTESIAN_POINT ( 'NONE',  ( 0.0000000000000000000, 1000.000000000000000, 0.0000000000000000000 ) ) ;
#169 = SURFACE_STYLE_USAGE ( .BOTH. , #55 ) ;
#170 = CARTESIAN_POINT ( 'NONE',  ( 15.00000000000000000, 0.0000000000000000000, 0.0000000000000000000 ) ) ;
#171 = SHAPE_REPRESENTATION_RELATIONSHIP ( 'NONE' , 'NONE' ,  #232, #161 ) ;
#172 = CARTESIAN_POINT ( 'NONE',  ( 0.0000000000000000000, 200.0000000000000000, 15.00000000000000000 ) ) ;
#173 = ORIENTED_EDGE ( 'NONE', *, *, #60, .T. ) ;
#174 = ORIENTED_EDGE ( 'NONE', *, *, #196, .F. ) ;
#175 = LINE ( 'NONE', #108, #124 ) ;
#176 = ADVANCED_FACE ( 'NONE', ( #192 ), #36, .T. ) ;
#177 = AXIS2_PLACEMENT_3D ( 'NONE', #1, #222, #107 ) ;
#178 = PRODUCT ( 'TM_340_12', 'TM_340_12', '', ( #9 ) ) ;
#179 = ORIENTED_EDGE ( 'NONE', *, *, #223, .T. ) ;
#180 = MANIFOLD_SOLID_BREP ( '²ÝÎß°Ä1', #63 ) ;
#181 = APPLICATION_PROTOCOL_DEFINITION ( 'draft international standard', 'automotive_design', 1998, #126 ) ;
#182 = FILL_AREA_STYLE ('',( #77 ) ) ;
#183 = PLANE ( 'NONE',  #177 ) ;
#184 = FILL_AREA_STYLE ('',( #56 ) ) ;
#185 = CARTESIAN_POINT ( 'NONE',  ( 15.00000000000000000, 200.0000000000000000, 0.0000000000000000000 ) ) ;
#186 = DIRECTION ( 'NONE',  ( -0.0000000000000000000, 1.000000000000000000, 0.0000000000000000000 ) ) ;
#187 = PRODUCT_RELATED_PRODUCT_CATEGORY ( 'part', '', ( #89 ) ) ;
#188 = PRODUCT_DEFINITION_SHAPE ( 'NONE', 'NONE',  #162 ) ;
#189 = VECTOR ( 'NONE', #8, 1000.000000000000000 ) ;
#190 = ORIENTED_EDGE ( 'NONE', *, *, #60, .F. ) ;
#191 = ADVANCED_FACE ( 'NONE', ( #228 ), #105, .T. ) ;
#192 = FACE_OUTER_BOUND ( 'NONE', #123, .T. ) ;
#193 = CARTESIAN_POINT ( 'NONE',  ( 0.0000000000000000000, 0.0000000000000000000, 15.00000000000000000 ) ) ;
#194 = AXIS2_PLACEMENT_3D ( 'NONE', #117, #216, #99 ) ;
#195 = APPLICATION_CONTEXT ( 'automotive_design' ) ;
#196 = EDGE_CURVE ( 'NONE', #224, #233, #212, .T. ) ;
#197 = CARTESIAN_POINT ( 'NONE',  ( 0.0000000000000000000, 0.0000000000000000000, 0.0000000000000000000 ) ) ;
#198 = CARTESIAN_POINT ( 'NONE',  ( 0.0000000000000000000, 0.0000000000000000000, 0.0000000000000000000 ) ) ;
#199 = DIRECTION ( 'NONE',  ( 1.000000000000000000, 0.0000000000000000000, 0.0000000000000000000 ) ) ;
#200 = CARTESIAN_POINT ( 'NONE',  ( 15.00000000000000000, 1000.000000000000000, 0.0000000000000000000 ) ) ;
#201 = CARTESIAN_POINT ( 'NONE',  ( 0.0000000000000000000, 200.0000000000000000, 0.0000000000000000000 ) ) ;
#202 = DIRECTION ( 'NONE',  ( -1.000000000000000000, -0.0000000000000000000, -0.0000000000000000000 ) ) ;
#203 = PRODUCT_DEFINITION_CONTEXT ( 'detailed design', #195, 'design' ) ;
#204 = CARTESIAN_POINT ( 'NONE',  ( 0.0000000000000000000, 0.0000000000000000000, 0.0000000000000000000 ) ) ;
#205 = VERTEX_POINT ( 'NONE', #54 ) ;
#206 = DIRECTION ( 'NONE',  ( 0.0000000000000000000, -1.000000000000000000, 0.0000000000000000000 ) ) ;
#207 = PRESENTATION_LAYER_ASSIGNMENT (  '', '', ( #140 ) ) ;
#208 = PLANE ( 'NONE',  #167 ) ;
#209 = EDGE_CURVE ( 'NONE', #224, #83, #114, .T. ) ;
#210 = SHAPE_DEFINITION_REPRESENTATION ( #188, #231 ) ;
#211 = ORIENTED_EDGE ( 'NONE', *, *, #230, .F. ) ;
#212 = LINE ( 'NONE', #168, #104 ) ;
#213 = ORIENTED_EDGE ( 'NONE', *, *, #6, .T. ) ;
#214 = DIRECTION ( 'NONE',  ( 1.000000000000000000, 0.0000000000000000000, 0.0000000000000000000 ) ) ;
#215 =( GEOMETRIC_REPRESENTATION_CONTEXT ( 3 ) GLOBAL_UNCERTAINTY_ASSIGNED_CONTEXT ( ( #158 ) ) GLOBAL_UNIT_ASSIGNED_CONTEXT ( ( #29, #10, #127 ) ) REPRESENTATION_CONTEXT ( 'NONE', 'WORKASPACE' ) );
#216 = DIRECTION ( 'NONE',  ( 0.0000000000000000000, 0.0000000000000000000, 1.000000000000000000 ) ) ;
#217 = CARTESIAN_POINT ( 'NONE',  ( 0.0000000000000000000, 0.0000000000000000000, 0.0000000000000000000 ) ) ;
#218 = FACE_OUTER_BOUND ( 'NONE', #84, .T. ) ;
#219 = DIRECTION ( 'NONE',  ( 0.0000000000000000000, 0.0000000000000000000, -1.000000000000000000 ) ) ;
#220 = DIRECTION ( 'NONE',  ( 0.0000000000000000000, 0.0000000000000000000, -1.000000000000000000 ) ) ;
#221 = UNCERTAINTY_MEASURE_WITH_UNIT (LENGTH_MEASURE( 1.000000000000000100E-005 ), #30, 'distance_accuracy_value', 'NONE');
#222 = DIRECTION ( 'NONE',  ( -0.0000000000000000000, 1.000000000000000000, 0.0000000000000000000 ) ) ;
#223 = EDGE_CURVE ( 'NONE', #67, #224, #7, .T. ) ;
#224 = VERTEX_POINT ( 'NONE', #80 ) ;
#225 = AXIS2_PLACEMENT_3D ( 'NONE', #130, #116, #214 ) ;
#226 = MECHANICAL_DESIGN_GEOMETRIC_PRESENTATION_REPRESENTATION (  '', ( #138 ), #82 ) ;
#227 = ORIENTED_EDGE ( 'NONE', *, *, #234, .F. ) ;
#228 = FACE_OUTER_BOUND ( 'NONE', #43, .T. ) ;
#229 = AXIS2_PLACEMENT_3D ( 'NONE', #11, #100, #199 ) ;
#230 = EDGE_CURVE ( 'NONE', #233, #3, #68, .T. ) ;
#231 = SHAPE_REPRESENTATION ( 'TM_340_12', ( #225, #155 ), #215 ) ;
#232 = SHAPE_REPRESENTATION ( 'rubber foam', ( #229 ), #112 ) ;
#233 = VERTEX_POINT ( 'NONE', #101 ) ;
#234 = EDGE_CURVE ( 'NONE', #83, #3, #139, .T. ) ;
#235 = ORIENTED_EDGE ( 'NONE', *, *, #157, .T. ) ;
#236 = PRODUCT_DEFINITION_FORMATION_WITH_SPECIFIED_SOURCE ( 'ANY', '', #89, .NOT_KNOWN. ) ;
#237 = DIRECTION ( 'NONE',  ( 0.0000000000000000000, -1.000000000000000000, 0.0000000000000000000 ) ) ;
#238 = CARTESIAN_POINT ( 'NONE',  ( 0.0000000000000000000, 1000.000000000000000, 0.0000000000000000000 ) ) ;
#239 = NEXT_ASSEMBLY_USAGE_OCCURRENCE ( 'NAUO1', ' ', ' ', #162, #93, $ ) ;
ENDSEC;
END-ISO-10303-21;
