ISO-10303-21;
HEADER;
FILE_DESCRIPTION (( 'STEP AP214' ),
    '1' );
FILE_NAME ('TM_340_13.STEP',
    '2016-05-09T05:50:29',
    ( '' ),
    ( '' ),
    'SwSTEP 2.0',
    'SolidWorks 2015',
    '' );
FILE_SCHEMA (( 'AUTOMOTIVE_DESIGN' ));
ENDSEC;

DATA;
#1 = STYLED_ITEM ( 'NONE', ( #87 ), #28 ) ;
#2 = CARTESIAN_POINT ( 'NONE',  ( 20.00000000000000000, 0.0000000000000000000, 0.0000000000000000000 ) ) ;
#3 = VECTOR ( 'NONE', #16, 1000.000000000000000 ) ;
#4 = LINE ( 'NONE', #2, #143 ) ;
#5 = DIRECTION ( 'NONE',  ( 0.0000000000000000000, 0.0000000000000000000, 1.000000000000000000 ) ) ;
#6 = PRESENTATION_LAYER_ASSIGNMENT (  '', '', ( #234 ) ) ;
#7 = EDGE_CURVE ( 'NONE', #213, #140, #158, .T. ) ;
#8 = DIRECTION ( 'NONE',  ( 1.000000000000000000, 0.0000000000000000000, 0.0000000000000000000 ) ) ;
#9 = ADVANCED_BREP_SHAPE_REPRESENTATION ( '', ( #28, #33 ), #178 ) ;
#10 = LINE ( 'NONE', #204, #152 ) ;
#11 = CARTESIAN_POINT ( 'NONE',  ( 20.00000000000000000, 200.0000000000000000, 15.00000000000000000 ) ) ;
#12 = PLANE ( 'NONE',  #13 ) ;
#13 = AXIS2_PLACEMENT_3D ( 'NONE', #49, #199, #52 ) ;
#14 = EDGE_LOOP ( 'NONE', ( #142, #88, #184, #70 ) ) ;
#15 = FACE_OUTER_BOUND ( 'NONE', #24, .T. ) ;
#16 = DIRECTION ( 'NONE',  ( 1.000000000000000000, 0.0000000000000000000, 0.0000000000000000000 ) ) ;
#17 = ORIENTED_EDGE ( 'NONE', *, *, #35, .T. ) ;
#18 =( NAMED_UNIT ( * ) PLANE_ANGLE_UNIT ( ) SI_UNIT ( $, .RADIAN. ) );
#19 =( REPRESENTATION_RELATIONSHIP ('NONE','NONE', #155, #111 ) REPRESENTATION_RELATIONSHIP_WITH_TRANSFORMATION ( #125 )SHAPE_REPRESENTATION_RELATIONSHIP( ) );
#20 = DIRECTION ( 'NONE',  ( 1.000000000000000000, 0.0000000000000000000, 0.0000000000000000000 ) ) ;
#21 = FACE_OUTER_BOUND ( 'NONE', #179, .T. ) ;
#22 =( NAMED_UNIT ( * ) PLANE_ANGLE_UNIT ( ) SI_UNIT ( $, .RADIAN. ) );
#23 = CARTESIAN_POINT ( 'NONE',  ( 0.0000000000000000000, 1000.000000000000000, 0.0000000000000000000 ) ) ;
#24 = EDGE_LOOP ( 'NONE', ( #38, #175, #91, #123 ) ) ;
#25 = FACE_OUTER_BOUND ( 'NONE', #81, .T. ) ;
#26 = DIRECTION ( 'NONE',  ( 0.0000000000000000000, -1.000000000000000000, 0.0000000000000000000 ) ) ;
#27 = EDGE_CURVE ( 'NONE', #217, #157, #105, .T. ) ;
#28 = MANIFOLD_SOLID_BREP ( '²ÝÎß°Ä1', #48 ) ;
#29 = CARTESIAN_POINT ( 'NONE',  ( 20.00000000000000000, 200.0000000000000000, 0.0000000000000000000 ) ) ;
#30 = FACE_OUTER_BOUND ( 'NONE', #189, .T. ) ;
#31 = PLANE ( 'NONE',  #53 ) ;
#32 = LINE ( 'NONE', #160, #126 ) ;
#33 = AXIS2_PLACEMENT_3D ( 'NONE', #210, #165, #228 ) ;
#34 = ADVANCED_FACE ( 'NONE', ( #30 ), #31, .F. ) ;
#35 = EDGE_CURVE ( 'NONE', #140, #54, #180, .T. ) ;
#36 = CARTESIAN_POINT ( 'NONE',  ( 0.0000000000000000000, 0.0000000000000000000, 15.00000000000000000 ) ) ;
#37 = VECTOR ( 'NONE', #135, 1000.000000000000000 ) ;
#38 = ORIENTED_EDGE ( 'NONE', *, *, #128, .T. ) ;
#39 = APPLICATION_CONTEXT ( 'automotive_design' ) ;
#40 = DIRECTION ( 'NONE',  ( -1.000000000000000000, 0.0000000000000000000, 0.0000000000000000000 ) ) ;
#41 = ORIENTED_EDGE ( 'NONE', *, *, #107, .F. ) ;
#42 = APPLICATION_CONTEXT ( 'automotive_design' ) ;
#43 =( NAMED_UNIT ( * ) SI_UNIT ( $, .STERADIAN. ) SOLID_ANGLE_UNIT ( ) );
#44 = CARTESIAN_POINT ( 'NONE',  ( 0.0000000000000000000, 1000.000000000000000, 15.00000000000000000 ) ) ;
#45 = PRODUCT_DEFINITION_SHAPE ( 'NONE', 'NONE',  #115 ) ;
#46 = ORIENTED_EDGE ( 'NONE', *, *, #35, .F. ) ;
#47 = CARTESIAN_POINT ( 'NONE',  ( 0.0000000000000000000, 200.0000000000000000, 15.00000000000000000 ) ) ;
#48 = CLOSED_SHELL ( 'NONE', ( #198, #154, #100, #78, #118, #34 ) ) ;
#49 = CARTESIAN_POINT ( 'NONE',  ( 0.0000000000000000000, 200.0000000000000000, 0.0000000000000000000 ) ) ;
#50 = SURFACE_STYLE_FILL_AREA ( #77 ) ;
#51 = ORIENTED_EDGE ( 'NONE', *, *, #141, .T. ) ;
#52 = DIRECTION ( 'NONE',  ( 1.000000000000000000, 0.0000000000000000000, 0.0000000000000000000 ) ) ;
#53 = AXIS2_PLACEMENT_3D ( 'NONE', #108, #232, #197 ) ;
#54 = VERTEX_POINT ( 'NONE', #82 ) ;
#55 =( NAMED_UNIT ( * ) PLANE_ANGLE_UNIT ( ) SI_UNIT ( $, .RADIAN. ) );
#56 =( GEOMETRIC_REPRESENTATION_CONTEXT ( 3 ) GLOBAL_UNCERTAINTY_ASSIGNED_CONTEXT ( ( #97 ) ) GLOBAL_UNIT_ASSIGNED_CONTEXT ( ( #110, #55, #66 ) ) REPRESENTATION_CONTEXT ( 'NONE', 'WORKASPACE' ) );
#57 = LINE ( 'NONE', #207, #109 ) ;
#58 = UNCERTAINTY_MEASURE_WITH_UNIT (LENGTH_MEASURE( 1.000000000000000100E-005 ), #191, 'distance_accuracy_value', 'NONE');
#59 = AXIS2_PLACEMENT_3D ( 'NONE', #44, #150, #185 ) ;
#60 = ORIENTED_EDGE ( 'NONE', *, *, #156, .F. ) ;
#61 = CARTESIAN_POINT ( 'NONE',  ( 0.0000000000000000000, 200.0000000000000000, 0.0000000000000000000 ) ) ;
#62 = APPLICATION_PROTOCOL_DEFINITION ( 'draft international standard', 'automotive_design', 1998, #202 ) ;
#63 = PRODUCT_DEFINITION_CONTEXT ( 'detailed design', #42, 'design' ) ;
#64 = VERTEX_POINT ( 'NONE', #11 ) ;
#65 = AXIS2_PLACEMENT_3D ( 'NONE', #130, #163, #182 ) ;
#66 =( NAMED_UNIT ( * ) SI_UNIT ( $, .STERADIAN. ) SOLID_ANGLE_UNIT ( ) );
#67 = MECHANICAL_DESIGN_GEOMETRIC_PRESENTATION_REPRESENTATION (  '', ( #1 ), #56 ) ;
#68 = FILL_AREA_STYLE ('',( #122 ) ) ;
#69 = VECTOR ( 'NONE', #26, 1000.000000000000000 ) ;
#70 = ORIENTED_EDGE ( 'NONE', *, *, #221, .T. ) ;
#71 = FACE_OUTER_BOUND ( 'NONE', #94, .T. ) ;
#72 = CARTESIAN_POINT ( 'NONE',  ( 0.0000000000000000000, 0.0000000000000000000, 0.0000000000000000000 ) ) ;
#73 = AXIS2_PLACEMENT_3D ( 'NONE', #72, #148, #183 ) ;
#74 = PRODUCT_CONTEXT ( 'NONE', #39, 'mechanical' ) ;
#75 = COLOUR_RGB ( '',0.7921568627450980000, 0.8196078431372548800, 0.9333333333333333500 ) ;
#76 = PRESENTATION_LAYER_ASSIGNMENT (  '', '', ( #1 ) ) ;
#77 = FILL_AREA_STYLE ('',( #79 ) ) ;
#78 = ADVANCED_FACE ( 'NONE', ( #71 ), #229, .F. ) ;
#79 = FILL_AREA_STYLE_COLOUR ( '', #144 ) ;
#80 =( LENGTH_UNIT ( ) NAMED_UNIT ( * ) SI_UNIT ( .MILLI., .METRE. ) );
#81 = EDGE_LOOP ( 'NONE', ( #51, #235, #133, #222 ) ) ;
#82 = CARTESIAN_POINT ( 'NONE',  ( 20.00000000000000000, 0.0000000000000000000, 15.00000000000000000 ) ) ;
#83 = SURFACE_STYLE_USAGE ( .BOTH. , #104 ) ;
#84 = PLANE ( 'NONE',  #101 ) ;
#85 = DIRECTION ( 'NONE',  ( 1.000000000000000000, 0.0000000000000000000, 0.0000000000000000000 ) ) ;
#86 =( GEOMETRIC_REPRESENTATION_CONTEXT ( 3 ) GLOBAL_UNCERTAINTY_ASSIGNED_CONTEXT ( ( #176 ) ) GLOBAL_UNIT_ASSIGNED_CONTEXT ( ( #80, #188, #43 ) ) REPRESENTATION_CONTEXT ( 'NONE', 'WORKASPACE' ) );
#87 = PRESENTATION_STYLE_ASSIGNMENT (( #83 ) ) ;
#88 = ORIENTED_EDGE ( 'NONE', *, *, #219, .F. ) ;
#89 =( GEOMETRIC_REPRESENTATION_CONTEXT ( 3 ) GLOBAL_UNCERTAINTY_ASSIGNED_CONTEXT ( ( #208 ) ) GLOBAL_UNIT_ASSIGNED_CONTEXT ( ( #112, #18, #238 ) ) REPRESENTATION_CONTEXT ( 'NONE', 'WORKASPACE' ) );
#90 = LINE ( 'NONE', #138, #3 ) ;
#91 = ORIENTED_EDGE ( 'NONE', *, *, #195, .F. ) ;
#92 = VECTOR ( 'NONE', #167, 1000.000000000000000 ) ;
#93 = CARTESIAN_POINT ( 'NONE',  ( 20.00000000000000000, 1000.000000000000000, 0.0000000000000000000 ) ) ;
#94 = EDGE_LOOP ( 'NONE', ( #200, #194, #41, #162 ) ) ;
#95 = APPLICATION_PROTOCOL_DEFINITION ( 'draft international standard', 'automotive_design', 1998, #39 ) ;
#96 = PRODUCT ( 'rubber foam', 'rubber foam', '', ( #206 ) ) ;
#97 = UNCERTAINTY_MEASURE_WITH_UNIT (LENGTH_MEASURE( 1.000000000000000100E-005 ), #110, 'distance_accuracy_value', 'NONE');
#98 = ORIENTED_EDGE ( 'NONE', *, *, #7, .F. ) ;
#99 = DIRECTION ( 'NONE',  ( 0.0000000000000000000, -1.000000000000000000, 0.0000000000000000000 ) ) ;
#100 = ADVANCED_FACE ( 'NONE', ( #190 ), #84, .F. ) ;
#101 = AXIS2_PLACEMENT_3D ( 'NONE', #212, #196, #85 ) ;
#102 = VERTEX_POINT ( 'NONE', #47 ) ;
#103 = AXIS2_PLACEMENT_3D ( 'NONE', #114, #164, #20 ) ;
#104 = SURFACE_SIDE_STYLE ('',( #201 ) ) ;
#105 = LINE ( 'NONE', #29, #37 ) ;
#106 = CARTESIAN_POINT ( 'NONE',  ( 0.0000000000000000000, 1000.000000000000000, 15.00000000000000000 ) ) ;
#107 = EDGE_CURVE ( 'NONE', #157, #102, #159, .T. ) ;
#108 = CARTESIAN_POINT ( 'NONE',  ( 0.0000000000000000000, 0.0000000000000000000, 0.0000000000000000000 ) ) ;
#109 = VECTOR ( 'NONE', #224, 1000.000000000000000 ) ;
#110 =( LENGTH_UNIT ( ) NAMED_UNIT ( * ) SI_UNIT ( .MILLI., .METRE. ) );
#111 = SHAPE_REPRESENTATION ( 'rubber foam', ( #33 ), #178 ) ;
#112 =( LENGTH_UNIT ( ) NAMED_UNIT ( * ) SI_UNIT ( .MILLI., .METRE. ) );
#113 = AXIS2_PLACEMENT_3D ( 'NONE', #230, #8, #218 ) ;
#114 = CARTESIAN_POINT ( 'NONE',  ( 0.0000000000000000000, 0.0000000000000000000, 0.0000000000000000000 ) ) ;
#115 = PRODUCT_DEFINITION ( 'UNKNOWN', '', #170, #181 ) ;
#116 = APPLICATION_CONTEXT ( 'automotive_design' ) ;
#117 = CARTESIAN_POINT ( 'NONE',  ( 0.0000000000000000000, 0.0000000000000000000, 0.0000000000000000000 ) ) ;
#118 = ADVANCED_FACE ( 'NONE', ( #25 ), #12, .T. ) ;
#119 = CARTESIAN_POINT ( 'NONE',  ( 0.0000000000000000000, 0.0000000000000000000, 15.00000000000000000 ) ) ;
#120 = EDGE_CURVE ( 'NONE', #102, #140, #211, .T. ) ;
#121 = DIRECTION ( 'NONE',  ( 0.0000000000000000000, 0.0000000000000000000, 1.000000000000000000 ) ) ;
#122 = FILL_AREA_STYLE_COLOUR ( '', #75 ) ;
#123 = ORIENTED_EDGE ( 'NONE', *, *, #156, .T. ) ;
#124 = VECTOR ( 'NONE', #121, 1000.000000000000000 ) ;
#125 = ITEM_DEFINED_TRANSFORMATION ( 'NONE', 'NONE', #73,  #33 ) ;
#126 = VECTOR ( 'NONE', #173, 1000.000000000000000 ) ;
#127 = VECTOR ( 'NONE', #215, 1000.000000000000000 ) ;
#128 = EDGE_CURVE ( 'NONE', #54, #231, #32, .T. ) ;
#129 = CARTESIAN_POINT ( 'NONE',  ( 20.00000000000000000, 0.0000000000000000000, 0.0000000000000000000 ) ) ;
#130 = CARTESIAN_POINT ( 'NONE',  ( 0.0000000000000000000, 0.0000000000000000000, 0.0000000000000000000 ) ) ;
#131 = PLANE ( 'NONE',  #59 ) ;
#132 = APPLICATION_PROTOCOL_DEFINITION ( 'draft international standard', 'automotive_design', 1998, #116 ) ;
#133 = ORIENTED_EDGE ( 'NONE', *, *, #27, .T. ) ;
#134 = VECTOR ( 'NONE', #169, 1000.000000000000000 ) ;
#135 = DIRECTION ( 'NONE',  ( -1.000000000000000000, 0.0000000000000000000, 0.0000000000000000000 ) ) ;
#136 = PRODUCT_DEFINITION ( 'UNKNOWN', '', #149, #63 ) ;
#137 = ORIENTED_EDGE ( 'NONE', *, *, #141, .F. ) ;
#138 = CARTESIAN_POINT ( 'NONE',  ( 0.0000000000000000000, 200.0000000000000000, 15.00000000000000000 ) ) ;
#139 = PRODUCT ( 'TM_340_13', 'TM_340_13', '', ( #74 ) ) ;
#140 = VERTEX_POINT ( 'NONE', #119 ) ;
#141 = EDGE_CURVE ( 'NONE', #102, #64, #90, .T. ) ;
#142 = ORIENTED_EDGE ( 'NONE', *, *, #205, .T. ) ;
#143 = VECTOR ( 'NONE', #226, 1000.000000000000000 ) ;
#144 = COLOUR_RGB ( '',0.7921568627450980000, 0.8196078431372548800, 0.9333333333333333500 ) ;
#145 = MECHANICAL_DESIGN_GEOMETRIC_PRESENTATION_REPRESENTATION (  '', ( #234 ), #89 ) ;
#146 = DIRECTION ( 'NONE',  ( 0.0000000000000000000, -1.000000000000000000, 0.0000000000000000000 ) ) ;
#147 = AXIS2_PLACEMENT_3D ( 'NONE', #151, #40, #5 ) ;
#148 = DIRECTION ( 'NONE',  ( 0.0000000000000000000, 0.0000000000000000000, 1.000000000000000000 ) ) ;
#149 = PRODUCT_DEFINITION_FORMATION_WITH_SPECIFIED_SOURCE ( 'ANY', '', #139, .NOT_KNOWN. ) ;
#150 = DIRECTION ( 'NONE',  ( 0.0000000000000000000, 0.0000000000000000000, -1.000000000000000000 ) ) ;
#151 = CARTESIAN_POINT ( 'NONE',  ( 20.00000000000000000, 1000.000000000000000, 15.00000000000000000 ) ) ;
#152 = VECTOR ( 'NONE', #99, 1000.000000000000000 ) ;
#153 =( NAMED_UNIT ( * ) SI_UNIT ( $, .STERADIAN. ) SOLID_ANGLE_UNIT ( ) );
#154 = ADVANCED_FACE ( 'NONE', ( #15 ), #223, .F. ) ;
#155 = SHAPE_REPRESENTATION ( 'TM_340_13', ( #103, #73 ), #86 ) ;
#156 = EDGE_CURVE ( 'NONE', #64, #54, #10, .T. ) ;
#157 = VERTEX_POINT ( 'NONE', #61 ) ;
#158 = LINE ( 'NONE', #216, #124 ) ;
#159 = LINE ( 'NONE', #193, #127 ) ;
#160 = CARTESIAN_POINT ( 'NONE',  ( 20.00000000000000000, 0.0000000000000000000, 15.00000000000000000 ) ) ;
#161 = PRODUCT_RELATED_PRODUCT_CATEGORY ( 'part', '', ( #139 ) ) ;
#162 = ORIENTED_EDGE ( 'NONE', *, *, #219, .T. ) ;
#163 = DIRECTION ( 'NONE',  ( 0.0000000000000000000, 0.0000000000000000000, 1.000000000000000000 ) ) ;
#164 = DIRECTION ( 'NONE',  ( 0.0000000000000000000, 0.0000000000000000000, 1.000000000000000000 ) ) ;
#165 = DIRECTION ( 'NONE',  ( 0.0000000000000000000, 0.0000000000000000000, 1.000000000000000000 ) ) ;
#166 = APPLICATION_PROTOCOL_DEFINITION ( 'draft international standard', 'automotive_design', 1998, #42 ) ;
#167 = DIRECTION ( 'NONE',  ( 0.0000000000000000000, -1.000000000000000000, 0.0000000000000000000 ) ) ;
#168 = ORIENTED_EDGE ( 'NONE', *, *, #205, .F. ) ;
#169 = DIRECTION ( 'NONE',  ( 1.000000000000000000, 0.0000000000000000000, 0.0000000000000000000 ) ) ;
#170 = PRODUCT_DEFINITION_FORMATION_WITH_SPECIFIED_SOURCE ( 'ANY', '', #96, .NOT_KNOWN. ) ;
#171 = SHAPE_DEFINITION_REPRESENTATION ( #45, #111 ) ;
#172 = ORIENTED_EDGE ( 'NONE', *, *, #120, .T. ) ;
#173 = DIRECTION ( 'NONE',  ( 0.0000000000000000000, 0.0000000000000000000, -1.000000000000000000 ) ) ;
#174 = PRODUCT_DEFINITION_SHAPE ( 'NONE', 'NONE',  #239 ) ;
#175 = ORIENTED_EDGE ( 'NONE', *, *, #221, .F. ) ;
#176 = UNCERTAINTY_MEASURE_WITH_UNIT (LENGTH_MEASURE( 1.000000000000000100E-005 ), #80, 'distance_accuracy_value', 'NONE');
#177 = VECTOR ( 'NONE', #146, 1000.000000000000000 ) ;
#178 =( GEOMETRIC_REPRESENTATION_CONTEXT ( 3 ) GLOBAL_UNCERTAINTY_ASSIGNED_CONTEXT ( ( #58 ) ) GLOBAL_UNIT_ASSIGNED_CONTEXT ( ( #191, #22, #153 ) ) REPRESENTATION_CONTEXT ( 'NONE', 'WORKASPACE' ) );
#179 = EDGE_LOOP ( 'NONE', ( #17, #60, #137, #172 ) ) ;
#180 = LINE ( 'NONE', #36, #134 ) ;
#181 = PRODUCT_DEFINITION_CONTEXT ( 'detailed design', #116, 'design' ) ;
#182 = DIRECTION ( 'NONE',  ( 1.000000000000000000, 0.0000000000000000000, 0.0000000000000000000 ) ) ;
#183 = DIRECTION ( 'NONE',  ( 1.000000000000000000, 0.0000000000000000000, 0.0000000000000000000 ) ) ;
#184 = ORIENTED_EDGE ( 'NONE', *, *, #27, .F. ) ;
#185 = DIRECTION ( 'NONE',  ( -1.000000000000000000, 0.0000000000000000000, 0.0000000000000000000 ) ) ;
#186 = PRODUCT_RELATED_PRODUCT_CATEGORY ( 'part', '', ( #96 ) ) ;
#187 = SURFACE_SIDE_STYLE ('',( #50 ) ) ;
#188 =( NAMED_UNIT ( * ) PLANE_ANGLE_UNIT ( ) SI_UNIT ( $, .RADIAN. ) );
#189 = EDGE_LOOP ( 'NONE', ( #46, #98, #168, #203 ) ) ;
#190 = FACE_OUTER_BOUND ( 'NONE', #14, .T. ) ;
#191 =( LENGTH_UNIT ( ) NAMED_UNIT ( * ) SI_UNIT ( .MILLI., .METRE. ) );
#192 = LINE ( 'NONE', #23, #92 ) ;
#193 = CARTESIAN_POINT ( 'NONE',  ( 0.0000000000000000000, 200.0000000000000000, 0.0000000000000000000 ) ) ;
#194 = ORIENTED_EDGE ( 'NONE', *, *, #120, .F. ) ;
#195 = EDGE_CURVE ( 'NONE', #64, #217, #57, .T. ) ;
#196 = DIRECTION ( 'NONE',  ( 0.0000000000000000000, 0.0000000000000000000, 1.000000000000000000 ) ) ;
#197 = DIRECTION ( 'NONE',  ( 1.000000000000000000, 0.0000000000000000000, 0.0000000000000000000 ) ) ;
#198 = ADVANCED_FACE ( 'NONE', ( #21 ), #131, .F. ) ;
#199 = DIRECTION ( 'NONE',  ( -0.0000000000000000000, 1.000000000000000000, 0.0000000000000000000 ) ) ;
#200 = ORIENTED_EDGE ( 'NONE', *, *, #7, .T. ) ;
#201 = SURFACE_STYLE_FILL_AREA ( #68 ) ;
#202 = APPLICATION_CONTEXT ( 'automotive_design' ) ;
#203 = ORIENTED_EDGE ( 'NONE', *, *, #128, .F. ) ;
#204 = CARTESIAN_POINT ( 'NONE',  ( 20.00000000000000000, 1000.000000000000000, 15.00000000000000000 ) ) ;
#205 = EDGE_CURVE ( 'NONE', #231, #213, #4, .T. ) ;
#206 = PRODUCT_CONTEXT ( 'NONE', #202, 'mechanical' ) ;
#207 = CARTESIAN_POINT ( 'NONE',  ( 20.00000000000000000, 200.0000000000000000, 15.00000000000000000 ) ) ;
#208 = UNCERTAINTY_MEASURE_WITH_UNIT (LENGTH_MEASURE( 1.000000000000000100E-005 ), #112, 'distance_accuracy_value', 'NONE');
#209 = SURFACE_STYLE_USAGE ( .BOTH. , #187 ) ;
#210 = CARTESIAN_POINT ( 'NONE',  ( 0.0000000000000000000, 0.0000000000000000000, 0.0000000000000000000 ) ) ;
#211 = LINE ( 'NONE', #106, #69 ) ;
#212 = CARTESIAN_POINT ( 'NONE',  ( 20.00000000000000000, 1000.000000000000000, 0.0000000000000000000 ) ) ;
#213 = VERTEX_POINT ( 'NONE', #117 ) ;
#214 = PRODUCT_DEFINITION_SHAPE ( 'NONE', 'NONE',  #136 ) ;
#215 = DIRECTION ( 'NONE',  ( 0.0000000000000000000, 0.0000000000000000000, 1.000000000000000000 ) ) ;
#216 = CARTESIAN_POINT ( 'NONE',  ( 0.0000000000000000000, 0.0000000000000000000, 0.0000000000000000000 ) ) ;
#217 = VERTEX_POINT ( 'NONE', #227 ) ;
#218 = DIRECTION ( 'NONE',  ( 0.0000000000000000000, 0.0000000000000000000, -1.000000000000000000 ) ) ;
#219 = EDGE_CURVE ( 'NONE', #157, #213, #192, .T. ) ;
#220 = CONTEXT_DEPENDENT_SHAPE_REPRESENTATION ( #19, #174 ) ;
#221 = EDGE_CURVE ( 'NONE', #217, #231, #237, .T. ) ;
#222 = ORIENTED_EDGE ( 'NONE', *, *, #107, .T. ) ;
#223 = PLANE ( 'NONE',  #147 ) ;
#224 = DIRECTION ( 'NONE',  ( 0.0000000000000000000, 0.0000000000000000000, -1.000000000000000000 ) ) ;
#225 = SHAPE_DEFINITION_REPRESENTATION ( #214, #155 ) ;
#226 = DIRECTION ( 'NONE',  ( -1.000000000000000000, 0.0000000000000000000, 0.0000000000000000000 ) ) ;
#227 = CARTESIAN_POINT ( 'NONE',  ( 20.00000000000000000, 200.0000000000000000, 0.0000000000000000000 ) ) ;
#228 = DIRECTION ( 'NONE',  ( 1.000000000000000000, 0.0000000000000000000, 0.0000000000000000000 ) ) ;
#229 = PLANE ( 'NONE',  #113 ) ;
#230 = CARTESIAN_POINT ( 'NONE',  ( 0.0000000000000000000, 1000.000000000000000, 0.0000000000000000000 ) ) ;
#231 = VERTEX_POINT ( 'NONE', #129 ) ;
#232 = DIRECTION ( 'NONE',  ( -0.0000000000000000000, 1.000000000000000000, 0.0000000000000000000 ) ) ;
#233 = SHAPE_REPRESENTATION_RELATIONSHIP ( 'NONE' , 'NONE' ,  #111, #9 ) ;
#234 = STYLED_ITEM ( 'NONE', ( #236 ), #9 ) ;
#235 = ORIENTED_EDGE ( 'NONE', *, *, #195, .T. ) ;
#236 = PRESENTATION_STYLE_ASSIGNMENT (( #209 ) ) ;
#237 = LINE ( 'NONE', #93, #177 ) ;
#238 =( NAMED_UNIT ( * ) SI_UNIT ( $, .STERADIAN. ) SOLID_ANGLE_UNIT ( ) );
#239 = NEXT_ASSEMBLY_USAGE_OCCURRENCE ( 'NAUO1', ' ', ' ', #136, #115, $ ) ;
ENDSEC;
END-ISO-10303-21;
