ISO-10303-21;
HEADER;
FILE_DESCRIPTION (( 'STEP AP214' ),
    '1' );
FILE_NAME ('TM_340_17.STEP',
    '2016-05-09T07:16:51',
    ( '' ),
    ( '' ),
    'SwSTEP 2.0',
    'SolidWorks 2015',
    '' );
FILE_SCHEMA (( 'AUTOMOTIVE_DESIGN' ));
ENDSEC;

DATA;
#1 = EDGE_LOOP ( 'NONE', ( #94, #216, #201, #208 ) ) ;
#2 = STYLED_ITEM ( 'NONE', ( #148 ), #114 ) ;
#3 = DIRECTION ( 'NONE',  ( 0.0000000000000000000, 0.0000000000000000000, 1.000000000000000000 ) ) ;
#4 = CLOSED_SHELL ( 'NONE', ( #200, #5, #187, #182, #168, #78 ) ) ;
#5 = ADVANCED_FACE ( 'NONE', ( #149 ), #192, .F. ) ;
#6 = ORIENTED_EDGE ( 'NONE', *, *, #127, .F. ) ;
#7 = VECTOR ( 'NONE', #26, 1000.000000000000000 ) ;
#8 = CARTESIAN_POINT ( 'NONE',  ( 0.0000000000000000000, 0.0000000000000000000, 0.0000000000000000000 ) ) ;
#9 = VERTEX_POINT ( 'NONE', #8 ) ;
#10 = ITEM_DEFINED_TRANSFORMATION ( 'NONE', 'NONE', #85,  #236 ) ;
#11 = DIRECTION ( 'NONE',  ( 1.000000000000000000, 0.0000000000000000000, 0.0000000000000000000 ) ) ;
#12 = ORIENTED_EDGE ( 'NONE', *, *, #188, .F. ) ;
#13 = DIRECTION ( 'NONE',  ( 1.000000000000000000, 0.0000000000000000000, 0.0000000000000000000 ) ) ;
#14 = ORIENTED_EDGE ( 'NONE', *, *, #188, .T. ) ;
#15 = DIRECTION ( 'NONE',  ( 0.0000000000000000000, 0.0000000000000000000, 1.000000000000000000 ) ) ;
#16 = VECTOR ( 'NONE', #189, 1000.000000000000000 ) ;
#17 = VECTOR ( 'NONE', #132, 1000.000000000000000 ) ;
#18 = LINE ( 'NONE', #39, #144 ) ;
#19 = PRESENTATION_LAYER_ASSIGNMENT (  '', '', ( #2 ) ) ;
#20 = LINE ( 'NONE', #155, #209 ) ;
#21 = EDGE_LOOP ( 'NONE', ( #31, #6, #12, #118 ) ) ;
#22 = SHAPE_REPRESENTATION_RELATIONSHIP ( 'NONE' , 'NONE' ,  #123, #114 ) ;
#23 = CARTESIAN_POINT ( 'NONE',  ( 25.00000000000000000, 0.0000000000000000000, 20.00000000000000000 ) ) ;
#24 = VECTOR ( 'NONE', #13, 1000.000000000000000 ) ;
#25 = PRODUCT_DEFINITION_CONTEXT ( 'detailed design', #136, 'design' ) ;
#26 = DIRECTION ( 'NONE',  ( 0.0000000000000000000, -1.000000000000000000, 0.0000000000000000000 ) ) ;
#27 = COLOUR_RGB ( '',0.7921568627450980000, 0.8196078431372548800, 0.9333333333333333500 ) ;
#28 = FACE_OUTER_BOUND ( 'NONE', #37, .T. ) ;
#29 = CARTESIAN_POINT ( 'NONE',  ( 0.0000000000000000000, 0.0000000000000000000, 0.0000000000000000000 ) ) ;
#30 = MECHANICAL_DESIGN_GEOMETRIC_PRESENTATION_REPRESENTATION (  '', ( #2 ), #40 ) ;
#31 = ORIENTED_EDGE ( 'NONE', *, *, #140, .T. ) ;
#32 = DIRECTION ( 'NONE',  ( 0.0000000000000000000, 0.0000000000000000000, 1.000000000000000000 ) ) ;
#33 = CARTESIAN_POINT ( 'NONE',  ( 25.00000000000000000, 0.0000000000000000000, 20.00000000000000000 ) ) ;
#34 = EDGE_LOOP ( 'NONE', ( #145, #14, #138, #125 ) ) ;
#35 = APPLICATION_PROTOCOL_DEFINITION ( 'draft international standard', 'automotive_design', 1998, #136 ) ;
#36 = STYLED_ITEM ( 'NONE', ( #221 ), #229 ) ;
#37 = EDGE_LOOP ( 'NONE', ( #66, #54, #53, #193 ) ) ;
#38 = LINE ( 'NONE', #113, #133 ) ;
#39 = CARTESIAN_POINT ( 'NONE',  ( 25.00000000000000000, 200.0000000000000000, 0.0000000000000000000 ) ) ;
#40 =( GEOMETRIC_REPRESENTATION_CONTEXT ( 3 ) GLOBAL_UNCERTAINTY_ASSIGNED_CONTEXT ( ( #106 ) ) GLOBAL_UNIT_ASSIGNED_CONTEXT ( ( #130, #163, #65 ) ) REPRESENTATION_CONTEXT ( 'NONE', 'WORKASPACE' ) );
#41 = AXIS2_PLACEMENT_3D ( 'NONE', #232, #47, #11 ) ;
#42 = PLANE ( 'NONE',  #41 ) ;
#43 = CARTESIAN_POINT ( 'NONE',  ( 25.00000000000000000, 1000.000000000000000, 0.0000000000000000000 ) ) ;
#44 = SURFACE_SIDE_STYLE ('',( #222 ) ) ;
#45 = LINE ( 'NONE', #181, #185 ) ;
#46 = EDGE_CURVE ( 'NONE', #199, #227, #45, .T. ) ;
#47 = DIRECTION ( 'NONE',  ( -0.0000000000000000000, 1.000000000000000000, 0.0000000000000000000 ) ) ;
#48 = DIRECTION ( 'NONE',  ( 0.0000000000000000000, 0.0000000000000000000, -1.000000000000000000 ) ) ;
#49 = CARTESIAN_POINT ( 'NONE',  ( 0.0000000000000000000, 200.0000000000000000, 20.00000000000000000 ) ) ;
#50 = ORIENTED_EDGE ( 'NONE', *, *, #98, .T. ) ;
#51 =( NAMED_UNIT ( * ) PLANE_ANGLE_UNIT ( ) SI_UNIT ( $, .RADIAN. ) );
#52 = APPLICATION_CONTEXT ( 'automotive_design' ) ;
#53 = ORIENTED_EDGE ( 'NONE', *, *, #99, .F. ) ;
#54 = ORIENTED_EDGE ( 'NONE', *, *, #46, .F. ) ;
#55 = UNCERTAINTY_MEASURE_WITH_UNIT (LENGTH_MEASURE( 1.000000000000000100E-005 ), #147, 'distance_accuracy_value', 'NONE');
#56 = VERTEX_POINT ( 'NONE', #153 ) ;
#57 = LINE ( 'NONE', #134, #195 ) ;
#58 = VERTEX_POINT ( 'NONE', #143 ) ;
#59 =( NAMED_UNIT ( * ) PLANE_ANGLE_UNIT ( ) SI_UNIT ( $, .RADIAN. ) );
#60 = AXIS2_PLACEMENT_3D ( 'NONE', #90, #64, #48 ) ;
#61 = SHAPE_REPRESENTATION ( 'TM_340_17', ( #102, #85 ), #91 ) ;
#62 = CARTESIAN_POINT ( 'NONE',  ( 0.0000000000000000000, 1000.000000000000000, 0.0000000000000000000 ) ) ;
#63 = CARTESIAN_POINT ( 'NONE',  ( 0.0000000000000000000, 0.0000000000000000000, 0.0000000000000000000 ) ) ;
#64 = DIRECTION ( 'NONE',  ( 1.000000000000000000, 0.0000000000000000000, 0.0000000000000000000 ) ) ;
#65 =( NAMED_UNIT ( * ) SI_UNIT ( $, .STERADIAN. ) SOLID_ANGLE_UNIT ( ) );
#66 = ORIENTED_EDGE ( 'NONE', *, *, #226, .T. ) ;
#67 = APPLICATION_CONTEXT ( 'automotive_design' ) ;
#68 = LINE ( 'NONE', #111, #17 ) ;
#69 = DIRECTION ( 'NONE',  ( 1.000000000000000000, 0.0000000000000000000, 0.0000000000000000000 ) ) ;
#70 = VECTOR ( 'NONE', #75, 1000.000000000000000 ) ;
#71 = AXIS2_PLACEMENT_3D ( 'NONE', #43, #32, #93 ) ;
#72 = UNCERTAINTY_MEASURE_WITH_UNIT (LENGTH_MEASURE( 1.000000000000000100E-005 ), #110, 'distance_accuracy_value', 'NONE');
#73 = COLOUR_RGB ( '',0.7921568627450980000, 0.8196078431372548800, 0.9333333333333333500 ) ;
#74 = AXIS2_PLACEMENT_3D ( 'NONE', #104, #95, #218 ) ;
#75 = DIRECTION ( 'NONE',  ( 0.0000000000000000000, 0.0000000000000000000, -1.000000000000000000 ) ) ;
#76 = DIRECTION ( 'NONE',  ( 1.000000000000000000, 0.0000000000000000000, 0.0000000000000000000 ) ) ;
#77 = FILL_AREA_STYLE ('',( #152 ) ) ;
#78 = ADVANCED_FACE ( 'NONE', ( #139 ), #146, .F. ) ;
#79 = DIRECTION ( 'NONE',  ( -0.0000000000000000000, 1.000000000000000000, 0.0000000000000000000 ) ) ;
#80 = FILL_AREA_STYLE ('',( #191 ) ) ;
#81 = ORIENTED_EDGE ( 'NONE', *, *, #202, .F. ) ;
#82 =( REPRESENTATION_RELATIONSHIP ('NONE','NONE', #61, #123 ) REPRESENTATION_RELATIONSHIP_WITH_TRANSFORMATION ( #10 )SHAPE_REPRESENTATION_RELATIONSHIP( ) );
#83 = CARTESIAN_POINT ( 'NONE',  ( 0.0000000000000000000, 0.0000000000000000000, 0.0000000000000000000 ) ) ;
#84 = APPLICATION_PROTOCOL_DEFINITION ( 'draft international standard', 'automotive_design', 1998, #219 ) ;
#85 = AXIS2_PLACEMENT_3D ( 'NONE', #83, #196, #69 ) ;
#86 = VERTEX_POINT ( 'NONE', #166 ) ;
#87 = DIRECTION ( 'NONE',  ( 0.0000000000000000000, -1.000000000000000000, 0.0000000000000000000 ) ) ;
#88 = PLANE ( 'NONE',  #71 ) ;
#89 = UNCERTAINTY_MEASURE_WITH_UNIT (LENGTH_MEASURE( 1.000000000000000100E-005 ), #176, 'distance_accuracy_value', 'NONE');
#90 = CARTESIAN_POINT ( 'NONE',  ( 0.0000000000000000000, 1000.000000000000000, 0.0000000000000000000 ) ) ;
#91 =( GEOMETRIC_REPRESENTATION_CONTEXT ( 3 ) GLOBAL_UNCERTAINTY_ASSIGNED_CONTEXT ( ( #89 ) ) GLOBAL_UNIT_ASSIGNED_CONTEXT ( ( #176, #51, #157 ) ) REPRESENTATION_CONTEXT ( 'NONE', 'WORKASPACE' ) );
#92 = SURFACE_SIDE_STYLE ('',( #109 ) ) ;
#93 = DIRECTION ( 'NONE',  ( 1.000000000000000000, 0.0000000000000000000, 0.0000000000000000000 ) ) ;
#94 = ORIENTED_EDGE ( 'NONE', *, *, #98, .F. ) ;
#95 = DIRECTION ( 'NONE',  ( 0.0000000000000000000, 0.0000000000000000000, 1.000000000000000000 ) ) ;
#96 = LINE ( 'NONE', #183, #122 ) ;
#97 = PRESENTATION_LAYER_ASSIGNMENT (  '', '', ( #36 ) ) ;
#98 = EDGE_CURVE ( 'NONE', #227, #205, #57, .T. ) ;
#99 = EDGE_CURVE ( 'NONE', #86, #199, #20, .T. ) ;
#100 = LINE ( 'NONE', #124, #70 ) ;
#101 = CARTESIAN_POINT ( 'NONE',  ( 0.0000000000000000000, 1000.000000000000000, 20.00000000000000000 ) ) ;
#102 = AXIS2_PLACEMENT_3D ( 'NONE', #167, #15, #115 ) ;
#103 = DIRECTION ( 'NONE',  ( -1.000000000000000000, 0.0000000000000000000, 0.0000000000000000000 ) ) ;
#104 = CARTESIAN_POINT ( 'NONE',  ( 0.0000000000000000000, 0.0000000000000000000, 0.0000000000000000000 ) ) ;
#105 = PRODUCT ( 'rubber foam', 'rubber foam', '', ( #175 ) ) ;
#106 = UNCERTAINTY_MEASURE_WITH_UNIT (LENGTH_MEASURE( 1.000000000000000100E-005 ), #130, 'distance_accuracy_value', 'NONE');
#107 = EDGE_LOOP ( 'NONE', ( #50, #108, #81, #214 ) ) ;
#108 = ORIENTED_EDGE ( 'NONE', *, *, #158, .F. ) ;
#109 = SURFACE_STYLE_FILL_AREA ( #77 ) ;
#110 =( LENGTH_UNIT ( ) NAMED_UNIT ( * ) SI_UNIT ( .MILLI., .METRE. ) );
#111 = CARTESIAN_POINT ( 'NONE',  ( 25.00000000000000000, 1000.000000000000000, 20.00000000000000000 ) ) ;
#112 = PRODUCT_DEFINITION ( 'UNKNOWN', '', #120, #25 ) ;
#113 = CARTESIAN_POINT ( 'NONE',  ( 25.00000000000000000, 0.0000000000000000000, 0.0000000000000000000 ) ) ;
#114 = ADVANCED_BREP_SHAPE_REPRESENTATION ( '', ( #229, #236 ), #220 ) ;
#115 = DIRECTION ( 'NONE',  ( 1.000000000000000000, 0.0000000000000000000, 0.0000000000000000000 ) ) ;
#116 = EDGE_CURVE ( 'NONE', #86, #9, #180, .T. ) ;
#117 = APPLICATION_PROTOCOL_DEFINITION ( 'draft international standard', 'automotive_design', 1998, #52 ) ;
#118 = ORIENTED_EDGE ( 'NONE', *, *, #158, .T. ) ;
#119 = AXIS2_PLACEMENT_3D ( 'NONE', #170, #186, #3 ) ;
#120 = PRODUCT_DEFINITION_FORMATION_WITH_SPECIFIED_SOURCE ( 'ANY', '', #211, .NOT_KNOWN. ) ;
#121 = PLANE ( 'NONE',  #230 ) ;
#122 = VECTOR ( 'NONE', #171, 1000.000000000000000 ) ;
#123 = SHAPE_REPRESENTATION ( 'rubber foam', ( #236 ), #220 ) ;
#124 = CARTESIAN_POINT ( 'NONE',  ( 25.00000000000000000, 200.0000000000000000, 20.00000000000000000 ) ) ;
#125 = ORIENTED_EDGE ( 'NONE', *, *, #99, .T. ) ;
#126 = DIRECTION ( 'NONE',  ( -1.000000000000000000, 0.0000000000000000000, 0.0000000000000000000 ) ) ;
#127 = EDGE_CURVE ( 'NONE', #58, #223, #96, .T. ) ;
#128 = DIRECTION ( 'NONE',  ( 0.0000000000000000000, 0.0000000000000000000, -1.000000000000000000 ) ) ;
#129 =( NAMED_UNIT ( * ) PLANE_ANGLE_UNIT ( ) SI_UNIT ( $, .RADIAN. ) );
#130 =( LENGTH_UNIT ( ) NAMED_UNIT ( * ) SI_UNIT ( .MILLI., .METRE. ) );
#131 = DIRECTION ( 'NONE',  ( 0.0000000000000000000, 0.0000000000000000000, 1.000000000000000000 ) ) ;
#132 = DIRECTION ( 'NONE',  ( 0.0000000000000000000, -1.000000000000000000, 0.0000000000000000000 ) ) ;
#133 = VECTOR ( 'NONE', #235, 1000.000000000000000 ) ;
#134 = CARTESIAN_POINT ( 'NONE',  ( 0.0000000000000000000, 0.0000000000000000000, 20.00000000000000000 ) ) ;
#135 = ORIENTED_EDGE ( 'NONE', *, *, #141, .F. ) ;
#136 = APPLICATION_CONTEXT ( 'automotive_design' ) ;
#137 = PRODUCT_RELATED_PRODUCT_CATEGORY ( 'part', '', ( #211 ) ) ;
#138 = ORIENTED_EDGE ( 'NONE', *, *, #141, .T. ) ;
#139 = FACE_OUTER_BOUND ( 'NONE', #1, .T. ) ;
#140 = EDGE_CURVE ( 'NONE', #205, #223, #172, .T. ) ;
#141 = EDGE_CURVE ( 'NONE', #58, #86, #18, .T. ) ;
#142 = DIRECTION ( 'NONE',  ( 0.0000000000000000000, 0.0000000000000000000, 1.000000000000000000 ) ) ;
#143 = CARTESIAN_POINT ( 'NONE',  ( 25.00000000000000000, 200.0000000000000000, 0.0000000000000000000 ) ) ;
#144 = VECTOR ( 'NONE', #103, 1000.000000000000000 ) ;
#145 = ORIENTED_EDGE ( 'NONE', *, *, #202, .T. ) ;
#146 = PLANE ( 'NONE',  #207 ) ;
#147 =( LENGTH_UNIT ( ) NAMED_UNIT ( * ) SI_UNIT ( .MILLI., .METRE. ) );
#148 = PRESENTATION_STYLE_ASSIGNMENT (( #197 ) ) ;
#149 = FACE_OUTER_BOUND ( 'NONE', #21, .T. ) ;
#150 = LINE ( 'NONE', #63, #16 ) ;
#151 = CARTESIAN_POINT ( 'NONE',  ( 0.0000000000000000000, 0.0000000000000000000, 0.0000000000000000000 ) ) ;
#152 = FILL_AREA_STYLE_COLOUR ( '', #73 ) ;
#153 = CARTESIAN_POINT ( 'NONE',  ( 25.00000000000000000, 200.0000000000000000, 20.00000000000000000 ) ) ;
#154 = PRODUCT_DEFINITION ( 'UNKNOWN', '', #164, #225 ) ;
#155 = CARTESIAN_POINT ( 'NONE',  ( 0.0000000000000000000, 200.0000000000000000, 0.0000000000000000000 ) ) ;
#156 = DIRECTION ( 'NONE',  ( 1.000000000000000000, 0.0000000000000000000, 0.0000000000000000000 ) ) ;
#157 =( NAMED_UNIT ( * ) SI_UNIT ( $, .STERADIAN. ) SOLID_ANGLE_UNIT ( ) );
#158 = EDGE_CURVE ( 'NONE', #56, #205, #68, .T. ) ;
#159 = LINE ( 'NONE', #228, #24 ) ;
#160 = SHAPE_DEFINITION_REPRESENTATION ( #162, #61 ) ;
#161 = ORIENTED_EDGE ( 'NONE', *, *, #127, .T. ) ;
#162 = PRODUCT_DEFINITION_SHAPE ( 'NONE', 'NONE',  #112 ) ;
#163 =( NAMED_UNIT ( * ) PLANE_ANGLE_UNIT ( ) SI_UNIT ( $, .RADIAN. ) );
#164 = PRODUCT_DEFINITION_FORMATION_WITH_SPECIFIED_SOURCE ( 'ANY', '', #105, .NOT_KNOWN. ) ;
#165 =( NAMED_UNIT ( * ) SI_UNIT ( $, .STERADIAN. ) SOLID_ANGLE_UNIT ( ) );
#166 = CARTESIAN_POINT ( 'NONE',  ( 0.0000000000000000000, 200.0000000000000000, 0.0000000000000000000 ) ) ;
#167 = CARTESIAN_POINT ( 'NONE',  ( 0.0000000000000000000, 0.0000000000000000000, 0.0000000000000000000 ) ) ;
#168 = ADVANCED_FACE ( 'NONE', ( #212 ), #42, .T. ) ;
#169 = DIRECTION ( 'NONE',  ( 1.000000000000000000, 0.0000000000000000000, 0.0000000000000000000 ) ) ;
#170 = CARTESIAN_POINT ( 'NONE',  ( 25.00000000000000000, 1000.000000000000000, 20.00000000000000000 ) ) ;
#171 = DIRECTION ( 'NONE',  ( 0.0000000000000000000, -1.000000000000000000, 0.0000000000000000000 ) ) ;
#172 = LINE ( 'NONE', #33, #178 ) ;
#173 = DIRECTION ( 'NONE',  ( 0.0000000000000000000, 0.0000000000000000000, -1.000000000000000000 ) ) ;
#174 = EDGE_LOOP ( 'NONE', ( #184, #231, #135, #161 ) ) ;
#175 = PRODUCT_CONTEXT ( 'NONE', #52, 'mechanical' ) ;
#176 =( LENGTH_UNIT ( ) NAMED_UNIT ( * ) SI_UNIT ( .MILLI., .METRE. ) );
#177 = PRODUCT_RELATED_PRODUCT_CATEGORY ( 'part', '', ( #105 ) ) ;
#178 = VECTOR ( 'NONE', #173, 1000.000000000000000 ) ;
#179 = EDGE_CURVE ( 'NONE', #223, #9, #38, .T. ) ;
#180 = LINE ( 'NONE', #62, #7 ) ;
#181 = CARTESIAN_POINT ( 'NONE',  ( 0.0000000000000000000, 1000.000000000000000, 20.00000000000000000 ) ) ;
#182 = ADVANCED_FACE ( 'NONE', ( #28 ), #215, .F. ) ;
#183 = CARTESIAN_POINT ( 'NONE',  ( 25.00000000000000000, 1000.000000000000000, 0.0000000000000000000 ) ) ;
#184 = ORIENTED_EDGE ( 'NONE', *, *, #179, .T. ) ;
#185 = VECTOR ( 'NONE', #87, 1000.000000000000000 ) ;
#186 = DIRECTION ( 'NONE',  ( -1.000000000000000000, 0.0000000000000000000, 0.0000000000000000000 ) ) ;
#187 = ADVANCED_FACE ( 'NONE', ( #217 ), #88, .F. ) ;
#188 = EDGE_CURVE ( 'NONE', #56, #58, #100, .T. ) ;
#189 = DIRECTION ( 'NONE',  ( 0.0000000000000000000, 0.0000000000000000000, 1.000000000000000000 ) ) ;
#190 = MECHANICAL_DESIGN_GEOMETRIC_PRESENTATION_REPRESENTATION (  '', ( #36 ), #204 ) ;
#191 = FILL_AREA_STYLE_COLOUR ( '', #27 ) ;
#192 = PLANE ( 'NONE',  #119 ) ;
#193 = ORIENTED_EDGE ( 'NONE', *, *, #116, .T. ) ;
#194 = APPLICATION_PROTOCOL_DEFINITION ( 'draft international standard', 'automotive_design', 1998, #67 ) ;
#195 = VECTOR ( 'NONE', #156, 1000.000000000000000 ) ;
#196 = DIRECTION ( 'NONE',  ( 0.0000000000000000000, 0.0000000000000000000, 1.000000000000000000 ) ) ;
#197 = SURFACE_STYLE_USAGE ( .BOTH. , #44 ) ;
#198 = PRODUCT_CONTEXT ( 'NONE', #219, 'mechanical' ) ;
#199 = VERTEX_POINT ( 'NONE', #49 ) ;
#200 = ADVANCED_FACE ( 'NONE', ( #213 ), #121, .F. ) ;
#201 = ORIENTED_EDGE ( 'NONE', *, *, #179, .F. ) ;
#202 = EDGE_CURVE ( 'NONE', #199, #56, #159, .T. ) ;
#203 = CARTESIAN_POINT ( 'NONE',  ( 0.0000000000000000000, 0.0000000000000000000, 20.00000000000000000 ) ) ;
#204 =( GEOMETRIC_REPRESENTATION_CONTEXT ( 3 ) GLOBAL_UNCERTAINTY_ASSIGNED_CONTEXT ( ( #72 ) ) GLOBAL_UNIT_ASSIGNED_CONTEXT ( ( #110, #129, #165 ) ) REPRESENTATION_CONTEXT ( 'NONE', 'WORKASPACE' ) );
#205 = VERTEX_POINT ( 'NONE', #23 ) ;
#206 = PRODUCT_DEFINITION_SHAPE ( 'NONE', 'NONE',  #239 ) ;
#207 = AXIS2_PLACEMENT_3D ( 'NONE', #29, #79, #76 ) ;
#208 = ORIENTED_EDGE ( 'NONE', *, *, #140, .F. ) ;
#209 = VECTOR ( 'NONE', #142, 1000.000000000000000 ) ;
#210 = CARTESIAN_POINT ( 'NONE',  ( 25.00000000000000000, 0.0000000000000000000, 0.0000000000000000000 ) ) ;
#211 = PRODUCT ( 'TM_340_17', 'TM_340_17', '', ( #198 ) ) ;
#212 = FACE_OUTER_BOUND ( 'NONE', #34, .T. ) ;
#213 = FACE_OUTER_BOUND ( 'NONE', #107, .T. ) ;
#214 = ORIENTED_EDGE ( 'NONE', *, *, #46, .T. ) ;
#215 = PLANE ( 'NONE',  #60 ) ;
#216 = ORIENTED_EDGE ( 'NONE', *, *, #226, .F. ) ;
#217 = FACE_OUTER_BOUND ( 'NONE', #174, .T. ) ;
#218 = DIRECTION ( 'NONE',  ( 1.000000000000000000, 0.0000000000000000000, 0.0000000000000000000 ) ) ;
#219 = APPLICATION_CONTEXT ( 'automotive_design' ) ;
#220 =( GEOMETRIC_REPRESENTATION_CONTEXT ( 3 ) GLOBAL_UNCERTAINTY_ASSIGNED_CONTEXT ( ( #55 ) ) GLOBAL_UNIT_ASSIGNED_CONTEXT ( ( #147, #59, #238 ) ) REPRESENTATION_CONTEXT ( 'NONE', 'WORKASPACE' ) );
#221 = PRESENTATION_STYLE_ASSIGNMENT (( #233 ) ) ;
#222 = SURFACE_STYLE_FILL_AREA ( #80 ) ;
#223 = VERTEX_POINT ( 'NONE', #210 ) ;
#224 = PRODUCT_DEFINITION_SHAPE ( 'NONE', 'NONE',  #154 ) ;
#225 = PRODUCT_DEFINITION_CONTEXT ( 'detailed design', #67, 'design' ) ;
#226 = EDGE_CURVE ( 'NONE', #9, #227, #150, .T. ) ;
#227 = VERTEX_POINT ( 'NONE', #203 ) ;
#228 = CARTESIAN_POINT ( 'NONE',  ( 0.0000000000000000000, 200.0000000000000000, 20.00000000000000000 ) ) ;
#229 = MANIFOLD_SOLID_BREP ( '²ÝÎß°Ä1', #4 ) ;
#230 = AXIS2_PLACEMENT_3D ( 'NONE', #101, #128, #126 ) ;
#231 = ORIENTED_EDGE ( 'NONE', *, *, #116, .F. ) ;
#232 = CARTESIAN_POINT ( 'NONE',  ( 0.0000000000000000000, 200.0000000000000000, 0.0000000000000000000 ) ) ;
#233 = SURFACE_STYLE_USAGE ( .BOTH. , #92 ) ;
#234 = SHAPE_DEFINITION_REPRESENTATION ( #224, #123 ) ;
#235 = DIRECTION ( 'NONE',  ( -1.000000000000000000, 0.0000000000000000000, 0.0000000000000000000 ) ) ;
#236 = AXIS2_PLACEMENT_3D ( 'NONE', #151, #131, #169 ) ;
#237 = CONTEXT_DEPENDENT_SHAPE_REPRESENTATION ( #82, #206 ) ;
#238 =( NAMED_UNIT ( * ) SI_UNIT ( $, .STERADIAN. ) SOLID_ANGLE_UNIT ( ) );
#239 = NEXT_ASSEMBLY_USAGE_OCCURRENCE ( 'NAUO1', ' ', ' ', #112, #154, $ ) ;
ENDSEC;
END-ISO-10303-21;
