ISO-10303-21;
HEADER;
FILE_DESCRIPTION (( 'STEP AP214' ),
    '1' );
FILE_NAME ('TM_340_4.STEP',
    '2016-05-09T05:14:28',
    ( '' ),
    ( '' ),
    'SwSTEP 2.0',
    'SolidWorks 2015',
    '' );
FILE_SCHEMA (( 'AUTOMOTIVE_DESIGN' ));
ENDSEC;

DATA;
#1 = SHAPE_DEFINITION_REPRESENTATION ( #135, #15 ) ;
#2 =( NAMED_UNIT ( * ) SI_UNIT ( $, .STERADIAN. ) SOLID_ANGLE_UNIT ( ) );
#3 = ADVANCED_FACE ( 'NONE', ( #40 ), #175, .F. ) ;
#4 = DIRECTION ( 'NONE',  ( 1.000000000000000000, 0.0000000000000000000, 0.0000000000000000000 ) ) ;
#5 = SURFACE_SIDE_STYLE ('',( #28 ) ) ;
#6 =( NAMED_UNIT ( * ) SI_UNIT ( $, .STERADIAN. ) SOLID_ANGLE_UNIT ( ) );
#7 = PRODUCT_DEFINITION_FORMATION_WITH_SPECIFIED_SOURCE ( 'ANY', '', #179, .NOT_KNOWN. ) ;
#8 = CARTESIAN_POINT ( 'NONE',  ( 20.00000000000000000, 200.0000000000000000, 5.000000000000000000 ) ) ;
#9 = SHAPE_REPRESENTATION ( 'TM_340_4', ( #190, #169 ), #177 ) ;
#10 = CARTESIAN_POINT ( 'NONE',  ( 20.00000000000000000, 1000.000000000000000, 0.0000000000000000000 ) ) ;
#11 = LINE ( 'NONE', #8, #117 ) ;
#12 = DIRECTION ( 'NONE',  ( -1.000000000000000000, 0.0000000000000000000, 0.0000000000000000000 ) ) ;
#13 = ITEM_DEFINED_TRANSFORMATION ( 'NONE', 'NONE', #169,  #73 ) ;
#14 = DIRECTION ( 'NONE',  ( 0.0000000000000000000, 0.0000000000000000000, -1.000000000000000000 ) ) ;
#15 = SHAPE_REPRESENTATION ( 'rubber foam', ( #73 ), #60 ) ;
#16 = VERTEX_POINT ( 'NONE', #95 ) ;
#17 = EDGE_LOOP ( 'NONE', ( #231, #91, #133, #205 ) ) ;
#18 = PRODUCT_CONTEXT ( 'NONE', #37, 'mechanical' ) ;
#19 = AXIS2_PLACEMENT_3D ( 'NONE', #136, #173, #155 ) ;
#20 =( REPRESENTATION_RELATIONSHIP ('NONE','NONE', #9, #15 ) REPRESENTATION_RELATIONSHIP_WITH_TRANSFORMATION ( #13 )SHAPE_REPRESENTATION_RELATIONSHIP( ) );
#21 = PRODUCT_RELATED_PRODUCT_CATEGORY ( 'part', '', ( #108 ) ) ;
#22 = ORIENTED_EDGE ( 'NONE', *, *, #156, .F. ) ;
#23 = EDGE_LOOP ( 'NONE', ( #64, #202, #182, #43 ) ) ;
#24 = COLOUR_RGB ( '',0.7921568627450980000, 0.8196078431372548800, 0.9333333333333333500 ) ;
#25 = EDGE_CURVE ( 'NONE', #16, #144, #110, .T. ) ;
#26 = VERTEX_POINT ( 'NONE', #228 ) ;
#27 = CARTESIAN_POINT ( 'NONE',  ( 0.0000000000000000000, 0.0000000000000000000, 0.0000000000000000000 ) ) ;
#28 = SURFACE_STYLE_FILL_AREA ( #132 ) ;
#29 = VECTOR ( 'NONE', #12, 1000.000000000000000 ) ;
#30 = DIRECTION ( 'NONE',  ( 0.0000000000000000000, 0.0000000000000000000, 1.000000000000000000 ) ) ;
#31 = PRESENTATION_LAYER_ASSIGNMENT (  '', '', ( #235 ) ) ;
#32 =( LENGTH_UNIT ( ) NAMED_UNIT ( * ) SI_UNIT ( .MILLI., .METRE. ) );
#33 = CARTESIAN_POINT ( 'NONE',  ( 0.0000000000000000000, 200.0000000000000000, 5.000000000000000000 ) ) ;
#34 = DIRECTION ( 'NONE',  ( -0.0000000000000000000, 1.000000000000000000, 0.0000000000000000000 ) ) ;
#35 = CARTESIAN_POINT ( 'NONE',  ( 0.0000000000000000000, 1000.000000000000000, 5.000000000000000000 ) ) ;
#36 = VECTOR ( 'NONE', #118, 1000.000000000000000 ) ;
#37 = APPLICATION_CONTEXT ( 'automotive_design' ) ;
#38 = PRODUCT_DEFINITION_SHAPE ( 'NONE', 'NONE',  #233 ) ;
#39 = PRESENTATION_STYLE_ASSIGNMENT (( #152 ) ) ;
#40 = FACE_OUTER_BOUND ( 'NONE', #106, .T. ) ;
#41 = MECHANICAL_DESIGN_GEOMETRIC_PRESENTATION_REPRESENTATION (  '', ( #235 ), #56 ) ;
#42 = UNCERTAINTY_MEASURE_WITH_UNIT (LENGTH_MEASURE( 1.000000000000000100E-005 ), #47, 'distance_accuracy_value', 'NONE');
#43 = ORIENTED_EDGE ( 'NONE', *, *, #113, .T. ) ;
#44 = VECTOR ( 'NONE', #207, 1000.000000000000000 ) ;
#45 =( NAMED_UNIT ( * ) PLANE_ANGLE_UNIT ( ) SI_UNIT ( $, .RADIAN. ) );
#46 = DIRECTION ( 'NONE',  ( 0.0000000000000000000, 0.0000000000000000000, 1.000000000000000000 ) ) ;
#47 =( LENGTH_UNIT ( ) NAMED_UNIT ( * ) SI_UNIT ( .MILLI., .METRE. ) );
#48 = SURFACE_SIDE_STYLE ('',( #84 ) ) ;
#49 = CARTESIAN_POINT ( 'NONE',  ( 20.00000000000000000, 200.0000000000000000, 0.0000000000000000000 ) ) ;
#50 = CARTESIAN_POINT ( 'NONE',  ( 0.0000000000000000000, 200.0000000000000000, 0.0000000000000000000 ) ) ;
#51 = VECTOR ( 'NONE', #54, 1000.000000000000000 ) ;
#52 = DIRECTION ( 'NONE',  ( 1.000000000000000000, 0.0000000000000000000, 0.0000000000000000000 ) ) ;
#53 = LINE ( 'NONE', #10, #36 ) ;
#54 = DIRECTION ( 'NONE',  ( 0.0000000000000000000, 0.0000000000000000000, -1.000000000000000000 ) ) ;
#55 = APPLICATION_CONTEXT ( 'automotive_design' ) ;
#56 =( GEOMETRIC_REPRESENTATION_CONTEXT ( 3 ) GLOBAL_UNCERTAINTY_ASSIGNED_CONTEXT ( ( #74 ) ) GLOBAL_UNIT_ASSIGNED_CONTEXT ( ( #32, #134, #6 ) ) REPRESENTATION_CONTEXT ( 'NONE', 'WORKASPACE' ) );
#57 = VECTOR ( 'NONE', #186, 1000.000000000000000 ) ;
#58 = ORIENTED_EDGE ( 'NONE', *, *, #224, .F. ) ;
#59 = ADVANCED_FACE ( 'NONE', ( #83 ), #220, .T. ) ;
#60 =( GEOMETRIC_REPRESENTATION_CONTEXT ( 3 ) GLOBAL_UNCERTAINTY_ASSIGNED_CONTEXT ( ( #42 ) ) GLOBAL_UNIT_ASSIGNED_CONTEXT ( ( #47, #151, #180 ) ) REPRESENTATION_CONTEXT ( 'NONE', 'WORKASPACE' ) );
#61 = FILL_AREA_STYLE ('',( #184 ) ) ;
#62 = PRODUCT_DEFINITION_SHAPE ( 'NONE', 'NONE',  #239 ) ;
#63 = CARTESIAN_POINT ( 'NONE',  ( 0.0000000000000000000, 0.0000000000000000000, 0.0000000000000000000 ) ) ;
#64 = ORIENTED_EDGE ( 'NONE', *, *, #25, .T. ) ;
#65 = PLANE ( 'NONE',  #19 ) ;
#66 = DIRECTION ( 'NONE',  ( 0.0000000000000000000, -1.000000000000000000, 0.0000000000000000000 ) ) ;
#67 = EDGE_CURVE ( 'NONE', #144, #168, #164, .T. ) ;
#68 = CARTESIAN_POINT ( 'NONE',  ( 20.00000000000000000, 1000.000000000000000, 5.000000000000000000 ) ) ;
#69 = VERTEX_POINT ( 'NONE', #139 ) ;
#70 = VERTEX_POINT ( 'NONE', #122 ) ;
#71 = ORIENTED_EDGE ( 'NONE', *, *, #67, .F. ) ;
#72 = SHAPE_DEFINITION_REPRESENTATION ( #38, #9 ) ;
#73 = AXIS2_PLACEMENT_3D ( 'NONE', #167, #46, #200 ) ;
#74 = UNCERTAINTY_MEASURE_WITH_UNIT (LENGTH_MEASURE( 1.000000000000000100E-005 ), #32, 'distance_accuracy_value', 'NONE');
#75 = FILL_AREA_STYLE_COLOUR ( '', #112 ) ;
#76 = DIRECTION ( 'NONE',  ( 0.0000000000000000000, -1.000000000000000000, 0.0000000000000000000 ) ) ;
#77 = VECTOR ( 'NONE', #172, 1000.000000000000000 ) ;
#78 = DIRECTION ( 'NONE',  ( 0.0000000000000000000, 0.0000000000000000000, 1.000000000000000000 ) ) ;
#79 = DIRECTION ( 'NONE',  ( -1.000000000000000000, 0.0000000000000000000, 0.0000000000000000000 ) ) ;
#80 = CARTESIAN_POINT ( 'NONE',  ( 20.00000000000000000, 0.0000000000000000000, 5.000000000000000000 ) ) ;
#81 = APPLICATION_CONTEXT ( 'automotive_design' ) ;
#82 = STYLED_ITEM ( 'NONE', ( #171 ), #96 ) ;
#83 = FACE_OUTER_BOUND ( 'NONE', #105, .T. ) ;
#84 = SURFACE_STYLE_FILL_AREA ( #61 ) ;
#85 = DIRECTION ( 'NONE',  ( 0.0000000000000000000, 0.0000000000000000000, 1.000000000000000000 ) ) ;
#86 = DIRECTION ( 'NONE',  ( 1.000000000000000000, 0.0000000000000000000, 0.0000000000000000000 ) ) ;
#87 = ORIENTED_EDGE ( 'NONE', *, *, #224, .T. ) ;
#88 = LINE ( 'NONE', #187, #125 ) ;
#89 = ADVANCED_FACE ( 'NONE', ( #116 ), #226, .F. ) ;
#90 = DIRECTION ( 'NONE',  ( 0.0000000000000000000, 0.0000000000000000000, 1.000000000000000000 ) ) ;
#91 = ORIENTED_EDGE ( 'NONE', *, *, #181, .F. ) ;
#92 =( NAMED_UNIT ( * ) PLANE_ANGLE_UNIT ( ) SI_UNIT ( $, .RADIAN. ) );
#93 = PRESENTATION_LAYER_ASSIGNMENT (  '', '', ( #82 ) ) ;
#94 = CARTESIAN_POINT ( 'NONE',  ( 20.00000000000000000, 0.0000000000000000000, 0.0000000000000000000 ) ) ;
#95 = CARTESIAN_POINT ( 'NONE',  ( 0.0000000000000000000, 0.0000000000000000000, 5.000000000000000000 ) ) ;
#96 = ADVANCED_BREP_SHAPE_REPRESENTATION ( '', ( #234, #73 ), #60 ) ;
#97 = LINE ( 'NONE', #68, #189 ) ;
#98 = CARTESIAN_POINT ( 'NONE',  ( 20.00000000000000000, 0.0000000000000000000, 5.000000000000000000 ) ) ;
#99 = LINE ( 'NONE', #208, #146 ) ;
#100 = CARTESIAN_POINT ( 'NONE',  ( 0.0000000000000000000, 1000.000000000000000, 0.0000000000000000000 ) ) ;
#101 = EDGE_CURVE ( 'NONE', #69, #144, #97, .T. ) ;
#102 = CARTESIAN_POINT ( 'NONE',  ( 20.00000000000000000, 1000.000000000000000, 5.000000000000000000 ) ) ;
#103 = APPLICATION_PROTOCOL_DEFINITION ( 'draft international standard', 'automotive_design', 1998, #55 ) ;
#104 = ADVANCED_FACE ( 'NONE', ( #170 ), #158, .F. ) ;
#105 = EDGE_LOOP ( 'NONE', ( #137, #121, #197, #87 ) ) ;
#106 = EDGE_LOOP ( 'NONE', ( #192, #219, #127, #154 ) ) ;
#107 = MECHANICAL_DESIGN_GEOMETRIC_PRESENTATION_REPRESENTATION (  '', ( #82 ), #124 ) ;
#108 = PRODUCT ( 'rubber foam', 'rubber foam', '', ( #211 ) ) ;
#109 = CLOSED_SHELL ( 'NONE', ( #104, #89, #3, #131, #59, #160 ) ) ;
#110 = LINE ( 'NONE', #216, #162 ) ;
#111 =( LENGTH_UNIT ( ) NAMED_UNIT ( * ) SI_UNIT ( .MILLI., .METRE. ) );
#112 = COLOUR_RGB ( '',0.7921568627450980000, 0.8196078431372548800, 0.9333333333333333500 ) ;
#113 = EDGE_CURVE ( 'NONE', #70, #16, #88, .T. ) ;
#114 = SURFACE_STYLE_USAGE ( .BOTH. , #5 ) ;
#115 = CARTESIAN_POINT ( 'NONE',  ( 0.0000000000000000000, 1000.000000000000000, 0.0000000000000000000 ) ) ;
#116 = FACE_OUTER_BOUND ( 'NONE', #17, .T. ) ;
#117 = VECTOR ( 'NONE', #223, 1000.000000000000000 ) ;
#118 = DIRECTION ( 'NONE',  ( 0.0000000000000000000, -1.000000000000000000, 0.0000000000000000000 ) ) ;
#119 = CARTESIAN_POINT ( 'NONE',  ( 0.0000000000000000000, 0.0000000000000000000, 0.0000000000000000000 ) ) ;
#120 = DIRECTION ( 'NONE',  ( -1.000000000000000000, 0.0000000000000000000, 0.0000000000000000000 ) ) ;
#121 = ORIENTED_EDGE ( 'NONE', *, *, #227, .T. ) ;
#122 = CARTESIAN_POINT ( 'NONE',  ( 0.0000000000000000000, 200.0000000000000000, 5.000000000000000000 ) ) ;
#123 = APPLICATION_CONTEXT ( 'automotive_design' ) ;
#124 =( GEOMETRIC_REPRESENTATION_CONTEXT ( 3 ) GLOBAL_UNCERTAINTY_ASSIGNED_CONTEXT ( ( #178 ) ) GLOBAL_UNIT_ASSIGNED_CONTEXT ( ( #218, #92, #203 ) ) REPRESENTATION_CONTEXT ( 'NONE', 'WORKASPACE' ) );
#125 = VECTOR ( 'NONE', #66, 1000.000000000000000 ) ;
#126 = AXIS2_PLACEMENT_3D ( 'NONE', #183, #90, #198 ) ;
#127 = ORIENTED_EDGE ( 'NONE', *, *, #212, .F. ) ;
#128 = FACE_OUTER_BOUND ( 'NONE', #201, .T. ) ;
#129 = DIRECTION ( 'NONE',  ( 1.000000000000000000, 0.0000000000000000000, 0.0000000000000000000 ) ) ;
#130 = DIRECTION ( 'NONE',  ( 0.0000000000000000000, 0.0000000000000000000, 1.000000000000000000 ) ) ;
#131 = ADVANCED_FACE ( 'NONE', ( #159 ), #138, .F. ) ;
#132 = FILL_AREA_STYLE ('',( #75 ) ) ;
#133 = ORIENTED_EDGE ( 'NONE', *, *, #227, .F. ) ;
#134 =( NAMED_UNIT ( * ) PLANE_ANGLE_UNIT ( ) SI_UNIT ( $, .RADIAN. ) );
#135 = PRODUCT_DEFINITION_SHAPE ( 'NONE', 'NONE',  #204 ) ;
#136 = CARTESIAN_POINT ( 'NONE',  ( 0.0000000000000000000, 0.0000000000000000000, 0.0000000000000000000 ) ) ;
#137 = ORIENTED_EDGE ( 'NONE', *, *, #166, .T. ) ;
#138 = PLANE ( 'NONE',  #217 ) ;
#139 = CARTESIAN_POINT ( 'NONE',  ( 20.00000000000000000, 200.0000000000000000, 5.000000000000000000 ) ) ;
#140 = APPLICATION_PROTOCOL_DEFINITION ( 'draft international standard', 'automotive_design', 1998, #37 ) ;
#141 = VERTEX_POINT ( 'NONE', #119 ) ;
#142 = VECTOR ( 'NONE', #76, 1000.000000000000000 ) ;
#143 = CONTEXT_DEPENDENT_SHAPE_REPRESENTATION ( #20, #62 ) ;
#144 = VERTEX_POINT ( 'NONE', #98 ) ;
#145 = ORIENTED_EDGE ( 'NONE', *, *, #236, .T. ) ;
#146 = VECTOR ( 'NONE', #78, 1000.000000000000000 ) ;
#147 = DIRECTION ( 'NONE',  ( 1.000000000000000000, 0.0000000000000000000, 0.0000000000000000000 ) ) ;
#148 = AXIS2_PLACEMENT_3D ( 'NONE', #50, #34, #209 ) ;
#149 = CARTESIAN_POINT ( 'NONE',  ( 0.0000000000000000000, 0.0000000000000000000, 0.0000000000000000000 ) ) ;
#150 = EDGE_LOOP ( 'NONE', ( #194, #232, #58, #145 ) ) ;
#151 =( NAMED_UNIT ( * ) PLANE_ANGLE_UNIT ( ) SI_UNIT ( $, .RADIAN. ) );
#152 = SURFACE_STYLE_USAGE ( .BOTH. , #48 ) ;
#153 = CARTESIAN_POINT ( 'NONE',  ( 0.0000000000000000000, 200.0000000000000000, 0.0000000000000000000 ) ) ;
#154 = ORIENTED_EDGE ( 'NONE', *, *, #181, .T. ) ;
#155 = DIRECTION ( 'NONE',  ( 1.000000000000000000, 0.0000000000000000000, 0.0000000000000000000 ) ) ;
#156 = EDGE_CURVE ( 'NONE', #141, #16, #99, .T. ) ;
#157 = DIRECTION ( 'NONE',  ( 0.0000000000000000000, 0.0000000000000000000, -1.000000000000000000 ) ) ;
#158 = PLANE ( 'NONE',  #196 ) ;
#159 = FACE_OUTER_BOUND ( 'NONE', #150, .T. ) ;
#160 = ADVANCED_FACE ( 'NONE', ( #128 ), #65, .F. ) ;
#161 = AXIS2_PLACEMENT_3D ( 'NONE', #27, #130, #147 ) ;
#162 = VECTOR ( 'NONE', #86, 1000.000000000000000 ) ;
#163 = ORIENTED_EDGE ( 'NONE', *, *, #25, .F. ) ;
#164 = LINE ( 'NONE', #80, #51 ) ;
#165 = PRODUCT_DEFINITION_CONTEXT ( 'detailed design', #123, 'design' ) ;
#166 = EDGE_CURVE ( 'NONE', #70, #69, #213, .T. ) ;
#167 = CARTESIAN_POINT ( 'NONE',  ( 0.0000000000000000000, 0.0000000000000000000, 0.0000000000000000000 ) ) ;
#168 = VERTEX_POINT ( 'NONE', #94 ) ;
#169 = AXIS2_PLACEMENT_3D ( 'NONE', #149, #30, #4 ) ;
#170 = FACE_OUTER_BOUND ( 'NONE', #23, .T. ) ;
#171 = PRESENTATION_STYLE_ASSIGNMENT (( #114 ) ) ;
#172 = DIRECTION ( 'NONE',  ( -1.000000000000000000, 0.0000000000000000000, 0.0000000000000000000 ) ) ;
#173 = DIRECTION ( 'NONE',  ( -0.0000000000000000000, 1.000000000000000000, 0.0000000000000000000 ) ) ;
#174 = SHAPE_REPRESENTATION_RELATIONSHIP ( 'NONE' , 'NONE' ,  #15, #96 ) ;
#175 = PLANE ( 'NONE',  #126 ) ;
#176 = AXIS2_PLACEMENT_3D ( 'NONE', #102, #79, #188 ) ;
#177 =( GEOMETRIC_REPRESENTATION_CONTEXT ( 3 ) GLOBAL_UNCERTAINTY_ASSIGNED_CONTEXT ( ( #222 ) ) GLOBAL_UNIT_ASSIGNED_CONTEXT ( ( #111, #45, #2 ) ) REPRESENTATION_CONTEXT ( 'NONE', 'WORKASPACE' ) );
#178 = UNCERTAINTY_MEASURE_WITH_UNIT (LENGTH_MEASURE( 1.000000000000000100E-005 ), #218, 'distance_accuracy_value', 'NONE');
#179 = PRODUCT ( 'TM_340_4', 'TM_340_4', '', ( #18 ) ) ;
#180 =( NAMED_UNIT ( * ) SI_UNIT ( $, .STERADIAN. ) SOLID_ANGLE_UNIT ( ) );
#181 = EDGE_CURVE ( 'NONE', #206, #168, #53, .T. ) ;
#182 = ORIENTED_EDGE ( 'NONE', *, *, #166, .F. ) ;
#183 = CARTESIAN_POINT ( 'NONE',  ( 20.00000000000000000, 1000.000000000000000, 0.0000000000000000000 ) ) ;
#184 = FILL_AREA_STYLE_COLOUR ( '', #24 ) ;
#185 = CARTESIAN_POINT ( 'NONE',  ( 20.00000000000000000, 200.0000000000000000, 0.0000000000000000000 ) ) ;
#186 = DIRECTION ( 'NONE',  ( 1.000000000000000000, 0.0000000000000000000, 0.0000000000000000000 ) ) ;
#187 = CARTESIAN_POINT ( 'NONE',  ( 0.0000000000000000000, 1000.000000000000000, 5.000000000000000000 ) ) ;
#188 = DIRECTION ( 'NONE',  ( 0.0000000000000000000, 0.0000000000000000000, 1.000000000000000000 ) ) ;
#189 = VECTOR ( 'NONE', #210, 1000.000000000000000 ) ;
#190 = AXIS2_PLACEMENT_3D ( 'NONE', #63, #85, #129 ) ;
#191 = PRODUCT_DEFINITION_CONTEXT ( 'detailed design', #81, 'design' ) ;
#192 = ORIENTED_EDGE ( 'NONE', *, *, #199, .T. ) ;
#193 = ORIENTED_EDGE ( 'NONE', *, *, #199, .F. ) ;
#194 = ORIENTED_EDGE ( 'NONE', *, *, #156, .T. ) ;
#195 = LINE ( 'NONE', #225, #29 ) ;
#196 = AXIS2_PLACEMENT_3D ( 'NONE', #35, #14, #120 ) ;
#197 = ORIENTED_EDGE ( 'NONE', *, *, #212, .T. ) ;
#198 = DIRECTION ( 'NONE',  ( 1.000000000000000000, 0.0000000000000000000, 0.0000000000000000000 ) ) ;
#199 = EDGE_CURVE ( 'NONE', #168, #141, #195, .T. ) ;
#200 = DIRECTION ( 'NONE',  ( 1.000000000000000000, 0.0000000000000000000, 0.0000000000000000000 ) ) ;
#201 = EDGE_LOOP ( 'NONE', ( #163, #22, #193, #71 ) ) ;
#202 = ORIENTED_EDGE ( 'NONE', *, *, #101, .F. ) ;
#203 =( NAMED_UNIT ( * ) SI_UNIT ( $, .STERADIAN. ) SOLID_ANGLE_UNIT ( ) );
#204 = PRODUCT_DEFINITION ( 'UNKNOWN', '', #237, #191 ) ;
#205 = ORIENTED_EDGE ( 'NONE', *, *, #101, .T. ) ;
#206 = VERTEX_POINT ( 'NONE', #185 ) ;
#207 = DIRECTION ( 'NONE',  ( 0.0000000000000000000, 0.0000000000000000000, 1.000000000000000000 ) ) ;
#208 = CARTESIAN_POINT ( 'NONE',  ( 0.0000000000000000000, 0.0000000000000000000, 0.0000000000000000000 ) ) ;
#209 = DIRECTION ( 'NONE',  ( 1.000000000000000000, 0.0000000000000000000, 0.0000000000000000000 ) ) ;
#210 = DIRECTION ( 'NONE',  ( 0.0000000000000000000, -1.000000000000000000, 0.0000000000000000000 ) ) ;
#211 = PRODUCT_CONTEXT ( 'NONE', #55, 'mechanical' ) ;
#212 = EDGE_CURVE ( 'NONE', #206, #26, #215, .T. ) ;
#213 = LINE ( 'NONE', #33, #57 ) ;
#214 = LINE ( 'NONE', #153, #44 ) ;
#215 = LINE ( 'NONE', #49, #77 ) ;
#216 = CARTESIAN_POINT ( 'NONE',  ( 0.0000000000000000000, 0.0000000000000000000, 5.000000000000000000 ) ) ;
#217 = AXIS2_PLACEMENT_3D ( 'NONE', #100, #52, #157 ) ;
#218 =( LENGTH_UNIT ( ) NAMED_UNIT ( * ) SI_UNIT ( .MILLI., .METRE. ) );
#219 = ORIENTED_EDGE ( 'NONE', *, *, #236, .F. ) ;
#220 = PLANE ( 'NONE',  #148 ) ;
#221 = PRODUCT_RELATED_PRODUCT_CATEGORY ( 'part', '', ( #179 ) ) ;
#222 = UNCERTAINTY_MEASURE_WITH_UNIT (LENGTH_MEASURE( 1.000000000000000100E-005 ), #111, 'distance_accuracy_value', 'NONE');
#223 = DIRECTION ( 'NONE',  ( 0.0000000000000000000, 0.0000000000000000000, -1.000000000000000000 ) ) ;
#224 = EDGE_CURVE ( 'NONE', #26, #70, #214, .T. ) ;
#225 = CARTESIAN_POINT ( 'NONE',  ( 20.00000000000000000, 0.0000000000000000000, 0.0000000000000000000 ) ) ;
#226 = PLANE ( 'NONE',  #176 ) ;
#227 = EDGE_CURVE ( 'NONE', #69, #206, #11, .T. ) ;
#228 = CARTESIAN_POINT ( 'NONE',  ( 0.0000000000000000000, 200.0000000000000000, 0.0000000000000000000 ) ) ;
#229 = APPLICATION_PROTOCOL_DEFINITION ( 'draft international standard', 'automotive_design', 1998, #123 ) ;
#230 = APPLICATION_PROTOCOL_DEFINITION ( 'draft international standard', 'automotive_design', 1998, #81 ) ;
#231 = ORIENTED_EDGE ( 'NONE', *, *, #67, .T. ) ;
#232 = ORIENTED_EDGE ( 'NONE', *, *, #113, .F. ) ;
#233 = PRODUCT_DEFINITION ( 'UNKNOWN', '', #7, #165 ) ;
#234 = MANIFOLD_SOLID_BREP ( '²ÝÎß°Ä1', #109 ) ;
#235 = STYLED_ITEM ( 'NONE', ( #39 ), #234 ) ;
#236 = EDGE_CURVE ( 'NONE', #26, #141, #238, .T. ) ;
#237 = PRODUCT_DEFINITION_FORMATION_WITH_SPECIFIED_SOURCE ( 'ANY', '', #108, .NOT_KNOWN. ) ;
#238 = LINE ( 'NONE', #115, #142 ) ;
#239 = NEXT_ASSEMBLY_USAGE_OCCURRENCE ( 'NAUO1', ' ', ' ', #233, #204, $ ) ;
ENDSEC;
END-ISO-10303-21;
