ISO-10303-21;
HEADER;
FILE_DESCRIPTION (( 'STEP AP214' ),
    '1' );
FILE_NAME ('TM_341W_3.STEP',
    '2016-05-10T04:11:46',
    ( '' ),
    ( '' ),
    'SwSTEP 2.0',
    'SolidWorks 2015',
    '' );
FILE_SCHEMA (( 'AUTOMOTIVE_DESIGN' ));
ENDSEC;

DATA;
#1 = EDGE_LOOP ( 'NONE', ( #65, #144, #129, #60 ) ) ;
#2 =( REPRESENTATION_RELATIONSHIP ('NONE','NONE', #218, #69 ) REPRESENTATION_RELATIONSHIP_WITH_TRANSFORMATION ( #230 )SHAPE_REPRESENTATION_RELATIONSHIP( ) );
#3 = VECTOR ( 'NONE', #47, 1000.000000000000000 ) ;
#4 = APPLICATION_CONTEXT ( 'automotive_design' ) ;
#5 =( NAMED_UNIT ( * ) PLANE_ANGLE_UNIT ( ) SI_UNIT ( $, .RADIAN. ) );
#6 = FILL_AREA_STYLE ('',( #139 ) ) ;
#7 = DIRECTION ( 'NONE',  ( 0.0000000000000000000, -1.000000000000000000, 0.0000000000000000000 ) ) ;
#8 = ADVANCED_FACE ( 'NONE', ( #228 ), #215, .T. ) ;
#9 = EDGE_LOOP ( 'NONE', ( #107, #100, #127, #192 ) ) ;
#10 = VERTEX_POINT ( 'NONE', #158 ) ;
#11 = ORIENTED_EDGE ( 'NONE', *, *, #186, .T. ) ;
#12 = CARTESIAN_POINT ( 'NONE',  ( 0.0000000000000000000, 0.0000000000000000000, -4.000000000000000000 ) ) ;
#13 = COLOUR_RGB ( '',0.7921568627450980000, 0.8196078431372548800, 0.9333333333333333500 ) ;
#14 = ORIENTED_EDGE ( 'NONE', *, *, #108, .F. ) ;
#15 = LINE ( 'NONE', #12, #75 ) ;
#16 = CARTESIAN_POINT ( 'NONE',  ( -5.000000000000000000, 1000.000000000000000, -4.000000000000000000 ) ) ;
#17 = EDGE_CURVE ( 'NONE', #166, #155, #187, .T. ) ;
#18 = ADVANCED_FACE ( 'NONE', ( #216 ), #136, .T. ) ;
#19 = ORIENTED_EDGE ( 'NONE', *, *, #17, .T. ) ;
#20 = DIRECTION ( 'NONE',  ( 1.000000000000000000, 0.0000000000000000000, 0.0000000000000000000 ) ) ;
#21 = DIRECTION ( 'NONE',  ( 1.000000000000000000, 0.0000000000000000000, 0.0000000000000000000 ) ) ;
#22 = ORIENTED_EDGE ( 'NONE', *, *, #131, .F. ) ;
#23 = DIRECTION ( 'NONE',  ( -0.0000000000000000000, 1.000000000000000000, 0.0000000000000000000 ) ) ;
#24 = COLOUR_RGB ( '',0.7921568627450980000, 0.8196078431372548800, 0.9333333333333333500 ) ;
#25 = DIRECTION ( 'NONE',  ( 1.000000000000000000, 0.0000000000000000000, 0.0000000000000000000 ) ) ;
#26 = CARTESIAN_POINT ( 'NONE',  ( 5.000000000000000000, 0.0000000000000000000, -4.000000000000000000 ) ) ;
#27 = ORIENTED_EDGE ( 'NONE', *, *, #31, .F. ) ;
#28 = AXIS2_PLACEMENT_3D ( 'NONE', #132, #23, #232 ) ;
#29 = PRODUCT_DEFINITION ( 'UNKNOWN', '', #40, #124 ) ;
#30 = FACE_OUTER_BOUND ( 'NONE', #109, .T. ) ;
#31 = EDGE_CURVE ( 'NONE', #116, #10, #128, .T. ) ;
#32 = ADVANCED_BREP_SHAPE_REPRESENTATION ( '', ( #81, #91 ), #190 ) ;
#33 = CARTESIAN_POINT ( 'NONE',  ( -5.000000000000000000, 0.0000000000000000000, -4.000000000000000000 ) ) ;
#34 = CIRCLE ( 'NONE', #115, 5.000000000000000000 ) ;
#35 = DIRECTION ( 'NONE',  ( 0.0000000000000000000, 0.0000000000000000000, -1.000000000000000000 ) ) ;
#36 = ORIENTED_EDGE ( 'NONE', *, *, #84, .T. ) ;
#37 = CARTESIAN_POINT ( 'NONE',  ( 5.000000000000000000, 200.0000000000000000, -0.9999999999999859000 ) ) ;
#38 = DIRECTION ( 'NONE',  ( 0.0000000000000000000, 0.0000000000000000000, -1.000000000000000000 ) ) ;
#39 = EDGE_CURVE ( 'NONE', #148, #209, #15, .T. ) ;
#40 = PRODUCT_DEFINITION_FORMATION_WITH_SPECIFIED_SOURCE ( 'ANY', '', #141, .NOT_KNOWN. ) ;
#41 = VECTOR ( 'NONE', #235, 1000.000000000000000 ) ;
#42 = PRODUCT ( 'rubber foam', 'rubber foam', '', ( #59 ) ) ;
#43 = ADVANCED_FACE ( 'NONE', ( #134 ), #213, .T. ) ;
#44 = CARTESIAN_POINT ( 'NONE',  ( 0.0000000000000000000, 0.0000000000000000000, 0.0000000000000000000 ) ) ;
#45 = DIRECTION ( 'NONE',  ( 0.0000000000000000000, 0.0000000000000000000, 1.000000000000000000 ) ) ;
#46 = MECHANICAL_DESIGN_GEOMETRIC_PRESENTATION_REPRESENTATION (  '', ( #170 ), #152 ) ;
#47 = DIRECTION ( 'NONE',  ( 0.0000000000000000000, -1.000000000000000000, 0.0000000000000000000 ) ) ;
#48 = EDGE_LOOP ( 'NONE', ( #27, #204, #182, #22 ) ) ;
#49 = FACE_OUTER_BOUND ( 'NONE', #66, .T. ) ;
#50 = EDGE_LOOP ( 'NONE', ( #153, #70, #51, #160 ) ) ;
#51 = ORIENTED_EDGE ( 'NONE', *, *, #212, .T. ) ;
#52 = PRODUCT_RELATED_PRODUCT_CATEGORY ( 'part', '', ( #141 ) ) ;
#53 = VECTOR ( 'NONE', #92, 1000.000000000000000 ) ;
#54 = DIRECTION ( 'NONE',  ( 0.0000000000000000000, -1.000000000000000000, 0.0000000000000000000 ) ) ;
#55 = CARTESIAN_POINT ( 'NONE',  ( 5.000000000000000000, 1000.000000000000000, -4.000000000000000000 ) ) ;
#56 = ADVANCED_FACE ( 'NONE', ( #49 ), #106, .T. ) ;
#57 = PRODUCT_DEFINITION_CONTEXT ( 'detailed design', #179, 'design' ) ;
#58 = DIRECTION ( 'NONE',  ( 0.0000000000000000000, -1.000000000000000000, 0.0000000000000000000 ) ) ;
#59 = PRODUCT_CONTEXT ( 'NONE', #4, 'mechanical' ) ;
#60 = ORIENTED_EDGE ( 'NONE', *, *, #108, .T. ) ;
#61 =( LENGTH_UNIT ( ) NAMED_UNIT ( * ) SI_UNIT ( .MILLI., .METRE. ) );
#62 = DIRECTION ( 'NONE',  ( 0.0000000000000000000, 0.0000000000000000000, 1.000000000000000000 ) ) ;
#63 = VECTOR ( 'NONE', #177, 1000.000000000000000 ) ;
#64 =( NAMED_UNIT ( * ) SI_UNIT ( $, .STERADIAN. ) SOLID_ANGLE_UNIT ( ) );
#65 = ORIENTED_EDGE ( 'NONE', *, *, #84, .F. ) ;
#66 = EDGE_LOOP ( 'NONE', ( #201, #14, #164, #211 ) ) ;
#67 = AXIS2_PLACEMENT_3D ( 'NONE', #191, #219, #161 ) ;
#68 = PRODUCT_DEFINITION_FORMATION_WITH_SPECIFIED_SOURCE ( 'ANY', '', #42, .NOT_KNOWN. ) ;
#69 = SHAPE_REPRESENTATION ( 'rubber foam', ( #91 ), #190 ) ;
#70 = ORIENTED_EDGE ( 'NONE', *, *, #202, .F. ) ;
#71 = CONTEXT_DEPENDENT_SHAPE_REPRESENTATION ( #2, #90 ) ;
#72 = CARTESIAN_POINT ( 'NONE',  ( -5.000000000000000000, 200.0000000000000000, 0.0000000000000000000 ) ) ;
#73 = VECTOR ( 'NONE', #234, 1000.000000000000000 ) ;
#74 =( NAMED_UNIT ( * ) PLANE_ANGLE_UNIT ( ) SI_UNIT ( $, .RADIAN. ) );
#75 = VECTOR ( 'NONE', #133, 1000.000000000000000 ) ;
#76 = CARTESIAN_POINT ( 'NONE',  ( -5.000000000000000000, 200.0000000000000000, -0.9999999999999850100 ) ) ;
#77 = LINE ( 'NONE', #151, #199 ) ;
#78 = DIRECTION ( 'NONE',  ( 1.000000000000000000, 0.0000000000000000000, 0.0000000000000000000 ) ) ;
#79 = CARTESIAN_POINT ( 'NONE',  ( 5.000000000000000000, 200.0000000000000000, 0.0000000000000000000 ) ) ;
#80 = ADVANCED_FACE ( 'NONE', ( #30 ), #112, .F. ) ;
#81 = MANIFOLD_SOLID_BREP ( '²ÝÎß°Ä1', #97 ) ;
#82 =( LENGTH_UNIT ( ) NAMED_UNIT ( * ) SI_UNIT ( .MILLI., .METRE. ) );
#83 = AXIS2_PLACEMENT_3D ( 'NONE', #195, #220, #78 ) ;
#84 = EDGE_CURVE ( 'NONE', #209, #166, #94, .T. ) ;
#85 = PRODUCT_RELATED_PRODUCT_CATEGORY ( 'part', '', ( #42 ) ) ;
#86 = APPLICATION_CONTEXT ( 'automotive_design' ) ;
#87 = CARTESIAN_POINT ( 'NONE',  ( -5.000000000000000000, 1000.000000000000000, -0.9999999999999850100 ) ) ;
#88 = DIRECTION ( 'NONE',  ( 0.0000000000000000000, 0.0000000000000000000, 1.000000000000000000 ) ) ;
#89 = DIRECTION ( 'NONE',  ( -1.000000000000000000, 0.0000000000000000000, 0.0000000000000000000 ) ) ;
#90 = PRODUCT_DEFINITION_SHAPE ( 'NONE', 'NONE',  #241 ) ;
#91 = AXIS2_PLACEMENT_3D ( 'NONE', #167, #45, #25 ) ;
#92 = DIRECTION ( 'NONE',  ( -0.0000000000000000000, -0.0000000000000000000, 1.000000000000000000 ) ) ;
#93 = AXIS2_PLACEMENT_3D ( 'NONE', #101, #147, #20 ) ;
#94 = LINE ( 'NONE', #207, #53 ) ;
#95 = DIRECTION ( 'NONE',  ( 1.000000000000000000, 0.0000000000000000000, 0.0000000000000000000 ) ) ;
#96 = DIRECTION ( 'NONE',  ( 0.0000000000000000000, 0.0000000000000000000, -1.000000000000000000 ) ) ;
#97 = CLOSED_SHELL ( 'NONE', ( #188, #18, #56, #43, #8, #80 ) ) ;
#98 = DIRECTION ( 'NONE',  ( 1.000000000000000000, -0.0000000000000000000, -0.0000000000000000000 ) ) ;
#99 = APPLICATION_CONTEXT ( 'automotive_design' ) ;
#100 = ORIENTED_EDGE ( 'NONE', *, *, #173, .F. ) ;
#101 = CARTESIAN_POINT ( 'NONE',  ( 0.0000000000000000000, 0.0000000000000000000, 0.0000000000000000000 ) ) ;
#102 = VECTOR ( 'NONE', #54, 1000.000000000000000 ) ;
#103 =( NAMED_UNIT ( * ) SI_UNIT ( $, .STERADIAN. ) SOLID_ANGLE_UNIT ( ) );
#104 =( GEOMETRIC_REPRESENTATION_CONTEXT ( 3 ) GLOBAL_UNCERTAINTY_ASSIGNED_CONTEXT ( ( #126 ) ) GLOBAL_UNIT_ASSIGNED_CONTEXT ( ( #61, #138, #203 ) ) REPRESENTATION_CONTEXT ( 'NONE', 'WORKASPACE' ) );
#105 = DIRECTION ( 'NONE',  ( -0.0000000000000000000, -1.000000000000000000, -0.0000000000000000000 ) ) ;
#106 = CYLINDRICAL_SURFACE ( 'NONE', #142, 5.000000000000000000 ) ;
#107 = ORIENTED_EDGE ( 'NONE', *, *, #39, .F. ) ;
#108 = EDGE_CURVE ( 'NONE', #196, #166, #111, .T. ) ;
#109 = EDGE_LOOP ( 'NONE', ( #114, #36, #19, #11 ) ) ;
#110 = CARTESIAN_POINT ( 'NONE',  ( 5.000000000000000000, 0.0000000000000000000, -0.9999999999999859000 ) ) ;
#111 = LINE ( 'NONE', #159, #102 ) ;
#112 = PLANE ( 'NONE',  #83 ) ;
#113 =( NAMED_UNIT ( * ) SI_UNIT ( $, .STERADIAN. ) SOLID_ANGLE_UNIT ( ) );
#114 = ORIENTED_EDGE ( 'NONE', *, *, #39, .T. ) ;
#115 = AXIS2_PLACEMENT_3D ( 'NONE', #225, #105, #88 ) ;
#116 = VERTEX_POINT ( 'NONE', #157 ) ;
#117 = STYLED_ITEM ( 'NONE', ( #162 ), #81 ) ;
#118 = PRODUCT_DEFINITION_SHAPE ( 'NONE', 'NONE',  #240 ) ;
#119 = PRESENTATION_STYLE_ASSIGNMENT (( #224 ) ) ;
#120 = DIRECTION ( 'NONE',  ( 1.000000000000000000, 0.0000000000000000000, 0.0000000000000000000 ) ) ;
#121 = LINE ( 'NONE', #79, #73 ) ;
#122 = FILL_AREA_STYLE ('',( #135 ) ) ;
#123 = AXIS2_PLACEMENT_3D ( 'NONE', #145, #217, #197 ) ;
#124 = PRODUCT_DEFINITION_CONTEXT ( 'detailed design', #99, 'design' ) ;
#125 = VERTEX_POINT ( 'NONE', #76 ) ;
#126 = UNCERTAINTY_MEASURE_WITH_UNIT (LENGTH_MEASURE( 1.000000000000000100E-005 ), #61, 'distance_accuracy_value', 'NONE');
#127 = ORIENTED_EDGE ( 'NONE', *, *, #31, .T. ) ;
#128 = LINE ( 'NONE', #239, #206 ) ;
#129 = ORIENTED_EDGE ( 'NONE', *, *, #131, .T. ) ;
#130 = VECTOR ( 'NONE', #58, 1000.000000000000000 ) ;
#131 = EDGE_CURVE ( 'NONE', #10, #196, #121, .T. ) ;
#132 = CARTESIAN_POINT ( 'NONE',  ( 0.0000000000000000000, 200.0000000000000000, 0.0000000000000000000 ) ) ;
#133 = DIRECTION ( 'NONE',  ( 1.000000000000000000, -0.0000000000000000000, -0.0000000000000000000 ) ) ;
#134 = FACE_OUTER_BOUND ( 'NONE', #50, .T. ) ;
#135 = FILL_AREA_STYLE_COLOUR ( '', #24 ) ;
#136 = PLANE ( 'NONE',  #183 ) ;
#137 = APPLICATION_PROTOCOL_DEFINITION ( 'draft international standard', 'automotive_design', 1998, #179 ) ;
#138 =( NAMED_UNIT ( * ) PLANE_ANGLE_UNIT ( ) SI_UNIT ( $, .RADIAN. ) );
#139 = FILL_AREA_STYLE_COLOUR ( '', #13 ) ;
#140 = SURFACE_SIDE_STYLE ('',( #189 ) ) ;
#141 = PRODUCT ( 'TM_341W_3', 'TM_341W_3', '', ( #200 ) ) ;
#142 = AXIS2_PLACEMENT_3D ( 'NONE', #198, #176, #96 ) ;
#143 = LINE ( 'NONE', #72, #63 ) ;
#144 = ORIENTED_EDGE ( 'NONE', *, *, #178, .F. ) ;
#145 = CARTESIAN_POINT ( 'NONE',  ( 0.0000000000000000000, 0.0000000000000000000, -0.9999999999999859000 ) ) ;
#146 = CARTESIAN_POINT ( 'NONE',  ( -5.000000000000000000, 0.0000000000000000000, 0.0000000000000000000 ) ) ;
#147 = DIRECTION ( 'NONE',  ( 0.0000000000000000000, 0.0000000000000000000, 1.000000000000000000 ) ) ;
#148 = VERTEX_POINT ( 'NONE', #33 ) ;
#149 = DIRECTION ( 'NONE',  ( 0.0000000000000000000, 0.0000000000000000000, 1.000000000000000000 ) ) ;
#150 = SURFACE_SIDE_STYLE ('',( #154 ) ) ;
#151 = CARTESIAN_POINT ( 'NONE',  ( 5.000000000000000000, 1000.000000000000000, -4.000000000000000000 ) ) ;
#152 =( GEOMETRIC_REPRESENTATION_CONTEXT ( 3 ) GLOBAL_UNCERTAINTY_ASSIGNED_CONTEXT ( ( #237 ) ) GLOBAL_UNIT_ASSIGNED_CONTEXT ( ( #205, #184, #64 ) ) REPRESENTATION_CONTEXT ( 'NONE', 'WORKASPACE' ) );
#153 = ORIENTED_EDGE ( 'NONE', *, *, #186, .F. ) ;
#154 = SURFACE_STYLE_FILL_AREA ( #6 ) ;
#155 = VERTEX_POINT ( 'NONE', #236 ) ;
#156 = PRESENTATION_LAYER_ASSIGNMENT (  '', '', ( #117 ) ) ;
#157 = CARTESIAN_POINT ( 'NONE',  ( -5.000000000000000000, 200.0000000000000000, -4.000000000000000000 ) ) ;
#158 = CARTESIAN_POINT ( 'NONE',  ( 5.000000000000000000, 200.0000000000000000, -4.000000000000000000 ) ) ;
#159 = CARTESIAN_POINT ( 'NONE',  ( 5.000000000000000000, 1000.000000000000000, -0.9999999999999859000 ) ) ;
#160 = ORIENTED_EDGE ( 'NONE', *, *, #173, .T. ) ;
#161 = DIRECTION ( 'NONE',  ( 0.0000000000000000000, 0.0000000000000000000, 1.000000000000000000 ) ) ;
#162 = PRESENTATION_STYLE_ASSIGNMENT (( #168 ) ) ;
#163 = PRESENTATION_LAYER_ASSIGNMENT (  '', '', ( #170 ) ) ;
#164 = ORIENTED_EDGE ( 'NONE', *, *, #226, .T. ) ;
#165 = APPLICATION_PROTOCOL_DEFINITION ( 'draft international standard', 'automotive_design', 1998, #86 ) ;
#166 = VERTEX_POINT ( 'NONE', #110 ) ;
#167 = CARTESIAN_POINT ( 'NONE',  ( 0.0000000000000000000, 0.0000000000000000000, 0.0000000000000000000 ) ) ;
#168 = SURFACE_STYLE_USAGE ( .BOTH. , #140 ) ;
#169 = UNCERTAINTY_MEASURE_WITH_UNIT (LENGTH_MEASURE( 1.000000000000000100E-005 ), #82, 'distance_accuracy_value', 'NONE');
#170 = STYLED_ITEM ( 'NONE', ( #119 ), #32 ) ;
#171 = FACE_OUTER_BOUND ( 'NONE', #9, .T. ) ;
#172 = LINE ( 'NONE', #146, #41 ) ;
#173 = EDGE_CURVE ( 'NONE', #116, #148, #222, .T. ) ;
#174 = PLANE ( 'NONE',  #208 ) ;
#175 = LINE ( 'NONE', #87, #3 ) ;
#176 = DIRECTION ( 'NONE',  ( 0.0000000000000000000, -1.000000000000000000, 0.0000000000000000000 ) ) ;
#177 = DIRECTION ( 'NONE',  ( -0.0000000000000000000, -0.0000000000000000000, -1.000000000000000000 ) ) ;
#178 = EDGE_CURVE ( 'NONE', #10, #209, #77, .T. ) ;
#179 = APPLICATION_CONTEXT ( 'automotive_design' ) ;
#180 =( GEOMETRIC_REPRESENTATION_CONTEXT ( 3 ) GLOBAL_UNCERTAINTY_ASSIGNED_CONTEXT ( ( #169 ) ) GLOBAL_UNIT_ASSIGNED_CONTEXT ( ( #82, #74, #113 ) ) REPRESENTATION_CONTEXT ( 'NONE', 'WORKASPACE' ) );
#181 =( LENGTH_UNIT ( ) NAMED_UNIT ( * ) SI_UNIT ( .MILLI., .METRE. ) );
#182 = ORIENTED_EDGE ( 'NONE', *, *, #226, .F. ) ;
#183 = AXIS2_PLACEMENT_3D ( 'NONE', #55, #95, #35 ) ;
#184 =( NAMED_UNIT ( * ) PLANE_ANGLE_UNIT ( ) SI_UNIT ( $, .RADIAN. ) );
#185 = SHAPE_DEFINITION_REPRESENTATION ( #229, #218 ) ;
#186 = EDGE_CURVE ( 'NONE', #155, #148, #172, .T. ) ;
#187 = CIRCLE ( 'NONE', #123, 5.000000000000000000 ) ;
#188 = ADVANCED_FACE ( 'NONE', ( #171 ), #174, .T. ) ;
#189 = SURFACE_STYLE_FILL_AREA ( #122 ) ;
#190 =( GEOMETRIC_REPRESENTATION_CONTEXT ( 3 ) GLOBAL_UNCERTAINTY_ASSIGNED_CONTEXT ( ( #210 ) ) GLOBAL_UNIT_ASSIGNED_CONTEXT ( ( #181, #5, #103 ) ) REPRESENTATION_CONTEXT ( 'NONE', 'WORKASPACE' ) );
#191 = CARTESIAN_POINT ( 'NONE',  ( -5.000000000000000000, 1000.000000000000000, -0.9999999999999859000 ) ) ;
#192 = ORIENTED_EDGE ( 'NONE', *, *, #178, .T. ) ;
#193 = SHAPE_REPRESENTATION_RELATIONSHIP ( 'NONE' , 'NONE' ,  #69, #32 ) ;
#194 = CARTESIAN_POINT ( 'NONE',  ( -5.000000000000000000, 1000.000000000000000, -4.000000000000000000 ) ) ;
#195 = CARTESIAN_POINT ( 'NONE',  ( 0.0000000000000000000, 0.0000000000000000000, 0.0000000000000000000 ) ) ;
#196 = VERTEX_POINT ( 'NONE', #37 ) ;
#197 = DIRECTION ( 'NONE',  ( 0.0000000000000000000, 0.0000000000000000000, 1.000000000000000000 ) ) ;
#198 = CARTESIAN_POINT ( 'NONE',  ( 0.0000000000000000000, 1000.000000000000000, -0.9999999999999859000 ) ) ;
#199 = VECTOR ( 'NONE', #7, 1000.000000000000000 ) ;
#200 = PRODUCT_CONTEXT ( 'NONE', #86, 'mechanical' ) ;
#201 = ORIENTED_EDGE ( 'NONE', *, *, #17, .F. ) ;
#202 = EDGE_CURVE ( 'NONE', #125, #155, #175, .T. ) ;
#203 =( NAMED_UNIT ( * ) SI_UNIT ( $, .STERADIAN. ) SOLID_ANGLE_UNIT ( ) );
#204 = ORIENTED_EDGE ( 'NONE', *, *, #212, .F. ) ;
#205 =( LENGTH_UNIT ( ) NAMED_UNIT ( * ) SI_UNIT ( .MILLI., .METRE. ) );
#206 = VECTOR ( 'NONE', #98, 1000.000000000000000 ) ;
#207 = CARTESIAN_POINT ( 'NONE',  ( 5.000000000000000000, 0.0000000000000000000, 0.0000000000000000000 ) ) ;
#208 = AXIS2_PLACEMENT_3D ( 'NONE', #194, #38, #89 ) ;
#209 = VERTEX_POINT ( 'NONE', #26 ) ;
#210 = UNCERTAINTY_MEASURE_WITH_UNIT (LENGTH_MEASURE( 1.000000000000000100E-005 ), #181, 'distance_accuracy_value', 'NONE');
#211 = ORIENTED_EDGE ( 'NONE', *, *, #202, .T. ) ;
#212 = EDGE_CURVE ( 'NONE', #125, #116, #143, .T. ) ;
#213 = PLANE ( 'NONE',  #67 ) ;
#214 = APPLICATION_PROTOCOL_DEFINITION ( 'draft international standard', 'automotive_design', 1998, #99 ) ;
#215 = PLANE ( 'NONE',  #28 ) ;
#216 = FACE_OUTER_BOUND ( 'NONE', #1, .T. ) ;
#217 = DIRECTION ( 'NONE',  ( -0.0000000000000000000, -1.000000000000000000, -0.0000000000000000000 ) ) ;
#218 = SHAPE_REPRESENTATION ( 'TM_341W_3', ( #227, #93 ), #104 ) ;
#219 = DIRECTION ( 'NONE',  ( -1.000000000000000000, 0.0000000000000000000, 0.0000000000000000000 ) ) ;
#220 = DIRECTION ( 'NONE',  ( -0.0000000000000000000, 1.000000000000000000, 0.0000000000000000000 ) ) ;
#221 = APPLICATION_PROTOCOL_DEFINITION ( 'draft international standard', 'automotive_design', 1998, #4 ) ;
#222 = LINE ( 'NONE', #16, #130 ) ;
#223 = CARTESIAN_POINT ( 'NONE',  ( 0.0000000000000000000, 0.0000000000000000000, 0.0000000000000000000 ) ) ;
#224 = SURFACE_STYLE_USAGE ( .BOTH. , #150 ) ;
#225 = CARTESIAN_POINT ( 'NONE',  ( 0.0000000000000000000, 200.0000000000000000, -0.9999999999999859000 ) ) ;
#226 = EDGE_CURVE ( 'NONE', #196, #125, #34, .T. ) ;
#227 = AXIS2_PLACEMENT_3D ( 'NONE', #223, #62, #21 ) ;
#228 = FACE_OUTER_BOUND ( 'NONE', #48, .T. ) ;
#229 = PRODUCT_DEFINITION_SHAPE ( 'NONE', 'NONE',  #29 ) ;
#230 = ITEM_DEFINED_TRANSFORMATION ( 'NONE', 'NONE', #93,  #91 ) ;
#231 = MECHANICAL_DESIGN_GEOMETRIC_PRESENTATION_REPRESENTATION (  '', ( #117 ), #180 ) ;
#232 = DIRECTION ( 'NONE',  ( 1.000000000000000000, 0.0000000000000000000, 0.0000000000000000000 ) ) ;
#233 = AXIS2_PLACEMENT_3D ( 'NONE', #44, #149, #120 ) ;
#234 = DIRECTION ( 'NONE',  ( -0.0000000000000000000, -0.0000000000000000000, 1.000000000000000000 ) ) ;
#235 = DIRECTION ( 'NONE',  ( -0.0000000000000000000, -0.0000000000000000000, -1.000000000000000000 ) ) ;
#236 = CARTESIAN_POINT ( 'NONE',  ( -5.000000000000000000, 0.0000000000000000000, -0.9999999999999850100 ) ) ;
#237 = UNCERTAINTY_MEASURE_WITH_UNIT (LENGTH_MEASURE( 1.000000000000000100E-005 ), #205, 'distance_accuracy_value', 'NONE');
#238 = SHAPE_DEFINITION_REPRESENTATION ( #118, #69 ) ;
#239 = CARTESIAN_POINT ( 'NONE',  ( 0.0000000000000000000, 200.0000000000000000, -4.000000000000000000 ) ) ;
#240 = PRODUCT_DEFINITION ( 'UNKNOWN', '', #68, #57 ) ;
#241 = NEXT_ASSEMBLY_USAGE_OCCURRENCE ( 'NAUO1', ' ', ' ', #29, #240, $ ) ;
ENDSEC;
END-ISO-10303-21;
