ISO-10303-21;
HEADER;
FILE_DESCRIPTION (( 'STEP AP214' ),
    '1' );
FILE_NAME ('TM_341W_7.STEP',
    '2016-05-10T04:20:03',
    ( '' ),
    ( '' ),
    'SwSTEP 2.0',
    'SolidWorks 2015',
    '' );
FILE_SCHEMA (( 'AUTOMOTIVE_DESIGN' ));
ENDSEC;

DATA;
#1 = CARTESIAN_POINT ( 'NONE',  ( 0.0000000000000000000, 0.0000000000000000000, -2.500000000000000000 ) ) ;
#2 = SURFACE_STYLE_USAGE ( .BOTH. , #188 ) ;
#3 =( LENGTH_UNIT ( ) NAMED_UNIT ( * ) SI_UNIT ( .MILLI., .METRE. ) );
#4 = LINE ( 'NONE', #38, #157 ) ;
#5 = ORIENTED_EDGE ( 'NONE', *, *, #108, .F. ) ;
#6 = PLANE ( 'NONE',  #240 ) ;
#7 = ADVANCED_BREP_SHAPE_REPRESENTATION ( '', ( #109, #62 ), #211 ) ;
#8 = CARTESIAN_POINT ( 'NONE',  ( 7.500000000000000000, 1000.000000000000000, -5.000000000000000000 ) ) ;
#9 = LINE ( 'NONE', #204, #107 ) ;
#10 = ADVANCED_FACE ( 'NONE', ( #60 ), #127, .T. ) ;
#11 = PRODUCT_CONTEXT ( 'NONE', #236, 'mechanical' ) ;
#12 = LINE ( 'NONE', #139, #110 ) ;
#13 = PRODUCT_DEFINITION ( 'UNKNOWN', '', #31, #205 ) ;
#14 = DIRECTION ( 'NONE',  ( 1.000000000000000000, 0.0000000000000000000, 0.0000000000000000000 ) ) ;
#15 = PLANE ( 'NONE',  #98 ) ;
#16 = DIRECTION ( 'NONE',  ( 0.0000000000000000000, 0.0000000000000000000, 1.000000000000000000 ) ) ;
#17 = CIRCLE ( 'NONE', #230, 7.500000000000000000 ) ;
#18 = VERTEX_POINT ( 'NONE', #23 ) ;
#19 = ITEM_DEFINED_TRANSFORMATION ( 'NONE', 'NONE', #94,  #62 ) ;
#20 =( LENGTH_UNIT ( ) NAMED_UNIT ( * ) SI_UNIT ( .MILLI., .METRE. ) );
#21 = SURFACE_STYLE_FILL_AREA ( #185 ) ;
#22 = EDGE_CURVE ( 'NONE', #89, #155, #167, .T. ) ;
#23 = CARTESIAN_POINT ( 'NONE',  ( -7.500000000000000000, 0.0000000000000000000, -5.000000000000000000 ) ) ;
#24 = DIRECTION ( 'NONE',  ( 0.0000000000000000000, 0.0000000000000000000, -1.000000000000000000 ) ) ;
#25 = PRODUCT ( 'rubber foam', 'rubber foam', '', ( #11 ) ) ;
#26 = CARTESIAN_POINT ( 'NONE',  ( -7.500000000000000000, 1000.000000000000000, -2.500000000000000000 ) ) ;
#27 = ORIENTED_EDGE ( 'NONE', *, *, #232, .F. ) ;
#28 = PLANE ( 'NONE',  #131 ) ;
#29 = FACE_OUTER_BOUND ( 'NONE', #180, .T. ) ;
#30 = PRESENTATION_LAYER_ASSIGNMENT (  '', '', ( #161 ) ) ;
#31 = PRODUCT_DEFINITION_FORMATION_WITH_SPECIFIED_SOURCE ( 'ANY', '', #54, .NOT_KNOWN. ) ;
#32 = SHAPE_REPRESENTATION ( 'TM_341W_7', ( #216, #94 ), #202 ) ;
#33 = ORIENTED_EDGE ( 'NONE', *, *, #196, .F. ) ;
#34 = CARTESIAN_POINT ( 'NONE',  ( 7.500000000000000000, 0.0000000000000000000, -5.000000000000000000 ) ) ;
#35 = ADVANCED_FACE ( 'NONE', ( #72 ), #15, .F. ) ;
#36 = ORIENTED_EDGE ( 'NONE', *, *, #153, .T. ) ;
#37 = APPLICATION_PROTOCOL_DEFINITION ( 'draft international standard', 'automotive_design', 1998, #137 ) ;
#38 = CARTESIAN_POINT ( 'NONE',  ( -7.500000000000000000, 200.0000000000000000, 0.0000000000000000000 ) ) ;
#39 = CARTESIAN_POINT ( 'NONE',  ( 0.0000000000000000000, 0.0000000000000000000, 0.0000000000000000000 ) ) ;
#40 = LINE ( 'NONE', #170, #78 ) ;
#41 = VERTEX_POINT ( 'NONE', #168 ) ;
#42 = AXIS2_PLACEMENT_3D ( 'NONE', #8, #66, #148 ) ;
#43 = DIRECTION ( 'NONE',  ( 0.0000000000000000000, 0.0000000000000000000, 1.000000000000000000 ) ) ;
#44 = EDGE_CURVE ( 'NONE', #41, #89, #121, .T. ) ;
#45 = CARTESIAN_POINT ( 'NONE',  ( 7.500000000000000000, 200.0000000000000000, -2.500000000000000000 ) ) ;
#46 = PRODUCT_RELATED_PRODUCT_CATEGORY ( 'part', '', ( #54 ) ) ;
#47 = DIRECTION ( 'NONE',  ( -0.0000000000000000000, -1.000000000000000000, -0.0000000000000000000 ) ) ;
#48 = DIRECTION ( 'NONE',  ( -0.0000000000000000000, -0.0000000000000000000, 1.000000000000000000 ) ) ;
#49 = MECHANICAL_DESIGN_GEOMETRIC_PRESENTATION_REPRESENTATION (  '', ( #237 ), #90 ) ;
#50 = CIRCLE ( 'NONE', #194, 7.500000000000000000 ) ;
#51 = ORIENTED_EDGE ( 'NONE', *, *, #135, .F. ) ;
#52 = UNCERTAINTY_MEASURE_WITH_UNIT (LENGTH_MEASURE( 1.000000000000000100E-005 ), #187, 'distance_accuracy_value', 'NONE');
#53 = VERTEX_POINT ( 'NONE', #183 ) ;
#54 = PRODUCT ( 'TM_341W_7', 'TM_341W_7', '', ( #215 ) ) ;
#55 = PRODUCT_DEFINITION_FORMATION_WITH_SPECIFIED_SOURCE ( 'ANY', '', #25, .NOT_KNOWN. ) ;
#56 = DIRECTION ( 'NONE',  ( 0.0000000000000000000, 0.0000000000000000000, 1.000000000000000000 ) ) ;
#57 =( NAMED_UNIT ( * ) SI_UNIT ( $, .STERADIAN. ) SOLID_ANGLE_UNIT ( ) );
#58 = FILL_AREA_STYLE_COLOUR ( '', #115 ) ;
#59 = SURFACE_SIDE_STYLE ('',( #86 ) ) ;
#60 = FACE_OUTER_BOUND ( 'NONE', #87, .T. ) ;
#61 = CONTEXT_DEPENDENT_SHAPE_REPRESENTATION ( #159, #99 ) ;
#62 = AXIS2_PLACEMENT_3D ( 'NONE', #201, #43, #165 ) ;
#63 = DIRECTION ( 'NONE',  ( -0.0000000000000000000, -0.0000000000000000000, -1.000000000000000000 ) ) ;
#64 = CARTESIAN_POINT ( 'NONE',  ( -7.500000000000000000, 1000.000000000000000, -5.000000000000000000 ) ) ;
#65 = ORIENTED_EDGE ( 'NONE', *, *, #156, .T. ) ;
#66 = DIRECTION ( 'NONE',  ( 1.000000000000000000, 0.0000000000000000000, 0.0000000000000000000 ) ) ;
#67 = CYLINDRICAL_SURFACE ( 'NONE', #181, 7.500000000000000000 ) ;
#68 = ADVANCED_FACE ( 'NONE', ( #158 ), #67, .T. ) ;
#69 = PRODUCT_RELATED_PRODUCT_CATEGORY ( 'part', '', ( #25 ) ) ;
#70 = ORIENTED_EDGE ( 'NONE', *, *, #120, .F. ) ;
#71 = PRESENTATION_LAYER_ASSIGNMENT (  '', '', ( #237 ) ) ;
#72 = FACE_OUTER_BOUND ( 'NONE', #85, .T. ) ;
#73 =( NAMED_UNIT ( * ) PLANE_ANGLE_UNIT ( ) SI_UNIT ( $, .RADIAN. ) );
#74 = DIRECTION ( 'NONE',  ( 1.000000000000000000, 0.0000000000000000000, 0.0000000000000000000 ) ) ;
#75 = PRODUCT_DEFINITION_SHAPE ( 'NONE', 'NONE',  #13 ) ;
#76 = ORIENTED_EDGE ( 'NONE', *, *, #44, .T. ) ;
#77 = UNCERTAINTY_MEASURE_WITH_UNIT (LENGTH_MEASURE( 1.000000000000000100E-005 ), #123, 'distance_accuracy_value', 'NONE');
#78 = VECTOR ( 'NONE', #117, 1000.000000000000000 ) ;
#79 = ORIENTED_EDGE ( 'NONE', *, *, #44, .F. ) ;
#80 = SURFACE_STYLE_USAGE ( .BOTH. , #59 ) ;
#81 = CARTESIAN_POINT ( 'NONE',  ( 0.0000000000000000000, 0.0000000000000000000, 0.0000000000000000000 ) ) ;
#82 = FACE_OUTER_BOUND ( 'NONE', #164, .T. ) ;
#83 = VERTEX_POINT ( 'NONE', #105 ) ;
#84 = DIRECTION ( 'NONE',  ( 1.000000000000000000, 0.0000000000000000000, 0.0000000000000000000 ) ) ;
#85 = EDGE_LOOP ( 'NONE', ( #65, #126, #186, #193 ) ) ;
#86 = SURFACE_STYLE_FILL_AREA ( #160 ) ;
#87 = EDGE_LOOP ( 'NONE', ( #70, #228, #36, #208 ) ) ;
#88 = FILL_AREA_STYLE_COLOUR ( '', #154 ) ;
#89 = VERTEX_POINT ( 'NONE', #173 ) ;
#90 =( GEOMETRIC_REPRESENTATION_CONTEXT ( 3 ) GLOBAL_UNCERTAINTY_ASSIGNED_CONTEXT ( ( #52 ) ) GLOBAL_UNIT_ASSIGNED_CONTEXT ( ( #187, #166, #219 ) ) REPRESENTATION_CONTEXT ( 'NONE', 'WORKASPACE' ) );
#91 = DIRECTION ( 'NONE',  ( 0.0000000000000000000, 0.0000000000000000000, 1.000000000000000000 ) ) ;
#92 =( NAMED_UNIT ( * ) PLANE_ANGLE_UNIT ( ) SI_UNIT ( $, .RADIAN. ) );
#93 = AXIS2_PLACEMENT_3D ( 'NONE', #220, #56, #162 ) ;
#94 = AXIS2_PLACEMENT_3D ( 'NONE', #39, #138, #14 ) ;
#95 = DIRECTION ( 'NONE',  ( 0.0000000000000000000, -1.000000000000000000, 0.0000000000000000000 ) ) ;
#96 = FACE_OUTER_BOUND ( 'NONE', #221, .T. ) ;
#97 = LINE ( 'NONE', #203, #125 ) ;
#98 = AXIS2_PLACEMENT_3D ( 'NONE', #81, #111, #84 ) ;
#99 = PRODUCT_DEFINITION_SHAPE ( 'NONE', 'NONE',  #241 ) ;
#100 = UNCERTAINTY_MEASURE_WITH_UNIT (LENGTH_MEASURE( 1.000000000000000100E-005 ), #3, 'distance_accuracy_value', 'NONE');
#101 = ADVANCED_FACE ( 'NONE', ( #29 ), #6, .T. ) ;
#102 = APPLICATION_CONTEXT ( 'automotive_design' ) ;
#103 = PRESENTATION_STYLE_ASSIGNMENT (( #2 ) ) ;
#104 =( NAMED_UNIT ( * ) SI_UNIT ( $, .STERADIAN. ) SOLID_ANGLE_UNIT ( ) );
#105 = CARTESIAN_POINT ( 'NONE',  ( 7.500000000000000000, 0.0000000000000000000, -2.500000000000000000 ) ) ;
#106 = SHAPE_REPRESENTATION ( 'rubber foam', ( #62 ), #211 ) ;
#107 = VECTOR ( 'NONE', #63, 1000.000000000000000 ) ;
#108 = EDGE_CURVE ( 'NONE', #155, #83, #12, .T. ) ;
#109 = MANIFOLD_SOLID_BREP ( '²ÝÎß°Ä1', #129 ) ;
#110 = VECTOR ( 'NONE', #199, 1000.000000000000000 ) ;
#111 = DIRECTION ( 'NONE',  ( -0.0000000000000000000, 1.000000000000000000, 0.0000000000000000000 ) ) ;
#112 = ORIENTED_EDGE ( 'NONE', *, *, #22, .T. ) ;
#113 = CARTESIAN_POINT ( 'NONE',  ( -7.500000000000000000, 1000.000000000000000, -2.500000000000000000 ) ) ;
#114 = CARTESIAN_POINT ( 'NONE',  ( 0.0000000000000000000, 200.0000000000000000, 0.0000000000000000000 ) ) ;
#115 = COLOUR_RGB ( '',0.7921568627450980000, 0.8196078431372548800, 0.9333333333333333500 ) ;
#116 = VECTOR ( 'NONE', #182, 1000.000000000000000 ) ;
#117 = DIRECTION ( 'NONE',  ( 1.000000000000000000, -0.0000000000000000000, -0.0000000000000000000 ) ) ;
#118 = VERTEX_POINT ( 'NONE', #206 ) ;
#119 = ADVANCED_FACE ( 'NONE', ( #96 ), #200, .T. ) ;
#120 = EDGE_CURVE ( 'NONE', #118, #18, #9, .T. ) ;
#121 = LINE ( 'NONE', #151, #210 ) ;
#122 = APPLICATION_PROTOCOL_DEFINITION ( 'draft international standard', 'automotive_design', 1998, #236 ) ;
#123 =( LENGTH_UNIT ( ) NAMED_UNIT ( * ) SI_UNIT ( .MILLI., .METRE. ) );
#124 = DIRECTION ( 'NONE',  ( -1.000000000000000000, 0.0000000000000000000, 0.0000000000000000000 ) ) ;
#125 = VECTOR ( 'NONE', #189, 1000.000000000000000 ) ;
#126 = ORIENTED_EDGE ( 'NONE', *, *, #179, .T. ) ;
#127 = PLANE ( 'NONE',  #175 ) ;
#128 = SHAPE_DEFINITION_REPRESENTATION ( #176, #106 ) ;
#129 = CLOSED_SHELL ( 'NONE', ( #101, #119, #68, #10, #136, #35 ) ) ;
#130 =( NAMED_UNIT ( * ) SI_UNIT ( $, .STERADIAN. ) SOLID_ANGLE_UNIT ( ) );
#131 = AXIS2_PLACEMENT_3D ( 'NONE', #114, #225, #190 ) ;
#132 = DIRECTION ( 'NONE',  ( 0.0000000000000000000, 0.0000000000000000000, 1.000000000000000000 ) ) ;
#133 = VECTOR ( 'NONE', #163, 1000.000000000000000 ) ;
#134 = VERTEX_POINT ( 'NONE', #34 ) ;
#135 = EDGE_CURVE ( 'NONE', #155, #53, #50, .T. ) ;
#136 = ADVANCED_FACE ( 'NONE', ( #82 ), #28, .T. ) ;
#137 = APPLICATION_CONTEXT ( 'automotive_design' ) ;
#138 = DIRECTION ( 'NONE',  ( 0.0000000000000000000, 0.0000000000000000000, 1.000000000000000000 ) ) ;
#139 = CARTESIAN_POINT ( 'NONE',  ( 7.500000000000000000, 1000.000000000000000, -2.500000000000000000 ) ) ;
#140 = APPLICATION_CONTEXT ( 'automotive_design' ) ;
#141 = CARTESIAN_POINT ( 'NONE',  ( -7.500000000000000000, 1000.000000000000000, -5.000000000000000000 ) ) ;
#142 = VECTOR ( 'NONE', #48, 1000.000000000000000 ) ;
#143 = ORIENTED_EDGE ( 'NONE', *, *, #156, .F. ) ;
#144 = CARTESIAN_POINT ( 'NONE',  ( 7.500000000000000000, 0.0000000000000000000, 0.0000000000000000000 ) ) ;
#145 = EDGE_CURVE ( 'NONE', #41, #18, #207, .T. ) ;
#146 = CARTESIAN_POINT ( 'NONE',  ( 0.0000000000000000000, 0.0000000000000000000, 0.0000000000000000000 ) ) ;
#147 = MECHANICAL_DESIGN_GEOMETRIC_PRESENTATION_REPRESENTATION (  '', ( #161 ), #222 ) ;
#148 = DIRECTION ( 'NONE',  ( 0.0000000000000000000, 0.0000000000000000000, -1.000000000000000000 ) ) ;
#149 = DIRECTION ( 'NONE',  ( 1.000000000000000000, -0.0000000000000000000, -0.0000000000000000000 ) ) ;
#150 = DIRECTION ( 'NONE',  ( -0.0000000000000000000, -0.0000000000000000000, -1.000000000000000000 ) ) ;
#151 = CARTESIAN_POINT ( 'NONE',  ( 0.0000000000000000000, 200.0000000000000000, -5.000000000000000000 ) ) ;
#152 = ORIENTED_EDGE ( 'NONE', *, *, #179, .F. ) ;
#153 = EDGE_CURVE ( 'NONE', #53, #41, #4, .T. ) ;
#154 = COLOUR_RGB ( '',0.7921568627450980000, 0.8196078431372548800, 0.9333333333333333500 ) ;
#155 = VERTEX_POINT ( 'NONE', #45 ) ;
#156 = EDGE_CURVE ( 'NONE', #18, #134, #40, .T. ) ;
#157 = VECTOR ( 'NONE', #150, 1000.000000000000000 ) ;
#158 = FACE_OUTER_BOUND ( 'NONE', #218, .T. ) ;
#159 =( REPRESENTATION_RELATIONSHIP ('NONE','NONE', #32, #106 ) REPRESENTATION_RELATIONSHIP_WITH_TRANSFORMATION ( #19 )SHAPE_REPRESENTATION_RELATIONSHIP( ) );
#160 = FILL_AREA_STYLE ('',( #58 ) ) ;
#161 = STYLED_ITEM ( 'NONE', ( #103 ), #109 ) ;
#162 = DIRECTION ( 'NONE',  ( 1.000000000000000000, 0.0000000000000000000, 0.0000000000000000000 ) ) ;
#163 = DIRECTION ( 'NONE',  ( 0.0000000000000000000, -1.000000000000000000, 0.0000000000000000000 ) ) ;
#164 = EDGE_LOOP ( 'NONE', ( #79, #178, #51, #174 ) ) ;
#165 = DIRECTION ( 'NONE',  ( 1.000000000000000000, 0.0000000000000000000, 0.0000000000000000000 ) ) ;
#166 =( NAMED_UNIT ( * ) PLANE_ANGLE_UNIT ( ) SI_UNIT ( $, .RADIAN. ) );
#167 = LINE ( 'NONE', #235, #116 ) ;
#168 = CARTESIAN_POINT ( 'NONE',  ( -7.500000000000000000, 200.0000000000000000, -5.000000000000000000 ) ) ;
#169 = DIRECTION ( 'NONE',  ( 0.0000000000000000000, -1.000000000000000000, 0.0000000000000000000 ) ) ;
#170 = CARTESIAN_POINT ( 'NONE',  ( 0.0000000000000000000, 0.0000000000000000000, -5.000000000000000000 ) ) ;
#171 = ORIENTED_EDGE ( 'NONE', *, *, #192, .T. ) ;
#172 = CARTESIAN_POINT ( 'NONE',  ( 0.0000000000000000000, 1000.000000000000000, -2.500000000000000000 ) ) ;
#173 = CARTESIAN_POINT ( 'NONE',  ( 7.500000000000000000, 200.0000000000000000, -5.000000000000000000 ) ) ;
#174 = ORIENTED_EDGE ( 'NONE', *, *, #22, .F. ) ;
#175 = AXIS2_PLACEMENT_3D ( 'NONE', #26, #224, #91 ) ;
#176 = PRODUCT_DEFINITION_SHAPE ( 'NONE', 'NONE',  #229 ) ;
#177 = SHAPE_REPRESENTATION_RELATIONSHIP ( 'NONE' , 'NONE' ,  #106, #7 ) ;
#178 = ORIENTED_EDGE ( 'NONE', *, *, #153, .F. ) ;
#179 = EDGE_CURVE ( 'NONE', #134, #83, #227, .T. ) ;
#180 = EDGE_LOOP ( 'NONE', ( #143, #213, #76, #214 ) ) ;
#181 = AXIS2_PLACEMENT_3D ( 'NONE', #172, #169, #217 ) ;
#182 = DIRECTION ( 'NONE',  ( -0.0000000000000000000, -0.0000000000000000000, 1.000000000000000000 ) ) ;
#183 = CARTESIAN_POINT ( 'NONE',  ( -7.500000000000000000, 200.0000000000000000, -2.500000000000000000 ) ) ;
#184 = APPLICATION_PROTOCOL_DEFINITION ( 'draft international standard', 'automotive_design', 1998, #140 ) ;
#185 = FILL_AREA_STYLE ('',( #88 ) ) ;
#186 = ORIENTED_EDGE ( 'NONE', *, *, #232, .T. ) ;
#187 =( LENGTH_UNIT ( ) NAMED_UNIT ( * ) SI_UNIT ( .MILLI., .METRE. ) );
#188 = SURFACE_SIDE_STYLE ('',( #21 ) ) ;
#189 = DIRECTION ( 'NONE',  ( 0.0000000000000000000, -1.000000000000000000, 0.0000000000000000000 ) ) ;
#190 = DIRECTION ( 'NONE',  ( 1.000000000000000000, 0.0000000000000000000, 0.0000000000000000000 ) ) ;
#191 = DIRECTION ( 'NONE',  ( -0.0000000000000000000, -1.000000000000000000, -0.0000000000000000000 ) ) ;
#192 = EDGE_CURVE ( 'NONE', #53, #118, #231, .T. ) ;
#193 = ORIENTED_EDGE ( 'NONE', *, *, #120, .T. ) ;
#194 = AXIS2_PLACEMENT_3D ( 'NONE', #209, #191, #132 ) ;
#195 = ORIENTED_EDGE ( 'NONE', *, *, #108, .T. ) ;
#196 = EDGE_CURVE ( 'NONE', #89, #134, #97, .T. ) ;
#197 = PRESENTATION_STYLE_ASSIGNMENT (( #80 ) ) ;
#198 = DIRECTION ( 'NONE',  ( 0.0000000000000000000, 0.0000000000000000000, 1.000000000000000000 ) ) ;
#199 = DIRECTION ( 'NONE',  ( 0.0000000000000000000, -1.000000000000000000, 0.0000000000000000000 ) ) ;
#200 = PLANE ( 'NONE',  #42 ) ;
#201 = CARTESIAN_POINT ( 'NONE',  ( 0.0000000000000000000, 0.0000000000000000000, 0.0000000000000000000 ) ) ;
#202 =( GEOMETRIC_REPRESENTATION_CONTEXT ( 3 ) GLOBAL_UNCERTAINTY_ASSIGNED_CONTEXT ( ( #77 ) ) GLOBAL_UNIT_ASSIGNED_CONTEXT ( ( #123, #234, #104 ) ) REPRESENTATION_CONTEXT ( 'NONE', 'WORKASPACE' ) );
#203 = CARTESIAN_POINT ( 'NONE',  ( 7.500000000000000000, 1000.000000000000000, -5.000000000000000000 ) ) ;
#204 = CARTESIAN_POINT ( 'NONE',  ( -7.500000000000000000, 0.0000000000000000000, 0.0000000000000000000 ) ) ;
#205 = PRODUCT_DEFINITION_CONTEXT ( 'detailed design', #102, 'design' ) ;
#206 = CARTESIAN_POINT ( 'NONE',  ( -7.500000000000000000, 0.0000000000000000000, -2.500000000000000000 ) ) ;
#207 = LINE ( 'NONE', #64, #133 ) ;
#208 = ORIENTED_EDGE ( 'NONE', *, *, #145, .T. ) ;
#209 = CARTESIAN_POINT ( 'NONE',  ( 0.0000000000000000000, 200.0000000000000000, -2.500000000000000000 ) ) ;
#210 = VECTOR ( 'NONE', #149, 1000.000000000000000 ) ;
#211 =( GEOMETRIC_REPRESENTATION_CONTEXT ( 3 ) GLOBAL_UNCERTAINTY_ASSIGNED_CONTEXT ( ( #100 ) ) GLOBAL_UNIT_ASSIGNED_CONTEXT ( ( #3, #73, #130 ) ) REPRESENTATION_CONTEXT ( 'NONE', 'WORKASPACE' ) );
#212 = VECTOR ( 'NONE', #95, 1000.000000000000000 ) ;
#213 = ORIENTED_EDGE ( 'NONE', *, *, #145, .F. ) ;
#214 = ORIENTED_EDGE ( 'NONE', *, *, #196, .T. ) ;
#215 = PRODUCT_CONTEXT ( 'NONE', #140, 'mechanical' ) ;
#216 = AXIS2_PLACEMENT_3D ( 'NONE', #146, #198, #74 ) ;
#217 = DIRECTION ( 'NONE',  ( 0.0000000000000000000, 0.0000000000000000000, -1.000000000000000000 ) ) ;
#218 = EDGE_LOOP ( 'NONE', ( #27, #5, #223, #171 ) ) ;
#219 =( NAMED_UNIT ( * ) SI_UNIT ( $, .STERADIAN. ) SOLID_ANGLE_UNIT ( ) );
#220 = CARTESIAN_POINT ( 'NONE',  ( 0.0000000000000000000, 0.0000000000000000000, 0.0000000000000000000 ) ) ;
#221 = EDGE_LOOP ( 'NONE', ( #152, #33, #112, #195 ) ) ;
#222 =( GEOMETRIC_REPRESENTATION_CONTEXT ( 3 ) GLOBAL_UNCERTAINTY_ASSIGNED_CONTEXT ( ( #239 ) ) GLOBAL_UNIT_ASSIGNED_CONTEXT ( ( #20, #92, #57 ) ) REPRESENTATION_CONTEXT ( 'NONE', 'WORKASPACE' ) );
#223 = ORIENTED_EDGE ( 'NONE', *, *, #135, .T. ) ;
#224 = DIRECTION ( 'NONE',  ( -1.000000000000000000, 0.0000000000000000000, 0.0000000000000000000 ) ) ;
#225 = DIRECTION ( 'NONE',  ( -0.0000000000000000000, 1.000000000000000000, 0.0000000000000000000 ) ) ;
#226 = SHAPE_DEFINITION_REPRESENTATION ( #75, #32 ) ;
#227 = LINE ( 'NONE', #144, #142 ) ;
#228 = ORIENTED_EDGE ( 'NONE', *, *, #192, .F. ) ;
#229 = PRODUCT_DEFINITION ( 'UNKNOWN', '', #55, #238 ) ;
#230 = AXIS2_PLACEMENT_3D ( 'NONE', #1, #47, #16 ) ;
#231 = LINE ( 'NONE', #113, #212 ) ;
#232 = EDGE_CURVE ( 'NONE', #83, #118, #17, .T. ) ;
#233 = APPLICATION_PROTOCOL_DEFINITION ( 'draft international standard', 'automotive_design', 1998, #102 ) ;
#234 =( NAMED_UNIT ( * ) PLANE_ANGLE_UNIT ( ) SI_UNIT ( $, .RADIAN. ) );
#235 = CARTESIAN_POINT ( 'NONE',  ( 7.500000000000000000, 200.0000000000000000, 0.0000000000000000000 ) ) ;
#236 = APPLICATION_CONTEXT ( 'automotive_design' ) ;
#237 = STYLED_ITEM ( 'NONE', ( #197 ), #7 ) ;
#238 = PRODUCT_DEFINITION_CONTEXT ( 'detailed design', #137, 'design' ) ;
#239 = UNCERTAINTY_MEASURE_WITH_UNIT (LENGTH_MEASURE( 1.000000000000000100E-005 ), #20, 'distance_accuracy_value', 'NONE');
#240 = AXIS2_PLACEMENT_3D ( 'NONE', #141, #24, #124 ) ;
#241 = NEXT_ASSEMBLY_USAGE_OCCURRENCE ( 'NAUO1', ' ', ' ', #13, #229, $ ) ;
ENDSEC;
END-ISO-10303-21;
