ISO-10303-21;
HEADER;
FILE_DESCRIPTION (( 'STEP AP214' ),
    '1' );
FILE_NAME ('TM_341_4.STEP',
    '2016-05-10T02:55:33',
    ( '' ),
    ( '' ),
    'SwSTEP 2.0',
    'SolidWorks 2015',
    '' );
FILE_SCHEMA (( 'AUTOMOTIVE_DESIGN' ));
ENDSEC;

DATA;
#1 = AXIS2_PLACEMENT_3D ( 'NONE', #176, #17, #18 ) ;
#2 = PLANE ( 'NONE',  #39 ) ;
#3 = ORIENTED_EDGE ( 'NONE', *, *, #58, .T. ) ;
#4 = FACE_OUTER_BOUND ( 'NONE', #43, .T. ) ;
#5 =( GEOMETRIC_REPRESENTATION_CONTEXT ( 3 ) GLOBAL_UNCERTAINTY_ASSIGNED_CONTEXT ( ( #87 ) ) GLOBAL_UNIT_ASSIGNED_CONTEXT ( ( #94, #38, #192 ) ) REPRESENTATION_CONTEXT ( 'NONE', 'WORKASPACE' ) );
#6 = SURFACE_STYLE_FILL_AREA ( #35 ) ;
#7 = APPLICATION_PROTOCOL_DEFINITION ( 'draft international standard', 'automotive_design', 1998, #99 ) ;
#8 = PRODUCT_DEFINITION ( 'UNKNOWN', '', #65, #32 ) ;
#9 = ORIENTED_EDGE ( 'NONE', *, *, #124, .T. ) ;
#10 = STYLED_ITEM ( 'NONE', ( #181 ), #236 ) ;
#11 = CARTESIAN_POINT ( 'NONE',  ( 0.0000000000000000000, 0.0000000000000000000, 0.0000000000000000000 ) ) ;
#12 = DIRECTION ( 'NONE',  ( 0.0000000000000000000, -1.000000000000000000, 0.0000000000000000000 ) ) ;
#13 = AXIS2_PLACEMENT_3D ( 'NONE', #66, #120, #42 ) ;
#14 = CARTESIAN_POINT ( 'NONE',  ( 5.000000000000000000, 0.0000000000000000000, 0.0000000000000000000 ) ) ;
#15 = ORIENTED_EDGE ( 'NONE', *, *, #116, .T. ) ;
#16 = DIRECTION ( 'NONE',  ( 1.000000000000000000, 0.0000000000000000000, 0.0000000000000000000 ) ) ;
#17 = DIRECTION ( 'NONE',  ( 1.000000000000000000, 0.0000000000000000000, 0.0000000000000000000 ) ) ;
#18 = DIRECTION ( 'NONE',  ( 0.0000000000000000000, 0.0000000000000000000, -1.000000000000000000 ) ) ;
#19 = ORIENTED_EDGE ( 'NONE', *, *, #208, .T. ) ;
#20 = CARTESIAN_POINT ( 'NONE',  ( 5.000000000000000000, 200.0000000000000000, 0.0000000000000000000 ) ) ;
#21 = EDGE_CURVE ( 'NONE', #221, #217, #174, .T. ) ;
#22 = PLANE ( 'NONE',  #33 ) ;
#23 = PRESENTATION_STYLE_ASSIGNMENT (( #205 ) ) ;
#24 = ORIENTED_EDGE ( 'NONE', *, *, #48, .T. ) ;
#25 = LINE ( 'NONE', #115, #150 ) ;
#26 = EDGE_LOOP ( 'NONE', ( #159, #47, #31, #202 ) ) ;
#27 = APPLICATION_PROTOCOL_DEFINITION ( 'draft international standard', 'automotive_design', 1998, #160 ) ;
#28 = CARTESIAN_POINT ( 'NONE',  ( 5.000000000000000000, 0.0000000000000000000, 0.0000000000000000000 ) ) ;
#29 = DIRECTION ( 'NONE',  ( 0.0000000000000000000, 0.0000000000000000000, -1.000000000000000000 ) ) ;
#30 = DIRECTION ( 'NONE',  ( -1.000000000000000000, 0.0000000000000000000, 0.0000000000000000000 ) ) ;
#31 = ORIENTED_EDGE ( 'NONE', *, *, #124, .F. ) ;
#32 = PRODUCT_DEFINITION_CONTEXT ( 'detailed design', #99, 'design' ) ;
#33 = AXIS2_PLACEMENT_3D ( 'NONE', #199, #155, #45 ) ;
#34 = PRODUCT_DEFINITION ( 'UNKNOWN', '', #41, #194 ) ;
#35 = FILL_AREA_STYLE ('',( #232 ) ) ;
#36 = SURFACE_STYLE_FILL_AREA ( #164 ) ;
#37 = MANIFOLD_SOLID_BREP ( '²ÝÎß°Ä1', #107 ) ;
#38 =( NAMED_UNIT ( * ) PLANE_ANGLE_UNIT ( ) SI_UNIT ( $, .RADIAN. ) );
#39 = AXIS2_PLACEMENT_3D ( 'NONE', #170, #75, #16 ) ;
#40 = ADVANCED_FACE ( 'NONE', ( #228 ), #141, .T. ) ;
#41 = PRODUCT_DEFINITION_FORMATION_WITH_SPECIFIED_SOURCE ( 'ANY', '', #225, .NOT_KNOWN. ) ;
#42 = DIRECTION ( 'NONE',  ( 0.0000000000000000000, 0.0000000000000000000, 1.000000000000000000 ) ) ;
#43 = EDGE_LOOP ( 'NONE', ( #178, #15, #19, #101 ) ) ;
#44 = VECTOR ( 'NONE', #219, 1000.000000000000000 ) ;
#45 = DIRECTION ( 'NONE',  ( 1.000000000000000000, 0.0000000000000000000, 0.0000000000000000000 ) ) ;
#46 = DIRECTION ( 'NONE',  ( 0.0000000000000000000, 0.0000000000000000000, 1.000000000000000000 ) ) ;
#47 = ORIENTED_EDGE ( 'NONE', *, *, #112, .F. ) ;
#48 = EDGE_CURVE ( 'NONE', #104, #109, #114, .T. ) ;
#49 = EDGE_LOOP ( 'NONE', ( #63, #89, #212, #24 ) ) ;
#50 = LINE ( 'NONE', #222, #213 ) ;
#51 = PRODUCT_RELATED_PRODUCT_CATEGORY ( 'part', '', ( #225 ) ) ;
#52 = SURFACE_SIDE_STYLE ('',( #36 ) ) ;
#53 = ADVANCED_FACE ( 'NONE', ( #90 ), #145, .T. ) ;
#54 = PRODUCT ( 'rubber foam', 'rubber foam', '', ( #61 ) ) ;
#55 =( NAMED_UNIT ( * ) PLANE_ANGLE_UNIT ( ) SI_UNIT ( $, .RADIAN. ) );
#56 = PRODUCT_DEFINITION_SHAPE ( 'NONE', 'NONE',  #241 ) ;
#57 = VERTEX_POINT ( 'NONE', #189 ) ;
#58 = EDGE_CURVE ( 'NONE', #57, #197, #184, .T. ) ;
#59 = APPLICATION_PROTOCOL_DEFINITION ( 'draft international standard', 'automotive_design', 1998, #92 ) ;
#60 =( NAMED_UNIT ( * ) PLANE_ANGLE_UNIT ( ) SI_UNIT ( $, .RADIAN. ) );
#61 = PRODUCT_CONTEXT ( 'NONE', #92, 'mechanical' ) ;
#62 = CARTESIAN_POINT ( 'NONE',  ( -5.000000000000000000, 200.0000000000000000, -5.000000000000000000 ) ) ;
#63 = ORIENTED_EDGE ( 'NONE', *, *, #161, .F. ) ;
#64 = CARTESIAN_POINT ( 'NONE',  ( -5.000000000000000000, 0.0000000000000000000, 0.0000000000000000000 ) ) ;
#65 = PRODUCT_DEFINITION_FORMATION_WITH_SPECIFIED_SOURCE ( 'ANY', '', #54, .NOT_KNOWN. ) ;
#66 = CARTESIAN_POINT ( 'NONE',  ( 0.0000000000000000000, 200.0000000000000000, 0.0000000000000000000 ) ) ;
#67 = APPLICATION_PROTOCOL_DEFINITION ( 'draft international standard', 'automotive_design', 1998, #229 ) ;
#68 = ORIENTED_EDGE ( 'NONE', *, *, #224, .F. ) ;
#69 = ORIENTED_EDGE ( 'NONE', *, *, #21, .F. ) ;
#70 =( NAMED_UNIT ( * ) PLANE_ANGLE_UNIT ( ) SI_UNIT ( $, .RADIAN. ) );
#71 = ORIENTED_EDGE ( 'NONE', *, *, #146, .T. ) ;
#72 = DIRECTION ( 'NONE',  ( 0.0000000000000000000, -1.000000000000000000, 0.0000000000000000000 ) ) ;
#73 = VECTOR ( 'NONE', #157, 1000.000000000000000 ) ;
#74 = ORIENTED_EDGE ( 'NONE', *, *, #98, .T. ) ;
#75 = DIRECTION ( 'NONE',  ( -0.0000000000000000000, 1.000000000000000000, 0.0000000000000000000 ) ) ;
#76 = PRODUCT_RELATED_PRODUCT_CATEGORY ( 'part', '', ( #54 ) ) ;
#77 = DIRECTION ( 'NONE',  ( 1.000000000000000000, 0.0000000000000000000, 0.0000000000000000000 ) ) ;
#78 = DIRECTION ( 'NONE',  ( -0.0000000000000000000, -0.0000000000000000000, 1.000000000000000000 ) ) ;
#79 = CARTESIAN_POINT ( 'NONE',  ( 0.0000000000000000000, 0.0000000000000000000, 0.0000000000000000000 ) ) ;
#80 = UNCERTAINTY_MEASURE_WITH_UNIT (LENGTH_MEASURE( 1.000000000000000100E-005 ), #186, 'distance_accuracy_value', 'NONE');
#81 = STYLED_ITEM ( 'NONE', ( #23 ), #37 ) ;
#82 = LINE ( 'NONE', #198, #97 ) ;
#83 = SHAPE_DEFINITION_REPRESENTATION ( #230, #139 ) ;
#84 = PRODUCT_DEFINITION_SHAPE ( 'NONE', 'NONE',  #8 ) ;
#85 =( NAMED_UNIT ( * ) SI_UNIT ( $, .STERADIAN. ) SOLID_ANGLE_UNIT ( ) );
#86 = AXIS2_PLACEMENT_3D ( 'NONE', #239, #30, #214 ) ;
#87 = UNCERTAINTY_MEASURE_WITH_UNIT (LENGTH_MEASURE( 1.000000000000000100E-005 ), #94, 'distance_accuracy_value', 'NONE');
#88 = DIRECTION ( 'NONE',  ( 0.0000000000000000000, -1.000000000000000000, 0.0000000000000000000 ) ) ;
#89 = ORIENTED_EDGE ( 'NONE', *, *, #58, .F. ) ;
#90 = FACE_OUTER_BOUND ( 'NONE', #137, .T. ) ;
#91 = AXIS2_PLACEMENT_3D ( 'NONE', #11, #216, #123 ) ;
#92 = APPLICATION_CONTEXT ( 'automotive_design' ) ;
#93 =( REPRESENTATION_RELATIONSHIP ('NONE','NONE', #139, #136 ) REPRESENTATION_RELATIONSHIP_WITH_TRANSFORMATION ( #235 )SHAPE_REPRESENTATION_RELATIONSHIP( ) );
#94 =( LENGTH_UNIT ( ) NAMED_UNIT ( * ) SI_UNIT ( .MILLI., .METRE. ) );
#95 = DIRECTION ( 'NONE',  ( 0.0000000000000000000, 0.0000000000000000000, -1.000000000000000000 ) ) ;
#96 = SURFACE_STYLE_USAGE ( .BOTH. , #177 ) ;
#97 = VECTOR ( 'NONE', #88, 1000.000000000000000 ) ;
#98 = EDGE_CURVE ( 'NONE', #104, #221, #165, .T. ) ;
#99 = APPLICATION_CONTEXT ( 'automotive_design' ) ;
#100 = DIRECTION ( 'NONE',  ( 0.0000000000000000000, 0.0000000000000000000, 1.000000000000000000 ) ) ;
#101 = ORIENTED_EDGE ( 'NONE', *, *, #161, .T. ) ;
#102 = LINE ( 'NONE', #156, #138 ) ;
#103 = CARTESIAN_POINT ( 'NONE',  ( -5.000000000000000000, 0.0000000000000000000, -5.000000000000000000 ) ) ;
#104 = VERTEX_POINT ( 'NONE', #62 ) ;
#105 = DIRECTION ( 'NONE',  ( -0.0000000000000000000, -1.000000000000000000, -0.0000000000000000000 ) ) ;
#106 = AXIS2_PLACEMENT_3D ( 'NONE', #167, #29, #154 ) ;
#107 = CLOSED_SHELL ( 'NONE', ( #40, #126, #53, #182, #204, #111 ) ) ;
#108 = PLANE ( 'NONE',  #86 ) ;
#109 = VERTEX_POINT ( 'NONE', #103 ) ;
#110 = FACE_OUTER_BOUND ( 'NONE', #26, .T. ) ;
#111 = ADVANCED_FACE ( 'NONE', ( #4 ), #2, .F. ) ;
#112 = EDGE_CURVE ( 'NONE', #57, #104, #50, .T. ) ;
#113 = VERTEX_POINT ( 'NONE', #28 ) ;
#114 = LINE ( 'NONE', #188, #143 ) ;
#115 = CARTESIAN_POINT ( 'NONE',  ( 5.000000000000000000, 200.0000000000000000, 0.0000000000000000000 ) ) ;
#116 = EDGE_CURVE ( 'NONE', #217, #113, #132, .T. ) ;
#117 =( LENGTH_UNIT ( ) NAMED_UNIT ( * ) SI_UNIT ( .MILLI., .METRE. ) );
#118 = CARTESIAN_POINT ( 'NONE',  ( 0.0000000000000000000, 1000.000000000000000, 0.0000000000000000000 ) ) ;
#119 = VECTOR ( 'NONE', #12, 1000.000000000000000 ) ;
#120 = DIRECTION ( 'NONE',  ( -0.0000000000000000000, -1.000000000000000000, -0.0000000000000000000 ) ) ;
#121 = MECHANICAL_DESIGN_GEOMETRIC_PRESENTATION_REPRESENTATION (  '', ( #81 ), #5 ) ;
#122 = COLOUR_RGB ( '',0.7921568627450980000, 0.8196078431372548800, 0.9333333333333333500 ) ;
#123 = DIRECTION ( 'NONE',  ( 1.000000000000000000, 0.0000000000000000000, 0.0000000000000000000 ) ) ;
#124 = EDGE_CURVE ( 'NONE', #142, #57, #144, .T. ) ;
#125 = EDGE_LOOP ( 'NONE', ( #68, #168, #74, #206 ) ) ;
#126 = ADVANCED_FACE ( 'NONE', ( #220 ), #169, .T. ) ;
#127 = COLOUR_RGB ( '',0.7921568627450980000, 0.8196078431372548800, 0.9333333333333333500 ) ;
#128 = DIRECTION ( 'NONE',  ( 0.0000000000000000000, 0.0000000000000000000, 1.000000000000000000 ) ) ;
#129 = PRESENTATION_LAYER_ASSIGNMENT (  '', '', ( #10 ) ) ;
#130 = CARTESIAN_POINT ( 'NONE',  ( 0.0000000000000000000, 0.0000000000000000000, 0.0000000000000000000 ) ) ;
#131 = EDGE_LOOP ( 'NONE', ( #187, #69, #162, #71 ) ) ;
#132 = LINE ( 'NONE', #14, #73 ) ;
#133 = VECTOR ( 'NONE', #196, 1000.000000000000000 ) ;
#134 = UNCERTAINTY_MEASURE_WITH_UNIT (LENGTH_MEASURE( 1.000000000000000100E-005 ), #117, 'distance_accuracy_value', 'NONE');
#135 = DIRECTION ( 'NONE',  ( -0.0000000000000000000, -0.0000000000000000000, -1.000000000000000000 ) ) ;
#136 = SHAPE_REPRESENTATION ( 'rubber foam', ( #91 ), #238 ) ;
#137 = EDGE_LOOP ( 'NONE', ( #179, #149, #9, #3 ) ) ;
#138 = VECTOR ( 'NONE', #147, 1000.000000000000000 ) ;
#139 = SHAPE_REPRESENTATION ( 'TM_341_4', ( #237, #207 ), #223 ) ;
#140 = MECHANICAL_DESIGN_GEOMETRIC_PRESENTATION_REPRESENTATION (  '', ( #10 ), #158 ) ;
#141 = PLANE ( 'NONE',  #106 ) ;
#142 = VERTEX_POINT ( 'NONE', #20 ) ;
#143 = VECTOR ( 'NONE', #201, 1000.000000000000000 ) ;
#144 = CIRCLE ( 'NONE', #13, 5.000000000000000000 ) ;
#145 = CYLINDRICAL_SURFACE ( 'NONE', #234, 5.000000000000000000 ) ;
#146 = EDGE_CURVE ( 'NONE', #142, #113, #82, .T. ) ;
#147 = DIRECTION ( 'NONE',  ( 1.000000000000000000, -0.0000000000000000000, -0.0000000000000000000 ) ) ;
#148 = AXIS2_PLACEMENT_3D ( 'NONE', #233, #105, #100 ) ;
#149 = ORIENTED_EDGE ( 'NONE', *, *, #146, .F. ) ;
#150 = VECTOR ( 'NONE', #78, 1000.000000000000000 ) ;
#151 = CONTEXT_DEPENDENT_SHAPE_REPRESENTATION ( #93, #56 ) ;
#152 = DIRECTION ( 'NONE',  ( -0.0000000000000000000, -0.0000000000000000000, -1.000000000000000000 ) ) ;
#153 = CARTESIAN_POINT ( 'NONE',  ( 0.0000000000000000000, 200.0000000000000000, -5.000000000000000000 ) ) ;
#154 = DIRECTION ( 'NONE',  ( -1.000000000000000000, 0.0000000000000000000, 0.0000000000000000000 ) ) ;
#155 = DIRECTION ( 'NONE',  ( -0.0000000000000000000, 1.000000000000000000, 0.0000000000000000000 ) ) ;
#156 = CARTESIAN_POINT ( 'NONE',  ( 0.0000000000000000000, 0.0000000000000000000, -5.000000000000000000 ) ) ;
#157 = DIRECTION ( 'NONE',  ( -0.0000000000000000000, -0.0000000000000000000, 1.000000000000000000 ) ) ;
#158 =( GEOMETRIC_REPRESENTATION_CONTEXT ( 3 ) GLOBAL_UNCERTAINTY_ASSIGNED_CONTEXT ( ( #134 ) ) GLOBAL_UNIT_ASSIGNED_CONTEXT ( ( #117, #60, #85 ) ) REPRESENTATION_CONTEXT ( 'NONE', 'WORKASPACE' ) );
#159 = ORIENTED_EDGE ( 'NONE', *, *, #98, .F. ) ;
#160 = APPLICATION_CONTEXT ( 'automotive_design' ) ;
#161 = EDGE_CURVE ( 'NONE', #197, #109, #200, .T. ) ;
#162 = ORIENTED_EDGE ( 'NONE', *, *, #231, .T. ) ;
#163 = DIRECTION ( 'NONE',  ( 1.000000000000000000, 0.0000000000000000000, 0.0000000000000000000 ) ) ;
#164 = FILL_AREA_STYLE ('',( #215 ) ) ;
#165 = LINE ( 'NONE', #153, #44 ) ;
#166 = SHAPE_DEFINITION_REPRESENTATION ( #84, #136 ) ;
#167 = CARTESIAN_POINT ( 'NONE',  ( -5.000000000000000000, 1000.000000000000000, -5.000000000000000000 ) ) ;
#168 = ORIENTED_EDGE ( 'NONE', *, *, #48, .F. ) ;
#169 = PLANE ( 'NONE',  #1 ) ;
#170 = CARTESIAN_POINT ( 'NONE',  ( 0.0000000000000000000, 0.0000000000000000000, 0.0000000000000000000 ) ) ;
#171 = PRODUCT_CONTEXT ( 'NONE', #160, 'mechanical' ) ;
#172 = CARTESIAN_POINT ( 'NONE',  ( 0.0000000000000000000, 0.0000000000000000000, 0.0000000000000000000 ) ) ;
#173 =( NAMED_UNIT ( * ) SI_UNIT ( $, .STERADIAN. ) SOLID_ANGLE_UNIT ( ) );
#174 = LINE ( 'NONE', #209, #119 ) ;
#175 = CARTESIAN_POINT ( 'NONE',  ( -5.000000000000000000, 1000.000000000000000, 6.123031769111890200E-016 ) ) ;
#176 = CARTESIAN_POINT ( 'NONE',  ( 5.000000000000000000, 1000.000000000000000, -5.000000000000000000 ) ) ;
#177 = SURFACE_SIDE_STYLE ('',( #6 ) ) ;
#178 = ORIENTED_EDGE ( 'NONE', *, *, #224, .T. ) ;
#179 = ORIENTED_EDGE ( 'NONE', *, *, #208, .F. ) ;
#180 = CARTESIAN_POINT ( 'NONE',  ( 5.000000000000000000, 200.0000000000000000, -5.000000000000000000 ) ) ;
#181 = PRESENTATION_STYLE_ASSIGNMENT (( #96 ) ) ;
#182 = ADVANCED_FACE ( 'NONE', ( #203 ), #108, .T. ) ;
#183 = CIRCLE ( 'NONE', #148, 5.000000000000000000 ) ;
#184 = LINE ( 'NONE', #175, #133 ) ;
#185 = PRESENTATION_LAYER_ASSIGNMENT (  '', '', ( #81 ) ) ;
#186 =( LENGTH_UNIT ( ) NAMED_UNIT ( * ) SI_UNIT ( .MILLI., .METRE. ) );
#187 = ORIENTED_EDGE ( 'NONE', *, *, #116, .F. ) ;
#188 = CARTESIAN_POINT ( 'NONE',  ( -5.000000000000000000, 1000.000000000000000, -5.000000000000000000 ) ) ;
#189 = CARTESIAN_POINT ( 'NONE',  ( -5.000000000000000000, 200.0000000000000000, 6.123031769111890200E-016 ) ) ;
#190 = DIRECTION ( 'NONE',  ( 1.000000000000000000, 0.0000000000000000000, 0.0000000000000000000 ) ) ;
#191 = VECTOR ( 'NONE', #135, 1000.000000000000000 ) ;
#192 =( NAMED_UNIT ( * ) SI_UNIT ( $, .STERADIAN. ) SOLID_ANGLE_UNIT ( ) );
#193 = CARTESIAN_POINT ( 'NONE',  ( -5.000000000000000000, 0.0000000000000000000, 6.123031769111890200E-016 ) ) ;
#194 = PRODUCT_DEFINITION_CONTEXT ( 'detailed design', #229, 'design' ) ;
#195 = AXIS2_PLACEMENT_3D ( 'NONE', #130, #46, #163 ) ;
#196 = DIRECTION ( 'NONE',  ( 0.0000000000000000000, -1.000000000000000000, 0.0000000000000000000 ) ) ;
#197 = VERTEX_POINT ( 'NONE', #193 ) ;
#198 = CARTESIAN_POINT ( 'NONE',  ( 5.000000000000000000, 1000.000000000000000, 0.0000000000000000000 ) ) ;
#199 = CARTESIAN_POINT ( 'NONE',  ( 0.0000000000000000000, 200.0000000000000000, 0.0000000000000000000 ) ) ;
#200 = LINE ( 'NONE', #64, #191 ) ;
#201 = DIRECTION ( 'NONE',  ( 0.0000000000000000000, -1.000000000000000000, 0.0000000000000000000 ) ) ;
#202 = ORIENTED_EDGE ( 'NONE', *, *, #231, .F. ) ;
#203 = FACE_OUTER_BOUND ( 'NONE', #49, .T. ) ;
#204 = ADVANCED_FACE ( 'NONE', ( #110 ), #22, .T. ) ;
#205 = SURFACE_STYLE_USAGE ( .BOTH. , #52 ) ;
#206 = ORIENTED_EDGE ( 'NONE', *, *, #21, .T. ) ;
#207 = AXIS2_PLACEMENT_3D ( 'NONE', #172, #210, #77 ) ;
#208 = EDGE_CURVE ( 'NONE', #113, #197, #183, .T. ) ;
#209 = CARTESIAN_POINT ( 'NONE',  ( 5.000000000000000000, 1000.000000000000000, -5.000000000000000000 ) ) ;
#210 = DIRECTION ( 'NONE',  ( 0.0000000000000000000, 0.0000000000000000000, 1.000000000000000000 ) ) ;
#211 = CARTESIAN_POINT ( 'NONE',  ( 5.000000000000000000, 0.0000000000000000000, -5.000000000000000000 ) ) ;
#212 = ORIENTED_EDGE ( 'NONE', *, *, #112, .T. ) ;
#213 = VECTOR ( 'NONE', #152, 1000.000000000000000 ) ;
#214 = DIRECTION ( 'NONE',  ( 0.0000000000000000000, 0.0000000000000000000, 1.000000000000000000 ) ) ;
#215 = FILL_AREA_STYLE_COLOUR ( '', #122 ) ;
#216 = DIRECTION ( 'NONE',  ( 0.0000000000000000000, 0.0000000000000000000, 1.000000000000000000 ) ) ;
#217 = VERTEX_POINT ( 'NONE', #211 ) ;
#218 =( LENGTH_UNIT ( ) NAMED_UNIT ( * ) SI_UNIT ( .MILLI., .METRE. ) );
#219 = DIRECTION ( 'NONE',  ( 1.000000000000000000, -0.0000000000000000000, -0.0000000000000000000 ) ) ;
#220 = FACE_OUTER_BOUND ( 'NONE', #131, .T. ) ;
#221 = VERTEX_POINT ( 'NONE', #180 ) ;
#222 = CARTESIAN_POINT ( 'NONE',  ( -5.000000000000000000, 200.0000000000000000, 0.0000000000000000000 ) ) ;
#223 =( GEOMETRIC_REPRESENTATION_CONTEXT ( 3 ) GLOBAL_UNCERTAINTY_ASSIGNED_CONTEXT ( ( #80 ) ) GLOBAL_UNIT_ASSIGNED_CONTEXT ( ( #186, #70, #240 ) ) REPRESENTATION_CONTEXT ( 'NONE', 'WORKASPACE' ) );
#224 = EDGE_CURVE ( 'NONE', #109, #217, #102, .T. ) ;
#225 = PRODUCT ( 'TM_341_4', 'TM_341_4', '', ( #171 ) ) ;
#226 = UNCERTAINTY_MEASURE_WITH_UNIT (LENGTH_MEASURE( 1.000000000000000100E-005 ), #218, 'distance_accuracy_value', 'NONE');
#227 = SHAPE_REPRESENTATION_RELATIONSHIP ( 'NONE' , 'NONE' ,  #136, #236 ) ;
#228 = FACE_OUTER_BOUND ( 'NONE', #125, .T. ) ;
#229 = APPLICATION_CONTEXT ( 'automotive_design' ) ;
#230 = PRODUCT_DEFINITION_SHAPE ( 'NONE', 'NONE',  #34 ) ;
#231 = EDGE_CURVE ( 'NONE', #221, #142, #25, .T. ) ;
#232 = FILL_AREA_STYLE_COLOUR ( '', #127 ) ;
#233 = CARTESIAN_POINT ( 'NONE',  ( 0.0000000000000000000, 0.0000000000000000000, 0.0000000000000000000 ) ) ;
#234 = AXIS2_PLACEMENT_3D ( 'NONE', #118, #72, #95 ) ;
#235 = ITEM_DEFINED_TRANSFORMATION ( 'NONE', 'NONE', #207,  #91 ) ;
#236 = ADVANCED_BREP_SHAPE_REPRESENTATION ( '', ( #37, #91 ), #238 ) ;
#237 = AXIS2_PLACEMENT_3D ( 'NONE', #79, #128, #190 ) ;
#238 =( GEOMETRIC_REPRESENTATION_CONTEXT ( 3 ) GLOBAL_UNCERTAINTY_ASSIGNED_CONTEXT ( ( #226 ) ) GLOBAL_UNIT_ASSIGNED_CONTEXT ( ( #218, #55, #173 ) ) REPRESENTATION_CONTEXT ( 'NONE', 'WORKASPACE' ) );
#239 = CARTESIAN_POINT ( 'NONE',  ( -5.000000000000000000, 1000.000000000000000, 0.0000000000000000000 ) ) ;
#240 =( NAMED_UNIT ( * ) SI_UNIT ( $, .STERADIAN. ) SOLID_ANGLE_UNIT ( ) );
#241 = NEXT_ASSEMBLY_USAGE_OCCURRENCE ( 'NAUO1', ' ', ' ', #34, #8, $ ) ;
ENDSEC;
END-ISO-10303-21;
