ISO-10303-21;
HEADER;
FILE_DESCRIPTION (( 'STEP AP214' ),
    '1' );
FILE_NAME ('TM_341_7.STEP',
    '2016-05-10T03:06:52',
    ( '' ),
    ( '' ),
    'SwSTEP 2.0',
    'SolidWorks 2015',
    '' );
FILE_SCHEMA (( 'AUTOMOTIVE_DESIGN' ));
ENDSEC;

DATA;
#1 = SURFACE_STYLE_FILL_AREA ( #132 ) ;
#2 = MANIFOLD_SOLID_BREP ( '²ÝÎß°Ä1', #47 ) ;
#3 = CARTESIAN_POINT ( 'NONE',  ( 0.0000000000000000000, 0.0000000000000000000, 0.0000000000000000000 ) ) ;
#4 = DIRECTION ( 'NONE',  ( 0.0000000000000000000, 0.0000000000000000000, -1.000000000000000000 ) ) ;
#5 = DIRECTION ( 'NONE',  ( 0.0000000000000000000, 0.0000000000000000000, 1.000000000000000000 ) ) ;
#6 = LINE ( 'NONE', #116, #51 ) ;
#7 = PLANE ( 'NONE',  #45 ) ;
#8 = PRODUCT_DEFINITION_FORMATION_WITH_SPECIFIED_SOURCE ( 'ANY', '', #217, .NOT_KNOWN. ) ;
#9 = VERTEX_POINT ( 'NONE', #81 ) ;
#10 = FACE_OUTER_BOUND ( 'NONE', #120, .T. ) ;
#11 = CIRCLE ( 'NONE', #200, 7.500000000000000000 ) ;
#12 = ADVANCED_BREP_SHAPE_REPRESENTATION ( '', ( #2, #141 ), #176 ) ;
#13 = ORIENTED_EDGE ( 'NONE', *, *, #121, .T. ) ;
#14 = STYLED_ITEM ( 'NONE', ( #197 ), #12 ) ;
#15 = DIRECTION ( 'NONE',  ( 0.0000000000000000000, 0.0000000000000000000, 1.000000000000000000 ) ) ;
#16 = EDGE_CURVE ( 'NONE', #21, #59, #6, .T. ) ;
#17 = CARTESIAN_POINT ( 'NONE',  ( 7.500000000000000000, 0.0000000000000000000, -2.500000000000000000 ) ) ;
#18 = FACE_OUTER_BOUND ( 'NONE', #105, .T. ) ;
#19 = VECTOR ( 'NONE', #93, 1000.000000000000000 ) ;
#20 = CARTESIAN_POINT ( 'NONE',  ( 0.0000000000000000000, 0.0000000000000000000, 0.0000000000000000000 ) ) ;
#21 = VERTEX_POINT ( 'NONE', #39 ) ;
#22 = PRODUCT ( 'TM_341_7', 'TM_341_7', '', ( #85 ) ) ;
#23 = CARTESIAN_POINT ( 'NONE',  ( -7.500000000000000000, 0.0000000000000000000, 0.0000000000000000000 ) ) ;
#24 = SURFACE_STYLE_USAGE ( .BOTH. , #75 ) ;
#25 = ORIENTED_EDGE ( 'NONE', *, *, #146, .T. ) ;
#26 =( NAMED_UNIT ( * ) SI_UNIT ( $, .STERADIAN. ) SOLID_ANGLE_UNIT ( ) );
#27 = LINE ( 'NONE', #206, #80 ) ;
#28 = EDGE_CURVE ( 'NONE', #21, #213, #191, .T. ) ;
#29 = DIRECTION ( 'NONE',  ( 1.000000000000000000, 0.0000000000000000000, 0.0000000000000000000 ) ) ;
#30 = EDGE_CURVE ( 'NONE', #235, #59, #103, .T. ) ;
#31 = PRODUCT_DEFINITION_SHAPE ( 'NONE', 'NONE',  #66 ) ;
#32 = FACE_OUTER_BOUND ( 'NONE', #190, .T. ) ;
#33 = PRESENTATION_LAYER_ASSIGNMENT (  '', '', ( #14 ) ) ;
#34 = DIRECTION ( 'NONE',  ( 0.0000000000000000000, -1.000000000000000000, 0.0000000000000000000 ) ) ;
#35 = DIRECTION ( 'NONE',  ( 1.000000000000000000, 0.0000000000000000000, 0.0000000000000000000 ) ) ;
#36 = DIRECTION ( 'NONE',  ( 0.0000000000000000000, 0.0000000000000000000, 1.000000000000000000 ) ) ;
#37 = CARTESIAN_POINT ( 'NONE',  ( -7.500000000000000000, 0.0000000000000000000, -5.000000000000000000 ) ) ;
#38 = PRESENTATION_STYLE_ASSIGNMENT (( #179 ) ) ;
#39 = CARTESIAN_POINT ( 'NONE',  ( 7.500000000000000000, 200.0000000000000000, -5.000000000000000000 ) ) ;
#40 = MECHANICAL_DESIGN_GEOMETRIC_PRESENTATION_REPRESENTATION (  '', ( #14 ), #113 ) ;
#41 = PRODUCT_CONTEXT ( 'NONE', #208, 'mechanical' ) ;
#42 = DIRECTION ( 'NONE',  ( -0.0000000000000000000, -0.0000000000000000000, 1.000000000000000000 ) ) ;
#43 = DIRECTION ( 'NONE',  ( 1.000000000000000000, 0.0000000000000000000, 0.0000000000000000000 ) ) ;
#44 = VERTEX_POINT ( 'NONE', #150 ) ;
#45 = AXIS2_PLACEMENT_3D ( 'NONE', #223, #130, #29 ) ;
#46 = AXIS2_PLACEMENT_3D ( 'NONE', #160, #144, #15 ) ;
#47 = CLOSED_SHELL ( 'NONE', ( #49, #173, #53, #142, #90, #139 ) ) ;
#48 = PRODUCT_RELATED_PRODUCT_CATEGORY ( 'part', '', ( #217 ) ) ;
#49 = ADVANCED_FACE ( 'NONE', ( #87 ), #114, .T. ) ;
#50 = CARTESIAN_POINT ( 'NONE',  ( 0.0000000000000000000, 0.0000000000000000000, 0.0000000000000000000 ) ) ;
#51 = VECTOR ( 'NONE', #238, 1000.000000000000000 ) ;
#52 = DIRECTION ( 'NONE',  ( 1.000000000000000000, 0.0000000000000000000, 0.0000000000000000000 ) ) ;
#53 = ADVANCED_FACE ( 'NONE', ( #18 ), #64, .T. ) ;
#54 = VECTOR ( 'NONE', #106, 1000.000000000000000 ) ;
#55 = DIRECTION ( 'NONE',  ( -1.000000000000000000, 0.0000000000000000000, 0.0000000000000000000 ) ) ;
#56 = UNCERTAINTY_MEASURE_WITH_UNIT (LENGTH_MEASURE( 1.000000000000000100E-005 ), #165, 'distance_accuracy_value', 'NONE');
#57 =( LENGTH_UNIT ( ) NAMED_UNIT ( * ) SI_UNIT ( .MILLI., .METRE. ) );
#58 = AXIS2_PLACEMENT_3D ( 'NONE', #63, #222, #186 ) ;
#59 = VERTEX_POINT ( 'NONE', #98 ) ;
#60 = ORIENTED_EDGE ( 'NONE', *, *, #188, .F. ) ;
#61 = APPLICATION_PROTOCOL_DEFINITION ( 'draft international standard', 'automotive_design', 1998, #208 ) ;
#62 = CARTESIAN_POINT ( 'NONE',  ( 0.0000000000000000000, 200.0000000000000000, -5.000000000000000000 ) ) ;
#63 = CARTESIAN_POINT ( 'NONE',  ( 0.0000000000000000000, 0.0000000000000000000, 0.0000000000000000000 ) ) ;
#64 = CYLINDRICAL_SURFACE ( 'NONE', #70, 7.500000000000000000 ) ;
#65 = APPLICATION_PROTOCOL_DEFINITION ( 'draft international standard', 'automotive_design', 1998, #100 ) ;
#66 = PRODUCT_DEFINITION ( 'UNKNOWN', '', #8, #157 ) ;
#67 = APPLICATION_PROTOCOL_DEFINITION ( 'draft international standard', 'automotive_design', 1998, #154 ) ;
#68 = ORIENTED_EDGE ( 'NONE', *, *, #209, .F. ) ;
#69 = ORIENTED_EDGE ( 'NONE', *, *, #156, .T. ) ;
#70 = AXIS2_PLACEMENT_3D ( 'NONE', #133, #201, #4 ) ;
#71 = VERTEX_POINT ( 'NONE', #17 ) ;
#72 = PRODUCT_DEFINITION ( 'UNKNOWN', '', #182, #153 ) ;
#73 = DIRECTION ( 'NONE',  ( 0.0000000000000000000, -1.000000000000000000, 0.0000000000000000000 ) ) ;
#74 = FACE_OUTER_BOUND ( 'NONE', #170, .T. ) ;
#75 = SURFACE_SIDE_STYLE ('',( #126 ) ) ;
#76 = AXIS2_PLACEMENT_3D ( 'NONE', #3, #221, #183 ) ;
#77 = SHAPE_DEFINITION_REPRESENTATION ( #31, #211 ) ;
#78 = ORIENTED_EDGE ( 'NONE', *, *, #28, .F. ) ;
#79 = EDGE_CURVE ( 'NONE', #9, #123, #195, .T. ) ;
#80 = VECTOR ( 'NONE', #226, 1000.000000000000000 ) ;
#81 = CARTESIAN_POINT ( 'NONE',  ( -7.500000000000000000, 200.0000000000000000, -2.500000000000000000 ) ) ;
#82 = CARTESIAN_POINT ( 'NONE',  ( -7.500000000000000000, 1000.000000000000000, -2.500000000000000000 ) ) ;
#83 = ORIENTED_EDGE ( 'NONE', *, *, #146, .F. ) ;
#84 = APPLICATION_PROTOCOL_DEFINITION ( 'draft international standard', 'automotive_design', 1998, #236 ) ;
#85 = PRODUCT_CONTEXT ( 'NONE', #154, 'mechanical' ) ;
#86 = PRODUCT_RELATED_PRODUCT_CATEGORY ( 'part', '', ( #22 ) ) ;
#87 = FACE_OUTER_BOUND ( 'NONE', #184, .T. ) ;
#88 = CIRCLE ( 'NONE', #46, 7.500000000000000000 ) ;
#89 = ORIENTED_EDGE ( 'NONE', *, *, #16, .F. ) ;
#90 = ADVANCED_FACE ( 'NONE', ( #10 ), #7, .T. ) ;
#91 = CARTESIAN_POINT ( 'NONE',  ( -7.500000000000000000, 1000.000000000000000, -5.000000000000000000 ) ) ;
#92 = CARTESIAN_POINT ( 'NONE',  ( 0.0000000000000000000, 0.0000000000000000000, -2.500000000000000000 ) ) ;
#93 = DIRECTION ( 'NONE',  ( 1.000000000000000000, -0.0000000000000000000, -0.0000000000000000000 ) ) ;
#94 = PLANE ( 'NONE',  #104 ) ;
#95 = ORIENTED_EDGE ( 'NONE', *, *, #28, .T. ) ;
#96 = VECTOR ( 'NONE', #73, 1000.000000000000000 ) ;
#97 = VECTOR ( 'NONE', #216, 1000.000000000000000 ) ;
#98 = CARTESIAN_POINT ( 'NONE',  ( 7.500000000000000000, 0.0000000000000000000, -5.000000000000000000 ) ) ;
#99 =( GEOMETRIC_REPRESENTATION_CONTEXT ( 3 ) GLOBAL_UNCERTAINTY_ASSIGNED_CONTEXT ( ( #56 ) ) GLOBAL_UNIT_ASSIGNED_CONTEXT ( ( #165, #224, #137 ) ) REPRESENTATION_CONTEXT ( 'NONE', 'WORKASPACE' ) );
#100 = APPLICATION_CONTEXT ( 'automotive_design' ) ;
#101 = UNCERTAINTY_MEASURE_WITH_UNIT (LENGTH_MEASURE( 1.000000000000000100E-005 ), #189, 'distance_accuracy_value', 'NONE');
#102 = EDGE_CURVE ( 'NONE', #59, #71, #148, .T. ) ;
#103 = LINE ( 'NONE', #112, #97 ) ;
#104 = AXIS2_PLACEMENT_3D ( 'NONE', #204, #52, #124 ) ;
#105 = EDGE_LOOP ( 'NONE', ( #118, #172, #25, #122 ) ) ;
#106 = DIRECTION ( 'NONE',  ( -0.0000000000000000000, -0.0000000000000000000, -1.000000000000000000 ) ) ;
#107 = FILL_AREA_STYLE ('',( #196 ) ) ;
#108 = ORIENTED_EDGE ( 'NONE', *, *, #30, .T. ) ;
#109 = VECTOR ( 'NONE', #115, 1000.000000000000000 ) ;
#110 = DIRECTION ( 'NONE',  ( 0.0000000000000000000, 0.0000000000000000000, 1.000000000000000000 ) ) ;
#111 = FACE_OUTER_BOUND ( 'NONE', #158, .T. ) ;
#112 = CARTESIAN_POINT ( 'NONE',  ( 0.0000000000000000000, 0.0000000000000000000, -5.000000000000000000 ) ) ;
#113 =( GEOMETRIC_REPRESENTATION_CONTEXT ( 3 ) GLOBAL_UNCERTAINTY_ASSIGNED_CONTEXT ( ( #171 ) ) GLOBAL_UNIT_ASSIGNED_CONTEXT ( ( #136, #202, #185 ) ) REPRESENTATION_CONTEXT ( 'NONE', 'WORKASPACE' ) );
#114 = PLANE ( 'NONE',  #215 ) ;
#115 = DIRECTION ( 'NONE',  ( -0.0000000000000000000, -0.0000000000000000000, 1.000000000000000000 ) ) ;
#116 = CARTESIAN_POINT ( 'NONE',  ( 7.500000000000000000, 1000.000000000000000, -5.000000000000000000 ) ) ;
#117 =( REPRESENTATION_RELATIONSHIP ('NONE','NONE', #135, #211 ) REPRESENTATION_RELATIONSHIP_WITH_TRANSFORMATION ( #207 )SHAPE_REPRESENTATION_RELATIONSHIP( ) );
#118 = ORIENTED_EDGE ( 'NONE', *, *, #121, .F. ) ;
#119 = DIRECTION ( 'NONE',  ( -0.0000000000000000000, 1.000000000000000000, 0.0000000000000000000 ) ) ;
#120 = EDGE_LOOP ( 'NONE', ( #68, #175, #83, #78 ) ) ;
#121 = EDGE_CURVE ( 'NONE', #71, #44, #11, .T. ) ;
#122 = ORIENTED_EDGE ( 'NONE', *, *, #237, .T. ) ;
#123 = VERTEX_POINT ( 'NONE', #128 ) ;
#124 = DIRECTION ( 'NONE',  ( 0.0000000000000000000, 0.0000000000000000000, -1.000000000000000000 ) ) ;
#125 = DIRECTION ( 'NONE',  ( -1.000000000000000000, 0.0000000000000000000, 0.0000000000000000000 ) ) ;
#126 = SURFACE_STYLE_FILL_AREA ( #107 ) ;
#127 = CARTESIAN_POINT ( 'NONE',  ( -7.500000000000000000, 1000.000000000000000, -5.000000000000000000 ) ) ;
#128 = CARTESIAN_POINT ( 'NONE',  ( -7.500000000000000000, 200.0000000000000000, -5.000000000000000000 ) ) ;
#129 = SHAPE_DEFINITION_REPRESENTATION ( #239, #135 ) ;
#130 = DIRECTION ( 'NONE',  ( -0.0000000000000000000, 1.000000000000000000, 0.0000000000000000000 ) ) ;
#131 = ORIENTED_EDGE ( 'NONE', *, *, #210, .T. ) ;
#132 = FILL_AREA_STYLE ('',( #227 ) ) ;
#133 = CARTESIAN_POINT ( 'NONE',  ( 0.0000000000000000000, 1000.000000000000000, -2.500000000000000000 ) ) ;
#134 = STYLED_ITEM ( 'NONE', ( #38 ), #2 ) ;
#135 = SHAPE_REPRESENTATION ( 'TM_341_7', ( #58, #228 ), #99 ) ;
#136 =( LENGTH_UNIT ( ) NAMED_UNIT ( * ) SI_UNIT ( .MILLI., .METRE. ) );
#137 =( NAMED_UNIT ( * ) SI_UNIT ( $, .STERADIAN. ) SOLID_ANGLE_UNIT ( ) );
#138 = ORIENTED_EDGE ( 'NONE', *, *, #102, .F. ) ;
#139 = ADVANCED_FACE ( 'NONE', ( #111 ), #219, .F. ) ;
#140 = UNCERTAINTY_MEASURE_WITH_UNIT (LENGTH_MEASURE( 1.000000000000000100E-005 ), #57, 'distance_accuracy_value', 'NONE');
#141 = AXIS2_PLACEMENT_3D ( 'NONE', #50, #36, #164 ) ;
#142 = ADVANCED_FACE ( 'NONE', ( #32 ), #193, .T. ) ;
#143 = ORIENTED_EDGE ( 'NONE', *, *, #237, .F. ) ;
#144 = DIRECTION ( 'NONE',  ( -0.0000000000000000000, -1.000000000000000000, -0.0000000000000000000 ) ) ;
#145 = CARTESIAN_POINT ( 'NONE',  ( -7.500000000000000000, 200.0000000000000000, 0.0000000000000000000 ) ) ;
#146 = EDGE_CURVE ( 'NONE', #213, #9, #88, .T. ) ;
#147 =( NAMED_UNIT ( * ) PLANE_ANGLE_UNIT ( ) SI_UNIT ( $, .RADIAN. ) );
#148 = LINE ( 'NONE', #178, #109 ) ;
#149 =( NAMED_UNIT ( * ) SI_UNIT ( $, .STERADIAN. ) SOLID_ANGLE_UNIT ( ) );
#150 = CARTESIAN_POINT ( 'NONE',  ( -7.500000000000000000, 0.0000000000000000000, -2.500000000000000000 ) ) ;
#151 = VECTOR ( 'NONE', #42, 1000.000000000000000 ) ;
#152 = CARTESIAN_POINT ( 'NONE',  ( 7.500000000000000000, 200.0000000000000000, 0.0000000000000000000 ) ) ;
#153 = PRODUCT_DEFINITION_CONTEXT ( 'detailed design', #100, 'design' ) ;
#154 = APPLICATION_CONTEXT ( 'automotive_design' ) ;
#155 = ORIENTED_EDGE ( 'NONE', *, *, #30, .F. ) ;
#156 = EDGE_CURVE ( 'NONE', #123, #235, #231, .T. ) ;
#157 = PRODUCT_DEFINITION_CONTEXT ( 'detailed design', #236, 'design' ) ;
#158 = EDGE_LOOP ( 'NONE', ( #108, #234, #13, #199 ) ) ;
#159 = ORIENTED_EDGE ( 'NONE', *, *, #156, .F. ) ;
#160 = CARTESIAN_POINT ( 'NONE',  ( 0.0000000000000000000, 200.0000000000000000, -2.500000000000000000 ) ) ;
#161 = ORIENTED_EDGE ( 'NONE', *, *, #16, .T. ) ;
#162 = AXIS2_PLACEMENT_3D ( 'NONE', #181, #119, #35 ) ;
#163 = LINE ( 'NONE', #62, #19 ) ;
#164 = DIRECTION ( 'NONE',  ( 1.000000000000000000, 0.0000000000000000000, 0.0000000000000000000 ) ) ;
#165 =( LENGTH_UNIT ( ) NAMED_UNIT ( * ) SI_UNIT ( .MILLI., .METRE. ) );
#166 = DIRECTION ( 'NONE',  ( -0.0000000000000000000, -0.0000000000000000000, -1.000000000000000000 ) ) ;
#167 = LINE ( 'NONE', #23, #54 ) ;
#168 = DIRECTION ( 'NONE',  ( 0.0000000000000000000, 0.0000000000000000000, 1.000000000000000000 ) ) ;
#169 = MECHANICAL_DESIGN_GEOMETRIC_PRESENTATION_REPRESENTATION (  '', ( #134 ), #174 ) ;
#170 = EDGE_LOOP ( 'NONE', ( #138, #89, #95, #131 ) ) ;
#171 = UNCERTAINTY_MEASURE_WITH_UNIT (LENGTH_MEASURE( 1.000000000000000100E-005 ), #136, 'distance_accuracy_value', 'NONE');
#172 = ORIENTED_EDGE ( 'NONE', *, *, #210, .F. ) ;
#173 = ADVANCED_FACE ( 'NONE', ( #74 ), #94, .T. ) ;
#174 =( GEOMETRIC_REPRESENTATION_CONTEXT ( 3 ) GLOBAL_UNCERTAINTY_ASSIGNED_CONTEXT ( ( #140 ) ) GLOBAL_UNIT_ASSIGNED_CONTEXT ( ( #57, #147, #26 ) ) REPRESENTATION_CONTEXT ( 'NONE', 'WORKASPACE' ) );
#175 = ORIENTED_EDGE ( 'NONE', *, *, #79, .F. ) ;
#176 =( GEOMETRIC_REPRESENTATION_CONTEXT ( 3 ) GLOBAL_UNCERTAINTY_ASSIGNED_CONTEXT ( ( #101 ) ) GLOBAL_UNIT_ASSIGNED_CONTEXT ( ( #189, #198, #149 ) ) REPRESENTATION_CONTEXT ( 'NONE', 'WORKASPACE' ) );
#177 = ORIENTED_EDGE ( 'NONE', *, *, #209, .T. ) ;
#178 = CARTESIAN_POINT ( 'NONE',  ( 7.500000000000000000, 0.0000000000000000000, 0.0000000000000000000 ) ) ;
#179 = SURFACE_STYLE_USAGE ( .BOTH. , #194 ) ;
#180 = COLOUR_RGB ( '',0.7921568627450980000, 0.8196078431372548800, 0.9333333333333333500 ) ;
#181 = CARTESIAN_POINT ( 'NONE',  ( 0.0000000000000000000, 0.0000000000000000000, 0.0000000000000000000 ) ) ;
#182 = PRODUCT_DEFINITION_FORMATION_WITH_SPECIFIED_SOURCE ( 'ANY', '', #22, .NOT_KNOWN. ) ;
#183 = DIRECTION ( 'NONE',  ( 1.000000000000000000, 0.0000000000000000000, 0.0000000000000000000 ) ) ;
#184 = EDGE_LOOP ( 'NONE', ( #155, #159, #177, #161 ) ) ;
#185 =( NAMED_UNIT ( * ) SI_UNIT ( $, .STERADIAN. ) SOLID_ANGLE_UNIT ( ) );
#186 = DIRECTION ( 'NONE',  ( 1.000000000000000000, 0.0000000000000000000, 0.0000000000000000000 ) ) ;
#187 = DIRECTION ( 'NONE',  ( 0.0000000000000000000, 0.0000000000000000000, -1.000000000000000000 ) ) ;
#188 = EDGE_CURVE ( 'NONE', #44, #235, #167, .T. ) ;
#189 =( LENGTH_UNIT ( ) NAMED_UNIT ( * ) SI_UNIT ( .MILLI., .METRE. ) );
#190 = EDGE_LOOP ( 'NONE', ( #60, #143, #229, #69 ) ) ;
#191 = LINE ( 'NONE', #152, #151 ) ;
#192 = CONTEXT_DEPENDENT_SHAPE_REPRESENTATION ( #117, #214 ) ;
#193 = PLANE ( 'NONE',  #233 ) ;
#194 = SURFACE_SIDE_STYLE ('',( #1 ) ) ;
#195 = LINE ( 'NONE', #145, #203 ) ;
#196 = FILL_AREA_STYLE_COLOUR ( '', #180 ) ;
#197 = PRESENTATION_STYLE_ASSIGNMENT (( #24 ) ) ;
#198 =( NAMED_UNIT ( * ) PLANE_ANGLE_UNIT ( ) SI_UNIT ( $, .RADIAN. ) );
#199 = ORIENTED_EDGE ( 'NONE', *, *, #188, .T. ) ;
#200 = AXIS2_PLACEMENT_3D ( 'NONE', #92, #220, #110 ) ;
#201 = DIRECTION ( 'NONE',  ( 0.0000000000000000000, -1.000000000000000000, 0.0000000000000000000 ) ) ;
#202 =( NAMED_UNIT ( * ) PLANE_ANGLE_UNIT ( ) SI_UNIT ( $, .RADIAN. ) );
#203 = VECTOR ( 'NONE', #166, 1000.000000000000000 ) ;
#204 = CARTESIAN_POINT ( 'NONE',  ( 7.500000000000000000, 1000.000000000000000, -5.000000000000000000 ) ) ;
#205 = SHAPE_REPRESENTATION_RELATIONSHIP ( 'NONE' , 'NONE' ,  #211, #12 ) ;
#206 = CARTESIAN_POINT ( 'NONE',  ( 7.500000000000000000, 1000.000000000000000, -2.500000000000000000 ) ) ;
#207 = ITEM_DEFINED_TRANSFORMATION ( 'NONE', 'NONE', #228,  #141 ) ;
#208 = APPLICATION_CONTEXT ( 'automotive_design' ) ;
#209 = EDGE_CURVE ( 'NONE', #123, #21, #163, .T. ) ;
#210 = EDGE_CURVE ( 'NONE', #213, #71, #27, .T. ) ;
#211 = SHAPE_REPRESENTATION ( 'rubber foam', ( #141 ), #176 ) ;
#212 = LINE ( 'NONE', #240, #232 ) ;
#213 = VERTEX_POINT ( 'NONE', #218 ) ;
#214 = PRODUCT_DEFINITION_SHAPE ( 'NONE', 'NONE',  #241 ) ;
#215 = AXIS2_PLACEMENT_3D ( 'NONE', #127, #187, #55 ) ;
#216 = DIRECTION ( 'NONE',  ( 1.000000000000000000, -0.0000000000000000000, -0.0000000000000000000 ) ) ;
#217 = PRODUCT ( 'rubber foam', 'rubber foam', '', ( #41 ) ) ;
#218 = CARTESIAN_POINT ( 'NONE',  ( 7.500000000000000000, 200.0000000000000000, -2.500000000000000000 ) ) ;
#219 = PLANE ( 'NONE',  #162 ) ;
#220 = DIRECTION ( 'NONE',  ( -0.0000000000000000000, -1.000000000000000000, -0.0000000000000000000 ) ) ;
#221 = DIRECTION ( 'NONE',  ( 0.0000000000000000000, 0.0000000000000000000, 1.000000000000000000 ) ) ;
#222 = DIRECTION ( 'NONE',  ( 0.0000000000000000000, 0.0000000000000000000, 1.000000000000000000 ) ) ;
#223 = CARTESIAN_POINT ( 'NONE',  ( 0.0000000000000000000, 200.0000000000000000, 0.0000000000000000000 ) ) ;
#224 =( NAMED_UNIT ( * ) PLANE_ANGLE_UNIT ( ) SI_UNIT ( $, .RADIAN. ) );
#225 = COLOUR_RGB ( '',0.7921568627450980000, 0.8196078431372548800, 0.9333333333333333500 ) ;
#226 = DIRECTION ( 'NONE',  ( 0.0000000000000000000, -1.000000000000000000, 0.0000000000000000000 ) ) ;
#227 = FILL_AREA_STYLE_COLOUR ( '', #225 ) ;
#228 = AXIS2_PLACEMENT_3D ( 'NONE', #20, #5, #43 ) ;
#229 = ORIENTED_EDGE ( 'NONE', *, *, #79, .T. ) ;
#230 = PRESENTATION_LAYER_ASSIGNMENT (  '', '', ( #134 ) ) ;
#231 = LINE ( 'NONE', #91, #96 ) ;
#232 = VECTOR ( 'NONE', #34, 1000.000000000000000 ) ;
#233 = AXIS2_PLACEMENT_3D ( 'NONE', #82, #125, #168 ) ;
#234 = ORIENTED_EDGE ( 'NONE', *, *, #102, .T. ) ;
#235 = VERTEX_POINT ( 'NONE', #37 ) ;
#236 = APPLICATION_CONTEXT ( 'automotive_design' ) ;
#237 = EDGE_CURVE ( 'NONE', #9, #44, #212, .T. ) ;
#238 = DIRECTION ( 'NONE',  ( 0.0000000000000000000, -1.000000000000000000, 0.0000000000000000000 ) ) ;
#239 = PRODUCT_DEFINITION_SHAPE ( 'NONE', 'NONE',  #72 ) ;
#240 = CARTESIAN_POINT ( 'NONE',  ( -7.500000000000000000, 1000.000000000000000, -2.500000000000000000 ) ) ;
#241 = NEXT_ASSEMBLY_USAGE_OCCURRENCE ( 'NAUO1', ' ', ' ', #72, #66, $ ) ;
ENDSEC;
END-ISO-10303-21;
