ISO-10303-21;
HEADER;
FILE_DESCRIPTION (( 'STEP AP214' ),
    '1' );
FILE_NAME ('TM_341_9.STEP',
    '2016-05-10T04:07:31',
    ( '' ),
    ( '' ),
    'SwSTEP 2.0',
    'SolidWorks 2015',
    '' );
FILE_SCHEMA (( 'AUTOMOTIVE_DESIGN' ));
ENDSEC;

DATA;
#1 = CARTESIAN_POINT ( 'NONE',  ( -10.00000000000000000, 1000.000000000000000, -7.500000000000000000 ) ) ;
#2 = EDGE_CURVE ( 'NONE', #137, #60, #112, .T. ) ;
#3 = PLANE ( 'NONE',  #235 ) ;
#4 = ORIENTED_EDGE ( 'NONE', *, *, #106, .T. ) ;
#5 = ITEM_DEFINED_TRANSFORMATION ( 'NONE', 'NONE', #215,  #85 ) ;
#6 = AXIS2_PLACEMENT_3D ( 'NONE', #56, #200, #218 ) ;
#7 = STYLED_ITEM ( 'NONE', ( #171 ), #224 ) ;
#8 = ADVANCED_FACE ( 'NONE', ( #173 ), #3, .T. ) ;
#9 = EDGE_CURVE ( 'NONE', #139, #26, #201, .T. ) ;
#10 = ORIENTED_EDGE ( 'NONE', *, *, #222, .F. ) ;
#11 = PRODUCT_DEFINITION_CONTEXT ( 'detailed design', #110, 'design' ) ;
#12 = APPLICATION_PROTOCOL_DEFINITION ( 'draft international standard', 'automotive_design', 1998, #110 ) ;
#13 = PLANE ( 'NONE',  #206 ) ;
#14 =( LENGTH_UNIT ( ) NAMED_UNIT ( * ) SI_UNIT ( .MILLI., .METRE. ) );
#15 = EDGE_LOOP ( 'NONE', ( #10, #123, #64, #223 ) ) ;
#16 = DIRECTION ( 'NONE',  ( -0.0000000000000000000, -1.000000000000000000, -0.0000000000000000000 ) ) ;
#17 = DIRECTION ( 'NONE',  ( 0.0000000000000000000, 0.0000000000000000000, 1.000000000000000000 ) ) ;
#18 = PRODUCT_DEFINITION ( 'UNKNOWN', '', #84, #230 ) ;
#19 = CARTESIAN_POINT ( 'NONE',  ( 0.0000000000000000000, 200.0000000000000000, -2.500000000000000000 ) ) ;
#20 = AXIS2_PLACEMENT_3D ( 'NONE', #126, #30, #53 ) ;
#21 = APPLICATION_PROTOCOL_DEFINITION ( 'draft international standard', 'automotive_design', 1998, #132 ) ;
#22 = CARTESIAN_POINT ( 'NONE',  ( 10.00000000000000000, 200.0000000000000000, -2.500000000000000000 ) ) ;
#23 = EDGE_CURVE ( 'NONE', #204, #60, #67, .T. ) ;
#24 = LINE ( 'NONE', #33, #127 ) ;
#25 = SURFACE_STYLE_FILL_AREA ( #159 ) ;
#26 = VERTEX_POINT ( 'NONE', #164 ) ;
#27 = FACE_OUTER_BOUND ( 'NONE', #236, .T. ) ;
#28 = PRESENTATION_LAYER_ASSIGNMENT (  '', '', ( #7 ) ) ;
#29 = CARTESIAN_POINT ( 'NONE',  ( 10.00000000000000000, 0.0000000000000000000, -2.500000000000000000 ) ) ;
#30 = DIRECTION ( 'NONE',  ( 0.0000000000000000000, 0.0000000000000000000, -1.000000000000000000 ) ) ;
#31 = AXIS2_PLACEMENT_3D ( 'NONE', #19, #162, #44 ) ;
#32 = LINE ( 'NONE', #1, #221 ) ;
#33 = CARTESIAN_POINT ( 'NONE',  ( -10.00000000000000000, 0.0000000000000000000, 0.0000000000000000000 ) ) ;
#34 = EDGE_CURVE ( 'NONE', #66, #152, #207, .T. ) ;
#35 = CARTESIAN_POINT ( 'NONE',  ( 10.00000000000000000, 0.0000000000000000000, 0.0000000000000000000 ) ) ;
#36 = ORIENTED_EDGE ( 'NONE', *, *, #106, .F. ) ;
#37 = LINE ( 'NONE', #194, #43 ) ;
#38 = CARTESIAN_POINT ( 'NONE',  ( 0.0000000000000000000, 0.0000000000000000000, 0.0000000000000000000 ) ) ;
#39 = PRODUCT_CONTEXT ( 'NONE', #132, 'mechanical' ) ;
#40 = VECTOR ( 'NONE', #93, 1000.000000000000000 ) ;
#41 = EDGE_CURVE ( 'NONE', #88, #139, #51, .T. ) ;
#42 = ORIENTED_EDGE ( 'NONE', *, *, #54, .F. ) ;
#43 = VECTOR ( 'NONE', #176, 1000.000000000000000 ) ;
#44 = DIRECTION ( 'NONE',  ( 0.0000000000000000000, 0.0000000000000000000, 1.000000000000000000 ) ) ;
#45 = UNCERTAINTY_MEASURE_WITH_UNIT (LENGTH_MEASURE( 1.000000000000000100E-005 ), #14, 'distance_accuracy_value', 'NONE');
#46 = PRODUCT_DEFINITION ( 'UNKNOWN', '', #61, #11 ) ;
#47 = MECHANICAL_DESIGN_GEOMETRIC_PRESENTATION_REPRESENTATION (  '', ( #7 ), #62 ) ;
#48 = CONTEXT_DEPENDENT_SHAPE_REPRESENTATION ( #116, #78 ) ;
#49 = ORIENTED_EDGE ( 'NONE', *, *, #94, .T. ) ;
#50 = SHAPE_DEFINITION_REPRESENTATION ( #170, #220 ) ;
#51 = CIRCLE ( 'NONE', #31, 10.00000000000000000 ) ;
#52 = DIRECTION ( 'NONE',  ( 0.0000000000000000000, -1.000000000000000000, 0.0000000000000000000 ) ) ;
#53 = DIRECTION ( 'NONE',  ( -1.000000000000000000, 0.0000000000000000000, 0.0000000000000000000 ) ) ;
#54 = EDGE_CURVE ( 'NONE', #26, #204, #32, .T. ) ;
#55 = ORIENTED_EDGE ( 'NONE', *, *, #59, .F. ) ;
#56 = CARTESIAN_POINT ( 'NONE',  ( 0.0000000000000000000, 0.0000000000000000000, 0.0000000000000000000 ) ) ;
#57 = DIRECTION ( 'NONE',  ( -0.0000000000000000000, -0.0000000000000000000, 1.000000000000000000 ) ) ;
#58 = CARTESIAN_POINT ( 'NONE',  ( -10.00000000000000000, 0.0000000000000000000, -2.500000000000000000 ) ) ;
#59 = EDGE_CURVE ( 'NONE', #137, #88, #169, .T. ) ;
#60 = VERTEX_POINT ( 'NONE', #150 ) ;
#61 = PRODUCT_DEFINITION_FORMATION_WITH_SPECIFIED_SOURCE ( 'ANY', '', #181, .NOT_KNOWN. ) ;
#62 =( GEOMETRIC_REPRESENTATION_CONTEXT ( 3 ) GLOBAL_UNCERTAINTY_ASSIGNED_CONTEXT ( ( #199 ) ) GLOBAL_UNIT_ASSIGNED_CONTEXT ( ( #192, #108, #124 ) ) REPRESENTATION_CONTEXT ( 'NONE', 'WORKASPACE' ) );
#63 = APPLICATION_PROTOCOL_DEFINITION ( 'draft international standard', 'automotive_design', 1998, #114 ) ;
#64 = ORIENTED_EDGE ( 'NONE', *, *, #9, .T. ) ;
#65 = PRODUCT ( 'rubber foam', 'rubber foam', '', ( #183 ) ) ;
#66 = VERTEX_POINT ( 'NONE', #29 ) ;
#67 = LINE ( 'NONE', #213, #163 ) ;
#68 = ORIENTED_EDGE ( 'NONE', *, *, #9, .F. ) ;
#69 = SHAPE_REPRESENTATION ( 'TM_341_9', ( #6, #215 ), #228 ) ;
#70 = PRODUCT_RELATED_PRODUCT_CATEGORY ( 'part', '', ( #181 ) ) ;
#71 =( GEOMETRIC_REPRESENTATION_CONTEXT ( 3 ) GLOBAL_UNCERTAINTY_ASSIGNED_CONTEXT ( ( #121 ) ) GLOBAL_UNIT_ASSIGNED_CONTEXT ( ( #234, #73, #142 ) ) REPRESENTATION_CONTEXT ( 'NONE', 'WORKASPACE' ) );
#72 = VECTOR ( 'NONE', #57, 1000.000000000000000 ) ;
#73 =( NAMED_UNIT ( * ) PLANE_ANGLE_UNIT ( ) SI_UNIT ( $, .RADIAN. ) );
#74 = CARTESIAN_POINT ( 'NONE',  ( 0.0000000000000000000, 200.0000000000000000, 0.0000000000000000000 ) ) ;
#75 = CARTESIAN_POINT ( 'NONE',  ( 0.0000000000000000000, 1000.000000000000000, -2.500000000000000000 ) ) ;
#76 = CYLINDRICAL_SURFACE ( 'NONE', #191, 10.00000000000000000 ) ;
#77 = FILL_AREA_STYLE_COLOUR ( '', #138 ) ;
#78 = PRODUCT_DEFINITION_SHAPE ( 'NONE', 'NONE',  #241 ) ;
#79 = CARTESIAN_POINT ( 'NONE',  ( 0.0000000000000000000, 0.0000000000000000000, 0.0000000000000000000 ) ) ;
#80 = DIRECTION ( 'NONE',  ( -0.0000000000000000000, -0.0000000000000000000, -1.000000000000000000 ) ) ;
#81 =( NAMED_UNIT ( * ) PLANE_ANGLE_UNIT ( ) SI_UNIT ( $, .RADIAN. ) );
#82 = DIRECTION ( 'NONE',  ( 1.000000000000000000, 0.0000000000000000000, 0.0000000000000000000 ) ) ;
#83 = ORIENTED_EDGE ( 'NONE', *, *, #59, .T. ) ;
#84 = PRODUCT_DEFINITION_FORMATION_WITH_SPECIFIED_SOURCE ( 'ANY', '', #65, .NOT_KNOWN. ) ;
#85 = AXIS2_PLACEMENT_3D ( 'NONE', #79, #198, #100 ) ;
#86 = VECTOR ( 'NONE', #98, 1000.000000000000000 ) ;
#87 = ADVANCED_FACE ( 'NONE', ( #146 ), #202, .F. ) ;
#88 = VERTEX_POINT ( 'NONE', #22 ) ;
#89 = ADVANCED_FACE ( 'NONE', ( #27 ), #76, .T. ) ;
#90 = FACE_OUTER_BOUND ( 'NONE', #15, .T. ) ;
#91 = SURFACE_STYLE_USAGE ( .BOTH. , #231 ) ;
#92 = DIRECTION ( 'NONE',  ( -0.0000000000000000000, -0.0000000000000000000, 1.000000000000000000 ) ) ;
#93 = DIRECTION ( 'NONE',  ( 0.0000000000000000000, -1.000000000000000000, 0.0000000000000000000 ) ) ;
#94 = EDGE_CURVE ( 'NONE', #60, #66, #238, .T. ) ;
#95 = ORIENTED_EDGE ( 'NONE', *, *, #195, .T. ) ;
#96 = EDGE_LOOP ( 'NONE', ( #105, #49, #145, #190 ) ) ;
#97 = LINE ( 'NONE', #210, #40 ) ;
#98 = DIRECTION ( 'NONE',  ( 1.000000000000000000, -0.0000000000000000000, -0.0000000000000000000 ) ) ;
#99 = CARTESIAN_POINT ( 'NONE',  ( 10.00000000000000000, 200.0000000000000000, 0.0000000000000000000 ) ) ;
#100 = DIRECTION ( 'NONE',  ( 1.000000000000000000, 0.0000000000000000000, 0.0000000000000000000 ) ) ;
#101 = STYLED_ITEM ( 'NONE', ( #165 ), #182 ) ;
#102 = APPLICATION_CONTEXT ( 'automotive_design' ) ;
#103 = ORIENTED_EDGE ( 'NONE', *, *, #41, .T. ) ;
#104 = ORIENTED_EDGE ( 'NONE', *, *, #34, .F. ) ;
#105 = ORIENTED_EDGE ( 'NONE', *, *, #23, .T. ) ;
#106 = EDGE_CURVE ( 'NONE', #26, #137, #225, .T. ) ;
#107 = EDGE_LOOP ( 'NONE', ( #36, #68, #186, #55 ) ) ;
#108 =( NAMED_UNIT ( * ) PLANE_ANGLE_UNIT ( ) SI_UNIT ( $, .RADIAN. ) );
#109 = CARTESIAN_POINT ( 'NONE',  ( -10.00000000000000000, 0.0000000000000000000, -7.500000000000000000 ) ) ;
#110 = APPLICATION_CONTEXT ( 'automotive_design' ) ;
#111 = SURFACE_SIDE_STYLE ('',( #25 ) ) ;
#112 = LINE ( 'NONE', #115, #120 ) ;
#113 = CARTESIAN_POINT ( 'NONE',  ( 0.0000000000000000000, 0.0000000000000000000, -2.500000000000000000 ) ) ;
#114 = APPLICATION_CONTEXT ( 'automotive_design' ) ;
#115 = CARTESIAN_POINT ( 'NONE',  ( 10.00000000000000000, 1000.000000000000000, -7.500000000000000000 ) ) ;
#116 =( REPRESENTATION_RELATIONSHIP ('NONE','NONE', #69, #220 ) REPRESENTATION_RELATIONSHIP_WITH_TRANSFORMATION ( #5 )SHAPE_REPRESENTATION_RELATIONSHIP( ) );
#117 = CARTESIAN_POINT ( 'NONE',  ( -10.00000000000000000, 200.0000000000000000, 0.0000000000000000000 ) ) ;
#118 =( LENGTH_UNIT ( ) NAMED_UNIT ( * ) SI_UNIT ( .MILLI., .METRE. ) );
#119 = EDGE_LOOP ( 'NONE', ( #157, #42, #4, #161 ) ) ;
#120 = VECTOR ( 'NONE', #203, 1000.000000000000000 ) ;
#121 = UNCERTAINTY_MEASURE_WITH_UNIT (LENGTH_MEASURE( 1.000000000000000100E-005 ), #234, 'distance_accuracy_value', 'NONE');
#122 = ADVANCED_FACE ( 'NONE', ( #90 ), #13, .T. ) ;
#123 = ORIENTED_EDGE ( 'NONE', *, *, #195, .F. ) ;
#124 =( NAMED_UNIT ( * ) SI_UNIT ( $, .STERADIAN. ) SOLID_ANGLE_UNIT ( ) );
#125 = CARTESIAN_POINT ( 'NONE',  ( 10.00000000000000000, 200.0000000000000000, -7.500000000000000000 ) ) ;
#126 = CARTESIAN_POINT ( 'NONE',  ( -10.00000000000000000, 1000.000000000000000, -7.500000000000000000 ) ) ;
#127 = VECTOR ( 'NONE', #196, 1000.000000000000000 ) ;
#128 = ADVANCED_FACE ( 'NONE', ( #174 ), #143, .T. ) ;
#129 = ORIENTED_EDGE ( 'NONE', *, *, #175, .F. ) ;
#130 = FILL_AREA_STYLE_COLOUR ( '', #172 ) ;
#131 = DIRECTION ( 'NONE',  ( 0.0000000000000000000, -1.000000000000000000, 0.0000000000000000000 ) ) ;
#132 = APPLICATION_CONTEXT ( 'automotive_design' ) ;
#133 = DIRECTION ( 'NONE',  ( 1.000000000000000000, 0.0000000000000000000, 0.0000000000000000000 ) ) ;
#134 =( NAMED_UNIT ( * ) SI_UNIT ( $, .STERADIAN. ) SOLID_ANGLE_UNIT ( ) );
#135 = DIRECTION ( 'NONE',  ( 1.000000000000000000, -0.0000000000000000000, -0.0000000000000000000 ) ) ;
#136 = DIRECTION ( 'NONE',  ( 0.0000000000000000000, 0.0000000000000000000, 1.000000000000000000 ) ) ;
#137 = VERTEX_POINT ( 'NONE', #125 ) ;
#138 = COLOUR_RGB ( '',0.7921568627450980000, 0.8196078431372548800, 0.9333333333333333500 ) ;
#139 = VERTEX_POINT ( 'NONE', #212 ) ;
#140 = ORIENTED_EDGE ( 'NONE', *, *, #94, .F. ) ;
#141 = SURFACE_STYLE_FILL_AREA ( #211 ) ;
#142 =( NAMED_UNIT ( * ) SI_UNIT ( $, .STERADIAN. ) SOLID_ANGLE_UNIT ( ) );
#143 = PLANE ( 'NONE',  #229 ) ;
#144 = DIRECTION ( 'NONE',  ( 1.000000000000000000, 0.0000000000000000000, 0.0000000000000000000 ) ) ;
#145 = ORIENTED_EDGE ( 'NONE', *, *, #34, .T. ) ;
#146 = FACE_OUTER_BOUND ( 'NONE', #96, .T. ) ;
#147 =( NAMED_UNIT ( * ) PLANE_ANGLE_UNIT ( ) SI_UNIT ( $, .RADIAN. ) );
#148 = PRESENTATION_LAYER_ASSIGNMENT (  '', '', ( #101 ) ) ;
#149 = DIRECTION ( 'NONE',  ( 1.000000000000000000, 0.0000000000000000000, 0.0000000000000000000 ) ) ;
#150 = CARTESIAN_POINT ( 'NONE',  ( 10.00000000000000000, 0.0000000000000000000, -7.500000000000000000 ) ) ;
#151 = DIRECTION ( 'NONE',  ( 0.0000000000000000000, 0.0000000000000000000, 1.000000000000000000 ) ) ;
#152 = VERTEX_POINT ( 'NONE', #58 ) ;
#153 = CLOSED_SHELL ( 'NONE', ( #155, #8, #89, #122, #128, #87 ) ) ;
#154 = VECTOR ( 'NONE', #80, 1000.000000000000000 ) ;
#155 = ADVANCED_FACE ( 'NONE', ( #226 ), #180, .T. ) ;
#156 = MECHANICAL_DESIGN_GEOMETRIC_PRESENTATION_REPRESENTATION (  '', ( #101 ), #166 ) ;
#157 = ORIENTED_EDGE ( 'NONE', *, *, #23, .F. ) ;
#158 = UNCERTAINTY_MEASURE_WITH_UNIT (LENGTH_MEASURE( 1.000000000000000100E-005 ), #118, 'distance_accuracy_value', 'NONE');
#159 = FILL_AREA_STYLE ('',( #130 ) ) ;
#160 = CARTESIAN_POINT ( 'NONE',  ( 0.0000000000000000000, 0.0000000000000000000, 0.0000000000000000000 ) ) ;
#161 = ORIENTED_EDGE ( 'NONE', *, *, #2, .T. ) ;
#162 = DIRECTION ( 'NONE',  ( -0.0000000000000000000, -1.000000000000000000, -0.0000000000000000000 ) ) ;
#163 = VECTOR ( 'NONE', #135, 1000.000000000000000 ) ;
#164 = CARTESIAN_POINT ( 'NONE',  ( -10.00000000000000000, 200.0000000000000000, -7.500000000000000000 ) ) ;
#165 = PRESENTATION_STYLE_ASSIGNMENT (( #239 ) ) ;
#166 =( GEOMETRIC_REPRESENTATION_CONTEXT ( 3 ) GLOBAL_UNCERTAINTY_ASSIGNED_CONTEXT ( ( #45 ) ) GLOBAL_UNIT_ASSIGNED_CONTEXT ( ( #14, #147, #214 ) ) REPRESENTATION_CONTEXT ( 'NONE', 'WORKASPACE' ) );
#167 = AXIS2_PLACEMENT_3D ( 'NONE', #160, #177, #144 ) ;
#168 = AXIS2_PLACEMENT_3D ( 'NONE', #113, #16, #151 ) ;
#169 = LINE ( 'NONE', #99, #72 ) ;
#170 = PRODUCT_DEFINITION_SHAPE ( 'NONE', 'NONE',  #18 ) ;
#171 = PRESENTATION_STYLE_ASSIGNMENT (( #91 ) ) ;
#172 = COLOUR_RGB ( '',0.7921568627450980000, 0.8196078431372548800, 0.9333333333333333500 ) ;
#173 = FACE_OUTER_BOUND ( 'NONE', #187, .T. ) ;
#174 = FACE_OUTER_BOUND ( 'NONE', #107, .T. ) ;
#175 = EDGE_CURVE ( 'NONE', #88, #66, #37, .T. ) ;
#176 = DIRECTION ( 'NONE',  ( 0.0000000000000000000, -1.000000000000000000, 0.0000000000000000000 ) ) ;
#177 = DIRECTION ( 'NONE',  ( -0.0000000000000000000, 1.000000000000000000, 0.0000000000000000000 ) ) ;
#178 = ORIENTED_EDGE ( 'NONE', *, *, #2, .F. ) ;
#179 = DIRECTION ( 'NONE',  ( -0.0000000000000000000, 1.000000000000000000, 0.0000000000000000000 ) ) ;
#180 = PLANE ( 'NONE',  #20 ) ;
#181 = PRODUCT ( 'TM_341_9', 'TM_341_9', '', ( #39 ) ) ;
#182 = ADVANCED_BREP_SHAPE_REPRESENTATION ( '', ( #224, #85 ), #71 ) ;
#183 = PRODUCT_CONTEXT ( 'NONE', #114, 'mechanical' ) ;
#184 = CARTESIAN_POINT ( 'NONE',  ( 10.00000000000000000, 1000.000000000000000, -7.500000000000000000 ) ) ;
#185 = SHAPE_REPRESENTATION_RELATIONSHIP ( 'NONE' , 'NONE' ,  #220, #182 ) ;
#186 = ORIENTED_EDGE ( 'NONE', *, *, #41, .F. ) ;
#187 = EDGE_LOOP ( 'NONE', ( #140, #178, #83, #237 ) ) ;
#188 = VECTOR ( 'NONE', #92, 1000.000000000000000 ) ;
#189 = PRODUCT_DEFINITION_SHAPE ( 'NONE', 'NONE',  #46 ) ;
#190 = ORIENTED_EDGE ( 'NONE', *, *, #222, .T. ) ;
#191 = AXIS2_PLACEMENT_3D ( 'NONE', #75, #52, #208 ) ;
#192 =( LENGTH_UNIT ( ) NAMED_UNIT ( * ) SI_UNIT ( .MILLI., .METRE. ) );
#193 = DIRECTION ( 'NONE',  ( 0.0000000000000000000, 0.0000000000000000000, 1.000000000000000000 ) ) ;
#194 = CARTESIAN_POINT ( 'NONE',  ( 10.00000000000000000, 1000.000000000000000, -2.500000000000000000 ) ) ;
#195 = EDGE_CURVE ( 'NONE', #139, #152, #97, .T. ) ;
#196 = DIRECTION ( 'NONE',  ( -0.0000000000000000000, -0.0000000000000000000, -1.000000000000000000 ) ) ;
#197 = CARTESIAN_POINT ( 'NONE',  ( 0.0000000000000000000, 200.0000000000000000, -7.500000000000000000 ) ) ;
#198 = DIRECTION ( 'NONE',  ( 0.0000000000000000000, 0.0000000000000000000, 1.000000000000000000 ) ) ;
#199 = UNCERTAINTY_MEASURE_WITH_UNIT (LENGTH_MEASURE( 1.000000000000000100E-005 ), #192, 'distance_accuracy_value', 'NONE');
#200 = DIRECTION ( 'NONE',  ( 0.0000000000000000000, 0.0000000000000000000, 1.000000000000000000 ) ) ;
#201 = LINE ( 'NONE', #117, #154 ) ;
#202 = PLANE ( 'NONE',  #167 ) ;
#203 = DIRECTION ( 'NONE',  ( 0.0000000000000000000, -1.000000000000000000, 0.0000000000000000000 ) ) ;
#204 = VERTEX_POINT ( 'NONE', #109 ) ;
#205 = AXIS2_PLACEMENT_3D ( 'NONE', #240, #17, #149 ) ;
#206 = AXIS2_PLACEMENT_3D ( 'NONE', #233, #209, #193 ) ;
#207 = CIRCLE ( 'NONE', #168, 10.00000000000000000 ) ;
#208 = DIRECTION ( 'NONE',  ( 0.0000000000000000000, 0.0000000000000000000, -1.000000000000000000 ) ) ;
#209 = DIRECTION ( 'NONE',  ( -1.000000000000000000, 0.0000000000000000000, 0.0000000000000000000 ) ) ;
#210 = CARTESIAN_POINT ( 'NONE',  ( -10.00000000000000000, 1000.000000000000000, -2.500000000000000000 ) ) ;
#211 = FILL_AREA_STYLE ('',( #77 ) ) ;
#212 = CARTESIAN_POINT ( 'NONE',  ( -10.00000000000000000, 200.0000000000000000, -2.500000000000000000 ) ) ;
#213 = CARTESIAN_POINT ( 'NONE',  ( 0.0000000000000000000, 0.0000000000000000000, -7.500000000000000000 ) ) ;
#214 =( NAMED_UNIT ( * ) SI_UNIT ( $, .STERADIAN. ) SOLID_ANGLE_UNIT ( ) );
#215 = AXIS2_PLACEMENT_3D ( 'NONE', #38, #136, #82 ) ;
#216 = DIRECTION ( 'NONE',  ( 0.0000000000000000000, 0.0000000000000000000, -1.000000000000000000 ) ) ;
#217 = PRODUCT_RELATED_PRODUCT_CATEGORY ( 'part', '', ( #65 ) ) ;
#218 = DIRECTION ( 'NONE',  ( 1.000000000000000000, 0.0000000000000000000, 0.0000000000000000000 ) ) ;
#219 = APPLICATION_PROTOCOL_DEFINITION ( 'draft international standard', 'automotive_design', 1998, #102 ) ;
#220 = SHAPE_REPRESENTATION ( 'rubber foam', ( #85 ), #71 ) ;
#221 = VECTOR ( 'NONE', #131, 1000.000000000000000 ) ;
#222 = EDGE_CURVE ( 'NONE', #152, #204, #24, .T. ) ;
#223 = ORIENTED_EDGE ( 'NONE', *, *, #54, .T. ) ;
#224 = MANIFOLD_SOLID_BREP ( '²ÝÎß°Ä1', #153 ) ;
#225 = LINE ( 'NONE', #197, #86 ) ;
#226 = FACE_OUTER_BOUND ( 'NONE', #119, .T. ) ;
#227 = SHAPE_DEFINITION_REPRESENTATION ( #189, #69 ) ;
#228 =( GEOMETRIC_REPRESENTATION_CONTEXT ( 3 ) GLOBAL_UNCERTAINTY_ASSIGNED_CONTEXT ( ( #158 ) ) GLOBAL_UNIT_ASSIGNED_CONTEXT ( ( #118, #81, #134 ) ) REPRESENTATION_CONTEXT ( 'NONE', 'WORKASPACE' ) );
#229 = AXIS2_PLACEMENT_3D ( 'NONE', #74, #179, #232 ) ;
#230 = PRODUCT_DEFINITION_CONTEXT ( 'detailed design', #102, 'design' ) ;
#231 = SURFACE_SIDE_STYLE ('',( #141 ) ) ;
#232 = DIRECTION ( 'NONE',  ( 1.000000000000000000, 0.0000000000000000000, 0.0000000000000000000 ) ) ;
#233 = CARTESIAN_POINT ( 'NONE',  ( -10.00000000000000000, 1000.000000000000000, -2.500000000000000000 ) ) ;
#234 =( LENGTH_UNIT ( ) NAMED_UNIT ( * ) SI_UNIT ( .MILLI., .METRE. ) );
#235 = AXIS2_PLACEMENT_3D ( 'NONE', #184, #133, #216 ) ;
#236 = EDGE_LOOP ( 'NONE', ( #104, #129, #103, #95 ) ) ;
#237 = ORIENTED_EDGE ( 'NONE', *, *, #175, .T. ) ;
#238 = LINE ( 'NONE', #35, #188 ) ;
#239 = SURFACE_STYLE_USAGE ( .BOTH. , #111 ) ;
#240 = CARTESIAN_POINT ( 'NONE',  ( 0.0000000000000000000, 0.0000000000000000000, 0.0000000000000000000 ) ) ;
#241 = NEXT_ASSEMBLY_USAGE_OCCURRENCE ( 'NAUO1', ' ', ' ', #46, #18, $ ) ;
ENDSEC;
END-ISO-10303-21;
