  0
SECTION
  2
HEADER
  9
$ACADVER
  1
AC1015
  9
$DWGCODEPAGE
  3
ANSI_932
  9
$LTSCALE
 40
20.0
  9
$FILLMODE
 70
     1
  9
$CLAYER
  8
0
  9
$PDMODE
 70
     0
  9
$SPLFRAME
 70
     0
  9
$SPLINETYPE
 70
     6
  9
$SPLINESEGS
 70
     8
  9
$DIMASZ
 40
2.000000
  9
$DIMEXE
 40
1.500000
  9
$DIMEXO
 40
0.800000
  9
$DIMTAD
 70
     1
  9
$DIMTIH
 70
     0
  9
$DIMTOH
 70
     0
  9
$DIMTVP
 40
0.500000
  9
$DIMTXT
 40
3.100000
  9
$EXTMIN
 10
0.000000
 20
0.000000
 30
0.000000
  9
$EXTMAX
 10
297.000000
 20
420.000000
 30
0.000000
  9
$MEASUREMENT
 70
  1
  9
$LIMMIN
 10
0.000000
 20
0.000000
  9
$LIMMAX
 10
297.000000
 20
420.000000
  9
$HANDSEED
  5
398
  9
$LWDISPLAY
290
     0
  9
$DIMBLK
  1
_OPEN
  9
$DIMDEC
 70
     2
  9
$DIMADEC
 70
     2
  9
$DIMAUNIT
 70
     0
  9
$DIMZIN
 70
     8
  9
$DIMAZIN
 70
     2
  9
$DIMTOFL
 70
     1
  0
ENDSEC
  0
SECTION
  2
CLASSES
  0
ENDSEC
  0
SECTION
  2
TABLES
  0
TABLE
  2
VPORT
  5
363
100
AcDbSymbolTable
 70
     1
  0
VPORT
  5
364
100
AcDbSymbolTableRecord
100
AcDbViewportTableRecord
  2
*ACTIVE
 70
     0
 12
258.874999
 22
200.500000
 40
471.000000
 41
1.056794
  0
ENDTAB
  0
TABLE
  2
LTYPE
  5
365
100
AcDbSymbolTable
 70
     3
  0
LTYPE
  5
366
100
AcDbSymbolTableRecord
100
AcDbLinetypeTableRecord
  2
BYBLOCK
 70
     0
  3

 72
    65
 73
     0
 40
0.0
  0
LTYPE
  5
367
100
AcDbSymbolTableRecord
100
AcDbLinetypeTableRecord
  2
BYLAYER
 70
     0
  3

 72
    65
 73
     0
 40
0.0
  0
LTYPE
  5
368
100
AcDbSymbolTableRecord
100
AcDbLinetypeTableRecord
  2
CONTINUOUS
 70
     0
  3
Solid line (NEC CAE2D for Win R15.2 : 2020.05.19)
 72
    65
 73
     0
 40
0.0
  0
LTYPE
  5
369
100
AcDbSymbolTableRecord
100
AcDbLinetypeTableRecord
  2
CENTER
 70
     0
  3
____ _ ____ _ ____ _ ____ _ ____ _ ____
 72
    65
 73
     4
 40
2.0
 49
1.25
 74
     0
 49
-0.25
 74
     0
 49
0.25
 74
     0
 49
-0.25
 74
     0
  0
LTYPE
  5
36A
100
AcDbSymbolTableRecord
100
AcDbLinetypeTableRecord
  2
PHANTOM
 70
     0
  3
______  __  __  ______  __  __  ______ 
 72
    65
 73
     6
 40
2.5
 49
1.25
 74
     0
 49
-0.25
 74
     0
 49
0.25
 74
     0
 49
-0.25
 74
     0
 49
0.25
 74
     0
 49
-0.25
 74
     0
  0
ENDTAB
  0
TABLE
  2
LAYER
  5
36B
100
AcDbSymbolTable
 70
    14
  0
LAYER
  5
36C
100
AcDbSymbolTableRecord
100
AcDbLayerTableRecord
  2
0
 70
     0
 62
     7
  6
CONTINUOUS
370
    -3
390

  0
LAYER
  5
36D
100
AcDbSymbolTableRecord
100
AcDbLayerTableRecord
  2
A0
 70
     0
 62
     9
  6
CONTINUOUS
370
    -3
390

  0
LAYER
  5
36E
100
AcDbSymbolTableRecord
100
AcDbLayerTableRecord
  2
A4
 70
     0
 62
     9
  6
CONTINUOUS
370
    -3
390

  0
LAYER
  5
36F
100
AcDbSymbolTableRecord
100
AcDbLayerTableRecord
  2
A5
 70
     0
 62
     8
  6
CONTINUOUS
370
    -3
390

  0
LAYER
  5
370
100
AcDbSymbolTableRecord
100
AcDbLayerTableRecord
  2
A6
 70
     0
 62
    12
  6
CONTINUOUS
370
    -3
390

  0
LAYER
  5
371
100
AcDbSymbolTableRecord
100
AcDbLayerTableRecord
  2
A7
 70
     0
 62
    12
  6
CONTINUOUS
370
    -3
390

  0
LAYER
  5
372
100
AcDbSymbolTableRecord
100
AcDbLayerTableRecord
  2
A8
 70
     0
 62
    10
  6
CONTINUOUS
370
    -3
390

  0
LAYER
  5
373
100
AcDbSymbolTableRecord
100
AcDbLayerTableRecord
  2
A9
 70
     0
 62
     9
  6
CONTINUOUS
370
    -3
390

  0
LAYER
  5
374
100
AcDbSymbolTableRecord
100
AcDbLayerTableRecord
  2
A10
 70
     0
 62
     6
  6
CONTINUOUS
370
    -3
390

  0
LAYER
  5
375
100
AcDbSymbolTableRecord
100
AcDbLayerTableRecord
  2
A20
 70
     0
 62
     1
  6
CONTINUOUS
370
    -3
390

  0
LAYER
  5
376
100
AcDbSymbolTableRecord
100
AcDbLayerTableRecord
  2
A30
 70
     0
 62
     1
  6
CONTINUOUS
370
    -3
390

  0
LAYER
  5
377
100
AcDbSymbolTableRecord
100
AcDbLayerTableRecord
  2
A40
 70
     0
 62
     9
  6
CONTINUOUS
370
    -3
390

  0
LAYER
  5
378
100
AcDbSymbolTableRecord
100
AcDbLayerTableRecord
  2
A50
 70
     0
 62
    12
  6
CONTINUOUS
370
    -3
390

  0
LAYER
  5
379
100
AcDbSymbolTableRecord
100
AcDbLayerTableRecord
  2
A1023
 70
     0
 62
    16
  6
CONTINUOUS
370
    -3
390

  0
ENDTAB
  0
TABLE
  2
STYLE
  5
37A
100
AcDbSymbolTable
 70
     4
  0
STYLE
  5
37B
100
AcDbSymbolTableRecord
100
AcDbTextStyleTableRecord
  2
STANDARD
 70
    64
 40
0.0
 41
1.0
 50
0.0
 71
     0
 42
3.000000000000000
  3
TXT
  4

  0
STYLE
  5
37C
100
AcDbSymbolTableRecord
100
AcDbTextStyleTableRecord
  2
ANKTATE
 70
    68
 40
0.0
 41
1.0
 50
0.0
 71
     0
 42
3.000000000000000
  3
TXT
  4

  0
STYLE
  5
37D
100
AcDbSymbolTableRecord
100
AcDbTextStyleTableRecord
  2
KNJYOKO
 70
    64
 40
0.0
 41
1.0
 50
0.0
 71
     0
 42
3.000000000000000
  3
TXT
  4
BIGFONT
  0
STYLE
  5
37E
100
AcDbSymbolTableRecord
100
AcDbTextStyleTableRecord
  2
KNJTATE
 70
    68
 40
0.0
 41
1.0
 50
0.0
 71
     0
 42
3.000000000000000
  3
TXT
  4
BIGFONT
  0
ENDTAB
  0
TABLE
  2
VIEW
  5
37F
100
AcDbSymbolTable
 70
     0
  0
ENDTAB
  0
TABLE
  2
UCS
  5
380
100
AcDbSymbolTable
 70
     0
  0
ENDTAB
  0
TABLE
  2
APPID
  5
381
100
AcDbSymbolTable
 70
     1
  0
APPID
  5
382
100
AcDbSymbolTableRecord
100
AcDbRegAppTableRecord
  2
ACAD
 70
     0
  0
ENDTAB
  0
TABLE
  2
DIMSTYLE
  5
383
100
AcDbSymbolTable
 70
     2
100
AcDbDimStyleTable
  0
DIMSTYLE
105
384
100
AcDbSymbolTableRecord
100
AcDbDimStyleTableRecord
  2
STANDARD
 70
     0
 41
2.000000
 44
1.500000
 42
0.800000
145
0.661290
140
3.100000
144
1.000000
146
0.645161
340
37B
  0
DIMSTYLE
105
385
100
AcDbSymbolTableRecord
100
AcDbDimStyleTableRecord
  2
A001
 70
     0
 41
2.000000
 44
1.500000
 42
0.800000
145
0.661290
140
3.100000
144
1.000000
146
0.645161
 77
     1
 73
     0
 74
     0
271
     2
179
     2
275
     0
 78
     8
 79
     2
172
     1
340
37B
  0
ENDTAB
  0
TABLE
  2
BLOCK_RECORD
  5
386
100
AcDbSymbolTable
 70
    12
  0
BLOCK_RECORD
  5
387
100
AcDbSymbolTableRecord
100
AcDbBlockTableRecord
  2
*MODEL_SPACE
  0
BLOCK_RECORD
  5
388
100
AcDbSymbolTableRecord
100
AcDbBlockTableRecord
  2
*PAPER_SPACE
  0
BLOCK_RECORD
  5
389
100
AcDbSymbolTableRecord
100
AcDbBlockTableRecord
  2
*PAPER_SPACE0
  0
BLOCK_RECORD
  5
1
100
AcDbSymbolTableRecord
100
AcDbBlockTableRecord
  2
_NONE
  0
BLOCK_RECORD
  5
4
100
AcDbSymbolTableRecord
100
AcDbBlockTableRecord
  2
_CLOSED
  0
BLOCK_RECORD
  5
B
100
AcDbSymbolTableRecord
100
AcDbBlockTableRecord
  2
_DOT
  0
BLOCK_RECORD
  5
13
100
AcDbSymbolTableRecord
100
AcDbBlockTableRecord
  2
_OPEN
  0
BLOCK_RECORD
  5
19
100
AcDbSymbolTableRecord
100
AcDbBlockTableRecord
  2
_ORIGIN
  0
BLOCK_RECORD
  5
1E
100
AcDbSymbolTableRecord
100
AcDbBlockTableRecord
  2
_OPEN30
  0
BLOCK_RECORD
  5
24
100
AcDbSymbolTableRecord
100
AcDbBlockTableRecord
  2
_BOXFILLED
  0
BLOCK_RECORD
  5
29
100
AcDbSymbolTableRecord
100
AcDbBlockTableRecord
  2
_BOXBLANK
  0
BLOCK_RECORD
  5
31
100
AcDbSymbolTableRecord
100
AcDbBlockTableRecord
  2
_OBLIQUE
  0
BLOCK_RECORD
  5
35
100
AcDbSymbolTableRecord
100
AcDbBlockTableRecord
  2
_OPEN90
  0
BLOCK_RECORD
  5
3B
100
AcDbSymbolTableRecord
100
AcDbBlockTableRecord
  2
_CLOSEDBLANK
  0
BLOCK_RECORD
  5
41
100
AcDbSymbolTableRecord
100
AcDbBlockTableRecord
  2
_DOTBLANK
  0
ENDTAB
  0
ENDSEC
  0
SECTION
  2
BLOCKS
  0
BLOCK
  5
38A
100
AcDbEntity
  8
0
100
AcDbBlockBegin
  2
*MODEL_SPACE
 70
     0
 10
0.0
 20
0.0
 30
0.0
  3
*MODEL_SPACE
  1

  0
ENDBLK
  5
38B
100
AcDbEntity
  8
0
100
AcDbBlockEnd
  0
BLOCK
  5
38C
100
AcDbEntity
  8
0
100
AcDbBlockBegin
  2
*PAPER_SPACE
 70
     0
 10
0.0
 20
0.0
 30
0.0
  3
*PAPER_SPACE
  1

  0
ENDBLK
  5
38D
100
AcDbEntity
  8
0
100
AcDbBlockEnd
  0
BLOCK
  5
38E
100
AcDbEntity
  8
0
100
AcDbBlockBegin
  2
*PAPER_SPACE0
 70
     0
 10
0.0
 20
0.0
 30
0.0
  3
*PAPER_SPACE0
  1

  0
ENDBLK
  5
38F
100
AcDbEntity
  8
0
100
AcDbBlockEnd
  0
BLOCK
  5
2
330
1
100
AcDbEntity
  8
0
100
AcDbBlockBegin
  2
_NONE
 70
     0
 10
0.0
 20
0.0
 30
0.0
  3
_NONE
  1

  0
ENDBLK
  5
3
330
1
100
AcDbEntity
  8
0
100
AcDbBlockEnd
  0
BLOCK
  5
5
330
4
100
AcDbEntity
  8
0
100
AcDbBlockBegin
  2
_CLOSED
 70
     0
 10
0.0
 20
0.0
 30
0.0
  3
_CLOSED
  1

  0
LINE
  5
6
330
4
100
AcDbEntity
  8
0
  6
BYBLOCK
 62
     0
370
    -2
100
AcDbLine
 10
-1.0
 20
0.166667
 30
0.0
 11
0.0
 21
0.0
 31
0.0
  0
LINE
  5
7
330
4
100
AcDbEntity
  8
0
  6
BYBLOCK
 62
     0
370
    -2
100
AcDbLine
 10
0.0
 20
0.0
 30
0.0
 11
-1.0
 21
-0.166667
 31
0.0
  0
LINE
  5
8
330
4
100
AcDbEntity
  8
0
  6
BYBLOCK
 62
     0
370
    -2
100
AcDbLine
 10
-1.0
 20
0.166667
 30
0.0
 11
-1.0
 21
-0.166667
 31
0.0
  0
LINE
  5
9
330
4
100
AcDbEntity
  8
0
  6
BYBLOCK
 62
     0
370
    -2
100
AcDbLine
 10
0.0
 20
0.0
 30
0.0
 11
-1.0
 21
0.0
 31
0.0
  0
ENDBLK
  5
A
330
4
100
AcDbEntity
  8
0
100
AcDbBlockEnd
  0
BLOCK
  5
C
330
B
100
AcDbEntity
  8
0
100
AcDbBlockBegin
  2
_DOT
 70
     0
 10
0.0
 20
0.0
 30
0.0
  3
_DOT
  1

  0
POLYLINE
  5
D
330
B
100
AcDbEntity
  8
0
  6
BYBLOCK
 62
     0
370
    -2
100
AcDb2dPolyline
 66
     1
 10
0.0
 20
0.0
 30
0.0
 70
     1
 40
0.5
 41
0.5
  0
VERTEX
  5
E
330
B
100
AcDbEntity
  8
0
  6
BYBLOCK
 62
     0
370
    -2
100
AcDbVertex
100
AcDb2dVertex
 10
-0.25
 20
0.0
 30
0.0
 42
1.0
  0
VERTEX
  5
F
330
B
100
AcDbEntity
  8
0
  6
BYBLOCK
 62
     0
370
    -2
100
AcDbVertex
100
AcDb2dVertex
 10
0.25
 20
0.0
 30
0.0
 42
1.0
  0
SEQEND
  5
10
330
B
100
AcDbEntity
  8
0
  6
BYBLOCK
 62
     0
370
    -2
  0
LINE
  5
11
330
B
100
AcDbEntity
  8
0
  6
BYBLOCK
 62
     0
370
    -2
100
AcDbLine
 10
-0.5
 20
0.0
 30
0.0
 11
-1.0
 21
0.0
 31
0.0
  0
ENDBLK
  5
12
330
B
100
AcDbEntity
  8
0
100
AcDbBlockEnd
  0
BLOCK
  5
14
330
13
100
AcDbEntity
  8
0
100
AcDbBlockBegin
  2
_OPEN
 70
     0
 10
0.0
 20
0.0
 30
0.0
  3
_OPEN
  1

  0
LINE
  5
15
330
13
100
AcDbEntity
  8
0
  6
BYBLOCK
 62
     0
370
    -2
100
AcDbLine
 10
-1.0
 20
0.166667
 30
0.0
 11
0.0
 21
0.0
 31
0.0
  0
LINE
  5
16
330
13
100
AcDbEntity
  8
0
  6
BYBLOCK
 62
     0
370
    -2
100
AcDbLine
 10
0.0
 20
0.0
 30
0.0
 11
-1.0
 21
-0.166667
 31
0.0
  0
LINE
  5
17
330
13
100
AcDbEntity
  8
0
  6
BYBLOCK
 62
     0
370
    -2
100
AcDbLine
 10
0.0
 20
0.0
 30
0.0
 11
-1.0
 21
0.0
 31
0.0
  0
ENDBLK
  5
18
330
13
100
AcDbEntity
  8
0
100
AcDbBlockEnd
  0
BLOCK
  5
1A
330
19
100
AcDbEntity
  8
0
100
AcDbBlockBegin
  2
_ORIGIN
 70
     0
 10
0.0
 20
0.0
 30
0.0
  3
_ORIGIN
  1

  0
CIRCLE
  5
1B
330
19
100
AcDbEntity
  8
0
  6
BYBLOCK
 62
     0
370
    -2
100
AcDbCircle
 10
0.0
 20
0.0
 30
0.0
 40
0.5
  0
LINE
  5
1C
330
19
100
AcDbEntity
  8
0
  6
BYBLOCK
 62
     0
370
    -2
100
AcDbLine
 10
0.0
 20
0.0
 30
0.0
 11
-1.0
 21
0.0
 31
0.0
  0
ENDBLK
  5
1D
330
19
100
AcDbEntity
  8
0
100
AcDbBlockEnd
  0
BLOCK
  5
1F
330
1E
100
AcDbEntity
  8
0
100
AcDbBlockBegin
  2
_OPEN30
 70
     0
 10
0.0
 20
0.0
 30
0.0
  3
_OPEN30
  1

  0
LINE
  5
20
330
1E
100
AcDbEntity
  8
0
  6
BYBLOCK
 62
     0
370
    -2
100
AcDbLine
 10
-1.0
 20
0.267949
 30
0.0
 11
0.0
 21
0.0
 31
0.0
  0
LINE
  5
21
330
1E
100
AcDbEntity
  8
0
  6
BYBLOCK
 62
     0
370
    -2
100
AcDbLine
 10
0.0
 20
0.0
 30
0.0
 11
-1.0
 21
-0.267949
 31
0.0
  0
LINE
  5
22
330
1E
100
AcDbEntity
  8
0
  6
BYBLOCK
 62
     0
370
    -2
100
AcDbLine
 10
0.0
 20
0.0
 30
0.0
 11
-1.0
 21
0.0
 31
0.0
  0
ENDBLK
  5
23
330
1E
100
AcDbEntity
  8
0
100
AcDbBlockEnd
  0
BLOCK
  5
25
330
24
100
AcDbEntity
  8
0
100
AcDbBlockBegin
  2
_BOXFILLED
 70
     0
 10
0.0
 20
0.0
 30
0.0
  3
_BOXFILLED
  1

  0
SOLID
  5
26
330
24
100
AcDbEntity
  8
0
  6
BYBLOCK
 62
     0
370
    -2
100
AcDbTrace
 10
-0.5
 20
0.5
 30
0.0
 11
0.5
 21
0.5
 31
0.0
 12
-0.5
 22
-0.5
 32
0.0
 13
0.5
 23
-0.5
 33
0.0
  0
LINE
  5
27
330
24
100
AcDbEntity
  8
0
  6
BYBLOCK
 62
     0
370
    -2
100
AcDbLine
 10
-0.5
 20
0.0
 30
0.0
 11
-1.0
 21
0.0
 31
0.0
  0
ENDBLK
  5
28
330
24
100
AcDbEntity
  8
0
100
AcDbBlockEnd
  0
BLOCK
  5
2A
330
29
100
AcDbEntity
  8
0
100
AcDbBlockBegin
  2
_BOXBLANK
 70
     0
 10
0.0
 20
0.0
 30
0.0
  3
_BOXBLANK
  1

  0
LINE
  5
2B
330
29
100
AcDbEntity
  8
0
  6
BYBLOCK
 62
     0
370
    -2
100
AcDbLine
 10
-0.5
 20
-0.5
 30
0.0
 11
0.5
 21
-0.5
 31
0.0
  0
LINE
  5
2C
330
29
100
AcDbEntity
  8
0
  6
BYBLOCK
 62
     0
370
    -2
100
AcDbLine
 10
0.5
 20
-0.5
 30
0.0
 11
0.5
 21
0.5
 31
0.0
  0
LINE
  5
2D
330
29
100
AcDbEntity
  8
0
  6
BYBLOCK
 62
     0
370
    -2
100
AcDbLine
 10
0.5
 20
0.5
 30
0.0
 11
-0.5
 21
0.5
 31
0.0
  0
LINE
  5
2E
330
29
100
AcDbEntity
  8
0
  6
BYBLOCK
 62
     0
370
    -2
100
AcDbLine
 10
-0.5
 20
0.5
 30
0.0
 11
-0.5
 21
-0.5
 31
0.0
  0
LINE
  5
2F
330
29
100
AcDbEntity
  8
0
  6
BYBLOCK
 62
     0
370
    -2
100
AcDbLine
 10
-0.5
 20
0.0
 30
0.0
 11
-1.0
 21
0.0
 31
0.0
  0
ENDBLK
  5
30
330
29
100
AcDbEntity
  8
0
100
AcDbBlockEnd
  0
BLOCK
  5
32
330
31
100
AcDbEntity
  8
0
100
AcDbBlockBegin
  2
_OBLIQUE
 70
     0
 10
0.0
 20
0.0
 30
0.0
  3
_OBLIQUE
  1

  0
LINE
  5
33
330
31
100
AcDbEntity
  8
0
  6
BYBLOCK
 62
     0
370
    -2
100
AcDbLine
 10
-0.5
 20
-0.5
 30
0.0
 11
0.5
 21
0.5
 31
0.0
  0
ENDBLK
  5
34
330
31
100
AcDbEntity
  8
0
100
AcDbBlockEnd
  0
BLOCK
  5
36
330
35
100
AcDbEntity
  8
0
100
AcDbBlockBegin
  2
_OPEN90
 70
     0
 10
0.0
 20
0.0
 30
0.0
  3
_OPEN90
  1

  0
LINE
  5
37
330
35
100
AcDbEntity
  8
0
  6
BYBLOCK
 62
     0
370
    -2
100
AcDbLine
 10
-0.5
 20
0.5
 30
0.0
 11
0.0
 21
0.0
 31
0.0
  0
LINE
  5
38
330
35
100
AcDbEntity
  8
0
  6
BYBLOCK
 62
     0
370
    -2
100
AcDbLine
 10
0.0
 20
0.0
 30
0.0
 11
-0.5
 21
-0.5
 31
0.0
  0
LINE
  5
39
330
35
100
AcDbEntity
  8
0
  6
BYBLOCK
 62
     0
370
    -2
100
AcDbLine
 10
0.0
 20
0.0
 30
0.0
 11
-1.0
 21
0.0
 31
0.0
  0
ENDBLK
  5
3A
330
35
100
AcDbEntity
  8
0
100
AcDbBlockEnd
  0
BLOCK
  5
3C
330
3B
100
AcDbEntity
  8
0
100
AcDbBlockBegin
  2
_CLOSEDBLANK
 70
     0
 10
0.0
 20
0.0
 30
0.0
  3
_CLOSEDBLANK
  1

  0
LINE
  5
3D
330
3B
100
AcDbEntity
  8
0
  6
BYBLOCK
 62
     0
370
    -2
100
AcDbLine
 10
-1.0
 20
0.1666666666666666
 30
0.0
 11
0.0
 21
0.0
 31
0.0
  0
LINE
  5
3E
330
3B
100
AcDbEntity
  8
0
  6
BYBLOCK
 62
     0
370
    -2
100
AcDbLine
 10
0.0
 20
0.0
 30
0.0
 11
-1.0
 21
-0.1666666666666666
 31
0.0
  0
LINE
  5
3F
330
3B
100
AcDbEntity
  8
0
  6
BYBLOCK
 62
     0
370
    -2
100
AcDbLine
 10
-1.0
 20
0.1666666666666666
 30
0.0
 11
-1.0
 21
-0.1666666666666666
 31
0.0
  0
ENDBLK
  5
40
330
3B
100
AcDbEntity
  8
0
100
AcDbBlockEnd
  0
BLOCK
  5
42
330
41
100
AcDbEntity
  8
0
100
AcDbBlockBegin
  2
_DOTBLANK
 70
     0
 10
0.0
 20
0.0
 30
0.0
  3
_DOTBLANK
  1

  0
CIRCLE
  5
43
330
41
100
AcDbEntity
  8
0
  6
BYBLOCK
 62
     0
370
    -2
100
AcDbCircle
 10
0.0
 20
0.0
 30
0.0
 40
0.5
  0
LINE
  5
44
330
41
100
AcDbEntity
  8
0
  6
BYBLOCK
 62
     0
370
    -2
100
AcDbLine
 10
-0.5
 20
0.0
 30
0.0
 11
-1.0
 21
0.0
 31
0.0
  0
ENDBLK
  5
45
330
41
100
AcDbEntity
  8
0
100
AcDbBlockEnd
  0
ENDSEC
  0
SECTION
  2
ENTITIES
  0
MTEXT
  5
46
100
AcDbEntity
  8
A8
  6
CONTINUOUS
 62
7
100
AcDbMText
 10
9.999997526638502
 20
18.00000076076889
 30
0.0000000000000000
 40
3.000000000000000
 41
0.0000000000000000
 44
0.6739999771118164
 71
     7
 72
     1
  1
{\H0.94x;{TYPE No.TM-360-50-5}}
 11
1.000000000000000
 21
0.0000000000000000
 31
0.0000000000000000
  7
STANDARD
  0
POINT
  5
47
100
AcDbEntity
  8
A0
  6
CONTINUOUS
 62
5
100
AcDbPoint
 10
9.999997526638502
 20
18.00000076076889
 30
0.0000000000000000
  0
POINT
  5
48
100
AcDbEntity
  8
A10
  6
CONTINUOUS
 62
5
100
AcDbPoint
 10
50.00000000000000
 20
50.00000000000000
 30
0.0000000000000000
  0
ARC
  5
49
100
AcDbEntity
  8
A4
  6
CONTINUOUS
 62
7
100
AcDbCircle
 10
202.8000030261802
 20
330.9999999999999
 30
0.0000000000000000
 40
0.5000000000000000
100
AcDbArc
 50
0.0000000000000000
 51
90.00000000000000
  0
ARC
  5
4A
100
AcDbEntity
  8
A4
  6
CONTINUOUS
 62
7
100
AcDbCircle
 10
202.8000030261802
 20
315.9999999999999
 30
0.0000000000000000
 40
0.5000000000000000
100
AcDbArc
 50
270.0000000000000
 51
360.0000000000000
  0
ARC
  5
4B
100
AcDbEntity
  8
A4
  6
CONTINUOUS
 62
7
100
AcDbCircle
 10
200.8000030261801
 20
330.9999999999999
 30
0.0000000000000000
 40
0.5000000000000000
100
AcDbArc
 50
90.00000000000000
 51
180.0000000000000
  0
ARC
  5
4C
100
AcDbEntity
  8
A4
  6
CONTINUOUS
 62
7
100
AcDbCircle
 10
200.8000030261801
 20
315.9999999999999
 30
0.0000000000000000
 40
0.5000000000000000
100
AcDbArc
 50
180.0000000000000
 51
270.0000000000000
  0
LINE
  5
4D
100
AcDbEntity
  8
A4
  6
CONTINUOUS
 62
7
100
AcDbLine
 10
200.3000030261801
 20
315.9999999999999
 30
0.0000000000000000
 11
200.3000030261801
 21
330.9999999999999
 31
0.0000000000000000
  0
LINE
  5
4E
100
AcDbEntity
  8
A4
  6
CONTINUOUS
 62
7
100
AcDbLine
 10
202.8000030261802
 20
331.4999999999999
 30
0.0000000000000000
 11
200.8000030261801
 21
331.4999999999999
 31
0.0000000000000000
  0
LINE
  5
4F
100
AcDbEntity
  8
A4
  6
CONTINUOUS
 62
7
100
AcDbLine
 10
200.8000030261801
 20
315.4999999999999
 30
0.0000000000000000
 11
202.8000030261802
 21
315.4999999999999
 31
0.0000000000000000
  0
CIRCLE
  5
50
100
AcDbEntity
  8
A4
  6
CONTINUOUS
 62
7
100
AcDbCircle
 10
223.0000150261800
 20
343.5000000000001
 30
0.0000000000000000
 40
3.500000000000000
  0
CIRCLE
  5
51
100
AcDbEntity
  8
A4
  6
CONTINUOUS
 62
7
100
AcDbCircle
 10
223.0000150261800
 20
303.5000000000001
 30
0.0000000000000000
 40
3.500000000000000
  0
ARC
  5
52
100
AcDbEntity
  8
A4
  6
CONTINUOUS
 62
7
100
AcDbCircle
 10
212.5000150261799
 20
310.0000000000001
 30
0.0000000000000000
 40
0.5000000000000000
100
AcDbArc
 50
0.0000000000000000
 51
90.00000000000000
  0
ARC
  5
53
100
AcDbEntity
  8
A4
  6
CONTINUOUS
 62
7
100
AcDbCircle
 10
223.0000150261800
 20
303.5000000000001
 30
0.0000000000000000
 40
10.00000000000000
100
AcDbArc
 50
180.0000000000000
 51
359.9999999999997
  0
ARC
  5
54
100
AcDbEntity
  8
A4
  6
CONTINUOUS
 62
7
100
AcDbCircle
 10
223.0000150261800
 20
343.5000000000001
 30
0.0000000000000000
 40
10.00000000000001
100
AcDbArc
 50
359.9999999999998
 51
540.0000000000000
  0
ARC
  5
55
100
AcDbEntity
  8
A4
  6
CONTINUOUS
 62
7
100
AcDbCircle
 10
212.5000150261799
 20
337.0000000000001
 30
0.0000000000000000
 40
0.5000000000000000
100
AcDbArc
 50
270.0000000000000
 51
360.0000000000000
  0
LINE
  5
56
100
AcDbEntity
  8
A4
  6
CONTINUOUS
 62
7
100
AcDbLine
 10
212.2000150261800
 20
336.5000000000001
 30
0.0000000000000000
 11
212.5000150261799
 21
336.5000000000001
 31
0.0000000000000000
  0
LINE
  5
57
100
AcDbEntity
  8
A4
  6
CONTINUOUS
 62
7
100
AcDbLine
 10
212.5000150261799
 20
310.5000000000001
 30
0.0000000000000000
 11
212.2000150261800
 21
310.5000000000001
 31
0.0000000000000000
  0
LINE
  5
58
100
AcDbEntity
  8
A4
  6
CONTINUOUS
 62
7
100
AcDbLine
 10
213.0000150261800
 20
303.5000000000001
 30
0.0000000000000000
 11
213.0000150261800
 21
310.0000000000001
 31
0.0000000000000000
  0
LINE
  5
59
100
AcDbEntity
  8
A4
  6
CONTINUOUS
 62
7
100
AcDbLine
 10
233.0000150261800
 20
343.4999999999999
 30
0.0000000000000000
 11
233.0000150261797
 21
303.4999999999999
 31
0.0000000000000000
  0
LINE
  5
5A
100
AcDbEntity
  8
A4
  6
CONTINUOUS
 62
7
100
AcDbLine
 10
213.0000150261799
 20
337.0000000000001
 30
0.0000000000000000
 11
213.0000150261800
 21
343.5000000000001
 31
0.0000000000000000
  0
LINE
  5
5B
100
AcDbEntity
  8
A4
  6
CONTINUOUS
 62
7
100
AcDbLine
 10
209.0000150261800
 20
336.5000000000001
 30
0.0000000000000000
 11
212.2000150261800
 21
336.5000000000001
 31
0.0000000000000000
  0
LINE
  5
5C
100
AcDbEntity
  8
A4
  6
CONTINUOUS
 62
7
100
AcDbLine
 10
212.2000150261800
 20
310.5000000000001
 30
0.0000000000000000
 11
209.0000150261800
 21
310.5000000000001
 31
0.0000000000000000
  0
LINE
  5
5D
100
AcDbEntity
  8
A4
  6
CONTINUOUS
 62
7
100
AcDbLine
 10
209.0000150261800
 20
310.5000000000001
 30
0.0000000000000000
 11
209.0000150261800
 21
336.5000000000001
 31
0.0000000000000000
  0
ARC
  5
5E
100
AcDbEntity
  8
A4
  6
CONTINUOUS
 62
7
100
AcDbCircle
 10
200.8000030261801
 20
85.00000000000000
 30
0.0000000000000000
 40
0.5000000000000000
100
AcDbArc
 50
90.00000000000000
 51
180.0000000000000
  0
ARC
  5
5F
100
AcDbEntity
  8
A4
  6
CONTINUOUS
 62
7
100
AcDbCircle
 10
200.8000030261801
 20
69.99999999999997
 30
0.0000000000000000
 40
0.5000000000000000
100
AcDbArc
 50
180.0000000000000
 51
270.0000000000000
  0
ARC
  5
60
100
AcDbEntity
  8
A4
  6
CONTINUOUS
 62
7
100
AcDbCircle
 10
202.8000030261802
 20
85.00000000000000
 30
0.0000000000000000
 40
0.5000000000000000
100
AcDbArc
 50
0.0000000000000000
 51
90.00000000000000
  0
ARC
  5
61
100
AcDbEntity
  8
A4
  6
CONTINUOUS
 62
7
100
AcDbCircle
 10
202.8000030261802
 20
69.99999999999997
 30
0.0000000000000000
 40
0.5000000000000000
100
AcDbArc
 50
270.0000000000000
 51
360.0000000000000
  0
LINE
  5
62
100
AcDbEntity
  8
A4
  6
CONTINUOUS
 62
7
100
AcDbLine
 10
213.0000030261803
 20
81.75000000000000
 30
0.0000000000000000
 11
212.2000150261801
 21
81.75000000000000
 31
0.0000000000000000
  0
LINE
  5
63
100
AcDbEntity
  8
A4
  6
CONTINUOUS
 62
7
100
AcDbLine
 10
212.2000150261801
 20
73.25000000000000
 30
0.0000000000000000
 11
213.0000030261803
 21
73.25000000000000
 31
0.0000000000000000
  0
LINE
  5
64
100
AcDbEntity
  8
A4
  6
CONTINUOUS
 62
7
100
AcDbLine
 10
213.0000030261803
 20
73.25000000000000
 30
0.0000000000000000
 11
213.0000030261803
 21
81.75000000000000
 31
0.0000000000000000
  0
LINE
  5
65
100
AcDbEntity
  8
A4
  6
CONTINUOUS
 62
7
100
AcDbLine
 10
202.8000030261802
 20
85.50000000000000
 30
0.0000000000000000
 11
200.8000030261801
 21
85.50000000000000
 31
0.0000000000000000
  0
LINE
  5
66
100
AcDbEntity
  8
A4
  6
CONTINUOUS
 62
7
100
AcDbLine
 10
200.8000030261801
 20
69.49999999999997
 30
0.0000000000000000
 11
202.8000030261802
 21
69.49999999999997
 31
0.0000000000000000
  0
LINE
  5
67
100
AcDbEntity
  8
A4
  6
CONTINUOUS
 62
7
100
AcDbLine
 10
200.3000030261801
 20
70.00000000000000
 30
0.0000000000000000
 11
200.3000030261801
 21
85.00000000000000
 31
0.0000000000000000
  0
ARC
  5
68
100
AcDbEntity
  8
A4
  6
CONTINUOUS
 62
7
100
AcDbCircle
 10
211.8000150261800
 20
59.00748611742513
 30
0.0000000000000000
 40
5.200000000000001
100
AcDbArc
 50
0.0000000000000000
 51
40.81705527646886
  0
ARC
  5
69
100
AcDbEntity
  8
A4
  6
CONTINUOUS
 62
7
100
AcDbCircle
 10
214.2000150261801
 20
67.24387017807713
 30
0.0000000000000000
 40
2.000000000000000
100
AcDbArc
 50
180.0000000000000
 51
220.8170552764666
  0
ARC
  5
6A
100
AcDbEntity
  8
A4
  6
CONTINUOUS
 62
7
100
AcDbCircle
 10
214.2000150261801
 20
87.75612982192283
 30
0.0000000000000000
 40
1.999999999999998
100
AcDbArc
 50
139.1829447235295
 51
180.0000000000000
  0
ARC
  5
6B
100
AcDbEntity
  8
A4
  6
CONTINUOUS
 62
7
100
AcDbCircle
 10
211.8000150261800
 20
95.99251388257483
 30
0.0000000000000000
 40
5.200000000000003
100
AcDbArc
 50
319.1829447235326
 51
360.0000000000000
  0
ARC
  5
6C
100
AcDbEntity
  8
A4
  6
CONTINUOUS
 62
7
100
AcDbCircle
 10
211.8000150261800
 20
95.99251388257483
 30
0.0000000000000000
 40
1.999999999999998
100
AcDbArc
 50
319.1829447235313
 51
360.0000000000000
  0
ARC
  5
6D
100
AcDbEntity
  8
A4
  6
CONTINUOUS
 62
7
100
AcDbCircle
 10
214.2000150261801
 20
87.75612982192283
 30
0.0000000000000000
 40
5.200000000000003
100
AcDbArc
 50
139.1829447235326
 51
180.0000000000000
  0
ARC
  5
6E
100
AcDbEntity
  8
A4
  6
CONTINUOUS
 62
7
100
AcDbCircle
 10
214.2000150261801
 20
67.24387017807713
 30
0.0000000000000000
 40
5.200000000000001
100
AcDbArc
 50
180.0000000000000
 51
220.8170552764698
  0
ARC
  5
6F
100
AcDbEntity
  8
A4
  6
CONTINUOUS
 62
7
100
AcDbCircle
 10
211.8000150261800
 20
59.00748611742513
 30
0.0000000000000000
 40
2.000000000000000
100
AcDbArc
 50
0.0000000000000000
 51
40.81705527646794
  0
LINE
  5
70
100
AcDbEntity
  8
A4
  6
CONTINUOUS
 62
7
100
AcDbLine
 10
217.0000150261800
 20
117.5000000000000
 30
0.0000000000000000
 11
213.8000150261800
 21
117.5000000000000
 31
0.0000000000000000
  0
LINE
  5
71
100
AcDbEntity
  8
A4
  6
CONTINUOUS
 62
7
100
AcDbLine
 10
217.0000150261800
 20
117.5000000000000
 30
0.0000000000000000
 11
217.0000150261800
 21
105.0000000000000
 31
0.0000000000000000
  0
LINE
  5
72
100
AcDbEntity
  8
A4
  6
CONTINUOUS
 62
7
100
AcDbLine
 10
213.8000150261800
 20
117.5000000000000
 30
0.0000000000000000
 11
213.8000150261800
 21
105.0000000000000
 31
0.0000000000000000
  0
LINE
  5
73
100
AcDbEntity
  8
A4
  6
CONTINUOUS
 62
7
100
AcDbLine
 10
213.8000150261800
 20
95.99251388257481
 30
0.0000000000000000
 11
213.8000150261800
 21
105.0000000000000
 31
0.0000000000000000
  0
LINE
  5
74
100
AcDbEntity
  8
A4
  6
CONTINUOUS
 62
7
100
AcDbLine
 10
217.0000150261800
 20
105.0000000000000
 30
0.0000000000000000
 11
217.0000150261800
 21
95.99251388257483
 31
0.0000000000000000
  0
LINE
  5
75
100
AcDbEntity
  8
A4
  6
CONTINUOUS
 62
7
100
AcDbLine
 10
213.8000150261800
 20
49.99999999999996
 30
0.0000000000000000
 11
213.8000150261800
 21
59.00748611742514
 31
0.0000000000000000
  0
LINE
  5
76
100
AcDbEntity
  8
A4
  6
CONTINUOUS
 62
7
100
AcDbLine
 10
217.0000150261800
 20
59.00748611742513
 30
0.0000000000000000
 11
217.0000150261800
 21
49.99999999999996
 31
0.0000000000000000
  0
LINE
  5
77
100
AcDbEntity
  8
A4
  6
CONTINUOUS
 62
7
100
AcDbLine
 10
212.6864139903219
 20
65.93657835746141
 30
0.0000000000000000
 11
215.7353777194113
 21
62.40644485102627
 31
0.0000000000000000
  0
LINE
  5
78
100
AcDbEntity
  8
A4
  6
CONTINUOUS
 62
7
100
AcDbLine
 10
212.2000150261801
 20
87.75612982192283
 30
0.0000000000000000
 11
212.2000150261801
 21
67.24387017807713
 31
0.0000000000000000
  0
LINE
  5
79
100
AcDbEntity
  8
A4
  6
CONTINUOUS
 62
7
100
AcDbLine
 10
215.7353777194114
 20
92.59355514897382
 30
0.0000000000000000
 11
212.6864139903219
 21
89.06342164253874
 31
0.0000000000000000
  0
LINE
  5
7A
100
AcDbEntity
  8
A4
  6
CONTINUOUS
 62
7
100
AcDbLine
 10
210.2646523329487
 20
91.15508855552383
 30
0.0000000000000000
 11
213.3136160620383
 21
94.68522206195891
 31
0.0000000000000000
  0
LINE
  5
7B
100
AcDbEntity
  8
A4
  6
CONTINUOUS
 62
7
100
AcDbLine
 10
209.0000150261801
 20
67.24387017807713
 30
0.0000000000000000
 11
209.0000150261800
 21
87.75612982192281
 31
0.0000000000000000
  0
LINE
  5
7C
100
AcDbEntity
  8
A4
  6
CONTINUOUS
 62
7
100
AcDbLine
 10
213.3136160620382
 20
60.31477793804093
 30
0.0000000000000000
 11
210.2646523329486
 21
63.84491144447573
 31
0.0000000000000000
  0
LINE
  5
7D
100
AcDbEntity
  8
A4
  6
CONTINUOUS
 62
7
100
AcDbLine
 10
213.8000150261800
 20
49.99999999999996
 30
0.0000000000000000
 11
213.8000150261800
 21
37.49999999999996
 31
0.0000000000000000
  0
LINE
  5
7E
100
AcDbEntity
  8
A4
  6
CONTINUOUS
 62
7
100
AcDbLine
 10
217.0000150261800
 20
49.99999999999996
 30
0.0000000000000000
 11
217.0000150261800
 21
37.49999999999996
 31
0.0000000000000000
  0
LINE
  5
7F
100
AcDbEntity
  8
A4
  6
CONTINUOUS
 62
7
100
AcDbLine
 10
213.8000150261800
 20
37.49999999999994
 30
0.0000000000000000
 11
217.0000150261800
 21
37.49999999999994
 31
0.0000000000000000
  0
LINE
  5
80
100
AcDbEntity
  8
A4
  6
CONTINUOUS
 62
7
100
AcDbLine
 10
207.0000000261799
 20
67.50000000000003
 30
0.0000000000000000
 11
207.0000000261799
 21
81.85889894354094
 31
0.0000000000000000
  0
LINE
  5
81
100
AcDbEntity
  8
A4
  6
CONTINUOUS
 62
7
100
AcDbLine
 10
207.0000000261799
 20
67.50000000000000
 30
0.0000000000000000
 11
209.0000150261799
 21
67.50000000000000
 31
0.0000000000000000
  0
LINE
  5
82
100
AcDbEntity
  8
A4
  6
CONTINUOUS
 62
7
100
AcDbLine
 10
209.0000150261799
 20
87.50000000000003
 30
0.0000000000000000
 11
207.0000000261799
 21
87.50000000000003
 31
0.0000000000000000
  0
LINE
  5
83
100
AcDbEntity
  8
A4
  6
CONTINUOUS
 62
7
100
AcDbLine
 10
207.0000000261799
 20
319.1411010564590
 30
0.0000000000000000
 11
207.0000000261799
 21
333.5000000000001
 31
0.0000000000000000
  0
LINE
  5
84
100
AcDbEntity
  8
A4
  6
CONTINUOUS
 62
7
100
AcDbLine
 10
207.0000000261799
 20
313.5000000000001
 30
0.0000000000000000
 11
209.0000150261799
 21
313.5000000000001
 31
0.0000000000000000
  0
LINE
  5
85
100
AcDbEntity
  8
A4
  6
CONTINUOUS
 62
7
100
AcDbLine
 10
209.0000150261799
 20
333.5000000000001
 30
0.0000000000000000
 11
207.0000000261799
 21
333.5000000000001
 31
0.0000000000000000
  0
LINE
  5
86
100
AcDbEntity
  8
A4
  6
CONTINUOUS
 62
7
100
AcDbLine
 10
203.3000030261801
 20
85.50000000000003
 30
0.0000000000000000
 11
203.3000030261801
 21
69.50000000000003
 31
0.0000000000000000
  0
LINE
  5
87
100
AcDbEntity
  8
A4
  6
CONTINUOUS
 62
7
100
AcDbLine
 10
203.3000030261801
 20
69.50000000000000
 30
0.0000000000000000
 11
203.8000030261800
 21
69.50000000000000
 31
0.0000000000000000
  0
LINE
  5
88
100
AcDbEntity
  8
A4
  6
CONTINUOUS
 62
7
100
AcDbLine
 10
203.8000030261800
 20
85.50000000000003
 30
0.0000000000000000
 11
203.3000030261801
 21
85.50000000000003
 31
0.0000000000000000
  0
LINE
  5
89
100
AcDbEntity
  8
A4
  6
CONTINUOUS
 62
7
100
AcDbLine
 10
203.3000030261801
 20
331.5000000000001
 30
0.0000000000000000
 11
203.3000030261801
 21
315.5000000000001
 31
0.0000000000000000
  0
LINE
  5
8A
100
AcDbEntity
  8
A4
  6
CONTINUOUS
 62
7
100
AcDbLine
 10
203.3000030261801
 20
315.5000000000001
 30
0.0000000000000000
 11
203.8000030261800
 21
315.5000000000001
 31
0.0000000000000000
  0
LINE
  5
8B
100
AcDbEntity
  8
A4
  6
CONTINUOUS
 62
7
100
AcDbLine
 10
203.8000030261800
 20
331.5000000000001
 30
0.0000000000000000
 11
203.3000030261801
 21
331.5000000000001
 31
0.0000000000000000
  0
ELLIPSE
  5
8C
100
AcDbEntity
  8
A4
  6
CONTINUOUS
 62
7
100
AcDbEllipse
 10
197.9149717508298
 20
296.5702797103335
 30
0.0000000000000000
 11
3.065911231597331
 21
8.739080125708616
 31
0.0000000000000000
210
0.0000000000000000
220
0.0000000000000000
230
1.000000000000000
 40
0.3606766711266626
 41
0.5425271204003624
 42
0.9270375776577806
  0
ELLIPSE
  5
8D
100
AcDbEntity
  8
A4
  6
CONTINUOUS
 62
7
100
AcDbEllipse
 10
197.9149717508298
 20
292.0922440965283
 30
0.0000000000000000
 11
3.065911231597334
 21
8.739080125708629
 31
0.0000000000000000
210
0.0000000000000000
220
0.0000000000000000
230
1.000000000000000
 40
0.3606766711266622
 41
0.5425271204004442
 42
0.6976208595731773
  0
ELLIPSE
  5
8E
100
AcDbEntity
  8
A4
  6
CONTINUOUS
 62
7
100
AcDbEllipse
 10
197.9149717508299
 20
104.4297232896664
 30
0.0000000000000000
 11
3.065911231597428
 21
-8.739080125708897
 31
0.0000000000000000
210
0.0000000000000000
220
0.0000000000000000
230
1.000000000000000
 40
0.3606766711266628
 41
5.356147729521741
 42
5.740658186779099
  0
ELLIPSE
  5
8F
100
AcDbEntity
  8
A4
  6
CONTINUOUS
 62
7
100
AcDbEllipse
 10
197.9149717508299
 20
108.9077559034718
 30
0.0000000000000000
 11
3.065911231597431
 21
-8.739080125708908
 31
0.0000000000000000
210
0.0000000000000000
220
0.0000000000000000
230
1.000000000000000
 40
0.3606766711266622
 41
5.585564447606385
 42
5.740658186779259
  0
ARC
  5
90
100
AcDbEntity
  8
A4
  6
CONTINUOUS
 62
7
100
AcDbCircle
 10
202.0000000261799
 20
303.7399803852969
 30
0.0000000000000000
 40
5.000000000000000
100
AcDbArc
 50
301.9060938295485
 51
360.0001430213593
  0
ARC
  5
91
100
AcDbEntity
  8
A4
  6
CONTINUOUS
 62
7
100
AcDbCircle
 10
192.5000000261799
 20
166.0000149999999
 30
0.0000000000000000
 40
1.000000000000000
100
AcDbArc
 50
270.0000000000000
 51
450.0000000000000
  0
ARC
  5
92
100
AcDbEntity
  8
A4
  6
CONTINUOUS
 62
7
100
AcDbCircle
 10
207.5000000261801
 20
166.0000149999999
 30
0.0000000000000000
 40
1.000000000000000
100
AcDbArc
 50
90.00000000000000
 51
270.0000000000000
  0
ARC
  5
93
100
AcDbEntity
  8
A4
  6
CONTINUOUS
 62
7
100
AcDbCircle
 10
192.5000000261799
 20
179.5000149999999
 30
0.0000000000000000
 40
1.000000000000000
100
AcDbArc
 50
270.0000000000000
 51
450.0000029999997
  0
ARC
  5
94
100
AcDbEntity
  8
A4
  6
CONTINUOUS
 62
7
100
AcDbCircle
 10
207.5000000261801
 20
179.5000149999999
 30
0.0000000000000000
 40
1.000000000000000
100
AcDbArc
 50
89.99999700000036
 51
270.0000000000000
  0
ARC
  5
95
100
AcDbEntity
  8
A4
  6
CONTINUOUS
 62
7
100
AcDbCircle
 10
202.0000000261799
 20
96.50000000000000
 30
0.0000000000000000
 40
4.999999999999999
100
AcDbArc
 50
2.117000000000000e-12
 51
90.00000000000000
  0
ARC
  5
96
100
AcDbEntity
  8
A4
  6
CONTINUOUS
 62
7
100
AcDbCircle
 10
202.0000000261799
 20
304.5000000000001
 30
0.0000000000000000
 40
4.999999999999999
100
AcDbArc
 50
270.0000000000000
 51
359.9999999999977
  0
LINE
  5
97
100
AcDbEntity
  8
A4
  6
CONTINUOUS
 62
7
100
AcDbLine
 10
196.5000000261800
 20
159.5000149999999
 30
0.0000000000000000
 11
196.5000000261800
 21
101.5000000000000
 31
0.0000000000000000
  0
LINE
  5
98
100
AcDbEntity
  8
A4
  6
CONTINUOUS
 62
7
100
AcDbLine
 10
203.5000000261800
 20
101.5000000000000
 30
0.0000000000000000
 11
203.5000000261800
 21
159.5000149999999
 31
0.0000000000000000
  0
LINE
  5
99
100
AcDbEntity
  8
A4
  6
CONTINUOUS
 62
7
100
AcDbLine
 10
203.5000000261800
 20
101.5000000000000
 30
0.0000000000000000
 11
202.0000000261799
 21
101.5000000000000
 31
0.0000000000000000
  0
LINE
  5
9A
100
AcDbEntity
  8
A4
  6
CONTINUOUS
 62
7
100
AcDbLine
 10
207.0000000261799
 20
303.7399801791336
 30
0.0000000000000000
 11
207.0000000261799
 21
304.5000000000001
 31
0.0000000000000000
  0
LINE
  5
9B
100
AcDbEntity
  8
A4
  6
CONTINUOUS
 62
7
100
AcDbLine
 10
193.5000000261799
 20
160.5000149999999
 30
0.0000000000000000
 11
193.5000000261799
 21
159.5000149999999
 31
0.0000000000000000
  0
LINE
  5
9C
100
AcDbEntity
  8
A4
  6
CONTINUOUS
 62
7
100
AcDbLine
 10
206.5000000261801
 20
159.5000149999999
 30
0.0000000000000000
 11
206.5000000261801
 21
160.5000149999999
 31
0.0000000000000000
  0
LINE
  5
9D
100
AcDbEntity
  8
A4
  6
CONTINUOUS
 62
7
100
AcDbLine
 10
206.5000000261801
 20
159.5000149999999
 30
0.0000000000000000
 11
193.5000000261799
 21
159.5000149999999
 31
0.0000000000000000
  0
LINE
  5
9E
100
AcDbEntity
  8
A4
  6
CONTINUOUS
 62
7
100
AcDbLine
 10
192.5000000261799
 20
165.0000149999999
 30
0.0000000000000000
 11
192.5000000261799
 21
160.5000149999999
 31
0.0000000000000000
  0
LINE
  5
9F
100
AcDbEntity
  8
A4
  6
CONTINUOUS
 62
7
100
AcDbLine
 10
207.5000000261801
 20
160.5000149999999
 30
0.0000000000000000
 11
207.5000000261801
 21
165.0000149999999
 31
0.0000000000000000
  0
LINE
  5
A0
100
AcDbEntity
  8
A4
  6
CONTINUOUS
 62
7
100
AcDbLine
 10
207.5000000261801
 20
160.5000149999999
 30
0.0000000000000000
 11
192.5000000261799
 21
160.5000149999999
 31
0.0000000000000000
  0
LINE
  5
A1
100
AcDbEntity
  8
A4
  6
CONTINUOUS
 62
7
100
AcDbLine
 10
207.5000000261801
 20
165.0000149999999
 30
0.0000000000000000
 11
192.5000000261799
 21
165.0000149999999
 31
0.0000000000000000
  0
LINE
  5
A2
100
AcDbEntity
  8
A4
  6
CONTINUOUS
 62
7
100
AcDbLine
 10
192.5000000261799
 20
178.5000149999999
 30
0.0000000000000000
 11
192.5000000261799
 21
167.0000149999999
 31
0.0000000000000000
  0
LINE
  5
A3
100
AcDbEntity
  8
A4
  6
CONTINUOUS
 62
7
100
AcDbLine
 10
207.5000000261801
 20
167.0000149999999
 30
0.0000000000000000
 11
207.5000000261801
 21
178.5000149999999
 31
0.0000000000000000
  0
LINE
  5
A4
100
AcDbEntity
  8
A4
  6
CONTINUOUS
 62
7
100
AcDbLine
 10
207.5000000261801
 20
167.0000149999999
 30
0.0000000000000000
 11
192.5000000261799
 21
167.0000149999999
 31
0.0000000000000000
  0
LINE
  5
A5
100
AcDbEntity
  8
A4
  6
CONTINUOUS
 62
7
100
AcDbLine
 10
192.5000000000000
 20
297.0000000000001
 30
0.0000000000000000
 11
192.5000000000000
 21
180.5000149999999
 31
0.0000000000000000
  0
LINE
  5
A6
100
AcDbEntity
  8
A4
  6
CONTINUOUS
 62
7
100
AcDbLine
 10
207.5000000523600
 20
180.5000149999999
 30
0.0000000000000000
 11
207.5000000523600
 21
297.0000000000001
 31
0.0000000000000000
  0
LINE
  5
A7
100
AcDbEntity
  8
A4
  6
CONTINUOUS
 62
7
100
AcDbLine
 10
207.5000000261801
 20
178.5000149999999
 30
0.0000000000000000
 11
192.5000000261799
 21
178.5000149999999
 31
0.0000000000000000
  0
LINE
  5
A8
100
AcDbEntity
  8
A4
  6
CONTINUOUS
 62
7
100
AcDbLine
 10
207.5000000785400
 20
180.5000149999999
 30
0.0000000000000000
 11
192.4999999738201
 21
180.5000149999999
 31
0.0000000000000000
  0
LINE
  5
A9
100
AcDbEntity
  8
A4
  6
CONTINUOUS
 62
7
100
AcDbLine
 10
192.2500000000000
 20
298.0000000000001
 30
0.0000000000000000
 11
192.2500000000000
 21
297.0000000000001
 31
0.0000000000000000
  0
LINE
  5
AA
100
AcDbEntity
  8
A4
  6
CONTINUOUS
 62
7
100
AcDbLine
 10
207.7500000523600
 20
297.0000000000001
 30
0.0000000000000000
 11
207.7500000523600
 21
298.0000000000001
 31
0.0000000000000000
  0
LINE
  5
AB
100
AcDbEntity
  8
A4
  6
CONTINUOUS
 62
7
100
AcDbLine
 10
207.7500000523600
 20
297.0000000000001
 30
0.0000000000000000
 11
192.2500000000000
 21
297.0000000000001
 31
0.0000000000000000
  0
LINE
  5
AC
100
AcDbEntity
  8
A4
  6
CONTINUOUS
 62
7
100
AcDbLine
 10
195.0000000261800
 20
299.5000000000001
 30
0.0000000000000000
 11
192.2500000000001
 21
298.0000000000001
 31
0.0000000000000000
  0
LINE
  5
AD
100
AcDbEntity
  8
A4
  6
CONTINUOUS
 62
7
100
AcDbLine
 10
207.7500000523600
 20
298.0000000000000
 30
0.0000000000000000
 11
205.0000000261799
 21
299.5000000000000
 31
0.0000000000000000
  0
LINE
  5
AE
100
AcDbEntity
  8
A4
  6
CONTINUOUS
 62
7
100
AcDbLine
 10
205.0000000261800
 20
299.5000000000001
 30
0.0000000000000000
 11
202.0000000261799
 21
299.5000000000001
 31
0.0000000000000000
  0
LINE
  5
AF
100
AcDbEntity
  8
A4
  6
CONTINUOUS
 62
7
100
AcDbLine
 10
207.7500000523600
 20
298.0000000000001
 30
0.0000000000000000
 11
192.2500000000000
 21
298.0000000000001
 31
0.0000000000000000
  0
LINE
  5
B0
100
AcDbEntity
  8
A4
  6
CONTINUOUS
 62
7
100
AcDbLine
 10
193.7219570277415
 20
101.5000000000000
 30
0.0000000000000000
 11
192.5000040261799
 21
101.5000000000000
 31
0.0000000000000000
  0
LINE
  5
B1
100
AcDbEntity
  8
A4
  6
CONTINUOUS
 62
7
100
AcDbLine
 10
192.5000040261799
 20
101.5000000000000
 30
0.0000000000000000
 11
192.5000040261799
 21
98.30000300000003
 31
0.0000000000000000
  0
LINE
  5
B2
100
AcDbEntity
  8
A4
  6
CONTINUOUS
 62
7
100
AcDbLine
 10
192.5000040261799
 20
98.30000299999999
 30
0.0000000000000000
 11
193.7219570277415
 21
98.30000299999999
 31
0.0000000000000000
  0
LINE
  5
B3
100
AcDbEntity
  8
A4
  6
CONTINUOUS
 62
7
100
AcDbLine
 10
193.7219570277416
 20
299.5000000000001
 30
0.0000000000000000
 11
192.5000040261799
 21
299.5000000000001
 31
0.0000000000000000
  0
LINE
  5
B4
100
AcDbEntity
  8
A4
  6
CONTINUOUS
 62
7
100
AcDbLine
 10
193.7219570277416
 20
302.6999999999999
 30
0.0000000000000000
 11
192.5000040261799
 21
302.6999999999999
 31
0.0000000000000000
  0
LINE
  5
B5
100
AcDbEntity
  8
A4
  6
CONTINUOUS
 62
7
100
AcDbLine
 10
192.5000040261799
 20
302.7000000000002
 30
0.0000000000000000
 11
192.5000040261799
 21
299.5000000000001
 31
0.0000000000000000
  0
LINE
  5
B6
100
AcDbEntity
  8
A4
  6
CONTINUOUS
 62
7
100
AcDbLine
 10
203.8000030261801
 20
77.50000078539821
 30
0.0000000000000000
 11
203.8000030261801
 21
68.50000000000000
 31
0.0000000000000000
  0
LINE
  5
B7
100
AcDbEntity
  8
A4
  6
CONTINUOUS
 62
7
100
AcDbLine
 10
203.8000030261801
 20
68.49999999999997
 30
0.0000000000000000
 11
207.0000000261799
 21
68.49999999999997
 31
0.0000000000000000
  0
LINE
  5
B8
100
AcDbEntity
  8
A4
  6
CONTINUOUS
 62
7
100
AcDbLine
 10
203.8000030261801
 20
77.50000078539821
 30
0.0000000000000000
 11
203.8000030261800
 21
89.49999999999999
 31
0.0000000000000000
  0
LINE
  5
B9
100
AcDbEntity
  8
A4
  6
CONTINUOUS
 62
7
100
AcDbLine
 10
207.0000000261799
 20
81.85889894354094
 30
0.0000000000000000
 11
207.0000000261799
 21
89.50000000000058
 31
0.0000000000000000
  0
LINE
  5
BA
100
AcDbEntity
  8
A4
  6
CONTINUOUS
 62
7
100
AcDbLine
 10
203.8000030261801
 20
323.4999992146019
 30
0.0000000000000000
 11
203.8000030261800
 21
311.5000000000001
 31
0.0000000000000000
  0
LINE
  5
BB
100
AcDbEntity
  8
A4
  6
CONTINUOUS
 62
7
100
AcDbLine
 10
207.0000000261799
 20
319.1411010564590
 30
0.0000000000000000
 11
207.0000000261799
 21
311.5000000000001
 31
0.0000000000000000
  0
LINE
  5
BC
100
AcDbEntity
  8
A4
  6
CONTINUOUS
 62
7
100
AcDbLine
 10
203.8000030261801
 20
323.4999992146019
 30
0.0000000000000000
 11
203.8000030261801
 21
332.5000000000001
 31
0.0000000000000000
  0
LINE
  5
BD
100
AcDbEntity
  8
A4
  6
CONTINUOUS
 62
7
100
AcDbLine
 10
207.0000000261799
 20
332.5000000000001
 30
0.0000000000000000
 11
203.8000030261801
 21
332.5000000000001
 31
0.0000000000000000
  0
LINE
  5
BE
100
AcDbEntity
  8
A4
  6
CONTINUOUS
 62
7
100
AcDbLine
 10
203.8000030261800
 20
308.7159544756693
 30
0.0000000000000000
 11
203.8000030261800
 21
311.5000000000001
 31
0.0000000000000000
  0
LINE
  5
BF
100
AcDbEntity
  8
A4
  6
CONTINUOUS
 62
7
100
AcDbLine
 10
203.8000030261800
 20
311.5000000000001
 30
0.0000000000000000
 11
207.0000000261799
 21
311.5000000000001
 31
0.0000000000000000
  0
LINE
  5
C0
100
AcDbEntity
  8
A4
  6
CONTINUOUS
 62
7
100
AcDbLine
 10
203.8000030261800
 20
92.28404552433079
 30
0.0000000000000000
 11
203.8000030261800
 21
89.49999999999997
 31
0.0000000000000000
  0
LINE
  5
C1
100
AcDbEntity
  8
A4
  6
CONTINUOUS
 62
7
100
AcDbLine
 10
203.8000030261800
 20
89.49999999999999
 30
0.0000000000000000
 11
207.0000000261799
 21
89.50000000000058
 31
0.0000000000000000
  0
LINE
  5
C2
100
AcDbEntity
  8
A4
  6
CONTINUOUS
 62
7
100
AcDbLine
 10
198.9132641455176
 20
304.6254141271584
 30
0.0000000000000000
 11
203.8000030261800
 21
308.6935786118556
 31
0.0000000000000000
  0
LINE
  5
C3
100
AcDbEntity
  8
A4
  6
CONTINUOUS
 62
7
100
AcDbLine
 10
207.0000000261799
 20
311.5000000000001
 30
0.0000000000000000
 11
207.0000000261799
 21
306.8795106182664
 31
0.0000000000000000
  0
LINE
  5
C4
100
AcDbEntity
  8
A4
  6
CONTINUOUS
 62
7
100
AcDbLine
 10
207.0000000261800
 20
311.5000000000001
 30
0.0000000000000000
 11
203.8000030261800
 21
308.7159544756693
 31
0.0000000000000000
  0
LINE
  5
C5
100
AcDbEntity
  8
A4
  6
CONTINUOUS
 62
7
100
AcDbLine
 10
203.8000030261801
 20
308.6935786118556
 30
0.0000000000000000
 11
203.8000030261800
 21
308.7159544756693
 31
0.0000000000000000
  0
LINE
  5
C6
100
AcDbEntity
  8
A4
  6
CONTINUOUS
 62
7
100
AcDbLine
 10
203.8000030261801
 20
92.30642438814380
 30
0.0000000000000000
 11
198.9132641455169
 21
96.37458887284140
 31
0.0000000000000000
  0
LINE
  5
C7
100
AcDbEntity
  8
A4
  6
CONTINUOUS
 62
7
100
AcDbLine
 10
203.8000030261801
 20
92.30642438814380
 30
0.0000000000000000
 11
203.8000030261800
 21
92.28404552433079
 31
0.0000000000000000
  0
LINE
  5
C8
100
AcDbEntity
  8
A4
  6
CONTINUOUS
 62
7
100
AcDbLine
 10
207.0000000261799
 20
89.50000000000057
 30
0.0000000000000000
 11
203.8000030261800
 21
92.28404552433078
 31
0.0000000000000000
  0
LINE
  5
C9
100
AcDbEntity
  8
A4
  6
CONTINUOUS
 62
7
100
AcDbLine
 10
207.0000000261799
 20
89.50000000000057
 30
0.0000000000000000
 11
207.0000000261800
 21
94.12048938173378
 31
0.0000000000000000
  0
LINE
  5
CA
100
AcDbEntity
  8
A4
  6
CONTINUOUS
 62
7
100
AcDbLine
 10
202.0000000261799
 20
101.5000000000000
 30
0.0000000000000000
 11
198.2397809700715
 21
101.5000000000000
 31
0.0000000000000000
  0
LINE
  5
CB
100
AcDbEntity
  8
A4
  6
CONTINUOUS
 62
7
100
AcDbLine
 10
207.0000000261800
 20
94.12048938173379
 30
0.0000000000000000
 11
198.9132641455171
 21
100.8526214866460
 31
0.0000000000000000
  0
LINE
  5
CC
100
AcDbEntity
  8
A4
  6
CONTINUOUS
 62
7
100
AcDbLine
 10
207.0000000261799
 20
96.50000000000017
 30
0.0000000000000000
 11
207.0000000261800
 21
94.12048938173379
 31
0.0000000000000000
  0
LINE
  5
CD
100
AcDbEntity
  8
A4
  6
CONTINUOUS
 62
7
100
AcDbLine
 10
198.2397809700714
 20
299.5000000000001
 30
0.0000000000000000
 11
202.0000000261799
 21
299.5000000000001
 31
0.0000000000000000
  0
LINE
  5
CE
100
AcDbEntity
  8
A4
  6
CONTINUOUS
 62
7
100
AcDbLine
 10
198.9132641455169
 20
300.1473785133531
 30
0.0000000000000000
 11
207.0000000261800
 21
306.8795106182663
 31
0.0000000000000000
  0
LINE
  5
CF
100
AcDbEntity
  8
A4
  6
CONTINUOUS
 62
7
100
AcDbLine
 10
207.0000000261799
 20
306.8795106182664
 30
0.0000000000000000
 11
207.0000000261799
 21
304.4999999999997
 31
0.0000000000000000
  0
LINE
  5
D0
100
AcDbEntity
  8
A4
  6
CONTINUOUS
 62
7
100
AcDbLine
 10
197.2340518182782
 20
302.7000000000002
 30
0.0000000000000000
 11
193.7219570277416
 21
302.7000000000002
 31
0.0000000000000000
  0
LINE
  5
D1
100
AcDbEntity
  8
A4
  6
CONTINUOUS
 62
7
100
AcDbLine
 10
198.2397809700714
 20
299.5000000000001
 30
0.0000000000000000
 11
193.7219570277416
 21
299.5000000000001
 31
0.0000000000000000
  0
LINE
  5
D2
100
AcDbEntity
  8
A4
  6
CONTINUOUS
 62
7
100
AcDbLine
 10
198.2397809700715
 20
101.5000000000000
 30
0.0000000000000000
 11
193.7219570277415
 21
101.5000000000000
 31
0.0000000000000000
  0
LINE
  5
D3
100
AcDbEntity
  8
A4
  6
CONTINUOUS
 62
7
100
AcDbLine
 10
193.7219570277415
 20
98.30000300000003
 30
0.0000000000000000
 11
197.2340518182781
 21
98.30000300000003
 31
0.0000000000000000
  0
CIRCLE
  5
D4
100
AcDbEntity
  8
A5
  6
CONTINUOUS
 62
7
100
AcDbCircle
 10
350.0000000261800
 20
323.4999999999999
 30
0.0000000000000000
 40
4.250000000000004
  0
ARC
  5
D5
100
AcDbEntity
  8
A5
  6
CONTINUOUS
 62
7
100
AcDbCircle
 10
350.0000000261800
 20
323.5000000000001
 30
0.0000000000000000
 40
8.000000000000000
100
AcDbArc
 50
292.0294028424894
 51
427.9705971575102
  0
LINE
  5
D6
100
AcDbEntity
  8
A5
  6
CONTINUOUS
 62
7
100
AcDbLine
 10
339.2000000261801
 20
310.4999999999999
 30
0.0000000000000000
 11
353.0006588497914
 21
316.0840680542307
 31
0.0000000000000000
  0
LINE
  5
D7
100
AcDbEntity
  8
A5
  6
CONTINUOUS
 62
7
100
AcDbLine
 10
353.0006588497915
 20
330.9159319457693
 30
0.0000000000000000
 11
339.2000000261801
 21
336.5000000000001
 31
0.0000000000000000
  0
LINE
  5
D8
100
AcDbEntity
  8
A5
  6
CONTINUOUS
 62
7
100
AcDbLine
 10
336.0000000261801
 20
303.4999999999999
 30
0.0000000000000000
 11
336.0000000261801
 21
293.5000000000001
 31
0.0000000000000000
  0
LINE
  5
D9
100
AcDbEntity
  8
A5
  6
CONTINUOUS
 62
7
100
AcDbLine
 10
339.2000000261800
 20
303.4999999999999
 30
0.0000000000000000
 11
339.2000000261800
 21
293.5000000000001
 31
0.0000000000000000
  0
LINE
  5
DA
100
AcDbEntity
  8
A5
  6
CONTINUOUS
 62
7
100
AcDbLine
 10
336.0000000261801
 20
293.5000000000001
 30
0.0000000000000000
 11
339.2000000261800
 21
293.5000000000001
 31
0.0000000000000000
  0
LINE
  5
DB
100
AcDbEntity
  8
A5
  6
CONTINUOUS
 62
7
100
AcDbLine
 10
339.2000000261800
 20
353.5000000000001
 30
0.0000000000000000
 11
336.0000000261801
 21
353.5000000000001
 31
0.0000000000000000
  0
LINE
  5
DC
100
AcDbEntity
  8
A5
  6
CONTINUOUS
 62
7
100
AcDbLine
 10
339.2000000261800
 20
353.5000000000001
 30
0.0000000000000000
 11
339.2000000261800
 21
343.4999999999999
 31
0.0000000000000000
  0
LINE
  5
DD
100
AcDbEntity
  8
A5
  6
CONTINUOUS
 62
7
100
AcDbLine
 10
336.0000000261801
 20
353.5000000000001
 30
0.0000000000000000
 11
336.0000000261801
 21
343.4999999999999
 31
0.0000000000000000
  0
LINE
  5
DE
100
AcDbEntity
  8
A5
  6
CONTINUOUS
 62
7
100
AcDbLine
 10
339.2000000261800
 20
343.4999999999999
 30
0.0000000000000000
 11
339.2000000261800
 21
303.4999999999999
 31
0.0000000000000000
  0
LINE
  5
DF
100
AcDbEntity
  8
A5
  6
CONTINUOUS
 62
7
100
AcDbLine
 10
336.0000000261801
 20
343.4999999999999
 30
0.0000000000000000
 11
336.0000000261801
 21
303.4999999999999
 31
0.0000000000000000
  0
CIRCLE
  5
E0
100
AcDbEntity
  8
A5
  6
CONTINUOUS
 62
7
100
AcDbCircle
 10
350.0000000261800
 20
77.50000000000003
 30
0.0000000000000000
 40
4.250000000000004
  0
CIRCLE
  5
E1
100
AcDbEntity
  8
A5
  6
CONTINUOUS
 62
7
100
AcDbCircle
 10
350.0000000261799
 20
49.99999999999999
 30
0.0000000000000000
 40
3.500000000000000
  0
CIRCLE
  5
E2
100
AcDbEntity
  8
A5
  6
CONTINUOUS
 62
7
100
AcDbCircle
 10
350.0000000261799
 20
105.0000000000000
 30
0.0000000000000000
 40
3.500000000000000
  0
ARC
  5
E3
100
AcDbEntity
  8
A5
  6
CONTINUOUS
 62
7
100
AcDbCircle
 10
350.0000000261799
 20
49.99999999999999
 30
0.0000000000000000
 40
12.50000000000000
100
AcDbArc
 50
180.0000000000000
 51
360.0000000000000
  0
ARC
  5
E4
100
AcDbEntity
  8
A5
  6
CONTINUOUS
 62
7
100
AcDbCircle
 10
350.0000000261799
 20
105.0000000000000
 30
0.0000000000000000
 40
12.50000000000000
100
AcDbArc
 50
0.0000000000000000
 51
180.0000000000000
  0
LINE
  5
E5
100
AcDbEntity
  8
A5
  6
CONTINUOUS
 62
7
100
AcDbLine
 10
362.5000000261800
 20
87.75612982192285
 30
0.0000000000000000
 11
362.5000000261800
 21
67.24387017807717
 31
0.0000000000000000
  0
LINE
  5
E6
100
AcDbEntity
  8
A5
  6
CONTINUOUS
 62
7
100
AcDbLine
 10
337.5000000261800
 20
87.75612982192284
 30
0.0000000000000000
 11
337.5000000261801
 21
67.24387017807716
 31
0.0000000000000000
  0
LINE
  5
E7
100
AcDbEntity
  8
A5
  6
CONTINUOUS
 62
7
100
AcDbLine
 10
362.5000000261800
 20
65.93657835746143
 30
0.0000000000000000
 11
362.5000000261800
 21
67.24387017807716
 31
0.0000000000000000
  0
LINE
  5
E8
100
AcDbEntity
  8
A5
  6
CONTINUOUS
 62
7
100
AcDbLine
 10
337.5000000261801
 20
65.93657835746143
 30
0.0000000000000000
 11
337.5000000261801
 21
67.24387017807716
 31
0.0000000000000000
  0
LINE
  5
E9
100
AcDbEntity
  8
A5
  6
CONTINUOUS
 62
7
100
AcDbLine
 10
362.5000000261800
 20
87.75612982192285
 30
0.0000000000000000
 11
362.5000000261800
 21
89.06342164253871
 31
0.0000000000000000
  0
LINE
  5
EA
100
AcDbEntity
  8
A5
  6
CONTINUOUS
 62
7
100
AcDbLine
 10
337.5000000261801
 20
87.75612982192285
 30
0.0000000000000000
 11
337.5000000261801
 21
89.06342164253871
 31
0.0000000000000000
  0
LINE
  5
EB
100
AcDbEntity
  8
A5
  6
CONTINUOUS
 62
7
100
AcDbLine
 10
362.5000000261800
 20
65.93657835746143
 30
0.0000000000000000
 11
362.5000000261800
 21
62.40644485102628
 31
0.0000000000000000
  0
LINE
  5
EC
100
AcDbEntity
  8
A5
  6
CONTINUOUS
 62
7
100
AcDbLine
 10
337.5000000261801
 20
65.93657835746143
 30
0.0000000000000000
 11
337.5000000261801
 21
62.40644485102628
 31
0.0000000000000000
  0
LINE
  5
ED
100
AcDbEntity
  8
A5
  6
CONTINUOUS
 62
7
100
AcDbLine
 10
362.5000000261800
 20
92.59355514897382
 30
0.0000000000000000
 11
362.5000000261800
 21
89.06342164253874
 31
0.0000000000000000
  0
LINE
  5
EE
100
AcDbEntity
  8
A5
  6
CONTINUOUS
 62
7
100
AcDbLine
 10
337.5000000261801
 20
92.59355514897382
 30
0.0000000000000000
 11
337.5000000261801
 21
89.06342164253874
 31
0.0000000000000000
  0
LINE
  5
EF
100
AcDbEntity
  8
A5
  6
CONTINUOUS
 62
7
100
AcDbLine
 10
362.5000000261800
 20
59.00748611742516
 30
0.0000000000000000
 11
362.5000000261800
 21
62.40644485102628
 31
0.0000000000000000
  0
LINE
  5
F0
100
AcDbEntity
  8
A5
  6
CONTINUOUS
 62
7
100
AcDbLine
 10
337.5000000261801
 20
59.00748611742516
 30
0.0000000000000000
 11
337.5000000261801
 21
62.40644485102628
 31
0.0000000000000000
  0
LINE
  5
F1
100
AcDbEntity
  8
A5
  6
CONTINUOUS
 62
7
100
AcDbLine
 10
362.5000000261800
 20
92.59355514897382
 30
0.0000000000000000
 11
362.5000000261800
 21
95.99251388257485
 31
0.0000000000000000
  0
LINE
  5
F2
100
AcDbEntity
  8
A5
  6
CONTINUOUS
 62
7
100
AcDbLine
 10
337.5000000261801
 20
92.59355514897382
 30
0.0000000000000000
 11
337.5000000261801
 21
95.99251388257485
 31
0.0000000000000000
  0
LINE
  5
F3
100
AcDbEntity
  8
A5
  6
CONTINUOUS
 62
7
100
AcDbLine
 10
362.5000000261800
 20
59.00748611742517
 30
0.0000000000000000
 11
362.5000000261800
 21
49.99999999999999
 31
0.0000000000000000
  0
LINE
  5
F4
100
AcDbEntity
  8
A5
  6
CONTINUOUS
 62
7
100
AcDbLine
 10
337.5000000261801
 20
59.00748611742516
 30
0.0000000000000000
 11
337.5000000261800
 21
49.99999999999999
 31
0.0000000000000000
  0
LINE
  5
F5
100
AcDbEntity
  8
A5
  6
CONTINUOUS
 62
7
100
AcDbLine
 10
362.5000000261799
 20
105.0000000000000
 30
0.0000000000000000
 11
362.5000000261800
 21
95.99251388257485
 31
0.0000000000000000
  0
LINE
  5
F6
100
AcDbEntity
  8
A5
  6
CONTINUOUS
 62
7
100
AcDbLine
 10
337.5000000261800
 20
105.0000000000000
 30
0.0000000000000000
 11
337.5000000261801
 21
95.99251388257484
 31
0.0000000000000000
  0
ARC
  5
F7
100
AcDbEntity
  8
A5
  6
CONTINUOUS
 62
7
100
AcDbCircle
 10
350.0000000261800
 20
323.5000000000001
 30
0.0000000000000000
 40
10.00000000000000
100
AcDbArc
 50
270.0000000000000
 51
464.8404948033555
  0
ARC
  5
F8
100
AcDbEntity
  8
A5
  6
CONTINUOUS
 62
7
100
AcDbCircle
 10
350.0000000261800
 20
323.5000000000001
 30
0.0000000000000000
 40
10.00000000000000
100
AcDbArc
 50
255.1595051966459
 51
270.0000000000000
  0
ELLIPSE
  5
F9
100
AcDbEntity
  8
A5
  6
CONTINUOUS
 62
7
100
AcDbEllipse
 10
356.6028641084611
 20
296.5702797103335
 30
0.0000000000000000
 11
3.781697070821639
 21
8.755297220006462
 31
0.0000000000000000
210
0.0000000000000000
220
0.0000000000000000
230
1.000000000000000
 40
0.2562519795485874
 41
5.747730044664837
 42
5.976759486938605
  0
ELLIPSE
  5
FA
100
AcDbEntity
  8
A5
  6
CONTINUOUS
 62
7
100
AcDbEllipse
 10
356.6028641084611
 20
292.0922440965277
 30
0.0000000000000000
 11
3.781697070821639
 21
8.755297220006462
 31
0.0000000000000000
210
0.0000000000000000
220
0.0000000000000000
230
1.000000000000000
 40
0.2562519795485879
 41
5.821665747766009
 42
5.976759486938707
  0
ELLIPSE
  5
FB
100
AcDbEntity
  8
A5
  6
CONTINUOUS
 62
7
100
AcDbEllipse
 10
361.2799371924011
 20
304.5000000000001
 30
0.0000000000000000
 11
4.403062497154710
 21
4.552489722481685
 31
0.0000000000000000
210
0.0000000000000000
220
0.0000000000000000
230
1.000000000000000
 40
0.4695749776971108
 41
1.997106004366467
 42
3.567902331161400
  0
ELLIPSE
  5
FC
100
AcDbEntity
  8
A5
  6
CONTINUOUS
 62
7
100
AcDbEllipse
 10
338.7200628599587
 20
304.5000000000001
 30
0.0000000000000000
 11
-4.403062497154709
 21
4.552489722481686
 31
0.0000000000000000
210
0.0000000000000000
220
0.0000000000000000
230
1.000000000000000
 40
0.4695749776971108
 41
2.715282976018202
 42
4.286079302813050
  0
ARC
  5
FD
100
AcDbEntity
  8
A5
  6
CONTINUOUS
 62
7
100
AcDbCircle
 10
342.5000000261799
 20
166.0000150000000
 30
0.0000000000000000
 40
1.000000000000000
100
AcDbArc
 50
270.0000000000000
 51
450.0000000000000
  0
ARC
  5
FE
100
AcDbEntity
  8
A5
  6
CONTINUOUS
 62
7
100
AcDbCircle
 10
357.5000000261801
 20
166.0000150000000
 30
0.0000000000000000
 40
1.000000000000000
100
AcDbArc
 50
90.00000000000000
 51
270.0000000000000
  0
ARC
  5
FF
100
AcDbEntity
  8
A5
  6
CONTINUOUS
 62
7
100
AcDbCircle
 10
342.5000000261799
 20
179.5000150000000
 30
0.0000000000000000
 40
1.000000000000000
100
AcDbArc
 50
270.0000000000000
 51
450.0000029999997
  0
ARC
  5
100
100
AcDbEntity
  8
A5
  6
CONTINUOUS
 62
7
100
AcDbCircle
 10
357.5000000261801
 20
179.5000150000000
 30
0.0000000000000000
 40
1.000000000000000
100
AcDbArc
 50
89.99999700000036
 51
270.0000000000000
  0
LINE
  5
101
100
AcDbEntity
  8
A5
  6
CONTINUOUS
 62
7
100
AcDbLine
 10
360.9879870542848
 20
299.5000000000001
 30
0.0000000000000000
 11
361.0000000261800
 21
299.5000000000001
 31
0.0000000000000000
  0
LINE
  5
102
100
AcDbEntity
  8
A5
  6
CONTINUOUS
 62
7
100
AcDbLine
 10
361.0000000261800
 20
299.5000000000001
 30
0.0000000000000000
 11
361.0000000261800
 21
303.6057044704488
 31
0.0000000000000000
  0
LINE
  5
103
100
AcDbEntity
  8
A5
  6
CONTINUOUS
 62
7
100
AcDbLine
 10
346.5000000261800
 20
159.5000150000000
 30
0.0000000000000000
 11
346.5000000261800
 21
117.0000000000000
 31
0.0000000000000000
  0
LINE
  5
104
100
AcDbEntity
  8
A5
  6
CONTINUOUS
 62
7
100
AcDbLine
 10
353.5000000261800
 20
117.0000000000000
 30
0.0000000000000000
 11
353.5000000261800
 21
159.5000150000000
 31
0.0000000000000000
  0
LINE
  5
105
100
AcDbEntity
  8
A5
  6
CONTINUOUS
 62
7
100
AcDbLine
 10
343.5000000261799
 20
160.5000150000000
 30
0.0000000000000000
 11
343.5000000261799
 21
159.5000150000000
 31
0.0000000000000000
  0
LINE
  5
106
100
AcDbEntity
  8
A5
  6
CONTINUOUS
 62
7
100
AcDbLine
 10
356.5000000261801
 20
159.5000150000000
 30
0.0000000000000000
 11
356.5000000261801
 21
160.5000150000000
 31
0.0000000000000000
  0
LINE
  5
107
100
AcDbEntity
  8
A5
  6
CONTINUOUS
 62
7
100
AcDbLine
 10
356.5000000261801
 20
159.5000150000000
 30
0.0000000000000000
 11
343.5000000261799
 21
159.5000150000000
 31
0.0000000000000000
  0
LINE
  5
108
100
AcDbEntity
  8
A5
  6
CONTINUOUS
 62
7
100
AcDbLine
 10
339.2000000261800
 20
299.5000000000001
 30
0.0000000000000000
 11
341.8450596210973
 21
299.5000000000001
 31
0.0000000000000000
  0
LINE
  5
109
100
AcDbEntity
  8
A5
  6
CONTINUOUS
 62
7
100
AcDbLine
 10
358.1549404312625
 20
299.5000000000001
 30
0.0000000000000000
 11
354.5825757211359
 21
299.5000000000001
 31
0.0000000000000000
  0
LINE
  5
10A
100
AcDbEntity
  8
A5
  6
CONTINUOUS
 62
7
100
AcDbLine
 10
359.0000000261800
 20
311.5000000000001
 30
0.0000000000000000
 11
359.0000000261800
 21
319.1411010564593
 31
0.0000000000000000
  0
LINE
  5
10B
100
AcDbEntity
  8
A5
  6
CONTINUOUS
 62
7
100
AcDbLine
 10
341.0000000261800
 20
306.8795106182664
 30
0.0000000000000000
 11
342.4871926212154
 21
304.4999999999997
 31
0.0000000000000000
  0
LINE
  5
10C
100
AcDbEntity
  8
A5
  6
CONTINUOUS
 62
7
100
AcDbLine
 10
340.9183519460954
 20
311.1952852167832
 30
0.0000000000000000
 11
340.2540172762442
 21
308.7159544756694
 31
0.0000000000000000
  0
LINE
  5
10D
100
AcDbEntity
  8
A5
  6
CONTINUOUS
 62
7
100
AcDbLine
 10
339.2000000261799
 20
300.4515580727123
 30
0.0000000000000000
 11
341.0000000261800
 21
306.8795106182664
 31
0.0000000000000000
  0
LINE
  5
10E
100
AcDbEntity
  8
A5
  6
CONTINUOUS
 62
7
100
AcDbLine
 10
341.0000000261801
 20
311.2283219320240
 30
0.0000000000000000
 11
341.0000000261800
 21
306.8795106182664
 31
0.0000000000000000
  0
LINE
  5
10F
100
AcDbEntity
  8
A5
  6
CONTINUOUS
 62
7
100
AcDbLine
 10
340.2540172762443
 20
308.6935786118556
 30
0.0000000000000000
 11
340.2540172762442
 21
308.7159544756694
 31
0.0000000000000000
  0
LINE
  5
110
100
AcDbEntity
  8
A5
  6
CONTINUOUS
 62
7
100
AcDbLine
 10
339.2000000261800
 20
304.9295936865177
 30
0.0000000000000000
 11
340.2540172762443
 21
308.6935786118556
 31
0.0000000000000000
  0
LINE
  5
111
100
AcDbEntity
  8
A5
  6
CONTINUOUS
 62
7
100
AcDbLine
 10
359.7459827761159
 20
308.7159544756697
 30
0.0000000000000000
 11
359.0000000261800
 21
311.5000000000001
 31
0.0000000000000000
  0
LINE
  5
112
100
AcDbEntity
  8
A5
  6
CONTINUOUS
 62
7
100
AcDbLine
 10
359.7459827761160
 20
308.6935786118562
 30
0.0000000000000000
 11
360.8851785029918
 21
304.6254141271585
 31
0.0000000000000000
  0
LINE
  5
113
100
AcDbEntity
  8
A5
  6
CONTINUOUS
 62
7
100
AcDbLine
 10
359.7459827761158
 20
308.7159544756698
 30
0.0000000000000000
 11
359.7459827761159
 21
308.6935786118560
 31
0.0000000000000000
  0
LINE
  5
114
100
AcDbEntity
  8
A5
  6
CONTINUOUS
 62
7
100
AcDbLine
 10
359.0000000261800
 20
311.5000000000001
 30
0.0000000000000000
 11
359.0000000261800
 21
306.8795106182665
 31
0.0000000000000000
  0
LINE
  5
115
100
AcDbEntity
  8
A5
  6
CONTINUOUS
 62
7
100
AcDbLine
 10
358.1549404312625
 20
299.5000000000001
 30
0.0000000000000000
 11
360.9879870542848
 21
299.5000000000001
 31
0.0000000000000000
  0
LINE
  5
116
100
AcDbEntity
  8
A5
  6
CONTINUOUS
 62
7
100
AcDbLine
 10
359.0000000261800
 20
306.8795106182665
 30
0.0000000000000000
 11
360.8851785029917
 21
300.1473785133531
 31
0.0000000000000000
  0
LINE
  5
117
100
AcDbEntity
  8
A5
  6
CONTINUOUS
 62
7
100
AcDbLine
 10
357.5128074311446
 20
304.5000000000002
 30
0.0000000000000000
 11
359.0000000261800
 21
306.8795106182664
 31
0.0000000000000000
  0
LINE
  5
118
100
AcDbEntity
  8
A5
  6
CONTINUOUS
 62
7
100
AcDbLine
 10
345.4174243312242
 20
299.5000000000001
 30
0.0000000000000000
 11
341.8450596210973
 21
299.5000000000001
 31
0.0000000000000000
  0
LINE
  5
119
100
AcDbEntity
  8
A5
  6
CONTINUOUS
 62
7
100
AcDbLine
 10
342.5000000261799
 20
165.0000150000000
 30
0.0000000000000000
 11
342.5000000261799
 21
160.5000150000000
 31
0.0000000000000000
  0
LINE
  5
11A
100
AcDbEntity
  8
A5
  6
CONTINUOUS
 62
7
100
AcDbLine
 10
357.5000000261801
 20
160.5000150000000
 30
0.0000000000000000
 11
357.5000000261801
 21
165.0000150000000
 31
0.0000000000000000
  0
LINE
  5
11B
100
AcDbEntity
  8
A5
  6
CONTINUOUS
 62
7
100
AcDbLine
 10
357.5000000261801
 20
160.5000150000000
 30
0.0000000000000000
 11
342.5000000261799
 21
160.5000150000000
 31
0.0000000000000000
  0
LINE
  5
11C
100
AcDbEntity
  8
A5
  6
CONTINUOUS
 62
7
100
AcDbLine
 10
357.5000000261801
 20
165.0000150000000
 30
0.0000000000000000
 11
342.5000000261799
 21
165.0000150000000
 31
0.0000000000000000
  0
LINE
  5
11D
100
AcDbEntity
  8
A5
  6
CONTINUOUS
 62
7
100
AcDbLine
 10
342.5000000261799
 20
178.5000150000000
 30
0.0000000000000000
 11
342.5000000261799
 21
167.0000150000000
 31
0.0000000000000000
  0
LINE
  5
11E
100
AcDbEntity
  8
A5
  6
CONTINUOUS
 62
7
100
AcDbLine
 10
357.5000000261801
 20
167.0000150000000
 30
0.0000000000000000
 11
357.5000000261801
 21
178.5000150000000
 31
0.0000000000000000
  0
LINE
  5
11F
100
AcDbEntity
  8
A5
  6
CONTINUOUS
 62
7
100
AcDbLine
 10
357.5000000261801
 20
167.0000150000000
 30
0.0000000000000000
 11
342.5000000261799
 21
167.0000150000000
 31
0.0000000000000000
  0
LINE
  5
120
100
AcDbEntity
  8
A5
  6
CONTINUOUS
 62
7
100
AcDbLine
 10
357.5000000261801
 20
178.5000150000000
 30
0.0000000000000000
 11
342.5000000261799
 21
178.5000150000000
 31
0.0000000000000000
  0
LINE
  5
121
100
AcDbEntity
  8
A5
  6
CONTINUOUS
 62
7
100
AcDbLine
 10
342.5000000000000
 20
297.0000000000001
 30
0.0000000000000000
 11
342.5000000000000
 21
180.5000150000000
 31
0.0000000000000000
  0
LINE
  5
122
100
AcDbEntity
  8
A5
  6
CONTINUOUS
 62
7
100
AcDbLine
 10
357.5000000523601
 20
180.5000150000000
 30
0.0000000000000000
 11
357.5000000523600
 21
297.0000000000001
 31
0.0000000000000000
  0
LINE
  5
123
100
AcDbEntity
  8
A5
  6
CONTINUOUS
 62
7
100
AcDbLine
 10
357.5000000785400
 20
180.5000150000000
 30
0.0000000000000000
 11
342.4999999738201
 21
180.5000150000000
 31
0.0000000000000000
  0
LINE
  5
124
100
AcDbEntity
  8
A5
  6
CONTINUOUS
 62
7
100
AcDbLine
 10
354.5825757211359
 20
299.5000000000001
 30
0.0000000000000000
 11
345.4174243312242
 21
299.5000000000001
 31
0.0000000000000000
  0
LINE
  5
125
100
AcDbEntity
  8
A5
  6
CONTINUOUS
 62
7
100
AcDbLine
 10
345.0000000261800
 20
299.5000000000001
 30
0.0000000000000000
 11
342.2500000000000
 21
298.0000000000001
 31
0.0000000000000000
  0
LINE
  5
126
100
AcDbEntity
  8
A5
  6
CONTINUOUS
 62
7
100
AcDbLine
 10
357.7500000523600
 20
298.0000000000001
 30
0.0000000000000000
 11
355.0000000261800
 21
299.5000000000001
 31
0.0000000000000000
  0
LINE
  5
127
100
AcDbEntity
  8
A5
  6
CONTINUOUS
 62
7
100
AcDbLine
 10
342.2500000000001
 20
298.0000000000001
 30
0.0000000000000000
 11
342.2500000000001
 21
297.0000000000001
 31
0.0000000000000000
  0
LINE
  5
128
100
AcDbEntity
  8
A5
  6
CONTINUOUS
 62
7
100
AcDbLine
 10
357.7500000523600
 20
297.0000000000001
 30
0.0000000000000000
 11
357.7500000523600
 21
298.0000000000001
 31
0.0000000000000000
  0
LINE
  5
129
100
AcDbEntity
  8
A5
  6
CONTINUOUS
 62
7
100
AcDbLine
 10
357.7500000523600
 20
297.0000000000001
 30
0.0000000000000000
 11
342.2500000000001
 21
297.0000000000001
 31
0.0000000000000000
  0
LINE
  5
12A
100
AcDbEntity
  8
A5
  6
CONTINUOUS
 62
7
100
AcDbLine
 10
357.7500000523600
 20
298.0000000000001
 30
0.0000000000000000
 11
342.2500000000001
 21
298.0000000000001
 31
0.0000000000000000
  0
ARC
  5
12B
100
AcDbEntity
  8
A6
  6
CONTINUOUS
 62
7
100
AcDbCircle
 10
202.8000030261802
 20
431.0000000000001
 30
0.0000000000000000
 40
0.5000000000000000
100
AcDbArc
 50
0.0000000000000000
 51
90.00000000000000
  0
ARC
  5
12C
100
AcDbEntity
  8
A6
  6
CONTINUOUS
 62
7
100
AcDbCircle
 10
202.8000030261802
 20
416.0000000000001
 30
0.0000000000000000
 40
0.5000000000000000
100
AcDbArc
 50
270.0000000000000
 51
360.0000000000000
  0
ARC
  5
12D
100
AcDbEntity
  8
A6
  6
CONTINUOUS
 62
7
100
AcDbCircle
 10
200.8000030261802
 20
431.0000000000001
 30
0.0000000000000000
 40
0.5000000000000000
100
AcDbArc
 50
90.00000000000000
 51
180.0000000000000
  0
ARC
  5
12E
100
AcDbEntity
  8
A6
  6
CONTINUOUS
 62
7
100
AcDbCircle
 10
200.8000030261802
 20
416.0000000000001
 30
0.0000000000000000
 40
0.5000000000000000
100
AcDbArc
 50
180.0000000000000
 51
270.0000000000000
  0
LINE
  5
12F
100
AcDbEntity
  8
A6
  6
CONTINUOUS
 62
7
100
AcDbLine
 10
213.0000030261803
 20
423.5000000000001
 30
0.0000000000000000
 11
213.0000030261803
 21
427.7500000000001
 31
0.0000000000000000
  0
LINE
  5
130
100
AcDbEntity
  8
A6
  6
CONTINUOUS
 62
7
100
AcDbLine
 10
213.0000030261803
 20
427.7500000000001
 30
0.0000000000000000
 11
212.2000150261798
 21
427.7500000000001
 31
0.0000000000000000
  0
LINE
  5
131
100
AcDbEntity
  8
A6
  6
CONTINUOUS
 62
7
100
AcDbLine
 10
212.2000150261798
 20
419.2500000000001
 30
0.0000000000000000
 11
213.0000030261803
 21
419.2500000000001
 31
0.0000000000000000
  0
LINE
  5
132
100
AcDbEntity
  8
A6
  6
CONTINUOUS
 62
7
100
AcDbLine
 10
213.0000030261803
 20
419.2500000000001
 30
0.0000000000000000
 11
213.0000030261803
 21
423.5000000000001
 31
0.0000000000000000
  0
LINE
  5
133
100
AcDbEntity
  8
A6
  6
CONTINUOUS
 62
7
100
AcDbLine
 10
202.8000030261802
 20
431.5000000000001
 30
0.0000000000000000
 11
200.8000030261802
 21
431.5000000000001
 31
0.0000000000000000
  0
LINE
  5
134
100
AcDbEntity
  8
A6
  6
CONTINUOUS
 62
7
100
AcDbLine
 10
200.8000030261802
 20
415.5000000000001
 30
0.0000000000000000
 11
202.8000030261802
 21
415.5000000000001
 31
0.0000000000000000
  0
LINE
  5
135
100
AcDbEntity
  8
A6
  6
CONTINUOUS
 62
7
100
AcDbLine
 10
200.3000030261801
 20
423.5000000000001
 30
0.0000000000000000
 11
200.3000030261801
 21
431.0000000000001
 31
0.0000000000000000
  0
LINE
  5
136
100
AcDbEntity
  8
A6
  6
CONTINUOUS
 62
7
100
AcDbLine
 10
200.3000030261802
 20
416.0000000000001
 30
0.0000000000000000
 11
200.3000030261802
 21
423.5000000000001
 31
0.0000000000000000
  0
ARC
  5
137
100
AcDbEntity
  8
A6
  6
CONTINUOUS
 62
7
100
AcDbCircle
 10
212.2000150261800
 20
412.7000000000001
 30
0.0000000000000000
 40
3.200000000000000
100
AcDbArc
 50
180.0000000000000
 51
270.0000000000000
  0
LINE
  5
138
100
AcDbEntity
  8
A6
  6
CONTINUOUS
 62
7
100
AcDbLine
 10
212.2000150261798
 20
431.5000000000001
 30
0.0000000000000000
 11
209.0000150261800
 21
431.5000000000001
 31
0.0000000000000000
  0
LINE
  5
139
100
AcDbEntity
  8
A6
  6
CONTINUOUS
 62
7
100
AcDbLine
 10
212.2000150261798
 20
431.5000000000001
 30
0.0000000000000000
 11
212.2000150261798
 21
426.5006588236115
 31
0.0000000000000000
  0
LINE
  5
13A
100
AcDbEntity
  8
A6
  6
CONTINUOUS
 62
7
100
AcDbLine
 10
209.0000150261799
 20
420.9387098642842
 30
0.0000000000000000
 11
209.0000150261800
 21
412.7000000000002
 31
0.0000000000000000
  0
LINE
  5
13B
100
AcDbEntity
  8
A6
  6
CONTINUOUS
 62
7
100
AcDbLine
 10
212.2000150261798
 20
426.5006588236115
 30
0.0000000000000000
 11
212.2000150261798
 21
412.7000000000001
 31
0.0000000000000000
  0
LINE
  5
13C
100
AcDbEntity
  8
A6
  6
CONTINUOUS
 62
7
100
AcDbLine
 10
212.2000150261798
 20
412.7000000000001
 30
0.0000000000000000
 11
212.5000150261799
 21
412.7000000000001
 31
0.0000000000000000
  0
LINE
  5
13D
100
AcDbEntity
  8
A6
  6
CONTINUOUS
 62
7
100
AcDbLine
 10
212.2000150261800
 20
409.5000000000001
 30
0.0000000000000000
 11
212.5000150261799
 21
409.5000000000001
 31
0.0000000000000000
  0
LINE
  5
13E
100
AcDbEntity
  8
A6
  6
CONTINUOUS
 62
7
100
AcDbLine
 10
209.0000150261800
 20
412.7000000000001
 30
0.0000000000000000
 11
212.2000150261798
 21
412.7000000000001
 31
0.0000000000000000
  0
LINE
  5
13F
100
AcDbEntity
  8
A6
  6
CONTINUOUS
 62
7
100
AcDbLine
 10
212.5000150261799
 20
412.7000000000001
 30
0.0000000000000000
 11
213.0000150261799
 21
412.7000000000001
 31
0.0000000000000000
  0
LINE
  5
140
100
AcDbEntity
  8
A6
  6
CONTINUOUS
 62
7
100
AcDbLine
 10
212.5000150261799
 20
409.5000000000002
 30
0.0000000000000000
 11
213.0000150261799
 21
409.5000000000002
 31
0.0000000000000000
  0
LINE
  5
141
100
AcDbEntity
  8
A6
  6
CONTINUOUS
 62
7
100
AcDbLine
 10
213.0000150261800
 20
412.7000000000001
 30
0.0000000000000000
 11
233.0000150261800
 21
412.7000000000001
 31
0.0000000000000000
  0
LINE
  5
142
100
AcDbEntity
  8
A6
  6
CONTINUOUS
 62
7
100
AcDbLine
 10
213.0000150261800
 20
409.5000000000002
 30
0.0000000000000000
 11
233.0000150261800
 21
409.5000000000002
 31
0.0000000000000000
  0
LINE
  5
143
100
AcDbEntity
  8
A6
  6
CONTINUOUS
 62
7
100
AcDbLine
 10
213.0000150261800
 20
409.5000000000002
 30
0.0000000000000000
 11
213.0000150261800
 21
412.7000000000001
 31
0.0000000000000000
  0
LINE
  5
144
100
AcDbEntity
  8
A6
  6
CONTINUOUS
 62
7
100
AcDbLine
 10
233.0000150261800
 20
409.5000000000002
 30
0.0000000000000000
 11
233.0000150261800
 21
412.7000000000001
 31
0.0000000000000000
  0
LINE
  5
145
100
AcDbEntity
  8
A6
  6
CONTINUOUS
 62
7
100
AcDbLine
 10
210.2646523329487
 20
436.0000000000001
 30
0.0000000000000000
 11
209.0000150261801
 21
436.0000000000001
 31
0.0000000000000000
  0
LINE
  5
146
100
AcDbEntity
  8
A6
  6
CONTINUOUS
 62
7
100
AcDbLine
 10
209.4889266838348
 20
411.0000000000001
 30
0.0000000000000000
 11
209.0000150261801
 21
411.0000000000001
 31
0.0000000000000000
  0
LINE
  5
147
100
AcDbEntity
  8
A6
  6
CONTINUOUS
 62
7
100
AcDbLine
 10
209.0000150261800
 20
412.7000000000001
 30
0.0000000000000000
 11
209.0000150261800
 21
411.0000000000001
 31
0.0000000000000000
  0
LINE
  5
148
100
AcDbEntity
  8
A6
  6
CONTINUOUS
 62
7
100
AcDbLine
 10
209.0000150261800
 20
436.0000000000001
 30
0.0000000000000000
 11
209.0000150261800
 21
433.5000000000001
 31
0.0000000000000000
  0
LINE
  5
149
100
AcDbEntity
  8
A6
  6
CONTINUOUS
 62
7
100
AcDbLine
 10
210.2646523329487
 20
436.0000000000001
 30
0.0000000000000000
 11
213.3136160620383
 21
436.0000000000001
 31
0.0000000000000000
  0
LINE
  5
14A
100
AcDbEntity
  8
A6
  6
CONTINUOUS
 62
7
100
AcDbLine
 10
213.8000150261800
 20
436.0000000000001
 30
0.0000000000000000
 11
213.3136160620382
 21
436.0000000000001
 31
0.0000000000000000
  0
LINE
  5
14B
100
AcDbEntity
  8
A6
  6
CONTINUOUS
 62
7
100
AcDbLine
 10
217.0000150261800
 20
436.0000000000000
 30
0.0000000000000000
 11
217.0000150261800
 21
412.7000000000001
 31
0.0000000000000000
  0
LINE
  5
14C
100
AcDbEntity
  8
A6
  6
CONTINUOUS
 62
7
100
AcDbLine
 10
213.8000150261800
 20
436.0000000000000
 30
0.0000000000000000
 11
213.8000150261800
 21
412.7000000000001
 31
0.0000000000000000
  0
LINE
  5
14D
100
AcDbEntity
  8
A6
  6
CONTINUOUS
 62
7
100
AcDbLine
 10
213.8000150261800
 20
436.0000000000000
 30
0.0000000000000000
 11
217.0000150261800
 21
436.0000000000000
 31
0.0000000000000000
  0
LINE
  5
14E
100
AcDbEntity
  8
A6
  6
CONTINUOUS
 62
7
100
AcDbLine
 10
207.0000000261799
 20
413.5000000000001
 30
0.0000000000000000
 11
209.0000150261799
 21
413.5000000000001
 31
0.0000000000000000
  0
LINE
  5
14F
100
AcDbEntity
  8
A6
  6
CONTINUOUS
 62
7
100
AcDbLine
 10
209.0000150261799
 20
433.5000000000001
 30
0.0000000000000000
 11
207.0000000261799
 21
433.5000000000001
 31
0.0000000000000000
  0
LINE
  5
150
100
AcDbEntity
  8
A6
  6
CONTINUOUS
 62
7
100
AcDbLine
 10
207.0000000261799
 20
413.5000000000001
 30
0.0000000000000000
 11
207.0000000261799
 21
433.5000000000001
 31
0.0000000000000000
  0
LINE
  5
151
100
AcDbEntity
  8
A6
  6
CONTINUOUS
 62
7
100
AcDbLine
 10
209.0000150261799
 20
420.9387098642842
 30
0.0000000000000000
 11
209.0000150261799
 21
433.5000000000001
 31
0.0000000000000000
  0
LINE
  5
152
100
AcDbEntity
  8
A6
  6
CONTINUOUS
 62
7
100
AcDbLine
 10
203.3000030261801
 20
423.5000000000001
 30
0.0000000000000000
 11
203.3000030261801
 21
415.5000000000001
 31
0.0000000000000000
  0
LINE
  5
153
100
AcDbEntity
  8
A6
  6
CONTINUOUS
 62
7
100
AcDbLine
 10
203.3000030261801
 20
415.5000000000001
 30
0.0000000000000000
 11
203.8000030261800
 21
415.5000000000001
 31
0.0000000000000000
  0
LINE
  5
154
100
AcDbEntity
  8
A6
  6
CONTINUOUS
 62
7
100
AcDbLine
 10
203.8000030261800
 20
431.5000000000001
 30
0.0000000000000000
 11
203.3000030261801
 21
431.5000000000001
 31
0.0000000000000000
  0
LINE
  5
155
100
AcDbEntity
  8
A6
  6
CONTINUOUS
 62
7
100
AcDbLine
 10
203.3000030261801
 20
431.5000000000001
 30
0.0000000000000000
 11
203.3000030261801
 21
423.5000000000001
 31
0.0000000000000000
  0
ARC
  5
156
100
AcDbEntity
  8
A6
  6
CONTINUOUS
 62
7
100
AcDbCircle
 10
200.0000000261800
 20
423.5000000000001
 30
0.0000000000000000
 40
7.750000026179976
100
AcDbArc
 50
180.0000000000000
 51
197.3167455937816
  0
ARC
  5
157
100
AcDbEntity
  8
A6
  6
CONTINUOUS
 62
7
100
AcDbCircle
 10
200.0000000261800
 20
423.5000000000001
 30
0.0000000000000000
 40
7.750000026179976
100
AcDbArc
 50
162.6832544062183
 51
180.0000000000000
  0
ARC
  5
158
100
AcDbEntity
  8
A6
  6
CONTINUOUS
 62
7
100
AcDbCircle
 10
197.9149717508298
 20
416.8971359177190
 30
0.0000000000000000
 40
4.397135917718970
100
AcDbArc
 50
197.5263413624545
 51
261.0915940470348
  0
ARC
  5
159
100
AcDbEntity
  8
A6
  6
CONTINUOUS
 62
7
100
AcDbCircle
 10
197.9149717508298
 20
430.1028640822811
 30
0.0000000000000000
 40
4.397135917718970
100
AcDbArc
 50
98.90840595297641
 51
162.4736586375455
  0
ARC
  5
15A
100
AcDbEntity
  8
A6
  6
CONTINUOUS
 62
7
100
AcDbCircle
 10
218.8230590261799
 20
423.5000000000001
 30
0.0000000000000000
 40
26.32305500000000
100
AcDbArc
 50
162.4736586375452
 51
197.5263413624549
  0
ARC
  5
15B
100
AcDbEntity
  8
A6
  6
CONTINUOUS
 62
7
100
AcDbCircle
 10
197.9149717508298
 20
416.8971359177190
 30
0.0000000000000000
 40
4.397135917718970
100
AcDbArc
 50
261.0915940470348
 51
283.1224204265356
  0
ARC
  5
15C
100
AcDbEntity
  8
A6
  6
CONTINUOUS
 62
7
100
AcDbCircle
 10
197.9149717508298
 20
430.1028640822811
 30
0.0000000000000000
 40
4.397135917718970
100
AcDbArc
 50
76.87757957347408
 51
98.90840595297641
  0
LINE
  5
15D
100
AcDbEntity
  8
A6
  6
CONTINUOUS
 62
7
100
AcDbLine
 10
198.9132641455176
 20
412.6148215231887
 30
0.0000000000000000
 11
203.8000030261800
 21
413.7540172500644
 31
0.0000000000000000
  0
LINE
  5
15E
100
AcDbEntity
  8
A6
  6
CONTINUOUS
 62
7
100
AcDbLine
 10
201.1454621333107
 20
415.5000000000002
 30
0.0000000000000000
 11
197.2340518182784
 21
412.5530419587514
 31
0.0000000000000000
  0
LINE
  5
15F
100
AcDbEntity
  8
A6
  6
CONTINUOUS
 62
7
100
AcDbLine
 10
203.8000030261800
 20
433.2459827499359
 30
0.0000000000000000
 11
198.9132641455169
 21
434.3851784768117
 31
0.0000000000000000
  0
LINE
  5
160
100
AcDbEntity
  8
A6
  6
CONTINUOUS
 62
7
100
AcDbLine
 10
197.2340518182773
 20
434.4469580412504
 30
0.0000000000000000
 11
201.1454621333110
 21
431.5000000000001
 31
0.0000000000000000
  0
LINE
  5
161
100
AcDbEntity
  8
A6
  6
CONTINUOUS
 62
7
100
AcDbLine
 10
203.8000030261800
 20
413.7540172500643
 30
0.0000000000000000
 11
203.8000030261800
 21
414.5000000000002
 31
0.0000000000000000
  0
LINE
  5
162
100
AcDbEntity
  8
A6
  6
CONTINUOUS
 62
7
100
AcDbLine
 10
207.0000000261799
 20
414.5000000000001
 30
0.0000000000000000
 11
203.8000030261800
 21
413.7540172500642
 31
0.0000000000000000
  0
LINE
  5
163
100
AcDbEntity
  8
A6
  6
CONTINUOUS
 62
7
100
AcDbLine
 10
203.8000030261800
 20
432.5000000000002
 30
0.0000000000000000
 11
203.8000030261800
 21
433.2459827499359
 31
0.0000000000000000
  0
LINE
  5
164
100
AcDbEntity
  8
A6
  6
CONTINUOUS
 62
7
100
AcDbLine
 10
203.8000030261800
 20
433.2459827499359
 30
0.0000000000000000
 11
207.0000000261799
 21
432.5000000000001
 31
0.0000000000000000
  0
LINE
  5
165
100
AcDbEntity
  8
A6
  6
CONTINUOUS
 62
7
100
AcDbLine
 10
203.8000030261801
 20
432.5000000000001
 30
0.0000000000000000
 11
207.0000000261799
 21
432.5000000000001
 31
0.0000000000000000
  0
LINE
  5
166
100
AcDbEntity
  8
A6
  6
CONTINUOUS
 62
7
100
AcDbLine
 10
203.8000030261801
 20
414.5000000000001
 30
0.0000000000000000
 11
203.8000030261801
 21
432.5000000000001
 31
0.0000000000000000
  0
LINE
  5
167
100
AcDbEntity
  8
A6
  6
CONTINUOUS
 62
7
100
AcDbLine
 10
203.8000030261801
 20
414.5000000000001
 30
0.0000000000000000
 11
207.0000000261799
 21
414.5000000000001
 31
0.0000000000000000
  0
CIRCLE
  5
168
100
AcDbEntity
  8
A7
  6
CONTINUOUS
 62
7
100
AcDbCircle
 10
50.00000002617998
 20
323.4999999999999
 30
0.0000000000000000
 40
8.000000000000007
  0
LINE
  5
169
100
AcDbEntity
  8
A7
  6
CONTINUOUS
 62
7
100
AcDbLine
 10
60.80000002618002
 20
304.9295936865178
 30
0.0000000000000000
 11
60.80000002618002
 21
310.0000000000001
 31
0.0000000000000000
  0
LINE
  5
16A
100
AcDbEntity
  8
A7
  6
CONTINUOUS
 62
7
100
AcDbLine
 10
64.00000002617989
 20
303.5000000000001
 30
0.0000000000000000
 11
64.00000002617989
 21
310.0000000000001
 31
0.0000000000000000
  0
LINE
  5
16B
100
AcDbEntity
  8
A7
  6
CONTINUOUS
 62
7
100
AcDbLine
 10
60.80000002618002
 20
293.5000000000001
 30
0.0000000000000000
 11
64.00000002617989
 21
293.5000000000001
 31
0.0000000000000000
  0
LINE
  5
16C
100
AcDbEntity
  8
A7
  6
CONTINUOUS
 62
7
100
AcDbLine
 10
60.80000002618002
 20
293.5000000000001
 30
0.0000000000000000
 11
60.80000002618002
 21
299.5000000000001
 31
0.0000000000000000
  0
LINE
  5
16D
100
AcDbEntity
  8
A7
  6
CONTINUOUS
 62
7
100
AcDbLine
 10
64.00000002617989
 20
293.5000000000001
 30
0.0000000000000000
 11
64.00000002617989
 21
303.5000000000001
 31
0.0000000000000000
  0
LINE
  5
16E
100
AcDbEntity
  8
A7
  6
CONTINUOUS
 62
7
100
AcDbLine
 10
60.80000002618003
 20
343.5000000000000
 30
0.0000000000000000
 11
60.80000002618002
 21
353.5000000000000
 31
0.0000000000000000
  0
LINE
  5
16F
100
AcDbEntity
  8
A7
  6
CONTINUOUS
 62
7
100
AcDbLine
 10
64.00000002617989
 20
343.5000000000001
 30
0.0000000000000000
 11
64.00000002617989
 21
353.5000000000001
 31
0.0000000000000000
  0
LINE
  5
170
100
AcDbEntity
  8
A7
  6
CONTINUOUS
 62
7
100
AcDbLine
 10
64.00000002617989
 20
353.5000000000001
 30
0.0000000000000000
 11
60.80000002618002
 21
353.5000000000001
 31
0.0000000000000000
  0
LINE
  5
171
100
AcDbEntity
  8
A7
  6
CONTINUOUS
 62
7
100
AcDbLine
 10
60.80000002618002
 20
337.0000000000001
 30
0.0000000000000000
 11
60.80000002618002
 21
343.5000000000001
 31
0.0000000000000000
  0
LINE
  5
172
100
AcDbEntity
  8
A7
  6
CONTINUOUS
 62
7
100
AcDbLine
 10
64.00000002617989
 20
337.0000000000001
 30
0.0000000000000000
 11
64.00000002617989
 21
343.5000000000001
 31
0.0000000000000000
  0
LINE
  5
173
100
AcDbEntity
  8
A7
  6
CONTINUOUS
 62
7
100
AcDbLine
 10
60.80000002618002
 20
310.0000000000001
 30
0.0000000000000000
 11
60.80000002618002
 21
310.5000000000001
 31
0.0000000000000000
  0
LINE
  5
174
100
AcDbEntity
  8
A7
  6
CONTINUOUS
 62
7
100
AcDbLine
 10
64.00000002617989
 20
310.0000000000001
 30
0.0000000000000000
 11
64.00000002617989
 21
310.5000000000001
 31
0.0000000000000000
  0
LINE
  5
175
100
AcDbEntity
  8
A7
  6
CONTINUOUS
 62
7
100
AcDbLine
 10
60.80000002618002
 20
336.5000000000001
 30
0.0000000000000000
 11
60.80000002618002
 21
337.0000000000001
 31
0.0000000000000000
  0
LINE
  5
176
100
AcDbEntity
  8
A7
  6
CONTINUOUS
 62
7
100
AcDbLine
 10
64.00000002617989
 20
336.5000000000001
 30
0.0000000000000000
 11
64.00000002617989
 21
337.0000000000001
 31
0.0000000000000000
  0
LINE
  5
177
100
AcDbEntity
  8
A7
  6
CONTINUOUS
 62
7
100
AcDbLine
 10
60.80000002618002
 20
336.5000000000001
 30
0.0000000000000000
 11
64.00000002618000
 21
336.5000000000001
 31
0.0000000000000000
  0
LINE
  5
178
100
AcDbEntity
  8
A7
  6
CONTINUOUS
 62
7
100
AcDbLine
 10
64.00000002618000
 20
310.5000000000001
 30
0.0000000000000000
 11
60.80000002618002
 21
310.5000000000001
 31
0.0000000000000000
  0
LINE
  5
179
100
AcDbEntity
  8
A7
  6
CONTINUOUS
 62
7
100
AcDbLine
 10
64.00000002617990
 20
336.5000000000001
 30
0.0000000000000000
 11
64.00000002617992
 21
310.5000000000001
 31
0.0000000000000000
  0
LINE
  5
17A
100
AcDbEntity
  8
A7
  6
CONTINUOUS
 62
7
100
AcDbLine
 10
60.80000002618005
 20
310.5000000000001
 30
0.0000000000000000
 11
59.08164810626464
 21
311.1952852167832
 31
0.0000000000000000
  0
LINE
  5
17B
100
AcDbEntity
  8
A7
  6
CONTINUOUS
 62
7
100
AcDbLine
 10
52.56129016189578
 20
333.1664260634779
 30
0.0000000000000000
 11
60.80000002618004
 21
336.5000000000000
 31
0.0000000000000000
  0
CIRCLE
  5
17C
100
AcDbEntity
  8
A7
  6
CONTINUOUS
 62
7
100
AcDbCircle
 10
50.00000002618003
 20
77.50000000000003
 30
0.0000000000000000
 40
8.000000000000007
  0
CIRCLE
  5
17D
100
AcDbEntity
  8
A7
  6
CONTINUOUS
 62
7
100
AcDbCircle
 10
50.00000002618009
 20
49.99999999999999
 30
0.0000000000000000
 40
3.500000000000000
  0
ARC
  5
17E
100
AcDbEntity
  8
A7
  6
CONTINUOUS
 62
7
100
AcDbCircle
 10
50.00000002618009
 20
49.99999999999999
 30
0.0000000000000000
 40
12.50000000000000
100
AcDbArc
 50
180.0000000000000
 51
360.0000000000000
  0
ARC
  5
17F
100
AcDbEntity
  8
A7
  6
CONTINUOUS
 62
7
100
AcDbCircle
 10
50.00000002618006
 20
105.0000000000000
 30
0.0000000000000000
 40
12.50000000000000
100
AcDbArc
 50
0.0000000000000000
 51
73.73979529168828
  0
ARC
  5
180
100
AcDbEntity
  8
A7
  6
CONTINUOUS
 62
7
100
AcDbCircle
 10
50.00000002618006
 20
105.0000000000000
 30
0.0000000000000000
 40
12.50000000000000
100
AcDbArc
 50
106.2602047083122
 51
180.0000000000000
  0
LINE
  5
181
100
AcDbEntity
  8
A7
  6
CONTINUOUS
 62
7
100
AcDbLine
 10
62.50000002618010
 20
49.99999999999999
 30
0.0000000000000000
 11
62.50000002617995
 21
59.00748611742516
 31
0.0000000000000000
  0
LINE
  5
182
100
AcDbEntity
  8
A7
  6
CONTINUOUS
 62
7
100
AcDbLine
 10
37.50000002618008
 20
50.00000000000000
 30
0.0000000000000000
 11
37.50000002618005
 21
59.00748611742517
 31
0.0000000000000000
  0
LINE
  5
183
100
AcDbEntity
  8
A7
  6
CONTINUOUS
 62
7
100
AcDbLine
 10
62.50000002617995
 20
95.99251388257485
 30
0.0000000000000000
 11
62.50000002618008
 21
105.0000000000000
 31
0.0000000000000000
  0
LINE
  5
184
100
AcDbEntity
  8
A7
  6
CONTINUOUS
 62
7
100
AcDbLine
 10
37.50000002618005
 20
95.99251388257485
 30
0.0000000000000000
 11
37.50000002618007
 21
105.0000000000000
 31
0.0000000000000000
  0
LINE
  5
185
100
AcDbEntity
  8
A7
  6
CONTINUOUS
 62
7
100
AcDbLine
 10
62.50000002617995
 20
95.99251388257485
 30
0.0000000000000000
 11
62.50000002617995
 21
94.68522206195902
 31
0.0000000000000000
  0
LINE
  5
186
100
AcDbEntity
  8
A7
  6
CONTINUOUS
 62
7
100
AcDbLine
 10
37.50000002618003
 20
95.99251388257485
 30
0.0000000000000000
 11
37.50000002618003
 21
94.68522206195902
 31
0.0000000000000000
  0
LINE
  5
187
100
AcDbEntity
  8
A7
  6
CONTINUOUS
 62
7
100
AcDbLine
 10
62.50000002617995
 20
60.31477793804096
 30
0.0000000000000000
 11
62.50000002617995
 21
59.00748611742516
 31
0.0000000000000000
  0
LINE
  5
188
100
AcDbEntity
  8
A7
  6
CONTINUOUS
 62
7
100
AcDbLine
 10
37.50000002618006
 20
60.31477793804096
 30
0.0000000000000000
 11
37.50000002618006
 21
59.00748611742516
 31
0.0000000000000000
  0
LINE
  5
189
100
AcDbEntity
  8
A7
  6
CONTINUOUS
 62
7
100
AcDbLine
 10
62.50000002617995
 20
91.15508855552386
 30
0.0000000000000000
 11
62.50000002617995
 21
94.68522206195894
 31
0.0000000000000000
  0
LINE
  5
18A
100
AcDbEntity
  8
A7
  6
CONTINUOUS
 62
7
100
AcDbLine
 10
37.50000002618003
 20
91.15508855552386
 30
0.0000000000000000
 11
37.50000002618003
 21
94.68522206195894
 31
0.0000000000000000
  0
LINE
  5
18B
100
AcDbEntity
  8
A7
  6
CONTINUOUS
 62
7
100
AcDbLine
 10
62.50000002617995
 20
60.31477793804096
 30
0.0000000000000000
 11
62.50000002617995
 21
63.84491144447577
 31
0.0000000000000000
  0
LINE
  5
18C
100
AcDbEntity
  8
A7
  6
CONTINUOUS
 62
7
100
AcDbLine
 10
37.50000002618006
 20
60.31477793804096
 30
0.0000000000000000
 11
37.50000002618006
 21
63.84491144447577
 31
0.0000000000000000
  0
LINE
  5
18D
100
AcDbEntity
  8
A7
  6
CONTINUOUS
 62
7
100
AcDbLine
 10
62.50000002617995
 20
67.24387017807716
 30
0.0000000000000000
 11
62.50000002617995
 21
63.84491144447600
 31
0.0000000000000000
  0
LINE
  5
18E
100
AcDbEntity
  8
A7
  6
CONTINUOUS
 62
7
100
AcDbLine
 10
37.50000002618006
 20
67.24387017807716
 30
0.0000000000000000
 11
37.50000002618006
 21
63.84491144447600
 31
0.0000000000000000
  0
LINE
  5
18F
100
AcDbEntity
  8
A7
  6
CONTINUOUS
 62
7
100
AcDbLine
 10
62.50000002617995
 20
91.15508855552386
 30
0.0000000000000000
 11
62.50000002617995
 21
87.75612982192285
 31
0.0000000000000000
  0
LINE
  5
190
100
AcDbEntity
  8
A7
  6
CONTINUOUS
 62
7
100
AcDbLine
 10
37.50000002618003
 20
91.15508855552388
 30
0.0000000000000000
 11
37.50000002618004
 21
87.75612982192285
 31
0.0000000000000000
  0
LINE
  5
191
100
AcDbEntity
  8
A7
  6
CONTINUOUS
 62
7
100
AcDbLine
 10
62.50000002617995
 20
67.24387017807716
 30
0.0000000000000000
 11
62.50000002617995
 21
87.75612982192285
 31
0.0000000000000000
  0
LINE
  5
192
100
AcDbEntity
  8
A7
  6
CONTINUOUS
 62
7
100
AcDbLine
 10
37.50000002618006
 20
67.24387017807716
 30
0.0000000000000000
 11
37.50000002618006
 21
87.75612982192285
 31
0.0000000000000000
  0
ARC
  5
193
100
AcDbEntity
  8
A7
  6
CONTINUOUS
 62
7
100
AcDbCircle
 10
50.00000002618003
 20
77.50000000000006
 30
0.0000000000000000
 40
10.00000000000000
100
AcDbArc
 50
154.1580672368329
 51
270.0000000000000
  0
ARC
  5
194
100
AcDbEntity
  8
A7
  6
CONTINUOUS
 62
7
100
AcDbCircle
 10
50.00000002618003
 20
77.50000000000006
 30
0.0000000000000000
 40
10.00000000000000
100
AcDbArc
 50
270.0000000000000
 51
385.8419327631686
  0
ARC
  5
195
100
AcDbEntity
  8
A7
  6
CONTINUOUS
 62
7
100
AcDbCircle
 10
50.00000002617998
 20
323.5000000000001
 30
0.0000000000000000
 40
10.00000000000000
100
AcDbArc
 50
334.1580672368315
 51
565.8419327631672
  0
ELLIPSE
  5
196
100
AcDbEntity
  8
A7
  6
CONTINUOUS
 62
7
100
AcDbEllipse
 10
43.39713594389895
 20
296.5702797103335
 30
0.0000000000000000
 11
3.781697070821644
 21
-8.755297220006456
 31
0.0000000000000000
210
0.0000000000000000
220
0.0000000000000000
230
1.000000000000000
 40
0.2562519795485874
 41
3.677047916104542
 42
3.832528931088075
  0
ELLIPSE
  5
197
100
AcDbEntity
  8
A7
  6
CONTINUOUS
 62
7
100
AcDbEllipse
 10
43.39713594389895
 20
296.5702797103335
 30
0.0000000000000000
 11
3.781697070821644
 21
-8.755297220006456
 31
0.0000000000000000
210
0.0000000000000000
220
0.0000000000000000
230
1.000000000000000
 40
0.2562519795485874
 41
3.448018473830786
 42
3.677047916104542
  0
ELLIPSE
  5
198
100
AcDbEntity
  8
A7
  6
CONTINUOUS
 62
7
100
AcDbEllipse
 10
56.60286410846101
 20
296.5702797103335
 30
0.0000000000000000
 11
-3.781697070821640
 21
-8.755297220006462
 31
0.0000000000000000
210
0.0000000000000000
220
0.0000000000000000
230
1.000000000000000
 40
0.2562519795485874
 41
2.606137391075044
 42
2.835166833348817
  0
ELLIPSE
  5
199
100
AcDbEntity
  8
A7
  6
CONTINUOUS
 62
7
100
AcDbEllipse
 10
56.60286410846101
 20
296.5702797103335
 30
0.0000000000000000
 11
-3.781697070821640
 21
-8.755297220006462
 31
0.0000000000000000
210
0.0000000000000000
220
0.0000000000000000
230
1.000000000000000
 40
0.2562519795485874
 41
2.450656376091420
 42
2.606137391075044
  0
ELLIPSE
  5
19A
100
AcDbEntity
  8
A7
  6
CONTINUOUS
 62
7
100
AcDbEllipse
 10
56.60286410846092
 20
104.4297232896665
 30
0.0000000000000000
 11
3.781697070821764
 21
-8.755297220006735
 31
0.0000000000000000
210
0.0000000000000000
220
0.0000000000000000
230
1.000000000000000
 40
0.2562519795485876
 41
0.5354552625147506
 42
0.6909362774984394
  0
ELLIPSE
  5
19B
100
AcDbEntity
  8
A7
  6
CONTINUOUS
 62
7
100
AcDbEllipse
 10
56.60286410846092
 20
104.4297232896665
 30
0.0000000000000000
 11
3.781697070821764
 21
-8.755297220006735
 31
0.0000000000000000
210
0.0000000000000000
220
0.0000000000000000
230
1.000000000000000
 40
0.2562519795485876
 41
0.3064258202410517
 42
0.5354552625147506
  0
ELLIPSE
  5
19C
100
AcDbEntity
  8
A7
  6
CONTINUOUS
 62
7
100
AcDbEllipse
 10
43.39713594389914
 20
104.4297232896665
 30
0.0000000000000000
 11
-3.781697070821761
 21
-8.755297220006740
 31
0.0000000000000000
210
0.0000000000000000
220
0.0000000000000000
230
1.000000000000000
 40
0.2562519795485875
 41
5.747730044664832
 42
5.976759486938708
  0
ELLIPSE
  5
19D
100
AcDbEntity
  8
A7
  6
CONTINUOUS
 62
7
100
AcDbEllipse
 10
43.39713594389914
 20
104.4297232896665
 30
0.0000000000000000
 11
-3.781697070821761
 21
-8.755297220006740
 31
0.0000000000000000
210
0.0000000000000000
220
0.0000000000000000
230
1.000000000000000
 40
0.2562519795485875
 41
5.592249029681151
 42
5.747730044664832
  0
ARC
  5
19E
100
AcDbEntity
  8
A7
  6
CONTINUOUS
 62
7
100
AcDbCircle
 10
50.00000002618003
 20
77.50000000000003
 30
0.0000000000000000
 40
9.000000000000000
100
AcDbArc
 50
180.0000000000000
 51
360.0000050000003
  0
ARC
  5
19F
100
AcDbEntity
  8
A7
  6
CONTINUOUS
 62
7
100
AcDbCircle
 10
50.00000002617998
 20
323.5000000000001
 30
0.0000000000000000
 40
9.000000000000000
100
AcDbArc
 50
359.9999949999998
 51
540.0000000000000
  0
ARC
  5
1A0
100
AcDbEntity
  8
A7
  6
CONTINUOUS
 62
7
100
AcDbCircle
 10
42.50000002617992
 20
166.0000150000000
 30
0.0000000000000000
 40
1.000000000000000
100
AcDbArc
 50
270.0000000000000
 51
450.0000000000000
  0
ARC
  5
1A1
100
AcDbEntity
  8
A7
  6
CONTINUOUS
 62
7
100
AcDbCircle
 10
57.50000002618012
 20
166.0000150000000
 30
0.0000000000000000
 40
1.000000000000000
100
AcDbArc
 50
90.00000000000000
 51
270.0000000000000
  0
ARC
  5
1A2
100
AcDbEntity
  8
A7
  6
CONTINUOUS
 62
7
100
AcDbCircle
 10
42.50000002617992
 20
179.5000150000000
 30
0.0000000000000000
 40
1.000000000000000
100
AcDbArc
 50
270.0000000000001
 51
450.0000029999997
  0
ARC
  5
1A3
100
AcDbEntity
  8
A7
  6
CONTINUOUS
 62
7
100
AcDbCircle
 10
57.50000002618009
 20
179.5000150000000
 30
0.0000000000000000
 40
1.000000000000000
100
AcDbArc
 50
89.99999700000036
 51
270.0000000000001
  0
LINE
  5
1A4
100
AcDbEntity
  8
A7
  6
CONTINUOUS
 62
7
100
AcDbLine
 10
59.74598277611589
 20
92.30642438814382
 30
0.0000000000000000
 11
59.74598277611583
 21
92.28404552433082
 31
0.0000000000000000
  0
LINE
  5
1A5
100
AcDbEntity
  8
A7
  6
CONTINUOUS
 62
7
100
AcDbLine
 10
40.25401727624424
 20
92.28404552433042
 30
0.0000000000000000
 11
40.25401727624421
 21
92.30642438814402
 31
0.0000000000000000
  0
LINE
  5
1A6
100
AcDbEntity
  8
A7
  6
CONTINUOUS
 62
7
100
AcDbLine
 10
41.00000002618000
 20
89.49999999999999
 30
0.0000000000000000
 11
40.25401727624420
 21
92.28404552433041
 31
0.0000000000000000
  0
LINE
  5
1A7
100
AcDbEntity
  8
A7
  6
CONTINUOUS
 62
7
100
AcDbLine
 10
59.00000002618003
 20
77.50000078539824
 30
0.0000000000000000
 11
59.00000002617992
 21
89.50000000000000
 31
0.0000000000000000
  0
LINE
  5
1A8
100
AcDbEntity
  8
A7
  6
CONTINUOUS
 62
7
100
AcDbLine
 10
59.74598277611581
 20
92.28404552433082
 30
0.0000000000000000
 11
59.00000002617991
 21
89.50000000000000
 31
0.0000000000000000
  0
LINE
  5
1A9
100
AcDbEntity
  8
A7
  6
CONTINUOUS
 62
7
100
AcDbLine
 10
41.00000002618003
 20
89.50000000000001
 30
0.0000000000000000
 11
41.00000002618004
 21
77.50000000000001
 31
0.0000000000000000
  0
LINE
  5
1AA
100
AcDbEntity
  8
A7
  6
CONTINUOUS
 62
7
100
AcDbLine
 10
40.25401727624418
 20
308.7159544756698
 30
0.0000000000000000
 11
40.25401727624413
 21
308.6935786118560
 31
0.0000000000000000
  0
LINE
  5
1AB
100
AcDbEntity
  8
A7
  6
CONTINUOUS
 62
7
100
AcDbLine
 10
59.74598277611570
 20
308.6935786118557
 30
0.0000000000000000
 11
59.74598277611577
 21
308.7159544756693
 31
0.0000000000000000
  0
LINE
  5
1AC
100
AcDbEntity
  8
A7
  6
CONTINUOUS
 62
7
100
AcDbLine
 10
41.00000002618000
 20
311.5000000000001
 30
0.0000000000000000
 11
41.00000002618000
 21
323.5000000000001
 31
0.0000000000000000
  0
LINE
  5
1AD
100
AcDbEntity
  8
A7
  6
CONTINUOUS
 62
7
100
AcDbLine
 10
41.00000002618002
 20
311.5000000000001
 30
0.0000000000000000
 11
40.25401727624421
 21
308.7159544756698
 31
0.0000000000000000
  0
LINE
  5
1AE
100
AcDbEntity
  8
A7
  6
CONTINUOUS
 62
7
100
AcDbLine
 10
59.74598277611575
 20
308.7159544756693
 30
0.0000000000000000
 11
59.00000002617986
 21
311.5000000000000
 31
0.0000000000000000
  0
LINE
  5
1AF
100
AcDbEntity
  8
A7
  6
CONTINUOUS
 62
7
100
AcDbLine
 10
59.00000002618000
 20
323.4999992146019
 30
0.0000000000000000
 11
59.00000002617987
 21
311.5000000000002
 31
0.0000000000000000
  0
LINE
  5
1B0
100
AcDbEntity
  8
A7
  6
CONTINUOUS
 62
7
100
AcDbLine
 10
39.11482154936846
 20
96.37458887284080
 30
0.0000000000000000
 11
40.25401727624419
 21
92.30642438814399
 31
0.0000000000000000
  0
LINE
  5
1B1
100
AcDbEntity
  8
A7
  6
CONTINUOUS
 62
7
100
AcDbLine
 10
44.00000002618007
 20
98.30000300000003
 30
0.0000000000000000
 11
40.25401727624418
 21
92.30642438814401
 31
0.0000000000000000
  0
LINE
  5
1B2
100
AcDbEntity
  8
A7
  6
CONTINUOUS
 62
7
100
AcDbLine
 10
60.88517850299145
 20
304.6254141271584
 30
0.0000000000000000
 11
59.74598277611567
 21
308.6935786118557
 31
0.0000000000000000
  0
LINE
  5
1B3
100
AcDbEntity
  8
A7
  6
CONTINUOUS
 62
7
100
AcDbLine
 10
59.74598277611571
 20
308.6935786118556
 30
0.0000000000000000
 11
56.00000002617983
 21
302.6999999999999
 31
0.0000000000000000
  0
LINE
  5
1B4
100
AcDbEntity
  8
A7
  6
CONTINUOUS
 62
7
100
AcDbLine
 10
59.74598277611587
 20
92.30642438814382
 30
0.0000000000000000
 11
56.00000002617995
 21
98.30000300000002
 31
0.0000000000000000
  0
LINE
  5
1B5
100
AcDbEntity
  8
A7
  6
CONTINUOUS
 62
7
100
AcDbLine
 10
59.74598277611588
 20
92.30642438814381
 30
0.0000000000000000
 11
60.88517850299166
 21
96.37458887284139
 31
0.0000000000000000
  0
LINE
  5
1B6
100
AcDbEntity
  8
A7
  6
CONTINUOUS
 62
7
100
AcDbLine
 10
44.00000002618012
 20
302.6999999999999
 30
0.0000000000000000
 11
40.25401727624410
 21
308.6935786118560
 31
0.0000000000000000
  0
LINE
  5
1B7
100
AcDbEntity
  8
A7
  6
CONTINUOUS
 62
7
100
AcDbLine
 10
40.25401727624416
 20
308.6935786118561
 30
0.0000000000000000
 11
39.11482154936837
 21
304.6254141271585
 31
0.0000000000000000
  0
LINE
  5
1B8
100
AcDbEntity
  8
A7
  6
CONTINUOUS
 62
7
100
AcDbLine
 10
46.50000002618002
 20
159.5000150000000
 30
0.0000000000000000
 11
46.50000002618003
 21
101.5000000000000
 31
0.0000000000000000
  0
LINE
  5
1B9
100
AcDbEntity
  8
A7
  6
CONTINUOUS
 62
7
100
AcDbLine
 10
53.50000002618003
 20
101.5000000000000
 30
0.0000000000000000
 11
53.50000002618002
 21
159.5000150000000
 31
0.0000000000000000
  0
LINE
  5
1BA
100
AcDbEntity
  8
A7
  6
CONTINUOUS
 62
7
100
AcDbLine
 10
42.07296382107666
 20
302.7000000000002
 30
0.0000000000000000
 11
39.05304198493042
 21
302.7000000000002
 31
0.0000000000000000
  0
LINE
  5
1BB
100
AcDbEntity
  8
A7
  6
CONTINUOUS
 62
7
100
AcDbLine
 10
39.00000002618000
 20
303.6057044704488
 30
0.0000000000000000
 11
39.00000002618000
 21
299.5000000000001
 31
0.0000000000000000
  0
LINE
  5
1BC
100
AcDbEntity
  8
A7
  6
CONTINUOUS
 62
7
100
AcDbLine
 10
39.00000002618000
 20
299.5000000000001
 30
0.0000000000000000
 11
42.07296382107666
 21
299.5000000000001
 31
0.0000000000000000
  0
LINE
  5
1BD
100
AcDbEntity
  8
A7
  6
CONTINUOUS
 62
7
100
AcDbLine
 10
60.94695806742970
 20
302.7000000000002
 30
0.0000000000000000
 11
57.92703623128330
 21
302.7000000000002
 31
0.0000000000000000
  0
LINE
  5
1BE
100
AcDbEntity
  8
A7
  6
CONTINUOUS
 62
7
100
AcDbLine
 10
61.00000002617998
 20
299.5000000000001
 30
0.0000000000000000
 11
61.00000002617998
 21
303.6057044704488
 31
0.0000000000000000
  0
LINE
  5
1BF
100
AcDbEntity
  8
A7
  6
CONTINUOUS
 62
7
100
AcDbLine
 10
61.00000002617998
 20
299.5000000000001
 30
0.0000000000000000
 11
57.92703623128330
 21
299.5000000000001
 31
0.0000000000000000
  0
LINE
  5
1C0
100
AcDbEntity
  8
A7
  6
CONTINUOUS
 62
7
100
AcDbLine
 10
57.92703623128324
 20
98.30000300000006
 30
0.0000000000000000
 11
60.94695806742970
 21
98.30000300000006
 31
0.0000000000000000
  0
LINE
  5
1C1
100
AcDbEntity
  8
A7
  6
CONTINUOUS
 62
7
100
AcDbLine
 10
61.00000002618003
 20
97.39429852955092
 30
0.0000000000000000
 11
61.00000002618003
 21
101.5000000000000
 31
0.0000000000000000
  0
LINE
  5
1C2
100
AcDbEntity
  8
A7
  6
CONTINUOUS
 62
7
100
AcDbLine
 10
61.00000002618003
 20
101.5000000000000
 30
0.0000000000000000
 11
57.92703623128327
 21
101.5000000000000
 31
0.0000000000000000
  0
LINE
  5
1C3
100
AcDbEntity
  8
A7
  6
CONTINUOUS
 62
7
100
AcDbLine
 10
39.05304198493027
 20
98.30000300000006
 30
0.0000000000000000
 11
42.07296382107680
 21
98.30000300000006
 31
0.0000000000000000
  0
LINE
  5
1C4
100
AcDbEntity
  8
A7
  6
CONTINUOUS
 62
7
100
AcDbLine
 10
39.00000002618003
 20
101.5000000000000
 30
0.0000000000000000
 11
39.00000002618003
 21
97.39429852955092
 31
0.0000000000000000
  0
LINE
  5
1C5
100
AcDbEntity
  8
A7
  6
CONTINUOUS
 62
7
100
AcDbLine
 10
39.00000002618003
 20
101.5000000000000
 30
0.0000000000000000
 11
42.07296382107680
 21
101.5000000000000
 31
0.0000000000000000
  0
LINE
  5
1C6
100
AcDbEntity
  8
A7
  6
CONTINUOUS
 62
7
100
AcDbLine
 10
50.00000002618000
 20
159.5000150000000
 30
0.0000000000000000
 11
43.50000002617992
 21
159.5000150000000
 31
0.0000000000000000
  0
LINE
  5
1C7
100
AcDbEntity
  8
A7
  6
CONTINUOUS
 62
7
100
AcDbLine
 10
43.50000002617992
 20
160.5000150000000
 30
0.0000000000000000
 11
43.50000002617992
 21
159.5000150000000
 31
0.0000000000000000
  0
LINE
  5
1C8
100
AcDbEntity
  8
A7
  6
CONTINUOUS
 62
7
100
AcDbLine
 10
56.50000002618012
 20
159.5000150000000
 30
0.0000000000000000
 11
56.50000002618012
 21
160.5000150000000
 31
0.0000000000000000
  0
LINE
  5
1C9
100
AcDbEntity
  8
A7
  6
CONTINUOUS
 62
7
100
AcDbLine
 10
56.50000002618012
 20
159.5000150000000
 30
0.0000000000000000
 11
50.00000002618000
 21
159.5000150000000
 31
0.0000000000000000
  0
LINE
  5
1CA
100
AcDbEntity
  8
A7
  6
CONTINUOUS
 62
7
100
AcDbLine
 10
57.92703623128327
 20
101.5000000000000
 30
0.0000000000000000
 11
42.07296382107680
 21
101.5000000000000
 31
0.0000000000000000
  0
LINE
  5
1CB
100
AcDbEntity
  8
A7
  6
CONTINUOUS
 62
7
100
AcDbLine
 10
42.07296382107680
 20
98.30000300000002
 30
0.0000000000000000
 11
57.92703623128324
 21
98.30000300000002
 31
0.0000000000000000
  0
LINE
  5
1CC
100
AcDbEntity
  8
A7
  6
CONTINUOUS
 62
7
100
AcDbLine
 10
57.92703623128332
 20
299.5000000000001
 30
0.0000000000000000
 11
42.07296382107666
 21
299.5000000000001
 31
0.0000000000000000
  0
LINE
  5
1CD
100
AcDbEntity
  8
A7
  6
CONTINUOUS
 62
7
100
AcDbLine
 10
57.92703623128332
 20
302.7000000000000
 30
0.0000000000000000
 11
42.07296382107666
 21
302.7000000000000
 31
0.0000000000000000
  0
LINE
  5
1CE
100
AcDbEntity
  8
A7
  6
CONTINUOUS
 62
7
100
AcDbLine
 10
50.00000002618000
 20
160.5000150000000
 30
0.0000000000000000
 11
42.50000002617992
 21
160.5000150000000
 31
0.0000000000000000
  0
LINE
  5
1CF
100
AcDbEntity
  8
A7
  6
CONTINUOUS
 62
7
100
AcDbLine
 10
42.50000002617992
 20
165.0000150000000
 30
0.0000000000000000
 11
42.50000002617992
 21
160.5000150000000
 31
0.0000000000000000
  0
LINE
  5
1D0
100
AcDbEntity
  8
A7
  6
CONTINUOUS
 62
7
100
AcDbLine
 10
57.50000002618012
 20
160.5000150000000
 30
0.0000000000000000
 11
57.50000002618012
 21
165.0000150000000
 31
0.0000000000000000
  0
LINE
  5
1D1
100
AcDbEntity
  8
A7
  6
CONTINUOUS
 62
7
100
AcDbLine
 10
57.50000002618012
 20
160.5000150000000
 30
0.0000000000000000
 11
50.00000002618000
 21
160.5000150000000
 31
0.0000000000000000
  0
LINE
  5
1D2
100
AcDbEntity
  8
A7
  6
CONTINUOUS
 62
7
100
AcDbLine
 10
50.00000002618000
 20
165.0000150000000
 30
0.0000000000000000
 11
42.50000002617992
 21
165.0000150000000
 31
0.0000000000000000
  0
LINE
  5
1D3
100
AcDbEntity
  8
A7
  6
CONTINUOUS
 62
7
100
AcDbLine
 10
57.50000002618012
 20
165.0000150000000
 30
0.0000000000000000
 11
50.00000002618000
 21
165.0000150000000
 31
0.0000000000000000
  0
LINE
  5
1D4
100
AcDbEntity
  8
A7
  6
CONTINUOUS
 62
7
100
AcDbLine
 10
50.00000002618000
 20
167.0000150000000
 30
0.0000000000000000
 11
42.50000002617992
 21
167.0000150000000
 31
0.0000000000000000
  0
LINE
  5
1D5
100
AcDbEntity
  8
A7
  6
CONTINUOUS
 62
7
100
AcDbLine
 10
42.50000002617993
 20
178.5000150000000
 30
0.0000000000000000
 11
42.50000002617994
 21
167.0000150000000
 31
0.0000000000000000
  0
LINE
  5
1D6
100
AcDbEntity
  8
A7
  6
CONTINUOUS
 62
7
100
AcDbLine
 10
57.50000002618011
 20
167.0000150000000
 30
0.0000000000000000
 11
57.50000002618010
 21
178.5000150000000
 31
0.0000000000000000
  0
LINE
  5
1D7
100
AcDbEntity
  8
A7
  6
CONTINUOUS
 62
7
100
AcDbLine
 10
57.50000002618012
 20
167.0000150000000
 30
0.0000000000000000
 11
50.00000002618000
 21
167.0000150000000
 31
0.0000000000000000
  0
LINE
  5
1D8
100
AcDbEntity
  8
A7
  6
CONTINUOUS
 62
7
100
AcDbLine
 10
50.00000002618000
 20
178.5000150000000
 30
0.0000000000000000
 11
42.50000002617992
 21
178.5000150000000
 31
0.0000000000000000
  0
LINE
  5
1D9
100
AcDbEntity
  8
A7
  6
CONTINUOUS
 62
7
100
AcDbLine
 10
57.50000002618009
 20
178.5000150000000
 30
0.0000000000000000
 11
50.00000002618000
 21
178.5000150000000
 31
0.0000000000000000
  0
LINE
  5
1DA
100
AcDbEntity
  8
A7
  6
CONTINUOUS
 62
7
100
AcDbLine
 10
50.00000002618000
 20
180.5000150000000
 30
0.0000000000000000
 11
42.49999997382005
 21
180.5000150000000
 31
0.0000000000000000
  0
LINE
  5
1DB
100
AcDbEntity
  8
A7
  6
CONTINUOUS
 62
7
100
AcDbLine
 10
42.49999999999996
 20
297.0000000000000
 30
0.0000000000000000
 11
42.49999999999998
 21
180.5000150000000
 31
0.0000000000000000
  0
LINE
  5
1DC
100
AcDbEntity
  8
A7
  6
CONTINUOUS
 62
7
100
AcDbLine
 10
57.50000005236004
 20
180.5000150000000
 30
0.0000000000000000
 11
57.50000005236001
 21
297.0000000000000
 31
0.0000000000000000
  0
LINE
  5
1DD
100
AcDbEntity
  8
A7
  6
CONTINUOUS
 62
7
100
AcDbLine
 10
57.50000007853995
 20
180.5000150000000
 30
0.0000000000000000
 11
50.00000002618000
 21
180.5000150000000
 31
0.0000000000000000
  0
LINE
  5
1DE
100
AcDbEntity
  8
A7
  6
CONTINUOUS
 62
7
100
AcDbLine
 10
50.00000002617995
 20
297.0000000000001
 30
0.0000000000000000
 11
42.24999999999997
 21
297.0000000000001
 31
0.0000000000000000
  0
LINE
  5
1DF
100
AcDbEntity
  8
A7
  6
CONTINUOUS
 62
7
100
AcDbLine
 10
42.24999999999997
 20
298.0000000000001
 30
0.0000000000000000
 11
42.24999999999997
 21
297.0000000000001
 31
0.0000000000000000
  0
LINE
  5
1E0
100
AcDbEntity
  8
A7
  6
CONTINUOUS
 62
7
100
AcDbLine
 10
57.75000005235992
 20
297.0000000000001
 30
0.0000000000000000
 11
57.75000005235992
 21
298.0000000000001
 31
0.0000000000000000
  0
LINE
  5
1E1
100
AcDbEntity
  8
A7
  6
CONTINUOUS
 62
7
100
AcDbLine
 10
57.75000005235992
 20
297.0000000000001
 30
0.0000000000000000
 11
50.00000002617995
 21
297.0000000000001
 31
0.0000000000000000
  0
LINE
  5
1E2
100
AcDbEntity
  8
A7
  6
CONTINUOUS
 62
7
100
AcDbLine
 10
50.00000002617995
 20
298.0000000000001
 30
0.0000000000000000
 11
42.24999999999997
 21
298.0000000000001
 31
0.0000000000000000
  0
LINE
  5
1E3
100
AcDbEntity
  8
A7
  6
CONTINUOUS
 62
7
100
AcDbLine
 10
45.00000002617998
 20
299.5000000000001
 30
0.0000000000000000
 11
42.24999999999997
 21
298.0000000000001
 31
0.0000000000000000
  0
LINE
  5
1E4
100
AcDbEntity
  8
A7
  6
CONTINUOUS
 62
7
100
AcDbLine
 10
57.75000005235995
 20
298.0000000000001
 30
0.0000000000000000
 11
55.00000002617993
 21
299.5000000000001
 31
0.0000000000000000
  0
LINE
  5
1E5
100
AcDbEntity
  8
A7
  6
CONTINUOUS
 62
7
100
AcDbLine
 10
57.75000005235992
 20
298.0000000000001
 30
0.0000000000000000
 11
50.00000002617995
 21
298.0000000000001
 31
0.0000000000000000
  0
ARC
  5
1E6
100
AcDbEntity
  8
A8
  6
CONTINUOUS
 62
7
100
AcDbCircle
 10
212.2000150261800
 20
-11.69999999999992
 30
0.0000000000000000
 40
3.200000000000000
100
AcDbArc
 50
90.00000000000000
 51
147.9100487437219
  0
LINE
  5
1E7
100
AcDbEntity
  8
A8
  6
CONTINUOUS
 62
7
100
AcDbLine
 10
212.5000150261799
 20
-8.500000000000046
 30
0.0000000000000000
 11
212.2000150261800
 21
-8.500000000000016
 31
0.0000000000000000
  0
LINE
  5
1E8
100
AcDbEntity
  8
A8
  6
CONTINUOUS
 62
7
100
AcDbLine
 10
213.0000150261799
 20
-8.500000000000050
 30
0.0000000000000000
 11
212.5000150261799
 21
-8.500000000000050
 31
0.0000000000000000
  0
LINE
  5
1E9
100
AcDbEntity
  8
A8
  6
CONTINUOUS
 62
7
100
AcDbLine
 10
233.0000150261800
 20
-11.69999999999992
 30
0.0000000000000000
 11
217.0000150261800
 21
-11.69999999999992
 31
0.0000000000000000
  0
LINE
  5
1EA
100
AcDbEntity
  8
A8
  6
CONTINUOUS
 62
7
100
AcDbLine
 10
233.0000150261800
 20
-8.500000000000050
 30
0.0000000000000000
 11
213.0000150261800
 21
-8.500000000000050
 31
0.0000000000000000
  0
LINE
  5
1EB
100
AcDbEntity
  8
A8
  6
CONTINUOUS
 62
7
100
AcDbLine
 10
233.0000150261797
 20
-8.500000000000050
 30
0.0000000000000000
 11
233.0000150261797
 21
-11.69999999999992
 31
0.0000000000000000
  0
LINE
  5
1EC
100
AcDbEntity
  8
A8
  6
CONTINUOUS
 62
7
100
AcDbLine
 10
213.0000150261800
 20
-8.500000000000050
 30
0.0000000000000000
 11
213.0000150261800
 21
-10.00000000000003
 31
0.0000000000000000
  0
ARC
  5
1ED
100
AcDbEntity
  8
A8
  6
CONTINUOUS
 62
7
100
AcDbCircle
 10
202.8000030261801
 20
-14.99999999999995
 30
0.0000000000000000
 40
0.5000000000000000
100
AcDbArc
 50
0.0000000000000000
 51
90.00000000000000
  0
ARC
  5
1EE
100
AcDbEntity
  8
A8
  6
CONTINUOUS
 62
7
100
AcDbCircle
 10
202.8000030261801
 20
-29.99999999999995
 30
0.0000000000000000
 40
0.5000000000000000
100
AcDbArc
 50
270.0000000000000
 51
360.0000000000000
  0
ARC
  5
1EF
100
AcDbEntity
  8
A8
  6
CONTINUOUS
 62
7
100
AcDbCircle
 10
200.8000030261801
 20
-14.99999999999995
 30
0.0000000000000000
 40
0.5000000000000000
100
AcDbArc
 50
90.00000000000000
 51
180.0000000000000
  0
ARC
  5
1F0
100
AcDbEntity
  8
A8
  6
CONTINUOUS
 62
7
100
AcDbCircle
 10
200.8000030261801
 20
-29.99999999999995
 30
0.0000000000000000
 40
0.5000000000000000
100
AcDbArc
 50
180.0000000000000
 51
270.0000000000000
  0
LINE
  5
1F1
100
AcDbEntity
  8
A8
  6
CONTINUOUS
 62
7
100
AcDbLine
 10
202.8000030261801
 20
-14.49999999999995
 30
0.0000000000000000
 11
200.8000030261801
 21
-14.49999999999995
 31
0.0000000000000000
  0
LINE
  5
1F2
100
AcDbEntity
  8
A8
  6
CONTINUOUS
 62
7
100
AcDbLine
 10
200.8000030261801
 20
-30.49999999999995
 30
0.0000000000000000
 11
202.8000030261801
 21
-30.49999999999995
 31
0.0000000000000000
  0
LINE
  5
1F3
100
AcDbEntity
  8
A8
  6
CONTINUOUS
 62
7
100
AcDbLine
 10
200.3000030261801
 20
-29.99999999999995
 30
0.0000000000000000
 11
200.3000030261801
 21
-14.99999999999995
 31
0.0000000000000000
  0
LINE
  5
1F4
100
AcDbEntity
  8
A8
  6
CONTINUOUS
 62
7
100
AcDbLine
 10
209.0000150261801
 20
-34.99999999999994
 30
0.0000000000000000
 11
210.2646523329488
 21
-34.99999999999994
 31
0.0000000000000000
  0
LINE
  5
1F5
100
AcDbEntity
  8
A8
  6
CONTINUOUS
 62
7
100
AcDbLine
 10
209.0000150261801
 20
-10.00000000000003
 30
0.0000000000000000
 11
210.2646523329488
 21
-10.00000000000003
 31
0.0000000000000000
  0
LINE
  5
1F6
100
AcDbEntity
  8
A8
  6
CONTINUOUS
 62
7
100
AcDbLine
 10
209.0000150261801
 20
-34.99999999999994
 30
0.0000000000000000
 11
209.0000150261801
 21
-10.00000000000003
 31
0.0000000000000000
  0
LINE
  5
1F7
100
AcDbEntity
  8
A8
  6
CONTINUOUS
 62
7
100
AcDbLine
 10
213.3136160620382
 20
-34.99999999999994
 30
0.0000000000000000
 11
210.2646523329486
 21
-34.99999999999994
 31
0.0000000000000000
  0
LINE
  5
1F8
100
AcDbEntity
  8
A8
  6
CONTINUOUS
 62
7
100
AcDbLine
 10
213.3136160620382
 20
-10.00000000000003
 30
0.0000000000000000
 11
210.2646523329486
 21
-10.00000000000003
 31
0.0000000000000000
  0
LINE
  5
1F9
100
AcDbEntity
  8
A8
  6
CONTINUOUS
 62
7
100
AcDbLine
 10
213.3136160620382
 20
-34.99999999999994
 30
0.0000000000000000
 11
213.8000150261800
 21
-34.99999999999994
 31
0.0000000000000000
  0
LINE
  5
1FA
100
AcDbEntity
  8
A8
  6
CONTINUOUS
 62
7
100
AcDbLine
 10
213.3136160620382
 20
-10.00000000000003
 30
0.0000000000000000
 11
213.8000150261800
 21
-10.00000000000003
 31
0.0000000000000000
  0
LINE
  5
1FB
100
AcDbEntity
  8
A8
  6
CONTINUOUS
 62
7
100
AcDbLine
 10
213.8000150261800
 20
-9.999999999999893
 30
0.0000000000000000
 11
213.8000150261800
 21
-34.99999999999989
 31
0.0000000000000000
  0
LINE
  5
1FC
100
AcDbEntity
  8
A8
  6
CONTINUOUS
 62
7
100
AcDbLine
 10
217.0000150261800
 20
-9.999999999999893
 30
0.0000000000000000
 11
217.0000150261800
 21
-34.99999999999989
 31
0.0000000000000000
  0
LINE
  5
1FD
100
AcDbEntity
  8
A8
  6
CONTINUOUS
 62
7
100
AcDbLine
 10
217.0000150261800
 20
-34.99999999999991
 30
0.0000000000000000
 11
213.8000150261800
 21
-34.99999999999991
 31
0.0000000000000000
  0
LINE
  5
1FE
100
AcDbEntity
  8
A8
  6
CONTINUOUS
 62
7
100
AcDbLine
 10
217.0000150261800
 20
-9.999999999999886
 30
0.0000000000000000
 11
213.8000150261800
 21
-9.999999999999886
 31
0.0000000000000000
  0
LINE
  5
1FF
100
AcDbEntity
  8
A8
  6
CONTINUOUS
 62
7
100
AcDbLine
 10
207.0000000261799
 20
-22.49999999999996
 30
0.0000000000000000
 11
207.0000000261799
 21
-12.49999999999995
 31
0.0000000000000000
  0
LINE
  5
200
100
AcDbEntity
  8
A8
  6
CONTINUOUS
 62
7
100
AcDbLine
 10
207.0000000261799
 20
-32.49999999999995
 30
0.0000000000000000
 11
209.0000150261799
 21
-32.49999999999995
 31
0.0000000000000000
  0
LINE
  5
201
100
AcDbEntity
  8
A8
  6
CONTINUOUS
 62
7
100
AcDbLine
 10
209.0000150261799
 20
-12.49999999999995
 30
0.0000000000000000
 11
207.0000000261799
 21
-12.49999999999995
 31
0.0000000000000000
  0
LINE
  5
202
100
AcDbEntity
  8
A8
  6
CONTINUOUS
 62
7
100
AcDbLine
 10
207.0000000261799
 20
-32.49999999999995
 30
0.0000000000000000
 11
207.0000000261799
 21
-22.49999999999996
 31
0.0000000000000000
  0
LINE
  5
203
100
AcDbEntity
  8
A8
  6
CONTINUOUS
 62
7
100
AcDbLine
 10
203.3000030261801
 20
-30.49999999999998
 30
0.0000000000000000
 11
203.8000030261800
 21
-30.49999999999998
 31
0.0000000000000000
  0
LINE
  5
204
100
AcDbEntity
  8
A8
  6
CONTINUOUS
 62
7
100
AcDbLine
 10
203.8000030261800
 20
-14.49999999999998
 30
0.0000000000000000
 11
203.3000030261801
 21
-14.49999999999998
 31
0.0000000000000000
  0
LINE
  5
205
100
AcDbEntity
  8
A8
  6
CONTINUOUS
 62
7
100
AcDbLine
 10
203.3000030261801
 20
-14.49999999999998
 30
0.0000000000000000
 11
203.3000030261801
 21
-30.49999999999998
 31
0.0000000000000000
  0
ARC
  5
206
100
AcDbEntity
  8
A8
  6
CONTINUOUS
 62
7
100
AcDbCircle
 10
200.0000000261800
 20
-22.49999999999999
 30
0.0000000000000000
 40
7.750000026179976
100
AcDbArc
 50
162.6832544062184
 51
180.0000000000000
  0
ARC
  5
207
100
AcDbEntity
  8
A8
  6
CONTINUOUS
 62
7
100
AcDbCircle
 10
200.0000000261800
 20
-22.49999999999999
 30
0.0000000000000000
 40
7.750000026179976
100
AcDbArc
 50
180.0000000000000
 51
197.3167455937818
  0
ARC
  5
208
100
AcDbEntity
  8
A8
  6
CONTINUOUS
 62
7
100
AcDbCircle
 10
197.9149717508299
 20
-29.10286408228084
 30
0.0000000000000000
 40
4.397135917719111
100
AcDbArc
 50
197.5263413624546
 51
261.0915940470376
  0
ARC
  5
209
100
AcDbEntity
  8
A8
  6
CONTINUOUS
 62
7
100
AcDbCircle
 10
197.9149717508299
 20
-15.89713591771906
 30
0.0000000000000000
 40
4.397135917719111
100
AcDbArc
 50
98.90840595296692
 51
162.4736586375454
  0
ARC
  5
20A
100
AcDbEntity
  8
A8
  6
CONTINUOUS
 62
7
100
AcDbCircle
 10
218.8230590261799
 20
-22.49999999999995
 30
0.0000000000000000
 40
26.32305500000000
100
AcDbArc
 50
162.4736586375454
 51
197.5263413624546
  0
ARC
  5
20B
100
AcDbEntity
  8
A8
  6
CONTINUOUS
 62
7
100
AcDbCircle
 10
197.9149717508299
 20
-29.10286408228084
 30
0.0000000000000000
 40
4.397135917719111
100
AcDbArc
 50
261.0915940470376
 51
283.1224204265302
  0
ARC
  5
20C
100
AcDbEntity
  8
A8
  6
CONTINUOUS
 62
7
100
AcDbCircle
 10
197.9149717508299
 20
-15.89713591771906
 30
0.0000000000000000
 40
4.397135917719111
100
AcDbArc
 50
76.87757957347479
 51
98.90840595296692
  0
LINE
  5
20D
100
AcDbEntity
  8
A8
  6
CONTINUOUS
 62
7
100
AcDbLine
 10
198.9132641455172
 20
-33.38517847681149
 30
0.0000000000000000
 11
203.8000030261800
 21
-32.24598274993576
 31
0.0000000000000000
  0
LINE
  5
20E
100
AcDbEntity
  8
A8
  6
CONTINUOUS
 62
7
100
AcDbLine
 10
201.1454621333108
 20
-30.49999999999996
 30
0.0000000000000000
 11
197.2340518182785
 21
-33.44695804124883
 31
0.0000000000000000
  0
LINE
  5
20F
100
AcDbEntity
  8
A8
  6
CONTINUOUS
 62
7
100
AcDbLine
 10
203.8000030261802
 20
-12.75401725006410
 30
0.0000000000000000
 11
198.9132641455170
 21
-11.61482152318831
 31
0.0000000000000000
  0
LINE
  5
210
100
AcDbEntity
  8
A8
  6
CONTINUOUS
 62
7
100
AcDbLine
 10
197.2340518182782
 20
-11.55304195875117
 30
0.0000000000000000
 11
201.1454621333106
 21
-14.49999999999994
 31
0.0000000000000000
  0
LINE
  5
211
100
AcDbEntity
  8
A8
  6
CONTINUOUS
 62
7
100
AcDbLine
 10
203.8000030261800
 20
-31.49999999999995
 30
0.0000000000000000
 11
203.8000030261800
 21
-32.24598274993574
 31
0.0000000000000000
  0
LINE
  5
212
100
AcDbEntity
  8
A8
  6
CONTINUOUS
 62
7
100
AcDbLine
 10
203.8000030261800
 20
-32.24598274993573
 30
0.0000000000000000
 11
207.0000000261799
 21
-31.49999999999995
 31
0.0000000000000000
  0
LINE
  5
213
100
AcDbEntity
  8
A8
  6
CONTINUOUS
 62
7
100
AcDbLine
 10
203.8000030261800
 20
-12.75401725006416
 30
0.0000000000000000
 11
203.8000030261800
 21
-13.50000000000006
 31
0.0000000000000000
  0
LINE
  5
214
100
AcDbEntity
  8
A8
  6
CONTINUOUS
 62
7
100
AcDbLine
 10
207.0000000261799
 20
-13.49999999999994
 30
0.0000000000000000
 11
203.8000030261801
 21
-12.75401725006415
 31
0.0000000000000000
  0
LINE
  5
215
100
AcDbEntity
  8
A8
  6
CONTINUOUS
 62
7
100
AcDbLine
 10
203.8000030261801
 20
-13.49999999999995
 30
0.0000000000000000
 11
203.8000030261801
 21
-31.49999999999995
 31
0.0000000000000000
  0
LINE
  5
216
100
AcDbEntity
  8
A8
  6
CONTINUOUS
 62
7
100
AcDbLine
 10
203.8000030261801
 20
-13.49999999999995
 30
0.0000000000000000
 11
207.0000000261799
 21
-13.49999999999995
 31
0.0000000000000000
  0
LINE
  5
217
100
AcDbEntity
  8
A8
  6
CONTINUOUS
 62
7
100
AcDbLine
 10
203.8000030261801
 20
-31.49999999999995
 30
0.0000000000000000
 11
207.0000000261799
 21
-31.49999999999995
 31
0.0000000000000000
  0
ARC
  5
218
100
AcDbEntity
  8
A9
  6
CONTINUOUS
 62
7
100
AcDbCircle
 10
497.1999970261799
 20
315.9999999999999
 30
0.0000000000000000
 40
0.5000000000000000
100
AcDbArc
 50
180.0000000000000
 51
270.0000000000001
  0
ARC
  5
219
100
AcDbEntity
  8
A9
  6
CONTINUOUS
 62
7
100
AcDbCircle
 10
497.1999970261799
 20
330.9999999999999
 30
0.0000000000000000
 40
0.5000000000000000
100
AcDbArc
 50
90.00000000000000
 51
180.0000000000000
  0
ARC
  5
21A
100
AcDbEntity
  8
A9
  6
CONTINUOUS
 62
7
100
AcDbCircle
 10
499.1999970261799
 20
315.9999999999999
 30
0.0000000000000000
 40
0.5000000000000000
100
AcDbArc
 50
270.0000000000000
 51
360.0000000000000
  0
ARC
  5
21B
100
AcDbEntity
  8
A9
  6
CONTINUOUS
 62
7
100
AcDbCircle
 10
499.1999970261799
 20
330.9999999999999
 30
0.0000000000000000
 40
0.5000000000000000
100
AcDbArc
 50
0.0000000000000000
 51
90.00000000000000
  0
LINE
  5
21C
100
AcDbEntity
  8
A9
  6
CONTINUOUS
 62
7
100
AcDbLine
 10
486.9999970261798
 20
327.7499999999999
 30
0.0000000000000000
 11
486.9999970261798
 21
319.2499999999999
 31
0.0000000000000000
  0
LINE
  5
21D
100
AcDbEntity
  8
A9
  6
CONTINUOUS
 62
7
100
AcDbLine
 10
486.9999970261798
 20
319.2499999999999
 30
0.0000000000000000
 11
487.7999850261803
 21
319.2499999999999
 31
0.0000000000000000
  0
LINE
  5
21E
100
AcDbEntity
  8
A9
  6
CONTINUOUS
 62
7
100
AcDbLine
 10
487.7999850261803
 20
327.7499999999999
 30
0.0000000000000000
 11
486.9999970261798
 21
327.7499999999999
 31
0.0000000000000000
  0
LINE
  5
21F
100
AcDbEntity
  8
A9
  6
CONTINUOUS
 62
7
100
AcDbLine
 10
497.1999970261799
 20
315.4999999999999
 30
0.0000000000000000
 11
499.1999970261799
 21
315.4999999999999
 31
0.0000000000000000
  0
LINE
  5
220
100
AcDbEntity
  8
A9
  6
CONTINUOUS
 62
7
100
AcDbLine
 10
499.1999970261799
 20
331.4999999999999
 30
0.0000000000000000
 11
497.1999970261799
 21
331.4999999999999
 31
0.0000000000000000
  0
LINE
  5
221
100
AcDbEntity
  8
A9
  6
CONTINUOUS
 62
7
100
AcDbLine
 10
499.6999970261799
 20
330.9999999999999
 30
0.0000000000000000
 11
499.6999970261799
 21
316.0000000000538
 31
0.0000000000000000
  0
CIRCLE
  5
222
100
AcDbEntity
  8
A9
  6
CONTINUOUS
 62
7
100
AcDbCircle
 10
476.9999850261800
 20
343.5000000000001
 30
0.0000000000000000
 40
3.500000000000000
  0
CIRCLE
  5
223
100
AcDbEntity
  8
A9
  6
CONTINUOUS
 62
7
100
AcDbCircle
 10
476.9999850261800
 20
303.5000000000001
 30
0.0000000000000000
 40
3.500000000000000
  0
ARC
  5
224
100
AcDbEntity
  8
A9
  6
CONTINUOUS
 62
7
100
AcDbCircle
 10
487.4999850261801
 20
337.0000000000001
 30
0.0000000000000000
 40
0.5000000000000000
100
AcDbArc
 50
180.0000000000000
 51
270.0000000000000
  0
ARC
  5
225
100
AcDbEntity
  8
A9
  6
CONTINUOUS
 62
7
100
AcDbCircle
 10
476.9999850261800
 20
343.5000000000001
 30
0.0000000000000000
 40
10.00000000000001
100
AcDbArc
 50
0.0000000000000000
 51
180.0000000000002
  0
ARC
  5
226
100
AcDbEntity
  8
A9
  6
CONTINUOUS
 62
7
100
AcDbCircle
 10
476.9999850261800
 20
303.5000000000001
 30
0.0000000000000000
 40
10.00000000000000
100
AcDbArc
 50
180.0000000000003
 51
360.0000000000000
  0
ARC
  5
227
100
AcDbEntity
  8
A9
  6
CONTINUOUS
 62
7
100
AcDbCircle
 10
487.4999850261801
 20
310.0000000000001
 30
0.0000000000000000
 40
0.5000000000000000
100
AcDbArc
 50
90.00000000000000
 51
180.0000000000000
  0
LINE
  5
228
100
AcDbEntity
  8
A9
  6
CONTINUOUS
 62
7
100
AcDbLine
 10
487.4999850261801
 20
310.5000000000001
 30
0.0000000000000000
 11
487.7999850261803
 21
310.4999999999999
 31
0.0000000000000000
  0
LINE
  5
229
100
AcDbEntity
  8
A9
  6
CONTINUOUS
 62
7
100
AcDbLine
 10
487.7999850261803
 20
336.5000000000001
 30
0.0000000000000000
 11
487.4999850261801
 21
336.5000000000001
 31
0.0000000000000000
  0
LINE
  5
22A
100
AcDbEntity
  8
A9
  6
CONTINUOUS
 62
7
100
AcDbLine
 10
486.9999850261800
 20
337.0000000000001
 30
0.0000000000000000
 11
486.9999850261800
 21
343.5000000000001
 31
0.0000000000000000
  0
LINE
  5
22B
100
AcDbEntity
  8
A9
  6
CONTINUOUS
 62
7
100
AcDbLine
 10
466.9999850261800
 20
343.5000000000001
 30
0.0000000000000000
 11
466.9999850261802
 21
303.5000000000001
 31
0.0000000000000000
  0
LINE
  5
22C
100
AcDbEntity
  8
A9
  6
CONTINUOUS
 62
7
100
AcDbLine
 10
486.9999850261800
 20
303.5000000000001
 30
0.0000000000000000
 11
486.9999850261800
 21
310.0000000000001
 31
0.0000000000000000
  0
LINE
  5
22D
100
AcDbEntity
  8
A9
  6
CONTINUOUS
 62
7
100
AcDbLine
 10
490.9999850261799
 20
310.5000000000001
 30
0.0000000000000000
 11
490.9999850261800
 21
313.5000000000000
 31
0.0000000000000000
  0
LINE
  5
22E
100
AcDbEntity
  8
A9
  6
CONTINUOUS
 62
7
100
AcDbLine
 10
487.7999850261803
 20
310.4999999999999
 30
0.0000000000000000
 11
487.7999850261803
 21
316.0840680542307
 31
0.0000000000000000
  0
LINE
  5
22F
100
AcDbEntity
  8
A9
  6
CONTINUOUS
 62
7
100
AcDbLine
 10
490.9999850261799
 20
310.5000000000001
 30
0.0000000000000000
 11
487.7999850261803
 21
310.4999999999999
 31
0.0000000000000000
  0
LINE
  5
230
100
AcDbEntity
  8
A9
  6
CONTINUOUS
 62
7
100
AcDbLine
 10
490.9999850261800
 20
333.4999999999999
 30
0.0000000000000000
 11
490.9999850261800
 21
336.5000000000001
 31
0.0000000000000000
  0
LINE
  5
231
100
AcDbEntity
  8
A9
  6
CONTINUOUS
 62
7
100
AcDbLine
 10
487.7999850261803
 20
330.9159319457694
 30
0.0000000000000000
 11
487.7999850261803
 21
336.5000000000001
 31
0.0000000000000000
  0
LINE
  5
232
100
AcDbEntity
  8
A9
  6
CONTINUOUS
 62
7
100
AcDbLine
 10
490.9999850261800
 20
336.5000000000001
 30
0.0000000000000000
 11
487.7999850261803
 21
336.5000000000001
 31
0.0000000000000000
  0
LINE
  5
233
100
AcDbEntity
  8
A9
  6
CONTINUOUS
 62
7
100
AcDbLine
 10
487.7999850261803
 20
316.0840680542306
 30
0.0000000000000000
 11
487.7999850261803
 21
330.9159319457694
 31
0.0000000000000000
  0
ARC
  5
234
100
AcDbEntity
  8
A9
  6
CONTINUOUS
 62
7
100
AcDbCircle
 10
497.1999970261799
 20
70.00000000000000
 30
0.0000000000000000
 40
0.5000000000000000
100
AcDbArc
 50
180.0000000000000
 51
270.0000000000000
  0
ARC
  5
235
100
AcDbEntity
  8
A9
  6
CONTINUOUS
 62
7
100
AcDbCircle
 10
497.1999970261799
 20
85.00000000000003
 30
0.0000000000000000
 40
0.5000000000000000
100
AcDbArc
 50
90.00000000000000
 51
180.0000000000000
  0
ARC
  5
236
100
AcDbEntity
  8
A9
  6
CONTINUOUS
 62
7
100
AcDbCircle
 10
499.1999970261799
 20
70.00000000000000
 30
0.0000000000000000
 40
0.5000000000000000
100
AcDbArc
 50
270.0000000000000
 51
360.0000000000000
  0
ARC
  5
237
100
AcDbEntity
  8
A9
  6
CONTINUOUS
 62
7
100
AcDbCircle
 10
499.1999970261799
 20
85.00000000000003
 30
0.0000000000000000
 40
0.5000000000000000
100
AcDbArc
 50
0.0000000000000000
 51
90.00000000000000
  0
LINE
  5
238
100
AcDbEntity
  8
A9
  6
CONTINUOUS
 62
7
100
AcDbLine
 10
486.9999970261798
 20
81.75000000000003
 30
0.0000000000000000
 11
486.9999970261798
 21
73.25000000000003
 31
0.0000000000000000
  0
LINE
  5
239
100
AcDbEntity
  8
A9
  6
CONTINUOUS
 62
7
100
AcDbLine
 10
486.9999970261798
 20
73.25000000000003
 30
0.0000000000000000
 11
487.7999850261800
 21
73.25000000000003
 31
0.0000000000000000
  0
LINE
  5
23A
100
AcDbEntity
  8
A9
  6
CONTINUOUS
 62
7
100
AcDbLine
 10
487.7999850261800
 20
81.75000000000003
 30
0.0000000000000000
 11
486.9999970261798
 21
81.75000000000003
 31
0.0000000000000000
  0
LINE
  5
23B
100
AcDbEntity
  8
A9
  6
CONTINUOUS
 62
7
100
AcDbLine
 10
497.1999970261799
 20
69.50000000000000
 30
0.0000000000000000
 11
499.1999970261799
 21
69.50000000000000
 31
0.0000000000000000
  0
LINE
  5
23C
100
AcDbEntity
  8
A9
  6
CONTINUOUS
 62
7
100
AcDbLine
 10
499.1999970261799
 20
85.50000000000003
 30
0.0000000000000000
 11
497.1999970261799
 21
85.50000000000003
 31
0.0000000000000000
  0
LINE
  5
23D
100
AcDbEntity
  8
A9
  6
CONTINUOUS
 62
7
100
AcDbLine
 10
499.6999970261799
 20
85.00000000000003
 30
0.0000000000000000
 11
499.6999970261799
 21
70.00000000005397
 31
0.0000000000000000
  0
ARC
  5
23E
100
AcDbEntity
  8
A9
  6
CONTINUOUS
 62
7
100
AcDbCircle
 10
485.7999850261800
 20
67.24387017807716
 30
0.0000000000000000
 40
5.200000000000001
100
AcDbArc
 50
319.1829447235302
 51
360.0000000000000
  0
ARC
  5
23F
100
AcDbEntity
  8
A9
  6
CONTINUOUS
 62
7
100
AcDbCircle
 10
488.1999850261801
 20
59.00748611742516
 30
0.0000000000000000
 40
2.000000000000000
100
AcDbArc
 50
139.1829447235320
 51
180.0000000000000
  0
ARC
  5
240
100
AcDbEntity
  8
A9
  6
CONTINUOUS
 62
7
100
AcDbCircle
 10
485.7999850261800
 20
87.75612982192285
 30
0.0000000000000000
 40
5.200000000000003
100
AcDbArc
 50
0.0000000000000000
 51
40.81705527646739
  0
ARC
  5
241
100
AcDbEntity
  8
A9
  6
CONTINUOUS
 62
7
100
AcDbCircle
 10
488.1999850261801
 20
95.99251388257485
 30
0.0000000000000000
 40
1.999999999999998
100
AcDbArc
 50
180.0000000000000
 51
220.8170552764687
  0
ARC
  5
242
100
AcDbEntity
  8
A9
  6
CONTINUOUS
 62
7
100
AcDbCircle
 10
488.1999850261801
 20
95.99251388257485
 30
0.0000000000000000
 40
5.200000000000003
100
AcDbArc
 50
180.0000000000000
 51
220.8170552764674
  0
ARC
  5
243
100
AcDbEntity
  8
A9
  6
CONTINUOUS
 62
7
100
AcDbCircle
 10
485.7999850261800
 20
87.75612982192285
 30
0.0000000000000000
 40
1.999999999999998
100
AcDbArc
 50
0.0000000000000000
 51
40.81705527647054
  0
ARC
  5
244
100
AcDbEntity
  8
A9
  6
CONTINUOUS
 62
7
100
AcDbCircle
 10
485.7999850261800
 20
67.24387017807716
 30
0.0000000000000000
 40
2.000000000000000
100
AcDbArc
 50
319.1829447235334
 51
360.0000000000000
  0
ARC
  5
245
100
AcDbEntity
  8
A9
  6
CONTINUOUS
 62
7
100
AcDbCircle
 10
488.1999850261801
 20
59.00748611742516
 30
0.0000000000000000
 40
5.200000000000001
100
AcDbArc
 50
139.1829447235311
 51
180.0000000000000
  0
LINE
  5
246
100
AcDbEntity
  8
A9
  6
CONTINUOUS
 62
7
100
AcDbLine
 10
482.9999850261801
 20
37.49999999999996
 30
0.0000000000000000
 11
486.1999850261801
 21
37.49999999999996
 31
0.0000000000000000
  0
LINE
  5
247
100
AcDbEntity
  8
A9
  6
CONTINUOUS
 62
7
100
AcDbLine
 10
486.1999850261801
 20
37.49999999999999
 30
0.0000000000000000
 11
486.1999850261801
 21
49.99999999999999
 31
0.0000000000000000
  0
LINE
  5
248
100
AcDbEntity
  8
A9
  6
CONTINUOUS
 62
7
100
AcDbLine
 10
482.9999850261801
 20
37.49999999999999
 30
0.0000000000000000
 11
482.9999850261801
 21
49.99999999999999
 31
0.0000000000000000
  0
LINE
  5
249
100
AcDbEntity
  8
A9
  6
CONTINUOUS
 62
7
100
AcDbLine
 10
486.1999850261801
 20
95.99251388257485
 30
0.0000000000000000
 11
486.1999850261801
 21
105.0000000000000
 31
0.0000000000000000
  0
LINE
  5
24A
100
AcDbEntity
  8
A9
  6
CONTINUOUS
 62
7
100
AcDbLine
 10
482.9999850261801
 20
105.0000000000000
 30
0.0000000000000000
 11
482.9999850261801
 21
95.99251388257485
 31
0.0000000000000000
  0
LINE
  5
24B
100
AcDbEntity
  8
A9
  6
CONTINUOUS
 62
7
100
AcDbLine
 10
486.1999850261801
 20
49.99999999999999
 30
0.0000000000000000
 11
486.1999850261801
 21
59.00748611742516
 31
0.0000000000000000
  0
LINE
  5
24C
100
AcDbEntity
  8
A9
  6
CONTINUOUS
 62
7
100
AcDbLine
 10
482.9999850261801
 20
59.00748611742516
 30
0.0000000000000000
 11
482.9999850261801
 21
49.99999999999999
 31
0.0000000000000000
  0
LINE
  5
24D
100
AcDbEntity
  8
A9
  6
CONTINUOUS
 62
7
100
AcDbLine
 10
486.6863839903219
 20
60.31477793804098
 30
0.0000000000000000
 11
489.7353477194116
 21
63.84491144447580
 31
0.0000000000000000
  0
LINE
  5
24E
100
AcDbEntity
  8
A9
  6
CONTINUOUS
 62
7
100
AcDbLine
 10
490.9999850261800
 20
67.24387017807716
 30
0.0000000000000000
 11
490.9999850261801
 21
87.75612982192283
 31
0.0000000000000000
  0
LINE
  5
24F
100
AcDbEntity
  8
A9
  6
CONTINUOUS
 62
7
100
AcDbLine
 10
489.7353477194113
 20
91.15508855552383
 30
0.0000000000000000
 11
486.6863839903217
 21
94.68522206195894
 31
0.0000000000000000
  0
LINE
  5
250
100
AcDbEntity
  8
A9
  6
CONTINUOUS
 62
7
100
AcDbLine
 10
484.2646223329488
 20
92.59355514897382
 30
0.0000000000000000
 11
487.3135860620382
 21
89.06342164253874
 31
0.0000000000000000
  0
LINE
  5
251
100
AcDbEntity
  8
A9
  6
CONTINUOUS
 62
7
100
AcDbLine
 10
487.7999850261800
 20
87.75612982192285
 30
0.0000000000000000
 11
487.7999850261800
 21
67.24387017807716
 31
0.0000000000000000
  0
LINE
  5
252
100
AcDbEntity
  8
A9
  6
CONTINUOUS
 62
7
100
AcDbLine
 10
487.3135860620382
 20
65.93657835746143
 30
0.0000000000000000
 11
484.2646223329489
 21
62.40644485102632
 31
0.0000000000000000
  0
LINE
  5
253
100
AcDbEntity
  8
A9
  6
CONTINUOUS
 62
7
100
AcDbLine
 10
486.1999850261801
 20
105.0000000000000
 30
0.0000000000000000
 11
486.1999850261801
 21
117.5000000000000
 31
0.0000000000000000
  0
LINE
  5
254
100
AcDbEntity
  8
A9
  6
CONTINUOUS
 62
7
100
AcDbLine
 10
482.9999850261801
 20
105.0000000000000
 30
0.0000000000000000
 11
482.9999850261801
 21
117.5000000000000
 31
0.0000000000000000
  0
LINE
  5
255
100
AcDbEntity
  8
A9
  6
CONTINUOUS
 62
7
100
AcDbLine
 10
486.1999850261801
 20
117.5000000000000
 30
0.0000000000000000
 11
482.9999850261801
 21
117.5000000000000
 31
0.0000000000000000
  0
LINE
  5
256
100
AcDbEntity
  8
A9
  6
CONTINUOUS
 62
7
100
AcDbLine
 10
493.0000000261800
 20
87.50000000000006
 30
0.0000000000000000
 11
490.9999850261801
 21
87.50000000000006
 31
0.0000000000000000
  0
LINE
  5
257
100
AcDbEntity
  8
A9
  6
CONTINUOUS
 62
7
100
AcDbLine
 10
490.9999850261801
 20
67.50000000000003
 30
0.0000000000000000
 11
493.0000000261800
 21
67.50000000000003
 31
0.0000000000000000
  0
LINE
  5
258
100
AcDbEntity
  8
A9
  6
CONTINUOUS
 62
7
100
AcDbLine
 10
493.0000000261800
 20
81.85889894354071
 30
0.0000000000000000
 11
493.0000000261800
 21
67.50000000000006
 31
0.0000000000000000
  0
LINE
  5
259
100
AcDbEntity
  8
A9
  6
CONTINUOUS
 62
7
100
AcDbLine
 10
493.0000000261800
 20
333.5000000000001
 30
0.0000000000000000
 11
490.9999850261801
 21
333.5000000000001
 31
0.0000000000000000
  0
LINE
  5
25A
100
AcDbEntity
  8
A9
  6
CONTINUOUS
 62
7
100
AcDbLine
 10
490.9999850261801
 20
313.5000000000001
 30
0.0000000000000000
 11
493.0000000261800
 21
313.5000000000001
 31
0.0000000000000000
  0
LINE
  5
25B
100
AcDbEntity
  8
A9
  6
CONTINUOUS
 62
7
100
AcDbLine
 10
493.0000000261800
 20
333.5000000000001
 30
0.0000000000000000
 11
493.0000000261800
 21
319.1411010564594
 31
0.0000000000000000
  0
LINE
  5
25C
100
AcDbEntity
  8
A9
  6
CONTINUOUS
 62
7
100
AcDbLine
 10
490.9999850261801
 20
333.5000000000001
 30
0.0000000000000000
 11
490.9999850261801
 21
313.5000000000001
 31
0.0000000000000000
  0
LINE
  5
25D
100
AcDbEntity
  8
A9
  6
CONTINUOUS
 62
7
100
AcDbLine
 10
496.6999970261800
 20
85.50000000000006
 30
0.0000000000000000
 11
496.1999970261801
 21
85.50000000000006
 31
0.0000000000000000
  0
LINE
  5
25E
100
AcDbEntity
  8
A9
  6
CONTINUOUS
 62
7
100
AcDbLine
 10
496.1999970261801
 20
69.50000000000003
 30
0.0000000000000000
 11
496.6999970261800
 21
69.50000000000003
 31
0.0000000000000000
  0
LINE
  5
25F
100
AcDbEntity
  8
A9
  6
CONTINUOUS
 62
7
100
AcDbLine
 10
496.6999970261799
 20
69.50000000000006
 30
0.0000000000000000
 11
496.6999970261799
 21
85.50000000000006
 31
0.0000000000000000
  0
LINE
  5
260
100
AcDbEntity
  8
A9
  6
CONTINUOUS
 62
7
100
AcDbLine
 10
496.6999970261800
 20
331.5000000000001
 30
0.0000000000000000
 11
496.1999970261800
 21
331.5000000000001
 31
0.0000000000000000
  0
LINE
  5
261
100
AcDbEntity
  8
A9
  6
CONTINUOUS
 62
7
100
AcDbLine
 10
496.1999970261800
 20
315.5000000000001
 30
0.0000000000000000
 11
496.6999970261800
 21
315.5000000000001
 31
0.0000000000000000
  0
LINE
  5
262
100
AcDbEntity
  8
A9
  6
CONTINUOUS
 62
7
100
AcDbLine
 10
496.6999970261799
 20
315.5000000000001
 30
0.0000000000000000
 11
496.6999970261799
 21
331.5000000000001
 31
0.0000000000000000
  0
ELLIPSE
  5
263
100
AcDbEntity
  8
A9
  6
CONTINUOUS
 62
7
100
AcDbEllipse
 10
502.0850283015302
 20
104.4297232896665
 30
0.0000000000000000
 11
3.065911231597429
 21
8.739080125708892
 31
0.0000000000000000
210
0.0000000000000000
220
0.0000000000000000
230
1.000000000000000
 40
0.3606766711266629
 41
3.684119773990131
 42
4.068630231247617
  0
ELLIPSE
  5
264
100
AcDbEntity
  8
A9
  6
CONTINUOUS
 62
7
100
AcDbEllipse
 10
502.0850283015302
 20
108.9077559034719
 30
0.0000000000000000
 11
3.065911231597433
 21
8.739080125708906
 31
0.0000000000000000
210
0.0000000000000000
220
0.0000000000000000
230
1.000000000000000
 40
0.3606766711266622
 41
3.684119773990116
 42
3.839213513162991
  0
ELLIPSE
  5
265
100
AcDbEntity
  8
A9
  6
CONTINUOUS
 62
7
100
AcDbEllipse
 10
502.0850283015302
 20
296.5702797103335
 30
0.0000000000000000
 11
-3.065911231597330
 21
8.739080125708616
 31
0.0000000000000000
210
0.0000000000000000
220
0.0000000000000000
230
1.000000000000000
 40
0.3606766711266626
 41
5.356147729521760
 42
5.740658186779148
  0
ELLIPSE
  5
266
100
AcDbEntity
  8
A9
  6
CONTINUOUS
 62
7
100
AcDbEllipse
 10
502.0850283015302
 20
292.0922440965277
 30
0.0000000000000000
 11
-3.065911231597332
 21
8.739080125708616
 31
0.0000000000000000
210
0.0000000000000000
220
0.0000000000000000
230
1.000000000000000
 40
0.3606766711266625
 41
5.585564447606530
 42
5.740658186779213
  0
ARC
  5
267
100
AcDbEntity
  8
A9
  6
CONTINUOUS
 62
7
100
AcDbCircle
 10
498.0000000261800
 20
303.7399803852969
 30
0.0000000000000000
 40
5.000000000000000
100
AcDbArc
 50
179.9998569786408
 51
238.0918586725645
  0
ARC
  5
268
100
AcDbEntity
  8
A9
  6
CONTINUOUS
 62
7
100
AcDbCircle
 10
492.5000000261799
 20
166.0000150000000
 30
0.0000000000000000
 40
1.000000000000000
100
AcDbArc
 50
270.0000000000000
 51
450.0000000000000
  0
ARC
  5
269
100
AcDbEntity
  8
A9
  6
CONTINUOUS
 62
7
100
AcDbCircle
 10
507.5000000261800
 20
166.0000150000000
 30
0.0000000000000000
 40
1.000000000000000
100
AcDbArc
 50
90.00000000000000
 51
270.0000000000000
  0
ARC
  5
26A
100
AcDbEntity
  8
A9
  6
CONTINUOUS
 62
7
100
AcDbCircle
 10
492.5000000261799
 20
179.5000150000000
 30
0.0000000000000000
 40
1.000000000000000
100
AcDbArc
 50
270.0000000000000
 51
450.0000029999997
  0
ARC
  5
26B
100
AcDbEntity
  8
A9
  6
CONTINUOUS
 62
7
100
AcDbCircle
 10
507.5000000261800
 20
179.5000150000000
 30
0.0000000000000000
 40
1.000000000000000
100
AcDbArc
 50
89.99999700000036
 51
270.0000000000000
  0
ARC
  5
26C
100
AcDbEntity
  8
A9
  6
CONTINUOUS
 62
7
100
AcDbCircle
 10
498.0000000261800
 20
304.5000000000001
 30
0.0000000000000000
 40
5.000000000000000
100
AcDbArc
 50
179.9999999999977
 51
270.0000000000000
  0
ARC
  5
26D
100
AcDbEntity
  8
A9
  6
CONTINUOUS
 62
7
100
AcDbCircle
 10
498.0000000261800
 20
96.50000000000003
 30
0.0000000000000000
 40
5.000000000000000
100
AcDbArc
 50
90.00000000000000
 51
180.0000000000000
  0
LINE
  5
26E
100
AcDbEntity
  8
A9
  6
CONTINUOUS
 62
7
100
AcDbLine
 10
498.0000000261800
 20
101.5000000000000
 30
0.0000000000000000
 11
496.5000000261799
 21
101.5000000000000
 31
0.0000000000000000
  0
LINE
  5
26F
100
AcDbEntity
  8
A9
  6
CONTINUOUS
 62
7
100
AcDbLine
 10
496.5000000261799
 20
159.5000150000000
 30
0.0000000000000000
 11
496.5000000261799
 21
101.5000000000000
 31
0.0000000000000000
  0
LINE
  5
270
100
AcDbEntity
  8
A9
  6
CONTINUOUS
 62
7
100
AcDbLine
 10
503.5000000261799
 20
101.5000000000000
 30
0.0000000000000000
 11
503.5000000261799
 21
159.5000150000000
 31
0.0000000000000000
  0
LINE
  5
271
100
AcDbEntity
  8
A9
  6
CONTINUOUS
 62
7
100
AcDbLine
 10
493.0000000261800
 20
303.7399802319107
 30
0.0000000000000000
 11
493.0000000261800
 21
304.5000000000002
 31
0.0000000000000000
  0
LINE
  5
272
100
AcDbEntity
  8
A9
  6
CONTINUOUS
 62
7
100
AcDbLine
 10
506.5000000261800
 20
159.5000150000000
 30
0.0000000000000000
 11
493.5000000261799
 21
159.5000150000000
 31
0.0000000000000000
  0
LINE
  5
273
100
AcDbEntity
  8
A9
  6
CONTINUOUS
 62
7
100
AcDbLine
 10
493.5000000261799
 20
160.5000150000000
 30
0.0000000000000000
 11
493.5000000261799
 21
159.5000150000000
 31
0.0000000000000000
  0
LINE
  5
274
100
AcDbEntity
  8
A9
  6
CONTINUOUS
 62
7
100
AcDbLine
 10
506.5000000261800
 20
159.5000150000000
 30
0.0000000000000000
 11
506.5000000261800
 21
160.5000150000000
 31
0.0000000000000000
  0
LINE
  5
275
100
AcDbEntity
  8
A9
  6
CONTINUOUS
 62
7
100
AcDbLine
 10
507.5000000261800
 20
167.0000150000000
 30
0.0000000000000000
 11
492.5000000261799
 21
167.0000150000000
 31
0.0000000000000000
  0
LINE
  5
276
100
AcDbEntity
  8
A9
  6
CONTINUOUS
 62
7
100
AcDbLine
 10
492.5000000261799
 20
178.5000150000000
 30
0.0000000000000000
 11
492.5000000261799
 21
167.0000150000000
 31
0.0000000000000000
  0
LINE
  5
277
100
AcDbEntity
  8
A9
  6
CONTINUOUS
 62
7
100
AcDbLine
 10
507.5000000261800
 20
167.0000150000000
 30
0.0000000000000000
 11
507.5000000261800
 21
178.5000150000000
 31
0.0000000000000000
  0
LINE
  5
278
100
AcDbEntity
  8
A9
  6
CONTINUOUS
 62
7
100
AcDbLine
 10
507.5000000261800
 20
165.0000150000000
 30
0.0000000000000000
 11
492.5000000261799
 21
165.0000150000000
 31
0.0000000000000000
  0
LINE
  5
279
100
AcDbEntity
  8
A9
  6
CONTINUOUS
 62
7
100
AcDbLine
 10
507.5000000261800
 20
160.5000150000000
 30
0.0000000000000000
 11
492.5000000261799
 21
160.5000150000000
 31
0.0000000000000000
  0
LINE
  5
27A
100
AcDbEntity
  8
A9
  6
CONTINUOUS
 62
7
100
AcDbLine
 10
492.5000000261799
 20
165.0000150000000
 30
0.0000000000000000
 11
492.5000000261799
 21
160.5000150000000
 31
0.0000000000000000
  0
LINE
  5
27B
100
AcDbEntity
  8
A9
  6
CONTINUOUS
 62
7
100
AcDbLine
 10
507.5000000261800
 20
160.5000150000000
 30
0.0000000000000000
 11
507.5000000261800
 21
165.0000150000000
 31
0.0000000000000000
  0
LINE
  5
27C
100
AcDbEntity
  8
A9
  6
CONTINUOUS
 62
7
100
AcDbLine
 10
507.5000000261800
 20
178.5000150000000
 30
0.0000000000000000
 11
492.5000000262339
 21
178.5000150000000
 31
0.0000000000000000
  0
LINE
  5
27D
100
AcDbEntity
  8
A9
  6
CONTINUOUS
 62
7
100
AcDbLine
 10
507.5000000785400
 20
180.5000150000000
 30
0.0000000000000000
 11
492.4999999738201
 21
180.5000150000000
 31
0.0000000000000000
  0
LINE
  5
27E
100
AcDbEntity
  8
A9
  6
CONTINUOUS
 62
7
100
AcDbLine
 10
492.5000000000000
 20
297.0000000000001
 30
0.0000000000000000
 11
492.5000000000000
 21
180.5000150000000
 31
0.0000000000000000
  0
LINE
  5
27F
100
AcDbEntity
  8
A9
  6
CONTINUOUS
 62
7
100
AcDbLine
 10
507.5000000523601
 20
180.5000150000000
 30
0.0000000000000000
 11
507.5000000523601
 21
297.0000000000001
 31
0.0000000000000000
  0
LINE
  5
280
100
AcDbEntity
  8
A9
  6
CONTINUOUS
 62
7
100
AcDbLine
 10
498.0000000261800
 20
299.5000000000001
 30
0.0000000000000000
 11
495.0000000261800
 21
299.5000000000001
 31
0.0000000000000000
  0
LINE
  5
281
100
AcDbEntity
  8
A9
  6
CONTINUOUS
 62
7
100
AcDbLine
 10
495.0000000261801
 20
299.5000000000001
 30
0.0000000000000000
 11
492.2500000000002
 21
298.0000000000001
 31
0.0000000000000000
  0
LINE
  5
282
100
AcDbEntity
  8
A9
  6
CONTINUOUS
 62
7
100
AcDbLine
 10
507.7500000523600
 20
298.0000000000001
 30
0.0000000000000000
 11
505.0000000261800
 21
299.5000000000001
 31
0.0000000000000000
  0
LINE
  5
283
100
AcDbEntity
  8
A9
  6
CONTINUOUS
 62
7
100
AcDbLine
 10
507.7500000523600
 20
297.0000000000001
 30
0.0000000000000000
 11
492.2500000000001
 21
297.0000000000001
 31
0.0000000000000000
  0
LINE
  5
284
100
AcDbEntity
  8
A9
  6
CONTINUOUS
 62
7
100
AcDbLine
 10
507.7500000523600
 20
298.0000000000001
 30
0.0000000000000000
 11
492.2500000000001
 21
298.0000000000001
 31
0.0000000000000000
  0
LINE
  5
285
100
AcDbEntity
  8
A9
  6
CONTINUOUS
 62
7
100
AcDbLine
 10
492.2500000000001
 20
298.0000000000001
 30
0.0000000000000000
 11
492.2500000000001
 21
297.0000000000001
 31
0.0000000000000000
  0
LINE
  5
286
100
AcDbEntity
  8
A9
  6
CONTINUOUS
 62
7
100
AcDbLine
 10
507.7500000523600
 20
297.0000000000001
 30
0.0000000000000000
 11
507.7500000523600
 21
298.0000000000001
 31
0.0000000000000000
  0
LINE
  5
287
100
AcDbEntity
  8
A9
  6
CONTINUOUS
 62
7
100
AcDbLine
 10
506.2780430246185
 20
98.30000300000002
 30
0.0000000000000000
 11
507.4999960261802
 21
98.30000300000002
 31
0.0000000000000000
  0
LINE
  5
288
100
AcDbEntity
  8
A9
  6
CONTINUOUS
 62
7
100
AcDbLine
 10
507.4999960261802
 20
98.30000300000006
 30
0.0000000000000000
 11
507.4999960261802
 21
101.5000000000000
 31
0.0000000000000000
  0
LINE
  5
289
100
AcDbEntity
  8
A9
  6
CONTINUOUS
 62
7
100
AcDbLine
 10
507.4999960261802
 20
101.5000000000000
 30
0.0000000000000000
 11
506.2780430246185
 21
101.5000000000000
 31
0.0000000000000000
  0
LINE
  5
28A
100
AcDbEntity
  8
A9
  6
CONTINUOUS
 62
7
100
AcDbLine
 10
507.4999960261800
 20
299.5000000000001
 30
0.0000000000000000
 11
507.4999960261800
 21
302.7000000000002
 31
0.0000000000000000
  0
LINE
  5
28B
100
AcDbEntity
  8
A9
  6
CONTINUOUS
 62
7
100
AcDbLine
 10
507.4999960261800
 20
299.5000000000001
 30
0.0000000000000000
 11
506.2780430246185
 21
299.5000000000001
 31
0.0000000000000000
  0
LINE
  5
28C
100
AcDbEntity
  8
A9
  6
CONTINUOUS
 62
7
100
AcDbLine
 10
507.4999960261800
 20
302.7000000000000
 30
0.0000000000000000
 11
506.2780430246185
 21
302.7000000000000
 31
0.0000000000000000
  0
LINE
  5
28D
100
AcDbEntity
  8
A9
  6
CONTINUOUS
 62
7
100
AcDbLine
 10
493.0000000261801
 20
68.50000000000000
 30
0.0000000000000000
 11
496.1999970261800
 21
68.50000000000000
 31
0.0000000000000000
  0
LINE
  5
28E
100
AcDbEntity
  8
A9
  6
CONTINUOUS
 62
7
100
AcDbLine
 10
496.1999970261800
 20
68.50000000000003
 30
0.0000000000000000
 11
496.1999970261800
 21
77.50000000000003
 31
0.0000000000000000
  0
LINE
  5
28F
100
AcDbEntity
  8
A9
  6
CONTINUOUS
 62
7
100
AcDbLine
 10
496.1999970261801
 20
89.50000000000001
 30
0.0000000000000000
 11
496.1999970261800
 21
77.50000000000001
 31
0.0000000000000000
  0
LINE
  5
290
100
AcDbEntity
  8
A9
  6
CONTINUOUS
 62
7
100
AcDbLine
 10
493.0000000261800
 20
89.50000000000000
 30
0.0000000000000000
 11
493.0000000261800
 21
81.85889894354071
 31
0.0000000000000000
  0
LINE
  5
291
100
AcDbEntity
  8
A9
  6
CONTINUOUS
 62
7
100
AcDbLine
 10
496.1999970261800
 20
311.5000000000001
 30
0.0000000000000000
 11
496.1999970261800
 21
323.5000000000001
 31
0.0000000000000000
  0
LINE
  5
292
100
AcDbEntity
  8
A9
  6
CONTINUOUS
 62
7
100
AcDbLine
 10
493.0000000261800
 20
311.5000000000001
 30
0.0000000000000000
 11
493.0000000261800
 21
319.1411010564594
 31
0.0000000000000000
  0
LINE
  5
293
100
AcDbEntity
  8
A9
  6
CONTINUOUS
 62
7
100
AcDbLine
 10
496.1999970261800
 20
332.5000000000001
 30
0.0000000000000000
 11
493.0000000261800
 21
332.5000000000001
 31
0.0000000000000000
  0
LINE
  5
294
100
AcDbEntity
  8
A9
  6
CONTINUOUS
 62
7
100
AcDbLine
 10
496.1999970261800
 20
332.5000000000001
 30
0.0000000000000000
 11
496.1999970261800
 21
323.5000000000001
 31
0.0000000000000000
  0
LINE
  5
295
100
AcDbEntity
  8
A9
  6
CONTINUOUS
 62
7
100
AcDbLine
 10
496.1999970261801
 20
89.50000000000000
 30
0.0000000000000000
 11
496.1999970261801
 21
92.28404552433042
 31
0.0000000000000000
  0
LINE
  5
296
100
AcDbEntity
  8
A9
  6
CONTINUOUS
 62
7
100
AcDbLine
 10
496.1999970261801
 20
89.50000000000000
 30
0.0000000000000000
 11
493.0000000261800
 21
89.50000000000000
 31
0.0000000000000000
  0
LINE
  5
297
100
AcDbEntity
  8
A9
  6
CONTINUOUS
 62
7
100
AcDbLine
 10
496.1999970261800
 20
311.5000000000001
 30
0.0000000000000000
 11
496.1999970261800
 21
308.7159544756698
 31
0.0000000000000000
  0
LINE
  5
298
100
AcDbEntity
  8
A9
  6
CONTINUOUS
 62
7
100
AcDbLine
 10
496.1999970261800
 20
311.5000000000001
 30
0.0000000000000000
 11
493.0000000261800
 21
311.5000000000001
 31
0.0000000000000000
  0
LINE
  5
299
100
AcDbEntity
  8
A9
  6
CONTINUOUS
 62
7
100
AcDbLine
 10
501.0867359068428
 20
96.37458887284083
 30
0.0000000000000000
 11
496.1999970261800
 21
92.30642438814402
 31
0.0000000000000000
  0
LINE
  5
29A
100
AcDbEntity
  8
A9
  6
CONTINUOUS
 62
7
100
AcDbLine
 10
493.0000000261800
 20
89.50000000000001
 30
0.0000000000000000
 11
493.0000000261799
 21
94.12048938173380
 31
0.0000000000000000
  0
LINE
  5
29B
100
AcDbEntity
  8
A9
  6
CONTINUOUS
 62
7
100
AcDbLine
 10
496.1999970261802
 20
92.28404552433045
 30
0.0000000000000000
 11
493.0000000261801
 21
89.50000000000006
 31
0.0000000000000000
  0
LINE
  5
29C
100
AcDbEntity
  8
A9
  6
CONTINUOUS
 62
7
100
AcDbLine
 10
496.1999970261800
 20
92.28404552433041
 30
0.0000000000000000
 11
496.1999970261800
 21
92.30642438814401
 31
0.0000000000000000
  0
LINE
  5
29D
100
AcDbEntity
  8
A9
  6
CONTINUOUS
 62
7
100
AcDbLine
 10
496.1999970261802
 20
308.6935786118561
 30
0.0000000000000000
 11
501.0867359068433
 21
304.6254141271585
 31
0.0000000000000000
  0
LINE
  5
29E
100
AcDbEntity
  8
A9
  6
CONTINUOUS
 62
7
100
AcDbLine
 10
496.1999970261800
 20
308.7159544756698
 30
0.0000000000000000
 11
496.1999970261801
 21
308.6935786118560
 31
0.0000000000000000
  0
LINE
  5
29F
100
AcDbEntity
  8
A9
  6
CONTINUOUS
 62
7
100
AcDbLine
 10
496.1999970261801
 20
308.7159544756697
 30
0.0000000000000000
 11
493.0000000261801
 21
311.5000000000001
 31
0.0000000000000000
  0
LINE
  5
2A0
100
AcDbEntity
  8
A9
  6
CONTINUOUS
 62
7
100
AcDbLine
 10
493.0000000261800
 20
311.5000000000001
 30
0.0000000000000000
 11
493.0000000261801
 21
306.8795106182665
 31
0.0000000000000000
  0
LINE
  5
2A1
100
AcDbEntity
  8
A9
  6
CONTINUOUS
 62
7
100
AcDbLine
 10
498.0000000261800
 20
299.5000000000001
 30
0.0000000000000000
 11
501.7602190822880
 21
299.5000000000001
 31
0.0000000000000000
  0
LINE
  5
2A2
100
AcDbEntity
  8
A9
  6
CONTINUOUS
 62
7
100
AcDbLine
 10
493.0000000261803
 20
306.8795106182665
 30
0.0000000000000000
 11
501.0867359068432
 21
300.1473785133531
 31
0.0000000000000000
  0
LINE
  5
2A3
100
AcDbEntity
  8
A9
  6
CONTINUOUS
 62
7
100
AcDbLine
 10
493.0000000261800
 20
304.5000000000001
 30
0.0000000000000000
 11
493.0000000261801
 21
306.8795106182664
 31
0.0000000000000000
  0
LINE
  5
2A4
100
AcDbEntity
  8
A9
  6
CONTINUOUS
 62
7
100
AcDbLine
 10
501.7602190822885
 20
101.5000000000000
 30
0.0000000000000000
 11
498.0000000261800
 21
101.5000000000000
 31
0.0000000000000000
  0
LINE
  5
2A5
100
AcDbEntity
  8
A9
  6
CONTINUOUS
 62
7
100
AcDbLine
 10
501.0867359068430
 20
100.8526214866461
 30
0.0000000000000000
 11
493.0000000261801
 21
94.12048938173385
 31
0.0000000000000000
  0
LINE
  5
2A6
100
AcDbEntity
  8
A9
  6
CONTINUOUS
 62
7
100
AcDbLine
 10
493.0000000261800
 20
94.12048938173382
 30
0.0000000000000000
 11
493.0000000261801
 21
96.50000000000003
 31
0.0000000000000000
  0
LINE
  5
2A7
100
AcDbEntity
  8
A9
  6
CONTINUOUS
 62
7
100
AcDbLine
 10
502.7659482340815
 20
98.30000300000006
 30
0.0000000000000000
 11
506.2780430246185
 21
98.30000300000006
 31
0.0000000000000000
  0
LINE
  5
2A8
100
AcDbEntity
  8
A9
  6
CONTINUOUS
 62
7
100
AcDbLine
 10
501.7602190822885
 20
101.5000000000000
 30
0.0000000000000000
 11
506.2780430246185
 21
101.5000000000000
 31
0.0000000000000000
  0
LINE
  5
2A9
100
AcDbEntity
  8
A9
  6
CONTINUOUS
 62
7
100
AcDbLine
 10
501.7602190822880
 20
299.5000000000001
 30
0.0000000000000000
 11
506.2780430246183
 21
299.5000000000001
 31
0.0000000000000000
  0
LINE
  5
2AA
100
AcDbEntity
  8
A9
  6
CONTINUOUS
 62
7
100
AcDbLine
 10
506.2780430246183
 20
302.7000000000002
 30
0.0000000000000000
 11
502.7659482340827
 21
302.7000000000002
 31
0.0000000000000000
  0
LINE
  5
2AB
100
AcDbEntity
  8
A0
  6
CENTER
 62
1
100
AcDbLine
 10
200.0000000000000
 20
335.0000000000001
 30
0.0000000000000000
 11
200.0000000000000
 21
36.00000000000016
 31
0.0000000000000000
  0
LINE
  5
2AC
100
AcDbEntity
  8
A0
  6
CENTER
 62
1
100
AcDbLine
 10
49.99999999999994
 20
335.0000000000000
 30
0.0000000000000000
 11
50.00000000000000
 21
36.00000000000016
 31
0.0000000000000000
  0
LINE
  5
2AD
100
AcDbEntity
  8
A0
  6
CENTER
 62
1
100
AcDbLine
 10
350.0000000000000
 20
335.0000000000001
 30
0.0000000000000000
 11
350.0000000000000
 21
36.00000000000016
 31
0.0000000000000000
  0
LINE
  5
2AE
100
AcDbEntity
  8
A0
  6
CENTER
 62
1
100
AcDbLine
 10
500.0000000000000
 20
335.0000000000001
 30
0.0000000000000000
 11
500.0000000000000
 21
36.00000000000016
 31
0.0000000000000000
  0
LINE
  5
2AF
100
AcDbEntity
  8
A4
  6
CENTER
 62
1
100
AcDbLine
 10
234.5000150261800
 20
343.5000000000001
 30
0.0000000000000000
 11
211.5000150261800
 21
343.5000000000001
 31
0.0000000000000000
  0
LINE
  5
2B0
100
AcDbEntity
  8
A4
  6
CENTER
 62
1
100
AcDbLine
 10
223.0000150261800
 20
355.0000000000001
 30
0.0000000000000000
 11
223.0000150261800
 21
292.0000000000001
 31
0.0000000000000000
  0
LINE
  5
2B1
100
AcDbEntity
  8
A0
  6
CENTER
 62
1
100
AcDbLine
 10
190.7500000000000
 20
423.5000000000001
 30
0.0000000000000000
 11
218.5000150261800
 21
423.5000000000001
 31
0.0000000000000000
  0
LINE
  5
2B2
100
AcDbEntity
  8
A0
  6
CENTER
 62
1
100
AcDbLine
 10
200.0000000000000
 20
414.2499999738201
 30
0.0000000000000000
 11
200.0000000000000
 21
432.7500000261800
 31
0.0000000000000000
  0
LINE
  5
2B3
100
AcDbEntity
  8
A0
  6
CENTER
 62
1
100
AcDbLine
 10
223.0000150261800
 20
408.0000000000002
 30
0.0000000000000000
 11
223.0000150261800
 21
414.2000000000001
 31
0.0000000000000000
  0
LINE
  5
2B4
100
AcDbEntity
  8
A4
  6
CENTER
 62
1
100
AcDbLine
 10
234.5000150261800
 20
303.5000000000001
 30
0.0000000000000000
 11
211.5000150261800
 21
303.5000000000001
 31
0.0000000000000000
  0
LINE
  5
2B5
100
AcDbEntity
  8
A7
  6
CENTER
 62
1
100
AcDbLine
 10
64.00000002618009
 20
49.99999999999999
 30
0.0000000000000000
 11
36.00000002618009
 21
49.99999999999999
 31
0.0000000000000000
  0
LINE
  5
2B6
100
AcDbEntity
  8
A5
  6
CENTER
 62
1
100
AcDbLine
 10
364.0000000261799
 20
105.0000000000000
 30
0.0000000000000000
 11
336.0000000261799
 21
105.0000000000000
 31
0.0000000000000000
  0
LINE
  5
2B7
100
AcDbEntity
  8
A5
  6
CENTER
 62
1
100
AcDbLine
 10
364.0000000261799
 20
49.99999999999999
 30
0.0000000000000000
 11
336.0000000261799
 21
49.99999999999999
 31
0.0000000000000000
  0
LINE
  5
2B8
100
AcDbEntity
  8
A5
  6
CENTER
 62
1
100
AcDbLine
 10
364.0000000261799
 20
77.50000000000003
 30
0.0000000000000000
 11
336.0000000261799
 21
77.50000000000003
 31
0.0000000000000000
  0
LINE
  5
2B9
100
AcDbEntity
  8
A0
  6
CENTER
 62
1
100
AcDbLine
 10
218.5000150261800
 20
77.50000000000003
 30
0.0000000000000000
 11
198.8000030261801
 21
77.50000000000004
 31
0.0000000000000000
  0
LINE
  5
2BA
100
AcDbEntity
  8
A0
  6
CENTER
 62
1
100
AcDbLine
 10
218.5000150261800
 20
105.0000000000000
 30
0.0000000000000000
 11
212.3000150261800
 21
105.0000000000000
 31
0.0000000000000000
  0
LINE
  5
2BB
100
AcDbEntity
  8
A0
  6
CENTER
 62
1
100
AcDbLine
 10
218.5000150261800
 20
50.00000000000001
 30
0.0000000000000000
 11
212.3000150261800
 21
50.00000000000001
 31
0.0000000000000000
  0
LINE
  5
2BC
100
AcDbEntity
  8
A0
  6
CENTER
 62
1
100
AcDbLine
 10
64.00000002618007
 20
105.0000000000000
 30
0.0000000000000000
 11
36.00000002618007
 21
105.0000000000000
 31
0.0000000000000000
  0
LINE
  5
2BD
100
AcDbEntity
  8
A0
  6
CENTER
 62
1
100
AcDbLine
 10
64.00000002618006
 20
77.50000000000006
 30
0.0000000000000000
 11
36.00000002618007
 21
77.50000000000006
 31
0.0000000000000000
  0
LINE
  5
2BE
100
AcDbEntity
  8
A0
  6
CENTER
 62
1
100
AcDbLine
 10
65.50000002617989
 20
343.5000000000001
 30
0.0000000000000000
 11
59.30000002618004
 21
343.5000000000001
 31
0.0000000000000000
  0
LINE
  5
2BF
100
AcDbEntity
  8
A0
  6
CENTER
 62
1
100
AcDbLine
 10
65.50000002617989
 20
303.5000000000001
 30
0.0000000000000000
 11
59.30000002618002
 21
303.5000000000001
 31
0.0000000000000000
  0
LINE
  5
2C0
100
AcDbEntity
  8
A7
  6
CENTER
 62
1
100
AcDbLine
 10
61.50000002617998
 20
323.4999999999999
 30
0.0000000000000000
 11
38.50000002617998
 21
323.4999999999999
 31
0.0000000000000000
  0
LINE
  5
2C1
100
AcDbEntity
  8
A0
  6
CENTER
 62
1
100
AcDbLine
 10
198.8000030261801
 20
323.4999999999999
 30
0.0000000000000000
 11
218.5000150261800
 21
323.4999999999999
 31
0.0000000000000000
  0
LINE
  5
2C2
100
AcDbEntity
  8
A0
  6
CENTER
 62
1
100
AcDbLine
 10
190.7500000000000
 20
-22.49999999999996
 30
0.0000000000000000
 11
218.5000150261800
 21
-22.49999999999996
 31
0.0000000000000000
  0
LINE
  5
2C3
100
AcDbEntity
  8
A0
  6
CENTER
 62
1
100
AcDbLine
 10
334.5000000261801
 20
343.5000000000001
 30
0.0000000000000000
 11
340.7000000261800
 21
343.5000000000001
 31
0.0000000000000000
  0
LINE
  5
2C4
100
AcDbEntity
  8
A0
  6
CENTER
 62
1
100
AcDbLine
 10
334.5000000261801
 20
303.5000000000001
 30
0.0000000000000000
 11
340.7000000261800
 21
303.5000000000001
 31
0.0000000000000000
  0
LINE
  5
2C5
100
AcDbEntity
  8
A9
  6
CENTER
 62
1
100
AcDbLine
 10
488.4999850261800
 20
343.5000000000001
 30
0.0000000000000000
 11
465.4999850261800
 21
343.5000000000001
 31
0.0000000000000000
  0
LINE
  5
2C6
100
AcDbEntity
  8
A9
  6
CENTER
 62
1
100
AcDbLine
 10
476.9999850261800
 20
355.0000000000001
 30
0.0000000000000000
 11
476.9999850261800
 21
292.0000000000001
 31
0.0000000000000000
  0
LINE
  5
2C7
100
AcDbEntity
  8
A9
  6
CENTER
 62
1
100
AcDbLine
 10
488.4999850261800
 20
303.5000000000001
 30
0.0000000000000000
 11
465.4999850261800
 21
303.5000000000001
 31
0.0000000000000000
  0
LINE
  5
2C8
100
AcDbEntity
  8
A0
  6
CENTER
 62
1
100
AcDbLine
 10
334.5000000261801
 20
323.4999999999999
 30
0.0000000000000000
 11
361.5000000261800
 21
323.4999999999999
 31
0.0000000000000000
  0
LINE
  5
2C9
100
AcDbEntity
  8
A0
  6
CENTER
 62
1
100
AcDbLine
 10
485.4999970261798
 20
323.4999999999999
 30
0.0000000000000000
 11
501.1999970261799
 21
323.4999999999999
 31
0.0000000000000000
  0
LINE
  5
2CA
100
AcDbEntity
  8
A0
  6
CENTER
 62
1
100
AcDbLine
 10
481.4999850261801
 20
105.0000000000000
 30
0.0000000000000000
 11
487.6999850261801
 21
105.0000000000000
 31
0.0000000000000000
  0
LINE
  5
2CB
100
AcDbEntity
  8
A0
  6
CENTER
 62
1
100
AcDbLine
 10
481.4999850261801
 20
77.50000000000003
 30
0.0000000000000000
 11
501.1999970261799
 21
77.50000000000003
 31
0.0000000000000000
  0
LINE
  5
2CC
100
AcDbEntity
  8
A0
  6
CENTER
 62
1
100
AcDbLine
 10
481.4999850261801
 20
49.99999999999999
 30
0.0000000000000000
 11
487.6999850261801
 21
49.99999999999999
 31
0.0000000000000000
  0
LINE
  5
2CD
100
AcDbEntity
  8
A0
  6
CENTER
 62
1
100
AcDbLine
 10
223.0000150261800
 20
-7.000000000000050
 30
0.0000000000000000
 11
223.0000150261800
 21
-13.19999999999992
 31
0.0000000000000000
  0
LINE
  5
2CE
100
AcDbEntity
  8
A0
  6
CENTER
 62
1
100
AcDbLine
 10
200.0000000000000
 20
-13.24999997382005
 30
0.0000000000000000
 11
200.0000000000000
 21
-31.75000002617996
 31
0.0000000000000000
  0
CIRCLE
  5
2CF
100
AcDbEntity
  8
A7
  6
PHANTOM
 62
1
100
AcDbCircle
 10
50.00000000000000
 20
127.5000000000001
 30
0.0000000000000000
 40
8.000000000000007
  0
CIRCLE
  5
2D0
100
AcDbEntity
  8
A7
  6
PHANTOM
 62
1
100
AcDbCircle
 10
50.00000000000000
 20
100.0000000000000
 30
0.0000000000000000
 40
3.500000000000000
  0
ARC
  5
2D1
100
AcDbEntity
  8
A7
  6
PHANTOM
 62
1
100
AcDbCircle
 10
50.00000000000000
 20
100.0000000000000
 30
0.0000000000000000
 40
12.50000000000000
100
AcDbArc
 50
180.0000000000000
 51
360.0000000000000
  0
ARC
  5
2D2
100
AcDbEntity
  8
A7
  6
PHANTOM
 62
1
100
AcDbCircle
 10
50.00000000000000
 20
155.0000000000000
 30
0.0000000000000000
 40
12.50000000000000
100
AcDbArc
 50
0.0000000000000000
 51
180.0000000000000
  0
LINE
  5
2D3
100
AcDbEntity
  8
A7
  6
PHANTOM
 62
1
100
AcDbLine
 10
62.49999999999903
 20
99.99999999999979
 30
0.0000000000000000
 11
62.50000000000006
 21
155.0000000000001
 31
0.0000000000000000
  0
LINE
  5
2D4
100
AcDbEntity
  8
A7
  6
PHANTOM
 62
1
100
AcDbLine
 10
37.49999999999994
 20
100.0000000000000
 30
0.0000000000000000
 11
37.49999999999994
 21
155.0000000000001
 31
0.0000000000000000
  0
ARC
  5
2D5
100
AcDbEntity
  8
A7
  6
PHANTOM
 62
1
100
AcDbCircle
 10
50.00000000000000
 20
127.5000000000001
 30
0.0000000000000000
 40
10.00000000000000
100
AcDbArc
 50
154.1580672368329
 51
385.8419327631678
  0
ELLIPSE
  5
2D6
100
AcDbEntity
  8
A7
  6
PHANTOM
 62
1
100
AcDbEllipse
 10
56.60286408228086
 20
154.4297232896665
 30
0.0000000000000000
 11
3.781697070821764
 21
-8.755297220006735
 31
0.0000000000000000
210
0.0000000000000000
220
0.0000000000000000
230
1.000000000000000
 40
0.2562519795485876
 41
0.5354552625147531
 42
0.6909362774984394
  0
ELLIPSE
  5
2D7
100
AcDbEntity
  8
A7
  6
PHANTOM
 62
1
100
AcDbEllipse
 10
56.60286408228086
 20
154.4297232896665
 30
0.0000000000000000
 11
3.781697070821764
 21
-8.755297220006735
 31
0.0000000000000000
210
0.0000000000000000
220
0.0000000000000000
230
1.000000000000000
 40
0.2562519795485876
 41
0.3064258202410558
 42
0.5354552625147531
  0
ELLIPSE
  5
2D8
100
AcDbEntity
  8
A7
  6
PHANTOM
 62
1
100
AcDbEllipse
 10
43.39713591771908
 20
154.4297232896665
 30
0.0000000000000000
 11
-3.781697070821761
 21
-8.755297220006740
 31
0.0000000000000000
210
0.0000000000000000
220
0.0000000000000000
230
1.000000000000000
 40
0.2562519795485875
 41
5.747730044664832
 42
5.976759486938712
  0
ELLIPSE
  5
2D9
100
AcDbEntity
  8
A7
  6
PHANTOM
 62
1
100
AcDbEllipse
 10
43.39713591771908
 20
154.4297232896665
 30
0.0000000000000000
 11
-3.781697070821761
 21
-8.755297220006740
 31
0.0000000000000000
210
0.0000000000000000
220
0.0000000000000000
230
1.000000000000000
 40
0.2562519795485875
 41
5.592249029681151
 42
5.747730044664832
  0
ARC
  5
2DA
100
AcDbEntity
  8
A7
  6
PHANTOM
 62
1
100
AcDbCircle
 10
50.00000000000000
 20
127.5000000000001
 30
0.0000000000000000
 40
9.000000000000000
100
AcDbArc
 50
180.0000000000000
 51
360.0000050000003
  0
LINE
  5
2DB
100
AcDbEntity
  8
A7
  6
CONTINUOUS
 62
7
100
AcDbLine
 10
59.74598274993582
 20
142.3064243881439
 30
0.0000000000000000
 11
59.74598274993576
 21
142.2840455243308
 31
0.0000000000000000
  0
LINE
  5
2DC
100
AcDbEntity
  8
A7
  6
CONTINUOUS
 62
7
100
AcDbLine
 10
40.25401725006417
 20
142.2840455243305
 30
0.0000000000000000
 11
40.25401725006414
 21
142.3064243881441
 31
0.0000000000000000
  0
LINE
  5
2DD
100
AcDbEntity
  8
A7
  6
PHANTOM
 62
1
100
AcDbLine
 10
40.99999999999994
 20
139.5000000000000
 30
0.0000000000000000
 11
40.25401725006415
 21
142.2840455243305
 31
0.0000000000000000
  0
LINE
  5
2DE
100
AcDbEntity
  8
A7
  6
PHANTOM
 62
1
100
AcDbLine
 10
58.99999999999999
 20
127.5000007853983
 30
0.0000000000000000
 11
58.99999999999989
 21
139.5000000000001
 31
0.0000000000000000
  0
LINE
  5
2DF
100
AcDbEntity
  8
A7
  6
PHANTOM
 62
1
100
AcDbLine
 10
59.74598274993579
 20
142.2840455243308
 30
0.0000000000000000
 11
58.99999999999989
 21
139.5000000000000
 31
0.0000000000000000
  0
LINE
  5
2E0
100
AcDbEntity
  8
A7
  6
PHANTOM
 62
1
100
AcDbLine
 10
40.99999999999994
 20
139.5000000000001
 30
0.0000000000000000
 11
40.99999999999995
 21
127.5000000000000
 31
0.0000000000000000
  0
LINE
  5
2E1
100
AcDbEntity
  8
A7
  6
PHANTOM
 62
1
100
AcDbLine
 10
39.11482152318838
 20
146.3745888728408
 30
0.0000000000000000
 11
40.25401725006411
 21
142.3064243881441
 31
0.0000000000000000
  0
LINE
  5
2E2
100
AcDbEntity
  8
A7
  6
PHANTOM
 62
1
100
AcDbLine
 10
44.00000000000002
 20
148.3000030000000
 30
0.0000000000000000
 11
40.25401725006412
 21
142.3064243881440
 31
0.0000000000000000
  0
LINE
  5
2E3
100
AcDbEntity
  8
A7
  6
PHANTOM
 62
1
100
AcDbLine
 10
59.74598274993581
 20
142.3064243881439
 30
0.0000000000000000
 11
55.99999999999989
 21
148.3000030000001
 31
0.0000000000000000
  0
LINE
  5
2E4
100
AcDbEntity
  8
A7
  6
PHANTOM
 62
1
100
AcDbLine
 10
59.74598274993581
 20
142.3064243881438
 30
0.0000000000000000
 11
60.88517847681160
 21
146.3745888728414
 31
0.0000000000000000
  0
LINE
  5
2E5
100
AcDbEntity
  8
A7
  6
PHANTOM
 62
1
100
AcDbLine
 10
39.05304195875033
 20
148.3000030000001
 30
0.0000000000000000
 11
60.94695804124967
 21
148.3000030000001
 31
0.0000000000000000
  0
LINE
  5
2E6
100
AcDbEntity
  8
A7
  6
PHANTOM
 62
1
100
AcDbLine
 10
61.00000000000000
 20
147.3942985295510
 30
0.0000000000000000
 11
61.00000000000000
 21
151.5000000000000
 31
0.0000000000000000
  0
LINE
  5
2E7
100
AcDbEntity
  8
A7
  6
PHANTOM
 62
1
100
AcDbLine
 10
61.00000000000000
 20
151.5000000000000
 30
0.0000000000000000
 11
38.99999999999989
 21
151.5000000000000
 31
0.0000000000000000
  0
LINE
  5
2E8
100
AcDbEntity
  8
A7
  6
PHANTOM
 62
1
100
AcDbLine
 10
39.00000000000000
 20
151.5000000000000
 30
0.0000000000000000
 11
39.00000000000000
 21
147.3942985295510
 31
0.0000000000000000
  0
LINE
  5
2E9
100
AcDbEntity
  8
A7
  6
CENTER
 62
1
100
AcDbLine
 10
64.00000000000000
 20
100.0000000000000
 30
0.0000000000000000
 11
36.00000000000000
 21
100.0000000000000
 31
0.0000000000000000
  0
LINE
  5
2EA
100
AcDbEntity
  8
A0
  6
CENTER
 62
1
100
AcDbLine
 10
64.00000000000003
 20
155.0000000000001
 30
0.0000000000000000
 11
36.00000000000003
 21
155.0000000000001
 31
0.0000000000000000
  0
LINE
  5
2EB
100
AcDbEntity
  8
A0
  6
CENTER
 62
1
100
AcDbLine
 10
64.00000000000003
 20
127.5000000000001
 30
0.0000000000000000
 11
36.00000000000003
 21
127.5000000000001
 31
0.0000000000000000
  0
POINT
  5
2EC
100
AcDbEntity
  8
A0
  6
CONTINUOUS
 62
5
100
AcDbPoint
 10
50.00000000000000
 20
127.5000000000001
 30
0.0000000000000000
  0
CIRCLE
  5
2ED
100
AcDbEntity
  8
A7
  6
PHANTOM
 62
1
100
AcDbCircle
 10
50.00000000000000
 20
155.0000000000002
 30
0.0000000000000000
 40
3.500000000000000
  0
POINT
  5
2EE
100
AcDbEntity
  8
A0
  6
CONTINUOUS
 62
5
100
AcDbPoint
 10
200.0000000000000
 20
77.50000000000004
 30
0.0000000000000000
  0
ARC
  5
2EF
100
AcDbEntity
  8
A4
  6
PHANTOM
 62
1
100
AcDbCircle
 10
200.8000030261801
 20
135.0000000000001
 30
0.0000000000000000
 40
0.5000000000000000
100
AcDbArc
 50
90.00000000000000
 51
180.0000000000000
  0
ARC
  5
2F0
100
AcDbEntity
  8
A4
  6
PHANTOM
 62
1
100
AcDbCircle
 10
200.8000030261801
 20
120.0000000000000
 30
0.0000000000000000
 40
0.5000000000000000
100
AcDbArc
 50
180.0000000000000
 51
270.0000000000000
  0
ARC
  5
2F1
100
AcDbEntity
  8
A4
  6
PHANTOM
 62
1
100
AcDbCircle
 10
202.8000030261801
 20
135.0000000000001
 30
0.0000000000000000
 40
0.5000000000000000
100
AcDbArc
 50
0.0000000000000000
 51
90.00000000000000
  0
ARC
  5
2F2
100
AcDbEntity
  8
A4
  6
PHANTOM
 62
1
100
AcDbCircle
 10
202.8000030261801
 20
120.0000000000000
 30
0.0000000000000000
 40
0.5000000000000000
100
AcDbArc
 50
270.0000000000000
 51
360.0000000000000
  0
LINE
  5
2F3
100
AcDbEntity
  8
A4
  6
PHANTOM
 62
1
100
AcDbLine
 10
213.0000030261803
 20
131.7500000000001
 30
0.0000000000000000
 11
212.2000150261801
 21
131.7500000000001
 31
0.0000000000000000
  0
LINE
  5
2F4
100
AcDbEntity
  8
A4
  6
PHANTOM
 62
1
100
AcDbLine
 10
212.2000150261801
 20
123.2500000000001
 30
0.0000000000000000
 11
213.0000030261803
 21
123.2500000000001
 31
0.0000000000000000
  0
LINE
  5
2F5
100
AcDbEntity
  8
A4
  6
PHANTOM
 62
1
100
AcDbLine
 10
213.0000030261803
 20
123.2500000000001
 30
0.0000000000000000
 11
213.0000030261803
 21
131.7500000000001
 31
0.0000000000000000
  0
LINE
  5
2F6
100
AcDbEntity
  8
A4
  6
PHANTOM
 62
1
100
AcDbLine
 10
202.8000030261801
 20
135.5000000000001
 30
0.0000000000000000
 11
200.8000030261801
 21
135.5000000000001
 31
0.0000000000000000
  0
LINE
  5
2F7
100
AcDbEntity
  8
A4
  6
PHANTOM
 62
1
100
AcDbLine
 10
200.8000030261801
 20
119.5000000000000
 30
0.0000000000000000
 11
202.8000030261801
 21
119.5000000000000
 31
0.0000000000000000
  0
LINE
  5
2F8
100
AcDbEntity
  8
A4
  6
PHANTOM
 62
1
100
AcDbLine
 10
200.3000030261801
 20
120.0000000000001
 30
0.0000000000000000
 11
200.3000030261801
 21
135.0000000000001
 31
0.0000000000000000
  0
ARC
  5
2F9
100
AcDbEntity
  8
A4
  6
PHANTOM
 62
1
100
AcDbCircle
 10
211.8000150261800
 20
109.0074861174252
 30
0.0000000000000000
 40
5.200000000000001
100
AcDbArc
 50
0.0000000000000000
 51
40.81705527646886
  0
ARC
  5
2FA
100
AcDbEntity
  8
A4
  6
PHANTOM
 62
1
100
AcDbCircle
 10
214.2000150261801
 20
117.2438701780772
 30
0.0000000000000000
 40
2.000000000000000
100
AcDbArc
 50
180.0000000000000
 51
220.8170552764666
  0
ARC
  5
2FB
100
AcDbEntity
  8
A4
  6
PHANTOM
 62
1
100
AcDbCircle
 10
214.2000150261801
 20
137.7561298219229
 30
0.0000000000000000
 40
1.999999999999998
100
AcDbArc
 50
139.1829447235295
 51
180.0000000000000
  0
ARC
  5
2FC
100
AcDbEntity
  8
A4
  6
PHANTOM
 62
1
100
AcDbCircle
 10
211.8000150261800
 20
145.9925138825749
 30
0.0000000000000000
 40
5.200000000000003
100
AcDbArc
 50
319.1829447235326
 51
360.0000000000000
  0
ARC
  5
2FD
100
AcDbEntity
  8
A4
  6
PHANTOM
 62
1
100
AcDbCircle
 10
211.8000150261800
 20
145.9925138825749
 30
0.0000000000000000
 40
1.999999999999998
100
AcDbArc
 50
319.1829447235313
 51
360.0000000000000
  0
ARC
  5
2FE
100
AcDbEntity
  8
A4
  6
PHANTOM
 62
1
100
AcDbCircle
 10
214.2000150261801
 20
137.7561298219229
 30
0.0000000000000000
 40
5.200000000000003
100
AcDbArc
 50
139.1829447235326
 51
180.0000000000000
  0
ARC
  5
2FF
100
AcDbEntity
  8
A4
  6
PHANTOM
 62
1
100
AcDbCircle
 10
214.2000150261801
 20
117.2438701780772
 30
0.0000000000000000
 40
5.200000000000001
100
AcDbArc
 50
180.0000000000000
 51
220.8170552764698
  0
ARC
  5
300
100
AcDbEntity
  8
A4
  6
PHANTOM
 62
1
100
AcDbCircle
 10
211.8000150261800
 20
109.0074861174252
 30
0.0000000000000000
 40
2.000000000000000
100
AcDbArc
 50
0.0000000000000000
 51
40.81705527646794
  0
LINE
  5
301
100
AcDbEntity
  8
A4
  6
PHANTOM
 62
1
100
AcDbLine
 10
217.0000150261800
 20
167.5000000000001
 30
0.0000000000000000
 11
213.8000150261800
 21
167.5000000000001
 31
0.0000000000000000
  0
LINE
  5
302
100
AcDbEntity
  8
A4
  6
PHANTOM
 62
1
100
AcDbLine
 10
213.8000150261800
 20
145.9925138825749
 30
0.0000000000000000
 11
213.8000150261800
 21
167.5000000000001
 31
0.0000000000000000
  0
LINE
  5
303
100
AcDbEntity
  8
A4
  6
PHANTOM
 62
1
100
AcDbLine
 10
217.0000150261800
 20
167.5000000000000
 30
0.0000000000000000
 11
217.0000150261800
 21
145.9925138825749
 31
0.0000000000000000
  0
LINE
  5
304
100
AcDbEntity
  8
A4
  6
PHANTOM
 62
1
100
AcDbLine
 10
212.6864139903218
 20
115.9365783574614
 30
0.0000000000000000
 11
215.7353777194113
 21
112.4064448510263
 31
0.0000000000000000
  0
LINE
  5
305
100
AcDbEntity
  8
A4
  6
PHANTOM
 62
1
100
AcDbLine
 10
212.2000150261801
 20
137.7561298219229
 30
0.0000000000000000
 11
212.2000150261801
 21
117.2438701780772
 31
0.0000000000000000
  0
LINE
  5
306
100
AcDbEntity
  8
A4
  6
PHANTOM
 62
1
100
AcDbLine
 10
215.7353777194114
 20
142.5935551489739
 30
0.0000000000000000
 11
212.6864139903219
 21
139.0634216425388
 31
0.0000000000000000
  0
LINE
  5
307
100
AcDbEntity
  8
A4
  6
PHANTOM
 62
1
100
AcDbLine
 10
210.2646523329487
 20
141.1550885555239
 30
0.0000000000000000
 11
213.3136160620382
 21
144.6852220619590
 31
0.0000000000000000
  0
LINE
  5
308
100
AcDbEntity
  8
A4
  6
PHANTOM
 62
1
100
AcDbLine
 10
209.0000150261801
 20
117.2438701780772
 30
0.0000000000000000
 11
209.0000150261800
 21
137.7561298219229
 31
0.0000000000000000
  0
LINE
  5
309
100
AcDbEntity
  8
A4
  6
PHANTOM
 62
1
100
AcDbLine
 10
213.3136160620382
 20
110.3147779380410
 30
0.0000000000000000
 11
210.2646523329486
 21
113.8449114444758
 31
0.0000000000000000
  0
LINE
  5
30A
100
AcDbEntity
  8
A4
  6
PHANTOM
 62
1
100
AcDbLine
 10
213.8000150261800
 20
109.0074861174252
 30
0.0000000000000000
 11
213.8000150261800
 21
87.50000000000003
 31
0.0000000000000000
  0
LINE
  5
30B
100
AcDbEntity
  8
A4
  6
PHANTOM
 62
1
100
AcDbLine
 10
217.0000150261800
 20
109.0074861174252
 30
0.0000000000000000
 11
217.0000150261800
 21
87.50000000000003
 31
0.0000000000000000
  0
LINE
  5
30C
100
AcDbEntity
  8
A4
  6
PHANTOM
 62
1
100
AcDbLine
 10
213.8000150261800
 20
87.50000000000000
 30
0.0000000000000000
 11
217.0000150261800
 21
87.50000000000000
 31
0.0000000000000000
  0
LINE
  5
30D
100
AcDbEntity
  8
A4
  6
PHANTOM
 62
1
100
AcDbLine
 10
207.0000000261799
 20
117.5000000000001
 30
0.0000000000000000
 11
209.0000150261799
 21
117.5000000000001
 31
0.0000000000000000
  0
LINE
  5
30E
100
AcDbEntity
  8
A4
  6
PHANTOM
 62
1
100
AcDbLine
 10
209.0000150261799
 20
137.5000000000001
 30
0.0000000000000000
 11
207.0000000261799
 21
137.5000000000001
 31
0.0000000000000000
  0
LINE
  5
30F
100
AcDbEntity
  8
A4
  6
PHANTOM
 62
1
100
AcDbLine
 10
203.3000030261801
 20
135.5000000000001
 30
0.0000000000000000
 11
203.3000030261801
 21
119.5000000000001
 31
0.0000000000000000
  0
LINE
  5
310
100
AcDbEntity
  8
A4
  6
PHANTOM
 62
1
100
AcDbLine
 10
203.3000030261801
 20
119.5000000000001
 30
0.0000000000000000
 11
203.8000030261800
 21
119.5000000000001
 31
0.0000000000000000
  0
LINE
  5
311
100
AcDbEntity
  8
A4
  6
PHANTOM
 62
1
100
AcDbLine
 10
203.8000030261800
 20
135.5000000000001
 30
0.0000000000000000
 11
203.3000030261801
 21
135.5000000000001
 31
0.0000000000000000
  0
ELLIPSE
  5
312
100
AcDbEntity
  8
A4
  6
PHANTOM
 62
1
100
AcDbEllipse
 10
197.9149717508299
 20
154.4297232896665
 30
0.0000000000000000
 11
3.065911231597428
 21
-8.739080125708897
 31
0.0000000000000000
210
0.0000000000000000
220
0.0000000000000000
230
1.000000000000000
 40
0.3606766711266628
 41
5.356147729521743
 42
5.740658186779099
  0
ELLIPSE
  5
313
100
AcDbEntity
  8
A4
  6
PHANTOM
 62
1
100
AcDbEllipse
 10
197.9149717508299
 20
158.9077559034719
 30
0.0000000000000000
 11
3.065911231597431
 21
-8.739080125708908
 31
0.0000000000000000
210
0.0000000000000000
220
0.0000000000000000
230
1.000000000000000
 40
0.3606766711266622
 41
5.585564447606385
 42
5.740658186779261
  0
ARC
  5
314
100
AcDbEntity
  8
A4
  6
PHANTOM
 62
1
100
AcDbCircle
 10
202.0000000261799
 20
146.5000000000001
 30
0.0000000000000000
 40
4.999999999999999
100
AcDbArc
 50
2.117000000000000e-12
 51
90.00000000000000
  0
LINE
  5
315
100
AcDbEntity
  8
A4
  6
PHANTOM
 62
1
100
AcDbLine
 10
202.0000000261799
 20
151.5000000000001
 30
0.0000000000000000
 11
192.5000040261799
 21
151.5000000000001
 31
0.0000000000000000
  0
LINE
  5
316
100
AcDbEntity
  8
A4
  6
PHANTOM
 62
1
100
AcDbLine
 10
192.5000040261799
 20
151.5000000000001
 30
0.0000000000000000
 11
192.5000040261799
 21
148.3000030000001
 31
0.0000000000000000
  0
LINE
  5
317
100
AcDbEntity
  8
A4
  6
PHANTOM
 62
1
100
AcDbLine
 10
203.8000030261801
 20
142.3064243881439
 30
0.0000000000000000
 11
203.8000030261801
 21
118.5000000000001
 31
0.0000000000000000
  0
LINE
  5
318
100
AcDbEntity
  8
A4
  6
PHANTOM
 62
1
100
AcDbLine
 10
203.8000030261801
 20
118.5000000000000
 30
0.0000000000000000
 11
207.0000000261799
 21
118.5000000000000
 31
0.0000000000000000
  0
LINE
  5
319
100
AcDbEntity
  8
A4
  6
PHANTOM
 62
1
100
AcDbLine
 10
203.8000030261800
 20
139.5000000000000
 30
0.0000000000000000
 11
207.0000000261799
 21
139.5000000000007
 31
0.0000000000000000
  0
LINE
  5
31A
100
AcDbEntity
  8
A4
  6
PHANTOM
 62
1
100
AcDbLine
 10
203.8000030261801
 20
142.3064243881439
 30
0.0000000000000000
 11
198.9132641455169
 21
146.3745888728415
 31
0.0000000000000000
  0
LINE
  5
31B
100
AcDbEntity
  8
A4
  6
PHANTOM
 62
1
100
AcDbLine
 10
207.0000000261799
 20
139.5000000000006
 30
0.0000000000000000
 11
203.8000030261800
 21
142.2840455243308
 31
0.0000000000000000
  0
LINE
  5
31C
100
AcDbEntity
  8
A4
  6
PHANTOM
 62
1
100
AcDbLine
 10
207.0000000261795
 20
117.5000000000000
 30
0.0000000000000000
 11
207.0000000261800
 21
146.4999999999999
 31
0.0000000000000000
  0
LINE
  5
31D
100
AcDbEntity
  8
A4
  6
PHANTOM
 62
1
100
AcDbLine
 10
207.0000000261800
 20
144.1204893817338
 30
0.0000000000000000
 11
198.9132641455171
 21
150.8526214866461
 31
0.0000000000000000
  0
LINE
  5
31E
100
AcDbEntity
  8
A4
  6
PHANTOM
 62
1
100
AcDbLine
 10
192.5000040261799
 20
148.3000030000001
 30
0.0000000000000000
 11
197.2340518182781
 21
148.3000030000001
 31
0.0000000000000000
  0
LINE
  5
31F
100
AcDbEntity
  8
A0
  6
CENTER
 62
1
100
AcDbLine
 10
218.5000150261800
 20
127.5000000000001
 30
0.0000000000000000
 11
198.8000030261801
 21
127.5000000000001
 31
0.0000000000000000
  0
LINE
  5
320
100
AcDbEntity
  8
A0
  6
CENTER
 62
1
100
AcDbLine
 10
218.5000150261800
 20
155.0000000000001
 30
0.0000000000000000
 11
212.3000150261800
 21
155.0000000000001
 31
0.0000000000000000
  0
LINE
  5
321
100
AcDbEntity
  8
A0
  6
CENTER
 62
1
100
AcDbLine
 10
218.5000150261800
 20
100.0000000000001
 30
0.0000000000000000
 11
212.3000150261800
 21
100.0000000000001
 31
0.0000000000000000
  0
POINT
  5
322
100
AcDbEntity
  8
A0
  6
CONTINUOUS
 62
5
100
AcDbPoint
 10
200.0000000000000
 20
127.5000000000001
 30
0.0000000000000000
  0
POINT
  5
323
100
AcDbEntity
  8
A0
  6
CONTINUOUS
 62
5
100
AcDbPoint
 10
350.0000000000000
 20
77.50000000000003
 30
0.0000000000000000
  0
CIRCLE
  5
324
100
AcDbEntity
  8
A5
  6
PHANTOM
 62
1
100
AcDbCircle
 10
350.0000000261800
 20
127.5000000000001
 30
0.0000000000000000
 40
4.250000000000004
  0
CIRCLE
  5
325
100
AcDbEntity
  8
A5
  6
PHANTOM
 62
1
100
AcDbCircle
 10
350.0000000261799
 20
100.0000000000000
 30
0.0000000000000000
 40
3.500000000000000
  0
CIRCLE
  5
326
100
AcDbEntity
  8
A5
  6
PHANTOM
 62
1
100
AcDbCircle
 10
350.0000000261799
 20
155.0000000000001
 30
0.0000000000000000
 40
3.500000000000000
  0
ARC
  5
327
100
AcDbEntity
  8
A5
  6
PHANTOM
 62
1
100
AcDbCircle
 10
350.0000000261799
 20
100.0000000000000
 30
0.0000000000000000
 40
12.50000000000000
100
AcDbArc
 50
180.0000000000000
 51
360.0000000000000
  0
ARC
  5
328
100
AcDbEntity
  8
A5
  6
PHANTOM
 62
1
100
AcDbCircle
 10
350.0000000261799
 20
155.0000000000001
 30
0.0000000000000000
 40
12.50000000000000
100
AcDbArc
 50
0.0000000000000000
 51
180.0000000000000
  0
LINE
  5
329
100
AcDbEntity
  8
A5
  6
PHANTOM
 62
1
100
AcDbLine
 10
362.5000000261800
 20
155.0000000000001
 30
0.0000000000000000
 11
362.5000000261801
 21
100.0000000000000
 31
0.0000000000000000
  0
LINE
  5
32A
100
AcDbEntity
  8
A5
  6
PHANTOM
 62
1
100
AcDbLine
 10
337.5000000261799
 20
155.0000000000001
 30
0.0000000000000000
 11
337.5000000261806
 21
99.99999999999990
 31
0.0000000000000000
  0
LINE
  5
32B
100
AcDbEntity
  8
A5
  6
CENTER
 62
1
100
AcDbLine
 10
364.0000000261799
 20
155.0000000000001
 30
0.0000000000000000
 11
336.0000000261799
 21
155.0000000000001
 31
0.0000000000000000
  0
LINE
  5
32C
100
AcDbEntity
  8
A5
  6
CENTER
 62
1
100
AcDbLine
 10
364.0000000261799
 20
100.0000000000000
 30
0.0000000000000000
 11
336.0000000261799
 21
100.0000000000000
 31
0.0000000000000000
  0
LINE
  5
32D
100
AcDbEntity
  8
A5
  6
CENTER
 62
1
100
AcDbLine
 10
364.0000000261799
 20
127.5000000000001
 30
0.0000000000000000
 11
336.0000000261799
 21
127.5000000000001
 31
0.0000000000000000
  0
POINT
  5
32E
100
AcDbEntity
  8
A0
  6
CONTINUOUS
 62
5
100
AcDbPoint
 10
350.0000000000000
 20
127.5000000000001
 30
0.0000000000000000
  0
ARC
  5
32F
100
AcDbEntity
  8
A4
  6
PHANTOM
 62
1
100
AcDbCircle
 10
499.1999969738197
 20
135.0000000000000
 30
0.0000000000000000
 40
0.5000000000000000
100
AcDbArc
 50
1.424888497295656e-12
 51
90.00000000000144
  0
ARC
  5
330
100
AcDbEntity
  8
A4
  6
PHANTOM
 62
1
100
AcDbCircle
 10
499.1999969738201
 20
120.0000000000000
 30
0.0000000000000000
 40
0.5000000000000000
100
AcDbArc
 50
270.0000000000014
 51
360.0000000000015
  0
ARC
  5
331
100
AcDbEntity
  8
A4
  6
PHANTOM
 62
1
100
AcDbCircle
 10
497.1999969738197
 20
135.0000000000000
 30
0.0000000000000000
 40
0.5000000000000000
100
AcDbArc
 50
90.00000000000144
 51
180.0000000000014
  0
ARC
  5
332
100
AcDbEntity
  8
A4
  6
PHANTOM
 62
1
100
AcDbCircle
 10
497.1999969738201
 20
119.9999999999999
 30
0.0000000000000000
 40
0.5000000000000000
100
AcDbArc
 50
180.0000000000014
 51
270.0000000000014
  0
LINE
  5
333
100
AcDbEntity
  8
A4
  6
PHANTOM
 62
1
100
AcDbLine
 10
486.9999969738197
 20
131.7499999999997
 30
0.0000000000000000
 11
487.7999849738199
 21
131.7499999999997
 31
0.0000000000000000
  0
LINE
  5
334
100
AcDbEntity
  8
A4
  6
PHANTOM
 62
1
100
AcDbLine
 10
487.7999849738201
 20
123.2499999999997
 30
0.0000000000000000
 11
486.9999969738199
 21
123.2499999999997
 31
0.0000000000000000
  0
LINE
  5
335
100
AcDbEntity
  8
A4
  6
PHANTOM
 62
1
100
AcDbLine
 10
486.9999969738199
 20
123.2499999999997
 30
0.0000000000000000
 11
486.9999969738197
 21
131.7499999999997
 31
0.0000000000000000
  0
LINE
  5
336
100
AcDbEntity
  8
A4
  6
PHANTOM
 62
1
100
AcDbLine
 10
497.1999969738196
 20
135.5000000000000
 30
0.0000000000000000
 11
499.1999969738196
 21
135.5000000000000
 31
0.0000000000000000
  0
LINE
  5
337
100
AcDbEntity
  8
A4
  6
PHANTOM
 62
1
100
AcDbLine
 10
499.1999969738200
 20
119.5000000000000
 30
0.0000000000000000
 11
497.1999969738200
 21
119.4999999999999
 31
0.0000000000000000
  0
LINE
  5
338
100
AcDbEntity
  8
A4
  6
PHANTOM
 62
1
100
AcDbLine
 10
499.6999969738200
 20
120.0000000000000
 30
0.0000000000000000
 11
499.6999969738196
 21
135.0000000000000
 31
0.0000000000000000
  0
ARC
  5
339
100
AcDbEntity
  8
A4
  6
PHANTOM
 62
1
100
AcDbCircle
 10
488.1999849738205
 20
109.0074861174249
 30
0.0000000000000000
 40
5.200000000000001
100
AcDbArc
 50
139.1829447235326
 51
180.0000000000014
  0
ARC
  5
33A
100
AcDbEntity
  8
A4
  6
PHANTOM
 62
1
100
AcDbCircle
 10
485.7999849738203
 20
117.2438701780768
 30
0.0000000000000000
 40
2.000000000000000
100
AcDbArc
 50
319.1829447235348
 51
360.0000000000015
  0
ARC
  5
33B
100
AcDbEntity
  8
A4
  6
PHANTOM
 62
1
100
AcDbCircle
 10
485.7999849738197
 20
137.7561298219225
 30
0.0000000000000000
 40
1.999999999999998
100
AcDbArc
 50
1.424888497295656e-12
 51
40.81705527647192
  0
ARC
  5
33C
100
AcDbEntity
  8
A4
  6
PHANTOM
 62
1
100
AcDbCircle
 10
488.1999849738196
 20
145.9925138825746
 30
0.0000000000000000
 40
5.200000000000003
100
AcDbArc
 50
180.0000000000014
 51
220.8170552764689
  0
ARC
  5
33D
100
AcDbEntity
  8
A4
  6
PHANTOM
 62
1
100
AcDbCircle
 10
488.1999849738196
 20
145.9925138825746
 30
0.0000000000000000
 40
1.999999999999998
100
AcDbArc
 50
180.0000000000014
 51
220.8170552764701
  0
ARC
  5
33E
100
AcDbEntity
  8
A4
  6
PHANTOM
 62
1
100
AcDbCircle
 10
485.7999849738197
 20
137.7561298219225
 30
0.0000000000000000
 40
5.200000000000003
100
AcDbArc
 50
1.424888497295656e-12
 51
40.81705527646887
  0
ARC
  5
33F
100
AcDbEntity
  8
A4
  6
PHANTOM
 62
1
100
AcDbCircle
 10
485.7999849738203
 20
117.2438701780768
 30
0.0000000000000000
 40
5.200000000000001
100
AcDbArc
 50
319.1829447235316
 51
360.0000000000015
  0
ARC
  5
340
100
AcDbEntity
  8
A4
  6
PHANTOM
 62
1
100
AcDbCircle
 10
488.1999849738205
 20
109.0074861174249
 30
0.0000000000000000
 40
2.000000000000000
100
AcDbArc
 50
139.1829447235335
 51
180.0000000000014
  0
LINE
  5
341
100
AcDbEntity
  8
A4
  6
PHANTOM
 62
1
100
AcDbLine
 10
482.9999849738190
 20
167.4999999999996
 30
0.0000000000000000
 11
486.1999849738191
 21
167.4999999999997
 31
0.0000000000000000
  0
LINE
  5
342
100
AcDbEntity
  8
A4
  6
PHANTOM
 62
1
100
AcDbLine
 10
486.1999849738196
 20
145.9925138825745
 30
0.0000000000000000
 11
486.1999849738190
 21
167.4999999999997
 31
0.0000000000000000
  0
LINE
  5
343
100
AcDbEntity
  8
A4
  6
PHANTOM
 62
1
100
AcDbLine
 10
482.9999849738190
 20
167.4999999999996
 30
0.0000000000000000
 11
482.9999849738196
 21
145.9925138825744
 31
0.0000000000000000
  0
LINE
  5
344
100
AcDbEntity
  8
A4
  6
PHANTOM
 62
1
100
AcDbLine
 10
487.3135860096786
 20
115.9365783574611
 30
0.0000000000000000
 11
484.2646222805893
 21
112.4064448510259
 31
0.0000000000000000
  0
LINE
  5
345
100
AcDbEntity
  8
A4
  6
PHANTOM
 62
1
100
AcDbLine
 10
487.7999849738197
 20
137.7561298219226
 30
0.0000000000000000
 11
487.7999849738202
 21
117.2438701780769
 31
0.0000000000000000
  0
LINE
  5
346
100
AcDbEntity
  8
A4
  6
PHANTOM
 62
1
100
AcDbLine
 10
484.2646222805885
 20
142.5935551489735
 30
0.0000000000000000
 11
487.3135860096780
 21
139.0634216425385
 31
0.0000000000000000
  0
LINE
  5
347
100
AcDbEntity
  8
A4
  6
PHANTOM
 62
1
100
AcDbLine
 10
489.7353476670510
 20
141.1550885555236
 30
0.0000000000000000
 11
486.6863839379614
 21
144.6852220619586
 31
0.0000000000000000
  0
LINE
  5
348
100
AcDbEntity
  8
A4
  6
PHANTOM
 62
1
100
AcDbLine
 10
490.9999849738202
 20
117.2438701780769
 30
0.0000000000000000
 11
490.9999849738197
 21
137.7561298219226
 31
0.0000000000000000
  0
LINE
  5
349
100
AcDbEntity
  8
A4
  6
PHANTOM
 62
1
100
AcDbLine
 10
486.6863839379623
 20
110.3147779380407
 30
0.0000000000000000
 11
489.7353476670519
 21
113.8449114444756
 31
0.0000000000000000
  0
LINE
  5
34A
100
AcDbEntity
  8
A4
  6
PHANTOM
 62
1
100
AcDbLine
 10
486.1999849738205
 20
109.0074861174248
 30
0.0000000000000000
 11
486.1999849738211
 21
87.49999999999967
 31
0.0000000000000000
  0
LINE
  5
34B
100
AcDbEntity
  8
A4
  6
PHANTOM
 62
1
100
AcDbLine
 10
482.9999849738205
 20
109.0074861174248
 30
0.0000000000000000
 11
482.9999849738210
 21
87.49999999999959
 31
0.0000000000000000
  0
LINE
  5
34C
100
AcDbEntity
  8
A4
  6
PHANTOM
 62
1
100
AcDbLine
 10
486.1999849738211
 20
87.49999999999964
 30
0.0000000000000000
 11
482.9999849738210
 21
87.49999999999956
 31
0.0000000000000000
  0
LINE
  5
34D
100
AcDbEntity
  8
A4
  6
PHANTOM
 62
1
100
AcDbLine
 10
492.9999999738204
 20
117.4999999999999
 30
0.0000000000000000
 11
490.9999849738203
 21
117.4999999999998
 31
0.0000000000000000
  0
LINE
  5
34E
100
AcDbEntity
  8
A4
  6
PHANTOM
 62
1
100
AcDbLine
 10
490.9999849738198
 20
137.4999999999999
 30
0.0000000000000000
 11
492.9999999738199
 21
137.4999999999999
 31
0.0000000000000000
  0
LINE
  5
34F
100
AcDbEntity
  8
A4
  6
PHANTOM
 62
1
100
AcDbLine
 10
496.6999969738197
 20
135.5000000000000
 30
0.0000000000000000
 11
496.6999969738201
 21
119.5000000000000
 31
0.0000000000000000
  0
LINE
  5
350
100
AcDbEntity
  8
A4
  6
PHANTOM
 62
1
100
AcDbLine
 10
496.6999969738201
 20
119.5000000000000
 30
0.0000000000000000
 11
496.1999969738202
 21
119.4999999999999
 31
0.0000000000000000
  0
LINE
  5
351
100
AcDbEntity
  8
A4
  6
PHANTOM
 62
1
100
AcDbLine
 10
496.1999969738199
 20
135.5000000000000
 30
0.0000000000000000
 11
496.6999969738197
 21
135.5000000000000
 31
0.0000000000000000
  0
ELLIPSE
  5
352
100
AcDbEntity
  8
A4
  6
PHANTOM
 62
1
100
AcDbEllipse
 10
502.0850282491696
 20
154.4297232896665
 30
0.0000000000000000
 11
-3.065911231597213
 21
-8.739080125708972
 31
0.0000000000000000
210
0.0000000000000000
220
0.0000000000000000
230
1.000000000000000
 40
0.3606766711266628
 41
0.5425271204004871
 42
0.9270375776578436
  0
ELLIPSE
  5
353
100
AcDbEntity
  8
A4
  6
PHANTOM
 62
1
100
AcDbEllipse
 10
502.0850282491695
 20
158.9077559034720
 30
0.0000000000000000
 11
-3.065911231597217
 21
-8.739080125708982
 31
0.0000000000000000
210
0.0000000000000000
220
0.0000000000000000
230
1.000000000000000
 40
0.3606766711266622
 41
0.5425271204003299
 42
0.6976208595731984
  0
ARC
  5
354
100
AcDbEntity
  8
A4
  6
PHANTOM
 62
1
100
AcDbCircle
 10
497.9999999738196
 20
146.5000000000000
 30
0.0000000000000000
 40
4.999999999999999
100
AcDbArc
 50
90.00000000000144
 51
179.9999999999993
  0
LINE
  5
355
100
AcDbEntity
  8
A4
  6
PHANTOM
 62
1
100
AcDbLine
 10
497.9999999738195
 20
151.5000000000000
 30
0.0000000000000000
 11
507.4999959738195
 21
151.5000000000002
 31
0.0000000000000000
  0
LINE
  5
356
100
AcDbEntity
  8
A4
  6
PHANTOM
 62
1
100
AcDbLine
 10
507.4999959738195
 20
151.5000000000002
 30
0.0000000000000000
 11
507.4999959738196
 21
148.3000030000003
 31
0.0000000000000000
  0
LINE
  5
357
100
AcDbEntity
  8
A4
  6
PHANTOM
 62
1
100
AcDbLine
 10
496.1999969738196
 20
142.3064243881438
 30
0.0000000000000000
 11
496.1999969738201
 21
118.4999999999999
 31
0.0000000000000000
  0
LINE
  5
358
100
AcDbEntity
  8
A4
  6
PHANTOM
 62
1
100
AcDbLine
 10
496.1999969738201
 20
118.4999999999999
 30
0.0000000000000000
 11
492.9999999738203
 21
118.4999999999998
 31
0.0000000000000000
  0
LINE
  5
359
100
AcDbEntity
  8
A4
  6
PHANTOM
 62
1
100
AcDbLine
 10
496.1999969738197
 20
139.4999999999999
 30
0.0000000000000000
 11
492.9999999738199
 21
139.5000000000005
 31
0.0000000000000000
  0
LINE
  5
35A
100
AcDbEntity
  8
A4
  6
PHANTOM
 62
1
100
AcDbLine
 10
496.1999969738196
 20
142.3064243881438
 30
0.0000000000000000
 11
501.0867358544827
 21
146.3745888728415
 31
0.0000000000000000
  0
LINE
  5
35B
100
AcDbEntity
  8
A4
  6
PHANTOM
 62
1
100
AcDbLine
 10
492.9999999738197
 20
139.5000000000004
 30
0.0000000000000000
 11
496.1999969738196
 21
142.2840455243307
 31
0.0000000000000000
  0
LINE
  5
35C
100
AcDbEntity
  8
A4
  6
PHANTOM
 62
1
100
AcDbLine
 10
492.9999999738207
 20
117.4999999999998
 30
0.0000000000000000
 11
492.9999999738195
 21
146.4999999999997
 31
0.0000000000000000
  0
LINE
  5
35D
100
AcDbEntity
  8
A4
  6
PHANTOM
 62
1
100
AcDbLine
 10
492.9999999738196
 20
144.1204893817337
 30
0.0000000000000000
 11
501.0867358544824
 21
150.8526214866461
 31
0.0000000000000000
  0
LINE
  5
35E
100
AcDbEntity
  8
A4
  6
PHANTOM
 62
1
100
AcDbLine
 10
507.4999959738196
 20
148.3000030000003
 30
0.0000000000000000
 11
502.7659481817214
 21
148.3000030000001
 31
0.0000000000000000
  0
LINE
  5
35F
100
AcDbEntity
  8
A0
  6
CENTER
 62
1
100
AcDbLine
 10
481.4999849738202
 20
127.4999999999996
 30
0.0000000000000000
 11
501.1999969738200
 21
127.5000000000001
 31
0.0000000000000000
  0
LINE
  5
360
100
AcDbEntity
  8
A0
  6
CENTER
 62
1
100
AcDbLine
 10
481.4999849738193
 20
154.9999999999996
 30
0.0000000000000000
 11
487.6999849738194
 21
154.9999999999998
 31
0.0000000000000000
  0
LINE
  5
361
100
AcDbEntity
  8
A0
  6
CENTER
 62
1
100
AcDbLine
 10
481.4999849738209
 20
99.99999999999957
 30
0.0000000000000000
 11
487.6999849738208
 21
99.99999999999973
 31
0.0000000000000000
  0
POINT
  5
362
100
AcDbEntity
  8
A0
  6
CONTINUOUS
 62
5
100
AcDbPoint
 10
500.0000000000001
 20
127.5000000000001
 30
0.0000000000000000
  0
ENDSEC
  0
SECTION
  2
OBJECTS
  0
DICTIONARY
  5
390
100
AcDbDictionary
  3
ACAD_GROUP
350
391
  3
ACAD_LAYOUT
350
392
  3
ACAD_MLINESTYLE
350
393
  0
DICTIONARY
  5
391
102
{ACAD_REACTORS
330
390
102
}
330
390
100
AcDbDictionary
  0
DICTIONARY
  5
392
102
{ACAD_REACTORS
330
390
102
}
330
390
100
AcDbDictionary
  3
Model
350
394
  3
ﾚｲｱｳﾄ1
350
395
  3
ﾚｲｱｳﾄ2
350
396
  0
DICTIONARY
  5
393
102
{ACAD_REACTORS
330
390
102
}
330
390
100
AcDbDictionary
  3
STANDARD
350
397
  0
LAYOUT
  5
394
102
{ACAD_REACTORS
330
392
102
}
330
392
100
AcDbPlotSettings
 70
11952
  4
A3
 44
297.000000
 45
420.000000
 73
  1
 72
  1
100
AcDbLayout
  1
Model
 71
0
330
387
  0
LAYOUT
  5
395
102
{ACAD_REACTORS
330
392
102
}
330
392
100
AcDbPlotSettings
100
AcDbLayout
  1
ﾚｲｱｳﾄ1
 71
1
330
388
  0
LAYOUT
  5
396
102
{ACAD_REACTORS
330
392
102
}
330
392
100
AcDbPlotSettings
100
AcDbLayout
  1
ﾚｲｱｳﾄ2
 71
2
330
389
  0
MLINESTYLE
  5
397
102
{ACAD_REACTORS
330
393
102
}
330
393
100
AcDbMlineStyle
  2
STANDARD
 70
     0
  3

 62
   256
 51
90.00
 52
90.00
 71
     2
 49
0.50
 62
   256
  6
BYLAYER
 49
-0.50
 62
   256
  6
BYLAYER
  0
ENDSEC
  0
EOF
