  0
SECTION
  2
HEADER
  9
$ACADVER
  1
AC1015
  9
$DWGCODEPAGE
  3
ANSI_932
  9
$LTSCALE
 40
20.0
  9
$FILLMODE
 70
     1
  9
$CLAYER
  8
0
  9
$PDMODE
 70
     0
  9
$SPLFRAME
 70
     0
  9
$SPLINETYPE
 70
     6
  9
$SPLINESEGS
 70
     8
  9
$DIMASZ
 40
2.000000
  9
$DIMEXE
 40
1.500000
  9
$DIMEXO
 40
0.800000
  9
$DIMTAD
 70
     1
  9
$DIMTIH
 70
     0
  9
$DIMTOH
 70
     0
  9
$DIMTVP
 40
0.500000
  9
$DIMTXT
 40
3.100000
  9
$EXTMIN
 10
0.000000
 20
0.000000
 30
0.000000
  9
$EXTMAX
 10
297.000000
 20
420.000000
 30
0.000000
  9
$MEASUREMENT
 70
  1
  9
$LIMMIN
 10
0.000000
 20
0.000000
  9
$LIMMAX
 10
297.000000
 20
420.000000
  9
$HANDSEED
  5
21E
  9
$LWDISPLAY
290
     0
  9
$DIMBLK
  1
_OPEN
  9
$DIMDEC
 70
     2
  9
$DIMADEC
 70
     2
  9
$DIMAUNIT
 70
     0
  9
$DIMZIN
 70
     8
  9
$DIMAZIN
 70
     2
  9
$DIMTOFL
 70
     1
  0
ENDSEC
  0
SECTION
  2
CLASSES
  0
ENDSEC
  0
SECTION
  2
TABLES
  0
TABLE
  2
VPORT
  5
1E8
100
AcDbSymbolTable
 70
     1
  0
VPORT
  5
1E9
100
AcDbSymbolTableRecord
100
AcDbViewportTableRecord
  2
*ACTIVE
 70
     0
 12
267.700148
 22
163.000004
 40
413.931206
 41
1.245135
  0
ENDTAB
  0
TABLE
  2
LTYPE
  5
1EA
100
AcDbSymbolTable
 70
     3
  0
LTYPE
  5
1EB
100
AcDbSymbolTableRecord
100
AcDbLinetypeTableRecord
  2
BYBLOCK
 70
     0
  3

 72
    65
 73
     0
 40
0.0
  0
LTYPE
  5
1EC
100
AcDbSymbolTableRecord
100
AcDbLinetypeTableRecord
  2
BYLAYER
 70
     0
  3

 72
    65
 73
     0
 40
0.0
  0
LTYPE
  5
1ED
100
AcDbSymbolTableRecord
100
AcDbLinetypeTableRecord
  2
CONTINUOUS
 70
     0
  3
Solid line (NEC CAE2D for Win R15.2 : 2020.05.21)
 72
    65
 73
     0
 40
0.0
  0
LTYPE
  5
1EE
100
AcDbSymbolTableRecord
100
AcDbLinetypeTableRecord
  2
CENTER
 70
     0
  3
____ _ ____ _ ____ _ ____ _ ____ _ ____
 72
    65
 73
     4
 40
2.0
 49
1.25
 74
     0
 49
-0.25
 74
     0
 49
0.25
 74
     0
 49
-0.25
 74
     0
  0
LTYPE
  5
1EF
100
AcDbSymbolTableRecord
100
AcDbLinetypeTableRecord
  2
PHANTOM
 70
     0
  3
______  __  __  ______  __  __  ______ 
 72
    65
 73
     6
 40
2.5
 49
1.25
 74
     0
 49
-0.25
 74
     0
 49
0.25
 74
     0
 49
-0.25
 74
     0
 49
0.25
 74
     0
 49
-0.25
 74
     0
  0
ENDTAB
  0
TABLE
  2
LAYER
  5
1F0
100
AcDbSymbolTable
 70
    15
  0
LAYER
  5
1F1
100
AcDbSymbolTableRecord
100
AcDbLayerTableRecord
  2
0
 70
     0
 62
     7
  6
CONTINUOUS
370
    -3
390

  0
LAYER
  5
1F2
100
AcDbSymbolTableRecord
100
AcDbLayerTableRecord
  2
A0
 70
     0
 62
     9
  6
CONTINUOUS
370
    -3
390

  0
LAYER
  5
1F3
100
AcDbSymbolTableRecord
100
AcDbLayerTableRecord
  2
A2
 70
     0
 62
     9
  6
CONTINUOUS
370
    -3
390

  0
LAYER
  5
1F4
100
AcDbSymbolTableRecord
100
AcDbLayerTableRecord
  2
A3
 70
     0
 62
    12
  6
CONTINUOUS
370
    -3
390

  0
LAYER
  5
1F5
100
AcDbSymbolTableRecord
100
AcDbLayerTableRecord
  2
A4
 70
     0
 62
     9
  6
CONTINUOUS
370
    -3
390

  0
LAYER
  5
1F6
100
AcDbSymbolTableRecord
100
AcDbLayerTableRecord
  2
A5
 70
     0
 62
     8
  6
CONTINUOUS
370
    -3
390

  0
LAYER
  5
1F7
100
AcDbSymbolTableRecord
100
AcDbLayerTableRecord
  2
A6
 70
     0
 62
    12
  6
CONTINUOUS
370
    -3
390

  0
LAYER
  5
1F8
100
AcDbSymbolTableRecord
100
AcDbLayerTableRecord
  2
A8
 70
     0
 62
    10
  6
CONTINUOUS
370
    -3
390

  0
LAYER
  5
1F9
100
AcDbSymbolTableRecord
100
AcDbLayerTableRecord
  2
A9
 70
     0
 62
     9
  6
CONTINUOUS
370
    -3
390

  0
LAYER
  5
1FA
100
AcDbSymbolTableRecord
100
AcDbLayerTableRecord
  2
A10
 70
     0
 62
     6
  6
CONTINUOUS
370
    -3
390

  0
LAYER
  5
1FB
100
AcDbSymbolTableRecord
100
AcDbLayerTableRecord
  2
A20
 70
     0
 62
     1
  6
CONTINUOUS
370
    -3
390

  0
LAYER
  5
1FC
100
AcDbSymbolTableRecord
100
AcDbLayerTableRecord
  2
A30
 70
     0
 62
     1
  6
CONTINUOUS
370
    -3
390

  0
LAYER
  5
1FD
100
AcDbSymbolTableRecord
100
AcDbLayerTableRecord
  2
A40
 70
     0
 62
     9
  6
CONTINUOUS
370
    -3
390

  0
LAYER
  5
1FE
100
AcDbSymbolTableRecord
100
AcDbLayerTableRecord
  2
A50
 70
     0
 62
    12
  6
CONTINUOUS
370
    -3
390

  0
LAYER
  5
1FF
100
AcDbSymbolTableRecord
100
AcDbLayerTableRecord
  2
A1023
 70
     0
 62
    16
  6
CONTINUOUS
370
    -3
390

  0
ENDTAB
  0
TABLE
  2
STYLE
  5
200
100
AcDbSymbolTable
 70
     4
  0
STYLE
  5
201
100
AcDbSymbolTableRecord
100
AcDbTextStyleTableRecord
  2
STANDARD
 70
    64
 40
0.0
 41
1.0
 50
0.0
 71
     0
 42
3.000000000000000
  3
TXT
  4

  0
STYLE
  5
202
100
AcDbSymbolTableRecord
100
AcDbTextStyleTableRecord
  2
ANKTATE
 70
    68
 40
0.0
 41
1.0
 50
0.0
 71
     0
 42
3.000000000000000
  3
TXT
  4

  0
STYLE
  5
203
100
AcDbSymbolTableRecord
100
AcDbTextStyleTableRecord
  2
KNJYOKO
 70
    64
 40
0.0
 41
1.0
 50
0.0
 71
     0
 42
3.000000000000000
  3
TXT
  4
BIGFONT
  0
STYLE
  5
204
100
AcDbSymbolTableRecord
100
AcDbTextStyleTableRecord
  2
KNJTATE
 70
    68
 40
0.0
 41
1.0
 50
0.0
 71
     0
 42
3.000000000000000
  3
TXT
  4
BIGFONT
  0
ENDTAB
  0
TABLE
  2
VIEW
  5
205
100
AcDbSymbolTable
 70
     0
  0
ENDTAB
  0
TABLE
  2
UCS
  5
206
100
AcDbSymbolTable
 70
     0
  0
ENDTAB
  0
TABLE
  2
APPID
  5
207
100
AcDbSymbolTable
 70
     1
  0
APPID
  5
208
100
AcDbSymbolTableRecord
100
AcDbRegAppTableRecord
  2
ACAD
 70
     0
  0
ENDTAB
  0
TABLE
  2
DIMSTYLE
  5
209
100
AcDbSymbolTable
 70
     2
100
AcDbDimStyleTable
  0
DIMSTYLE
105
20A
100
AcDbSymbolTableRecord
100
AcDbDimStyleTableRecord
  2
STANDARD
 70
     0
 41
2.000000
 44
1.500000
 42
0.800000
145
0.661290
140
3.100000
144
1.000000
146
0.645161
340
201
  0
DIMSTYLE
105
20B
100
AcDbSymbolTableRecord
100
AcDbDimStyleTableRecord
  2
A001
 70
     0
 41
2.000000
 44
1.500000
 42
0.800000
145
0.661290
140
3.100000
144
1.000000
146
0.645161
 77
     1
 73
     0
 74
     0
271
     2
179
     2
275
     0
 78
     8
 79
     2
172
     1
340
201
  0
ENDTAB
  0
TABLE
  2
BLOCK_RECORD
  5
20C
100
AcDbSymbolTable
 70
    12
  0
BLOCK_RECORD
  5
20D
100
AcDbSymbolTableRecord
100
AcDbBlockTableRecord
  2
*MODEL_SPACE
  0
BLOCK_RECORD
  5
20E
100
AcDbSymbolTableRecord
100
AcDbBlockTableRecord
  2
*PAPER_SPACE
  0
BLOCK_RECORD
  5
20F
100
AcDbSymbolTableRecord
100
AcDbBlockTableRecord
  2
*PAPER_SPACE0
  0
BLOCK_RECORD
  5
1
100
AcDbSymbolTableRecord
100
AcDbBlockTableRecord
  2
_NONE
  0
BLOCK_RECORD
  5
4
100
AcDbSymbolTableRecord
100
AcDbBlockTableRecord
  2
_CLOSED
  0
BLOCK_RECORD
  5
B
100
AcDbSymbolTableRecord
100
AcDbBlockTableRecord
  2
_DOT
  0
BLOCK_RECORD
  5
13
100
AcDbSymbolTableRecord
100
AcDbBlockTableRecord
  2
_OPEN
  0
BLOCK_RECORD
  5
19
100
AcDbSymbolTableRecord
100
AcDbBlockTableRecord
  2
_ORIGIN
  0
BLOCK_RECORD
  5
1E
100
AcDbSymbolTableRecord
100
AcDbBlockTableRecord
  2
_OPEN30
  0
BLOCK_RECORD
  5
24
100
AcDbSymbolTableRecord
100
AcDbBlockTableRecord
  2
_BOXFILLED
  0
BLOCK_RECORD
  5
29
100
AcDbSymbolTableRecord
100
AcDbBlockTableRecord
  2
_BOXBLANK
  0
BLOCK_RECORD
  5
31
100
AcDbSymbolTableRecord
100
AcDbBlockTableRecord
  2
_OBLIQUE
  0
BLOCK_RECORD
  5
35
100
AcDbSymbolTableRecord
100
AcDbBlockTableRecord
  2
_OPEN90
  0
BLOCK_RECORD
  5
3B
100
AcDbSymbolTableRecord
100
AcDbBlockTableRecord
  2
_CLOSEDBLANK
  0
BLOCK_RECORD
  5
41
100
AcDbSymbolTableRecord
100
AcDbBlockTableRecord
  2
_DOTBLANK
  0
ENDTAB
  0
ENDSEC
  0
SECTION
  2
BLOCKS
  0
BLOCK
  5
210
100
AcDbEntity
  8
0
100
AcDbBlockBegin
  2
*MODEL_SPACE
 70
     0
 10
0.0
 20
0.0
 30
0.0
  3
*MODEL_SPACE
  1

  0
ENDBLK
  5
211
100
AcDbEntity
  8
0
100
AcDbBlockEnd
  0
BLOCK
  5
212
100
AcDbEntity
  8
0
100
AcDbBlockBegin
  2
*PAPER_SPACE
 70
     0
 10
0.0
 20
0.0
 30
0.0
  3
*PAPER_SPACE
  1

  0
ENDBLK
  5
213
100
AcDbEntity
  8
0
100
AcDbBlockEnd
  0
BLOCK
  5
214
100
AcDbEntity
  8
0
100
AcDbBlockBegin
  2
*PAPER_SPACE0
 70
     0
 10
0.0
 20
0.0
 30
0.0
  3
*PAPER_SPACE0
  1

  0
ENDBLK
  5
215
100
AcDbEntity
  8
0
100
AcDbBlockEnd
  0
BLOCK
  5
2
330
1
100
AcDbEntity
  8
0
100
AcDbBlockBegin
  2
_NONE
 70
     0
 10
0.0
 20
0.0
 30
0.0
  3
_NONE
  1

  0
ENDBLK
  5
3
330
1
100
AcDbEntity
  8
0
100
AcDbBlockEnd
  0
BLOCK
  5
5
330
4
100
AcDbEntity
  8
0
100
AcDbBlockBegin
  2
_CLOSED
 70
     0
 10
0.0
 20
0.0
 30
0.0
  3
_CLOSED
  1

  0
LINE
  5
6
330
4
100
AcDbEntity
  8
0
  6
BYBLOCK
 62
     0
370
    -2
100
AcDbLine
 10
-1.0
 20
0.166667
 30
0.0
 11
0.0
 21
0.0
 31
0.0
  0
LINE
  5
7
330
4
100
AcDbEntity
  8
0
  6
BYBLOCK
 62
     0
370
    -2
100
AcDbLine
 10
0.0
 20
0.0
 30
0.0
 11
-1.0
 21
-0.166667
 31
0.0
  0
LINE
  5
8
330
4
100
AcDbEntity
  8
0
  6
BYBLOCK
 62
     0
370
    -2
100
AcDbLine
 10
-1.0
 20
0.166667
 30
0.0
 11
-1.0
 21
-0.166667
 31
0.0
  0
LINE
  5
9
330
4
100
AcDbEntity
  8
0
  6
BYBLOCK
 62
     0
370
    -2
100
AcDbLine
 10
0.0
 20
0.0
 30
0.0
 11
-1.0
 21
0.0
 31
0.0
  0
ENDBLK
  5
A
330
4
100
AcDbEntity
  8
0
100
AcDbBlockEnd
  0
BLOCK
  5
C
330
B
100
AcDbEntity
  8
0
100
AcDbBlockBegin
  2
_DOT
 70
     0
 10
0.0
 20
0.0
 30
0.0
  3
_DOT
  1

  0
POLYLINE
  5
D
330
B
100
AcDbEntity
  8
0
  6
BYBLOCK
 62
     0
370
    -2
100
AcDb2dPolyline
 66
     1
 10
0.0
 20
0.0
 30
0.0
 70
     1
 40
0.5
 41
0.5
  0
VERTEX
  5
E
330
B
100
AcDbEntity
  8
0
  6
BYBLOCK
 62
     0
370
    -2
100
AcDbVertex
100
AcDb2dVertex
 10
-0.25
 20
0.0
 30
0.0
 42
1.0
  0
VERTEX
  5
F
330
B
100
AcDbEntity
  8
0
  6
BYBLOCK
 62
     0
370
    -2
100
AcDbVertex
100
AcDb2dVertex
 10
0.25
 20
0.0
 30
0.0
 42
1.0
  0
SEQEND
  5
10
330
B
100
AcDbEntity
  8
0
  6
BYBLOCK
 62
     0
370
    -2
  0
LINE
  5
11
330
B
100
AcDbEntity
  8
0
  6
BYBLOCK
 62
     0
370
    -2
100
AcDbLine
 10
-0.5
 20
0.0
 30
0.0
 11
-1.0
 21
0.0
 31
0.0
  0
ENDBLK
  5
12
330
B
100
AcDbEntity
  8
0
100
AcDbBlockEnd
  0
BLOCK
  5
14
330
13
100
AcDbEntity
  8
0
100
AcDbBlockBegin
  2
_OPEN
 70
     0
 10
0.0
 20
0.0
 30
0.0
  3
_OPEN
  1

  0
LINE
  5
15
330
13
100
AcDbEntity
  8
0
  6
BYBLOCK
 62
     0
370
    -2
100
AcDbLine
 10
-1.0
 20
0.166667
 30
0.0
 11
0.0
 21
0.0
 31
0.0
  0
LINE
  5
16
330
13
100
AcDbEntity
  8
0
  6
BYBLOCK
 62
     0
370
    -2
100
AcDbLine
 10
0.0
 20
0.0
 30
0.0
 11
-1.0
 21
-0.166667
 31
0.0
  0
LINE
  5
17
330
13
100
AcDbEntity
  8
0
  6
BYBLOCK
 62
     0
370
    -2
100
AcDbLine
 10
0.0
 20
0.0
 30
0.0
 11
-1.0
 21
0.0
 31
0.0
  0
ENDBLK
  5
18
330
13
100
AcDbEntity
  8
0
100
AcDbBlockEnd
  0
BLOCK
  5
1A
330
19
100
AcDbEntity
  8
0
100
AcDbBlockBegin
  2
_ORIGIN
 70
     0
 10
0.0
 20
0.0
 30
0.0
  3
_ORIGIN
  1

  0
CIRCLE
  5
1B
330
19
100
AcDbEntity
  8
0
  6
BYBLOCK
 62
     0
370
    -2
100
AcDbCircle
 10
0.0
 20
0.0
 30
0.0
 40
0.5
  0
LINE
  5
1C
330
19
100
AcDbEntity
  8
0
  6
BYBLOCK
 62
     0
370
    -2
100
AcDbLine
 10
0.0
 20
0.0
 30
0.0
 11
-1.0
 21
0.0
 31
0.0
  0
ENDBLK
  5
1D
330
19
100
AcDbEntity
  8
0
100
AcDbBlockEnd
  0
BLOCK
  5
1F
330
1E
100
AcDbEntity
  8
0
100
AcDbBlockBegin
  2
_OPEN30
 70
     0
 10
0.0
 20
0.0
 30
0.0
  3
_OPEN30
  1

  0
LINE
  5
20
330
1E
100
AcDbEntity
  8
0
  6
BYBLOCK
 62
     0
370
    -2
100
AcDbLine
 10
-1.0
 20
0.267949
 30
0.0
 11
0.0
 21
0.0
 31
0.0
  0
LINE
  5
21
330
1E
100
AcDbEntity
  8
0
  6
BYBLOCK
 62
     0
370
    -2
100
AcDbLine
 10
0.0
 20
0.0
 30
0.0
 11
-1.0
 21
-0.267949
 31
0.0
  0
LINE
  5
22
330
1E
100
AcDbEntity
  8
0
  6
BYBLOCK
 62
     0
370
    -2
100
AcDbLine
 10
0.0
 20
0.0
 30
0.0
 11
-1.0
 21
0.0
 31
0.0
  0
ENDBLK
  5
23
330
1E
100
AcDbEntity
  8
0
100
AcDbBlockEnd
  0
BLOCK
  5
25
330
24
100
AcDbEntity
  8
0
100
AcDbBlockBegin
  2
_BOXFILLED
 70
     0
 10
0.0
 20
0.0
 30
0.0
  3
_BOXFILLED
  1

  0
SOLID
  5
26
330
24
100
AcDbEntity
  8
0
  6
BYBLOCK
 62
     0
370
    -2
100
AcDbTrace
 10
-0.5
 20
0.5
 30
0.0
 11
0.5
 21
0.5
 31
0.0
 12
-0.5
 22
-0.5
 32
0.0
 13
0.5
 23
-0.5
 33
0.0
  0
LINE
  5
27
330
24
100
AcDbEntity
  8
0
  6
BYBLOCK
 62
     0
370
    -2
100
AcDbLine
 10
-0.5
 20
0.0
 30
0.0
 11
-1.0
 21
0.0
 31
0.0
  0
ENDBLK
  5
28
330
24
100
AcDbEntity
  8
0
100
AcDbBlockEnd
  0
BLOCK
  5
2A
330
29
100
AcDbEntity
  8
0
100
AcDbBlockBegin
  2
_BOXBLANK
 70
     0
 10
0.0
 20
0.0
 30
0.0
  3
_BOXBLANK
  1

  0
LINE
  5
2B
330
29
100
AcDbEntity
  8
0
  6
BYBLOCK
 62
     0
370
    -2
100
AcDbLine
 10
-0.5
 20
-0.5
 30
0.0
 11
0.5
 21
-0.5
 31
0.0
  0
LINE
  5
2C
330
29
100
AcDbEntity
  8
0
  6
BYBLOCK
 62
     0
370
    -2
100
AcDbLine
 10
0.5
 20
-0.5
 30
0.0
 11
0.5
 21
0.5
 31
0.0
  0
LINE
  5
2D
330
29
100
AcDbEntity
  8
0
  6
BYBLOCK
 62
     0
370
    -2
100
AcDbLine
 10
0.5
 20
0.5
 30
0.0
 11
-0.5
 21
0.5
 31
0.0
  0
LINE
  5
2E
330
29
100
AcDbEntity
  8
0
  6
BYBLOCK
 62
     0
370
    -2
100
AcDbLine
 10
-0.5
 20
0.5
 30
0.0
 11
-0.5
 21
-0.5
 31
0.0
  0
LINE
  5
2F
330
29
100
AcDbEntity
  8
0
  6
BYBLOCK
 62
     0
370
    -2
100
AcDbLine
 10
-0.5
 20
0.0
 30
0.0
 11
-1.0
 21
0.0
 31
0.0
  0
ENDBLK
  5
30
330
29
100
AcDbEntity
  8
0
100
AcDbBlockEnd
  0
BLOCK
  5
32
330
31
100
AcDbEntity
  8
0
100
AcDbBlockBegin
  2
_OBLIQUE
 70
     0
 10
0.0
 20
0.0
 30
0.0
  3
_OBLIQUE
  1

  0
LINE
  5
33
330
31
100
AcDbEntity
  8
0
  6
BYBLOCK
 62
     0
370
    -2
100
AcDbLine
 10
-0.5
 20
-0.5
 30
0.0
 11
0.5
 21
0.5
 31
0.0
  0
ENDBLK
  5
34
330
31
100
AcDbEntity
  8
0
100
AcDbBlockEnd
  0
BLOCK
  5
36
330
35
100
AcDbEntity
  8
0
100
AcDbBlockBegin
  2
_OPEN90
 70
     0
 10
0.0
 20
0.0
 30
0.0
  3
_OPEN90
  1

  0
LINE
  5
37
330
35
100
AcDbEntity
  8
0
  6
BYBLOCK
 62
     0
370
    -2
100
AcDbLine
 10
-0.5
 20
0.5
 30
0.0
 11
0.0
 21
0.0
 31
0.0
  0
LINE
  5
38
330
35
100
AcDbEntity
  8
0
  6
BYBLOCK
 62
     0
370
    -2
100
AcDbLine
 10
0.0
 20
0.0
 30
0.0
 11
-0.5
 21
-0.5
 31
0.0
  0
LINE
  5
39
330
35
100
AcDbEntity
  8
0
  6
BYBLOCK
 62
     0
370
    -2
100
AcDbLine
 10
0.0
 20
0.0
 30
0.0
 11
-1.0
 21
0.0
 31
0.0
  0
ENDBLK
  5
3A
330
35
100
AcDbEntity
  8
0
100
AcDbBlockEnd
  0
BLOCK
  5
3C
330
3B
100
AcDbEntity
  8
0
100
AcDbBlockBegin
  2
_CLOSEDBLANK
 70
     0
 10
0.0
 20
0.0
 30
0.0
  3
_CLOSEDBLANK
  1

  0
LINE
  5
3D
330
3B
100
AcDbEntity
  8
0
  6
BYBLOCK
 62
     0
370
    -2
100
AcDbLine
 10
-1.0
 20
0.1666666666666666
 30
0.0
 11
0.0
 21
0.0
 31
0.0
  0
LINE
  5
3E
330
3B
100
AcDbEntity
  8
0
  6
BYBLOCK
 62
     0
370
    -2
100
AcDbLine
 10
0.0
 20
0.0
 30
0.0
 11
-1.0
 21
-0.1666666666666666
 31
0.0
  0
LINE
  5
3F
330
3B
100
AcDbEntity
  8
0
  6
BYBLOCK
 62
     0
370
    -2
100
AcDbLine
 10
-1.0
 20
0.1666666666666666
 30
0.0
 11
-1.0
 21
-0.1666666666666666
 31
0.0
  0
ENDBLK
  5
40
330
3B
100
AcDbEntity
  8
0
100
AcDbBlockEnd
  0
BLOCK
  5
42
330
41
100
AcDbEntity
  8
0
100
AcDbBlockBegin
  2
_DOTBLANK
 70
     0
 10
0.0
 20
0.0
 30
0.0
  3
_DOTBLANK
  1

  0
CIRCLE
  5
43
330
41
100
AcDbEntity
  8
0
  6
BYBLOCK
 62
     0
370
    -2
100
AcDbCircle
 10
0.0
 20
0.0
 30
0.0
 40
0.5
  0
LINE
  5
44
330
41
100
AcDbEntity
  8
0
  6
BYBLOCK
 62
     0
370
    -2
100
AcDbLine
 10
-0.5
 20
0.0
 30
0.0
 11
-1.0
 21
0.0
 31
0.0
  0
ENDBLK
  5
45
330
41
100
AcDbEntity
  8
0
100
AcDbBlockEnd
  0
ENDSEC
  0
SECTION
  2
ENTITIES
  0
MTEXT
  5
46
100
AcDbEntity
  8
A8
  6
CONTINUOUS
 62
7
100
AcDbMText
 10
9.999997526638502
 20
18.00000076076889
 30
0.0000000000000000
 40
3.000000000000000
 41
0.0000000000000000
 44
0.6739999771118164
 71
     7
 72
     1
  1
{\H0.94x;{TYPE No.TM-364-50-10}}
 11
1.000000000000000
 21
0.0000000000000000
 31
0.0000000000000000
  7
STANDARD
  0
POINT
  5
47
100
AcDbEntity
  8
A0
  6
CONTINUOUS
 62
5
100
AcDbPoint
 10
9.999997526638502
 20
18.00000076076889
 30
0.0000000000000000
  0
POINT
  5
48
100
AcDbEntity
  8
A10
  6
CONTINUOUS
 62
5
100
AcDbPoint
 10
50.00000000000000
 20
50.00000000000000
 30
0.0000000000000000
  0
LINE
  5
49
100
AcDbEntity
  8
A4
  6
CONTINUOUS
 62
7
100
AcDbLine
 10
41.00000000000000
 20
54.35889900000009
 30
0.0000000000000000
 11
41.00000000000000
 21
66.00000000000000
 31
0.0000000000000000
  0
LINE
  5
4A
100
AcDbEntity
  8
A4
  6
CONTINUOUS
 62
7
100
AcDbLine
 10
59.00000000000000
 20
54.35889900000009
 30
0.0000000000000000
 11
59.00000000000000
 21
66.00000000000000
 31
0.0000000000000000
  0
LINE
  5
4B
100
AcDbEntity
  8
A4
  6
CONTINUOUS
 62
7
100
AcDbLine
 10
61.00000000000000
 20
74.00000000000009
 30
0.0000000000000000
 11
39.00000000000000
 21
74.00000000000009
 31
0.0000000000000000
  0
LINE
  5
4C
100
AcDbEntity
  8
A4
  6
CONTINUOUS
 62
7
100
AcDbLine
 10
61.00000000000000
 20
70.80000400000000
 30
0.0000000000000000
 11
39.00000000000000
 21
70.80000400000000
 31
0.0000000000000000
  0
LINE
  5
4D
100
AcDbEntity
  8
A4
  6
CONTINUOUS
 62
7
100
AcDbLine
 10
39.00000000000000
 20
70.80000400000003
 30
0.0000000000000000
 11
39.00000000000000
 21
74.00000000000011
 31
0.0000000000000000
  0
LINE
  5
4E
100
AcDbEntity
  8
A4
  6
CONTINUOUS
 62
7
100
AcDbLine
 10
55.99999999999994
 20
70.80000399999996
 30
0.0000000000000000
 11
58.99999999999994
 21
65.99999999999997
 31
0.0000000000000000
  0
LINE
  5
4F
100
AcDbEntity
  8
A4
  6
CONTINUOUS
 62
7
100
AcDbLine
 10
43.99999999999996
 20
70.80000400000002
 30
0.0000000000000000
 11
40.99999999999996
 21
66.00000000000000
 31
0.0000000000000000
  0
LINE
  5
50
100
AcDbEntity
  8
A4
  6
CONTINUOUS
 62
7
100
AcDbLine
 10
339.0001829999999
 20
275.0000000000000
 30
0.0000000000000000
 11
339.0001829999999
 21
260.9999999999994
 31
0.0000000000000000
  0
LINE
  5
51
100
AcDbEntity
  8
A4
  6
CONTINUOUS
 62
7
100
AcDbLine
 10
321.0001829999999
 20
275.0000000000000
 30
0.0000000000000000
 11
321.0001829999999
 21
260.9999999999987
 31
0.0000000000000000
  0
LINE
  5
52
100
AcDbEntity
  8
A4
  6
CONTINUOUS
 62
7
100
AcDbLine
 10
60.99999999999955
 20
251.0000000000002
 30
0.0000000000000000
 11
39.00000000000001
 21
251.0000000000002
 31
0.0000000000000000
  0
LINE
  5
53
100
AcDbEntity
  8
A4
  6
CONTINUOUS
 62
7
100
AcDbLine
 10
60.99999999999967
 20
254.2000120000002
 30
0.0000000000000000
 11
39.00000000000001
 21
254.2000120000002
 31
0.0000000000000000
  0
LINE
  5
54
100
AcDbEntity
  8
A4
  6
CONTINUOUS
 62
7
100
AcDbLine
 10
56.00000000000001
 20
254.2000120000003
 30
0.0000000000000000
 11
58.99999999999996
 21
259.0000000000002
 31
0.0000000000000000
  0
LINE
  5
55
100
AcDbEntity
  8
A4
  6
CONTINUOUS
 62
7
100
AcDbLine
 10
44.00000000000009
 20
254.2000120000003
 30
0.0000000000000000
 11
41.00000000000007
 21
259.0000000000003
 31
0.0000000000000000
  0
LINE
  5
56
100
AcDbEntity
  8
A4
  6
CONTINUOUS
 62
7
100
AcDbLine
 10
57.50000000000001
 20
249.0000000000002
 30
0.0000000000000000
 11
42.50000000000001
 21
249.0000000000002
 31
0.0000000000000000
  0
LINE
  5
57
100
AcDbEntity
  8
A4
  6
CONTINUOUS
 62
7
100
AcDbLine
 10
57.50000000000001
 20
247.5000000000002
 30
0.0000000000000000
 11
42.50000000000001
 21
247.5000000000002
 31
0.0000000000000000
  0
LINE
  5
58
100
AcDbEntity
  8
A4
  6
CONTINUOUS
 62
7
100
AcDbLine
 10
57.50000000000001
 20
133.0000150000003
 30
0.0000000000000000
 11
42.50000000000001
 21
133.0000150000003
 31
0.0000000000000000
  0
LINE
  5
59
100
AcDbEntity
  8
A4
  6
CONTINUOUS
 62
7
100
AcDbLine
 10
56.50000000000001
 20
132.0000150000001
 30
0.0000000000000000
 11
43.50000000000001
 21
132.0000150000001
 31
0.0000000000000000
  0
LINE
  5
5A
100
AcDbEntity
  8
A4
  6
CONTINUOUS
 62
7
100
AcDbLine
 10
56.50000000000001
 20
133.0000150000003
 30
0.0000000000000000
 11
56.50000000000001
 21
132.0000150000001
 31
0.0000000000000000
  0
LINE
  5
5B
100
AcDbEntity
  8
A4
  6
CONTINUOUS
 62
7
100
AcDbLine
 10
57.50000000000001
 20
137.5000150000002
 30
0.0000000000000000
 11
42.50000000000001
 21
137.5000150000002
 31
0.0000000000000000
  0
LINE
  5
5C
100
AcDbEntity
  8
A4
  6
CONTINUOUS
 62
7
100
AcDbLine
 10
57.50000000000001
 20
139.5000150000003
 30
0.0000000000000000
 11
42.50000000000001
 21
139.5000150000003
 31
0.0000000000000000
  0
LINE
  5
5D
100
AcDbEntity
  8
A4
  6
CONTINUOUS
 62
7
100
AcDbLine
 10
57.50000000000001
 20
151.0000150000003
 30
0.0000000000000000
 11
42.50000000000001
 21
151.0000150000003
 31
0.0000000000000000
  0
LINE
  5
5E
100
AcDbEntity
  8
A4
  6
CONTINUOUS
 62
7
100
AcDbLine
 10
57.50000000000001
 20
153.0000150000002
 30
0.0000000000000000
 11
42.50000000000001
 21
153.0000150000002
 31
0.0000000000000000
  0
LINE
  5
5F
100
AcDbEntity
  8
A4
  6
CONTINUOUS
 62
7
100
AcDbLine
 10
42.50000000000001
 20
133.0000150000003
 30
0.0000000000000000
 11
42.50000000000001
 21
137.5000150000002
 31
0.0000000000000000
  0
LINE
  5
60
100
AcDbEntity
  8
A4
  6
CONTINUOUS
 62
7
100
AcDbLine
 10
42.50000000000001
 20
139.5000150000003
 30
0.0000000000000000
 11
42.50000000000001
 21
151.0000150000003
 31
0.0000000000000000
  0
LINE
  5
61
100
AcDbEntity
  8
A4
  6
CONTINUOUS
 62
7
100
AcDbLine
 10
42.50000000000001
 20
153.0000150000002
 30
0.0000000000000000
 11
42.50000000000001
 21
249.0000000000002
 31
0.0000000000000000
  0
LINE
  5
62
100
AcDbEntity
  8
A4
  6
CONTINUOUS
 62
7
100
AcDbLine
 10
57.50000000000001
 20
133.0000150000003
 30
0.0000000000000000
 11
57.50000000000001
 21
137.5000150000002
 31
0.0000000000000000
  0
LINE
  5
63
100
AcDbEntity
  8
A4
  6
CONTINUOUS
 62
7
100
AcDbLine
 10
57.50000000000001
 20
139.5000150000003
 30
0.0000000000000000
 11
57.50000000000001
 21
151.0000150000003
 31
0.0000000000000000
  0
LINE
  5
64
100
AcDbEntity
  8
A4
  6
CONTINUOUS
 62
7
100
AcDbLine
 10
57.50000000000001
 20
153.0000150000002
 30
0.0000000000000000
 11
57.50000000000001
 21
249.0000000000002
 31
0.0000000000000000
  0
LINE
  5
65
100
AcDbEntity
  8
A2
  6
CENTER
 62
4
100
AcDbLine
 10
180.0000919999999
 20
290.0000000000000
 30
0.0000000000000000
 11
180.0000919999999
 21
35.50000000000009
 31
0.0000000000000000
  0
LINE
  5
66
100
AcDbEntity
  8
A4
  6
CONTINUOUS
 62
7
100
AcDbLine
 10
187.5000920000000
 20
133.0000150000003
 30
0.0000000000000000
 11
172.5000919999998
 21
133.0000150000003
 31
0.0000000000000000
  0
LINE
  5
67
100
AcDbEntity
  8
A4
  6
CONTINUOUS
 62
7
100
AcDbLine
 10
186.5000920000000
 20
132.0000150000001
 30
0.0000000000000000
 11
173.5000919999999
 21
132.0000150000001
 31
0.0000000000000000
  0
LINE
  5
68
100
AcDbEntity
  8
A4
  6
CONTINUOUS
 62
7
100
AcDbLine
 10
186.5000920000000
 20
133.0000150000003
 30
0.0000000000000000
 11
186.5000920000000
 21
132.0000150000001
 31
0.0000000000000000
  0
LINE
  5
69
100
AcDbEntity
  8
A4
  6
CONTINUOUS
 62
7
100
AcDbLine
 10
173.5000919999999
 20
133.0000150000003
 30
0.0000000000000000
 11
173.5000919999999
 21
132.0000150000001
 31
0.0000000000000000
  0
LINE
  5
6A
100
AcDbEntity
  8
A4
  6
CONTINUOUS
 62
7
100
AcDbLine
 10
187.5000920000000
 20
137.5000150000002
 30
0.0000000000000000
 11
172.5000919999998
 21
137.5000150000002
 31
0.0000000000000000
  0
LINE
  5
6B
100
AcDbEntity
  8
A4
  6
CONTINUOUS
 62
7
100
AcDbLine
 10
187.5000920000000
 20
139.5000150000003
 30
0.0000000000000000
 11
172.5000919999998
 21
139.5000150000003
 31
0.0000000000000000
  0
LINE
  5
6C
100
AcDbEntity
  8
A4
  6
CONTINUOUS
 62
7
100
AcDbLine
 10
187.5000920000000
 20
151.0000150000003
 30
0.0000000000000000
 11
172.5000919999998
 21
151.0000150000003
 31
0.0000000000000000
  0
LINE
  5
6D
100
AcDbEntity
  8
A4
  6
CONTINUOUS
 62
7
100
AcDbLine
 10
187.5000920000000
 20
153.0000150000002
 30
0.0000000000000000
 11
172.5000919999998
 21
153.0000150000002
 31
0.0000000000000000
  0
LINE
  5
6E
100
AcDbEntity
  8
A4
  6
CONTINUOUS
 62
7
100
AcDbLine
 10
172.5000919999998
 20
133.0000150000003
 30
0.0000000000000000
 11
172.5000919999998
 21
137.5000150000002
 31
0.0000000000000000
  0
LINE
  5
6F
100
AcDbEntity
  8
A4
  6
CONTINUOUS
 62
7
100
AcDbLine
 10
172.5000919999998
 20
139.5000150000003
 30
0.0000000000000000
 11
172.5000919999998
 21
151.0000150000003
 31
0.0000000000000000
  0
LINE
  5
70
100
AcDbEntity
  8
A4
  6
CONTINUOUS
 62
7
100
AcDbLine
 10
172.5000919999998
 20
153.0000150000002
 30
0.0000000000000000
 11
172.5000919999998
 21
249.0000000000002
 31
0.0000000000000000
  0
LINE
  5
71
100
AcDbEntity
  8
A4
  6
CONTINUOUS
 62
7
100
AcDbLine
 10
187.5000920000000
 20
133.0000150000003
 30
0.0000000000000000
 11
187.5000920000000
 21
137.5000150000002
 31
0.0000000000000000
  0
LINE
  5
72
100
AcDbEntity
  8
A4
  6
CONTINUOUS
 62
7
100
AcDbLine
 10
187.5000920000000
 20
139.5000150000003
 30
0.0000000000000000
 11
187.5000920000000
 21
151.0000150000003
 31
0.0000000000000000
  0
LINE
  5
73
100
AcDbEntity
  8
A4
  6
CONTINUOUS
 62
7
100
AcDbLine
 10
187.5000920000000
 20
153.0000150000002
 30
0.0000000000000000
 11
187.5000920000000
 21
249.0000000000002
 31
0.0000000000000000
  0
LINE
  5
74
100
AcDbEntity
  8
A4
  6
CONTINUOUS
 62
7
100
AcDbLine
 10
176.5000919999999
 20
131.9999999999999
 30
0.0000000000000000
 11
176.5000919999999
 21
74.00000000000009
 31
0.0000000000000000
  0
LINE
  5
75
100
AcDbEntity
  8
A4
  6
CONTINUOUS
 62
7
100
AcDbLine
 10
183.5000919999999
 20
131.9999999999999
 30
0.0000000000000000
 11
183.5000919999999
 21
73.76969600708469
 31
0.0000000000000000
  0
LINE
  5
76
100
AcDbEntity
  8
A3
  6
PHANTOM
 62
1
100
AcDbLine
 10
41.00000000000001
 20
100.0000150000002
 30
0.0000000000000000
 11
41.00000000000001
 21
116.0000150000002
 31
0.0000000000000000
  0
LINE
  5
77
100
AcDbEntity
  8
A3
  6
PHANTOM
 62
1
100
AcDbLine
 10
59.00000000000001
 20
100.0000150000002
 30
0.0000000000000000
 11
59.00000000000001
 21
116.0000150000002
 31
0.0000000000000000
  0
LINE
  5
78
100
AcDbEntity
  8
A3
  6
PHANTOM
 62
1
100
AcDbLine
 10
60.99999999999955
 20
124.0000150000003
 30
0.0000000000000000
 11
39.00000000000001
 21
124.0000150000003
 31
0.0000000000000000
  0
LINE
  5
79
100
AcDbEntity
  8
A3
  6
PHANTOM
 62
1
100
AcDbLine
 10
60.99999999999955
 20
120.8000190000002
 30
0.0000000000000000
 11
39.00000000000001
 21
120.8000190000002
 31
0.0000000000000000
  0
LINE
  5
7A
100
AcDbEntity
  8
A3
  6
PHANTOM
 62
1
100
AcDbLine
 10
39.00000000000001
 20
120.8000190000002
 30
0.0000000000000000
 11
39.00000000000001
 21
124.0000150000003
 31
0.0000000000000000
  0
LINE
  5
7B
100
AcDbEntity
  8
A3
  6
PHANTOM
 62
1
100
AcDbLine
 10
55.99999999999994
 20
120.8000190000002
 30
0.0000000000000000
 11
58.99999999999993
 21
116.0000150000002
 31
0.0000000000000000
  0
LINE
  5
7C
100
AcDbEntity
  8
A3
  6
PHANTOM
 62
1
100
AcDbLine
 10
43.99999999999996
 20
120.8000190000002
 30
0.0000000000000000
 11
40.99999999999999
 21
116.0000150000002
 31
0.0000000000000000
  0
LINE
  5
7D
100
AcDbEntity
  8
A2
  6
CENTER
 62
4
100
AcDbLine
 10
50.00000000000000
 20
290.0000000000000
 30
0.0000000000000000
 11
50.00000000000000
 21
35.00000000000009
 31
0.0000000000000000
  0
LINE
  5
7E
100
AcDbEntity
  8
A2
  6
CENTER
 62
4
100
AcDbLine
 10
35.00000000000000
 20
50.00000000000000
 30
0.0000000000000000
 11
65.00000000000000
 21
50.00000000000000
 31
0.0000000000000000
  0
LINE
  5
7F
100
AcDbEntity
  8
A2
  6
CENTER
 62
4
100
AcDbLine
 10
40.00000000000001
 20
100.0000150000002
 30
0.0000000000000000
 11
60.00000000000001
 21
100.0000150000002
 31
0.0000000000000000
  0
LINE
  5
80
100
AcDbEntity
  8
A2
  6
CENTER
 62
4
100
AcDbLine
 10
330.0001830000000
 20
290.0000000000000
 30
0.0000000000000000
 11
330.0001830000000
 21
35.00000000000009
 31
0.0000000000000000
  0
LINE
  5
81
100
AcDbEntity
  8
A4
  6
CONTINUOUS
 62
7
100
AcDbLine
 10
321.0001830000004
 20
251.0000000000002
 30
0.0000000000000000
 11
339.0001830000002
 21
251.0000000000002
 31
0.0000000000000000
  0
LINE
  5
82
100
AcDbEntity
  8
A4
  6
CONTINUOUS
 62
7
100
AcDbLine
 10
59.00000000000001
 20
270.6411140000002
 30
0.0000000000000000
 11
59.00000000000001
 21
259.0000000000002
 31
0.0000000000000000
  0
LINE
  5
83
100
AcDbEntity
  8
A4
  6
CONTINUOUS
 62
7
100
AcDbLine
 10
41.00000000000001
 20
270.6411140000002
 30
0.0000000000000000
 11
41.00000000000001
 21
259.0000000000002
 31
0.0000000000000000
  0
LINE
  5
84
100
AcDbEntity
  8
A4
  6
CONTINUOUS
 62
7
100
AcDbLine
 10
232.5000759999998
 20
58.00000000000009
 30
0.0000000000000000
 11
232.5000759999998
 21
42.00000000000009
 31
0.0000000000000000
  0
LINE
  5
85
100
AcDbEntity
  8
A4
  6
CONTINUOUS
 62
7
100
AcDbLine
 10
232.0000759999998
 20
58.00000000000009
 30
0.0000000000000000
 11
232.0000759999998
 21
42.00000000000009
 31
0.0000000000000000
  0
LINE
  5
86
100
AcDbEntity
  8
A4
  6
CONTINUOUS
 62
7
100
AcDbLine
 10
232.5000759999998
 20
42.00000000000009
 30
0.0000000000000000
 11
232.0000759999998
 21
42.00000000000009
 31
0.0000000000000000
  0
LINE
  5
87
100
AcDbEntity
  8
A4
  6
CONTINUOUS
 62
7
100
AcDbLine
 10
232.5000759999998
 20
58.00000000000009
 30
0.0000000000000000
 11
232.0000759999998
 21
58.00000000000009
 31
0.0000000000000000
  0
LINE
  5
88
100
AcDbEntity
  8
A2
  6
CENTER
 62
4
100
AcDbLine
 10
122.0000459999999
 20
61.50000000000009
 30
0.0000000000000000
 11
122.0000459999999
 21
38.50000000000009
 31
0.0000000000000000
  0
LINE
  5
89
100
AcDbEntity
  8
A4
  6
CONTINUOUS
 62
7
100
AcDbLine
 10
43.50000000000001
 20
133.0000150000003
 30
0.0000000000000000
 11
43.50000000000001
 21
132.0000150000001
 31
0.0000000000000000
  0
LINE
  5
8A
100
AcDbEntity
  8
A4
  6
CONTINUOUS
 62
7
100
AcDbLine
 10
53.50000000000000
 20
131.9999999999999
 30
0.0000000000000000
 11
53.50000000000000
 21
74.00000000000009
 31
0.0000000000000000
  0
LINE
  5
8B
100
AcDbEntity
  8
A4
  6
CONTINUOUS
 62
7
100
AcDbLine
 10
46.50000000000000
 20
131.9999999999999
 30
0.0000000000000000
 11
46.50000000000000
 21
74.00000000000009
 31
0.0000000000000000
  0
LINE
  5
8C
100
AcDbEntity
  8
A4
  6
CONTINUOUS
 62
7
100
AcDbLine
 10
45.49999999999994
 20
251.0000000000003
 30
0.0000000000000000
 11
42.49999999999994
 21
249.0000000000003
 31
0.0000000000000000
  0
LINE
  5
8D
100
AcDbEntity
  8
A4
  6
CONTINUOUS
 62
7
100
AcDbLine
 10
54.49999999999996
 20
251.0000000000001
 30
0.0000000000000000
 11
57.49999999999997
 21
249.0000000000001
 31
0.0000000000000000
  0
LINE
  5
8E
100
AcDbEntity
  8
A4
  6
CONTINUOUS
 62
7
100
AcDbLine
 10
175.5000919999998
 20
251.0000000000003
 30
0.0000000000000000
 11
172.5000919999997
 21
249.0000000000003
 31
0.0000000000000000
  0
LINE
  5
8F
100
AcDbEntity
  8
A4
  6
CONTINUOUS
 62
7
100
AcDbLine
 10
183.9860020000001
 20
251.4113010000003
 30
0.0000000000000000
 11
187.5000920000001
 21
249.0000000000003
 31
0.0000000000000000
  0
LINE
  5
90
100
AcDbEntity
  8
A4
  6
CONTINUOUS
 62
7
100
AcDbLine
 10
187.5000920000000
 20
247.5000000000002
 30
0.0000000000000000
 11
172.5000919999998
 21
247.5000000000002
 31
0.0000000000000000
  0
LINE
  5
91
100
AcDbEntity
  8
A4
  6
CONTINUOUS
 62
7
100
AcDbLine
 10
187.5000920000000
 20
249.0000000000002
 30
0.0000000000000000
 11
172.5000919999998
 21
249.0000000000002
 31
0.0000000000000000
  0
LINE
  5
92
100
AcDbEntity
  8
A2
  6
CENTER
 62
4
100
AcDbLine
 10
180.0000919999999
 20
341.9656070000002
 30
0.0000000000000000
 11
180.0000919999999
 21
369.9656070000000
 31
0.0000000000000000
  0
LINE
  5
93
100
AcDbEntity
  8
A4
  6
CONTINUOUS
 62
7
100
AcDbLine
 10
183.8000949999999
 20
284.0000000000002
 30
0.0000000000000000
 11
187.0000919999999
 21
284.0000000000002
 31
0.0000000000000000
  0
LINE
  5
94
100
AcDbEntity
  8
A4
  6
CONTINUOUS
 62
7
100
AcDbLine
 10
187.0000919999999
 20
256.0000000000002
 30
0.0000000000000000
 11
187.0000919999999
 21
284.0000000000002
 31
0.0000000000000000
  0
LINE
  5
95
100
AcDbEntity
  8
A4
  6
CONTINUOUS
 62
7
100
AcDbLine
 10
183.8000949999999
 20
259.8869630000002
 30
0.0000000000000000
 11
183.8000949999999
 21
284.0000000000002
 31
0.0000000000000000
  0
LINE
  5
96
100
AcDbEntity
  8
A4
  6
CONTINUOUS
 62
7
100
AcDbLine
 10
172.5000919999998
 20
251.0000000000002
 30
0.0000000000000000
 11
172.5000919999998
 21
254.2000120000002
 31
0.0000000000000000
  0
LINE
  5
97
100
AcDbEntity
  8
A4
  6
CONTINUOUS
 62
7
100
AcDbLine
 10
172.5000919999998
 20
254.2000120000002
 30
0.0000000000000000
 11
177.7294620000000
 21
254.2000120000002
 31
0.0000000000000000
  0
LINE
  5
98
100
AcDbEntity
  8
A4
  6
CONTINUOUS
 62
7
100
AcDbLine
 10
172.5000919999998
 20
251.0000000000002
 30
0.0000000000000000
 11
182.0000919999999
 21
251.0000000000002
 31
0.0000000000000000
  0
LINE
  5
99
100
AcDbEntity
  8
A2
  6
CENTER
 62
4
100
AcDbLine
 10
235.5000759999997
 20
50.00000000000000
 30
0.0000000000000000
 11
229.0000759999997
 21
50.00000000000000
 31
0.0000000000000000
  0
LINE
  5
9A
100
AcDbEntity
  8
A4
  6
CONTINUOUS
 62
7
100
AcDbLine
 10
183.1427149999999
 20
258.4046020000002
 30
0.0000000000000000
 11
179.0720830000000
 21
254.7176520000001
 31
0.0000000000000000
  0
LINE
  5
9B
100
AcDbEntity
  8
A4
  6
CONTINUOUS
 62
7
100
AcDbLine
 10
185.2909239999998
 20
256.0328370000001
 30
0.0000000000000000
 11
181.2202760000000
 21
252.3458860000000
 31
0.0000000000000000
  0
LINE
  5
9C
100
AcDbEntity
  8
A3
  6
PHANTOM
 62
1
100
AcDbLine
 10
183.1427149999998
 20
116.5954290000003
 30
0.0000000000000000
 11
179.0720830000000
 21
120.2823640000003
 31
0.0000000000000000
  0
LINE
  5
9D
100
AcDbEntity
  8
A3
  6
PHANTOM
 62
1
100
AcDbLine
 10
183.8000949999999
 20
91.00001500000020
 30
0.0000000000000000
 11
187.0000919999999
 21
91.00001500000020
 31
0.0000000000000000
  0
LINE
  5
9E
100
AcDbEntity
  8
A3
  6
PHANTOM
 62
1
100
AcDbLine
 10
187.0000919999999
 20
119.0000150000002
 30
0.0000000000000000
 11
187.0000919999999
 21
91.00001500000020
 31
0.0000000000000000
  0
LINE
  5
9F
100
AcDbEntity
  8
A3
  6
PHANTOM
 62
1
100
AcDbLine
 10
185.2909239999998
 20
118.9671790000001
 30
0.0000000000000000
 11
181.2202759999999
 21
122.6541290000002
 31
0.0000000000000000
  0
LINE
  5
A0
100
AcDbEntity
  8
A3
  6
PHANTOM
 62
1
100
AcDbLine
 10
183.8000949999999
 20
115.1130680000003
 30
0.0000000000000000
 11
183.8000949999999
 21
91.00001500000020
 31
0.0000000000000000
  0
LINE
  5
A1
100
AcDbEntity
  8
A3
  6
PHANTOM
 62
1
100
AcDbLine
 10
172.5000919999998
 20
124.0000150000003
 30
0.0000000000000000
 11
172.5000919999998
 21
120.8000190000002
 31
0.0000000000000000
  0
LINE
  5
A2
100
AcDbEntity
  8
A3
  6
PHANTOM
 62
1
100
AcDbLine
 10
172.5000919999998
 20
120.8000190000002
 30
0.0000000000000000
 11
177.7294620000000
 21
120.8000190000002
 31
0.0000000000000000
  0
LINE
  5
A3
100
AcDbEntity
  8
A3
  6
PHANTOM
 62
1
100
AcDbLine
 10
172.5000919999998
 20
124.0000150000003
 30
0.0000000000000000
 11
182.0000919999999
 21
124.0000150000003
 31
0.0000000000000000
  0
LINE
  5
A4
100
AcDbEntity
  8
A2
  6
CENTER
 62
4
100
AcDbLine
 10
180.0000919999999
 20
-43.96559899999991
 30
0.0000000000000000
 11
180.0000919999999
 21
-15.96559899999993
 31
0.0000000000000000
  0
LINE
  5
A5
100
AcDbEntity
  8
A4
  6
CONTINUOUS
 62
7
100
AcDbLine
 10
183.8000949999999
 20
-38.96559899999991
 30
0.0000000000000000
 11
183.8000949999999
 21
-20.96559899999992
 31
0.0000000000000000
  0
LINE
  5
A6
100
AcDbEntity
  8
A4
  6
CONTINUOUS
 62
7
100
AcDbLine
 10
187.0000919999999
 20
-38.96559899999991
 30
0.0000000000000000
 11
187.0000919999999
 21
-20.96559899999992
 31
0.0000000000000000
  0
LINE
  5
A7
100
AcDbEntity
  8
A4
  6
CONTINUOUS
 62
7
100
AcDbLine
 10
183.8000949999999
 20
-38.96559899999991
 30
0.0000000000000000
 11
187.0000919999999
 21
-38.96559899999991
 31
0.0000000000000000
  0
LINE
  5
A8
100
AcDbEntity
  8
A4
  6
CONTINUOUS
 62
7
100
AcDbLine
 10
183.8000949999999
 20
-20.96559899999992
 30
0.0000000000000000
 11
187.0000919999999
 21
-20.96559899999992
 31
0.0000000000000000
  0
LINE
  5
A9
100
AcDbEntity
  8
A4
  6
CONTINUOUS
 62
7
100
AcDbLine
 10
326.5001829999999
 20
131.9999999999999
 30
0.0000000000000000
 11
326.5001829999999
 21
74.00000000000009
 31
0.0000000000000000
  0
LINE
  5
AA
100
AcDbEntity
  8
A4
  6
CONTINUOUS
 62
7
100
AcDbLine
 10
333.5001829999999
 20
131.9999999999999
 30
0.0000000000000000
 11
333.5001829999999
 21
74.00000000000009
 31
0.0000000000000000
  0
LINE
  5
AB
100
AcDbEntity
  8
A4
  6
CONTINUOUS
 62
7
100
AcDbLine
 10
322.5001829999999
 20
153.0000150000002
 30
0.0000000000000000
 11
322.5001829999999
 21
249.0000000000002
 31
0.0000000000000000
  0
LINE
  5
AC
100
AcDbEntity
  8
A4
  6
CONTINUOUS
 62
7
100
AcDbLine
 10
322.5001829999999
 20
139.5000150000003
 30
0.0000000000000000
 11
322.5001829999999
 21
151.0000150000003
 31
0.0000000000000000
  0
LINE
  5
AD
100
AcDbEntity
  8
A4
  6
CONTINUOUS
 62
7
100
AcDbLine
 10
322.5001829999999
 20
133.0000150000003
 30
0.0000000000000000
 11
322.5001829999999
 21
137.5000150000002
 31
0.0000000000000000
  0
LINE
  5
AE
100
AcDbEntity
  8
A4
  6
CONTINUOUS
 62
7
100
AcDbLine
 10
337.5001829999999
 20
153.0000150000002
 30
0.0000000000000000
 11
337.5001829999999
 21
249.0000000000002
 31
0.0000000000000000
  0
LINE
  5
AF
100
AcDbEntity
  8
A4
  6
CONTINUOUS
 62
7
100
AcDbLine
 10
337.5001829999999
 20
139.5000150000003
 30
0.0000000000000000
 11
337.5001829999999
 21
151.0000150000003
 31
0.0000000000000000
  0
LINE
  5
B0
100
AcDbEntity
  8
A4
  6
CONTINUOUS
 62
7
100
AcDbLine
 10
337.5001829999999
 20
133.0000150000003
 30
0.0000000000000000
 11
337.5001829999999
 21
137.5000150000002
 31
0.0000000000000000
  0
LINE
  5
B1
100
AcDbEntity
  8
A4
  6
CONTINUOUS
 62
7
100
AcDbLine
 10
322.5001829999999
 20
153.0000150000002
 30
0.0000000000000000
 11
337.5001829999999
 21
153.0000150000002
 31
0.0000000000000000
  0
LINE
  5
B2
100
AcDbEntity
  8
A4
  6
CONTINUOUS
 62
7
100
AcDbLine
 10
322.5001829999999
 20
151.0000150000003
 30
0.0000000000000000
 11
337.5001829999999
 21
151.0000150000003
 31
0.0000000000000000
  0
LINE
  5
B3
100
AcDbEntity
  8
A4
  6
CONTINUOUS
 62
7
100
AcDbLine
 10
322.5001829999999
 20
139.5000150000003
 30
0.0000000000000000
 11
337.5001829999999
 21
139.5000150000003
 31
0.0000000000000000
  0
LINE
  5
B4
100
AcDbEntity
  8
A4
  6
CONTINUOUS
 62
7
100
AcDbLine
 10
322.5001829999999
 20
137.5000150000002
 30
0.0000000000000000
 11
337.5001829999999
 21
137.5000150000002
 31
0.0000000000000000
  0
LINE
  5
B5
100
AcDbEntity
  8
A4
  6
CONTINUOUS
 62
7
100
AcDbLine
 10
323.5001830000000
 20
133.0000150000003
 30
0.0000000000000000
 11
323.5001830000000
 21
132.0000150000001
 31
0.0000000000000000
  0
LINE
  5
B6
100
AcDbEntity
  8
A4
  6
CONTINUOUS
 62
7
100
AcDbLine
 10
323.5001830000000
 20
132.0000150000001
 30
0.0000000000000000
 11
336.5001830000000
 21
132.0000150000001
 31
0.0000000000000000
  0
LINE
  5
B7
100
AcDbEntity
  8
A4
  6
CONTINUOUS
 62
7
100
AcDbLine
 10
322.5001829999999
 20
133.0000150000003
 30
0.0000000000000000
 11
337.5001829999999
 21
133.0000150000003
 31
0.0000000000000000
  0
LINE
  5
B8
100
AcDbEntity
  8
A4
  6
CONTINUOUS
 62
7
100
AcDbLine
 10
334.5001830000000
 20
251.0000000000002
 30
0.0000000000000000
 11
337.5001829999998
 21
249.0000000000003
 31
0.0000000000000000
  0
LINE
  5
B9
100
AcDbEntity
  8
A4
  6
CONTINUOUS
 62
7
100
AcDbLine
 10
325.5001830000000
 20
251.0000000000002
 30
0.0000000000000000
 11
322.5001829999999
 21
249.0000000000002
 31
0.0000000000000000
  0
LINE
  5
BA
100
AcDbEntity
  8
A4
  6
CONTINUOUS
 62
7
100
AcDbLine
 10
322.5001829999999
 20
247.5000000000002
 30
0.0000000000000000
 11
337.5001829999999
 21
247.5000000000002
 31
0.0000000000000000
  0
LINE
  5
BB
100
AcDbEntity
  8
A4
  6
CONTINUOUS
 62
7
100
AcDbLine
 10
322.5001829999999
 20
249.0000000000002
 30
0.0000000000000000
 11
337.5001829999999
 21
249.0000000000002
 31
0.0000000000000000
  0
LINE
  5
BC
100
AcDbEntity
  8
A4
  6
CONTINUOUS
 62
7
100
AcDbLine
 10
336.5001830000000
 20
133.0000150000003
 30
0.0000000000000000
 11
336.5001830000000
 21
132.0000150000001
 31
0.0000000000000000
  0
LINE
  5
BD
100
AcDbEntity
  8
A2
  6
CENTER
 62
4
100
AcDbLine
 10
345.0001830000000
 20
50.00000000000000
 30
0.0000000000000000
 11
315.0001830000000
 21
50.00000000000000
 31
0.0000000000000000
  0
LINE
  5
BE
100
AcDbEntity
  8
A4
  6
CONTINUOUS
 62
7
100
AcDbLine
 10
321.0001829999999
 20
74.00000000000009
 30
0.0000000000000000
 11
339.0001829999997
 21
74.00000000000009
 31
0.0000000000000000
  0
LINE
  5
BF
100
AcDbEntity
  8
A4
  6
CONTINUOUS
 62
7
100
AcDbLine
 10
321.0001829999999
 20
50.00000000000000
 30
0.0000000000000000
 11
321.0001829999999
 21
64.00000000000048
 31
0.0000000000000000
  0
LINE
  5
C0
100
AcDbEntity
  8
A4
  6
CONTINUOUS
 62
7
100
AcDbLine
 10
339.0001829999999
 20
50.00000000000000
 30
0.0000000000000000
 11
339.0001829999999
 21
64.00000000000139
 31
0.0000000000000000
  0
LINE
  5
C1
100
AcDbEntity
  8
A3
  6
PHANTOM
 62
1
100
AcDbLine
 10
339.0001829999999
 20
100.0000150000002
 30
0.0000000000000000
 11
339.0001829999999
 21
114.0000150000011
 31
0.0000000000000000
  0
LINE
  5
C2
100
AcDbEntity
  8
A2
  6
CENTER
 62
4
100
AcDbLine
 10
340.0001830000000
 20
100.0000150000002
 30
0.0000000000000000
 11
320.0001830000000
 21
100.0000150000002
 31
0.0000000000000000
  0
LINE
  5
C3
100
AcDbEntity
  8
A3
  6
PHANTOM
 62
1
100
AcDbLine
 10
321.0001829999999
 20
124.0000150000003
 30
0.0000000000000000
 11
339.0001829999997
 21
124.0000150000003
 31
0.0000000000000000
  0
LINE
  5
C4
100
AcDbEntity
  8
A3
  6
PHANTOM
 62
1
100
AcDbLine
 10
321.0001829999999
 20
100.0000150000002
 30
0.0000000000000000
 11
321.0001829999999
 21
114.0000150000002
 31
0.0000000000000000
  0
LINE
  5
C5
100
AcDbEntity
  8
A4
  6
CONTINUOUS
 62
7
100
AcDbLine
 10
466.5003049999998
 20
131.9999999999999
 30
0.0000000000000000
 11
466.5003049999998
 21
73.76969600708469
 31
0.0000000000000000
  0
LINE
  5
C6
100
AcDbEntity
  8
A4
  6
CONTINUOUS
 62
7
100
AcDbLine
 10
473.5003049999998
 20
131.9999999999999
 30
0.0000000000000000
 11
473.5003049999998
 21
74.00000000000009
 31
0.0000000000000000
  0
LINE
  5
C7
100
AcDbEntity
  8
A4
  6
CONTINUOUS
 62
7
100
AcDbLine
 10
462.5003049999998
 20
153.0000150000002
 30
0.0000000000000000
 11
462.5003049999998
 21
249.0000000000002
 31
0.0000000000000000
  0
LINE
  5
C8
100
AcDbEntity
  8
A4
  6
CONTINUOUS
 62
7
100
AcDbLine
 10
462.5003049999998
 20
139.5000150000003
 30
0.0000000000000000
 11
462.5003049999998
 21
151.0000150000003
 31
0.0000000000000000
  0
LINE
  5
C9
100
AcDbEntity
  8
A4
  6
CONTINUOUS
 62
7
100
AcDbLine
 10
462.5003049999998
 20
133.0000150000003
 30
0.0000000000000000
 11
462.5003049999998
 21
137.5000150000002
 31
0.0000000000000000
  0
LINE
  5
CA
100
AcDbEntity
  8
A4
  6
CONTINUOUS
 62
7
100
AcDbLine
 10
477.5003049999999
 20
153.0000150000002
 30
0.0000000000000000
 11
477.5003049999999
 21
249.0000000000002
 31
0.0000000000000000
  0
LINE
  5
CB
100
AcDbEntity
  8
A4
  6
CONTINUOUS
 62
7
100
AcDbLine
 10
477.5003049999999
 20
139.5000150000003
 30
0.0000000000000000
 11
477.5003049999999
 21
151.0000150000003
 31
0.0000000000000000
  0
LINE
  5
CC
100
AcDbEntity
  8
A4
  6
CONTINUOUS
 62
7
100
AcDbLine
 10
477.5003049999999
 20
133.0000150000003
 30
0.0000000000000000
 11
477.5003049999999
 21
137.5000150000002
 31
0.0000000000000000
  0
LINE
  5
CD
100
AcDbEntity
  8
A4
  6
CONTINUOUS
 62
7
100
AcDbLine
 10
462.5003049999998
 20
153.0000150000002
 30
0.0000000000000000
 11
477.5003049999999
 21
153.0000150000002
 31
0.0000000000000000
  0
LINE
  5
CE
100
AcDbEntity
  8
A4
  6
CONTINUOUS
 62
7
100
AcDbLine
 10
462.5003049999998
 20
151.0000150000003
 30
0.0000000000000000
 11
477.5003049999999
 21
151.0000150000003
 31
0.0000000000000000
  0
LINE
  5
CF
100
AcDbEntity
  8
A4
  6
CONTINUOUS
 62
7
100
AcDbLine
 10
462.5003049999998
 20
139.5000150000003
 30
0.0000000000000000
 11
477.5003049999999
 21
139.5000150000003
 31
0.0000000000000000
  0
LINE
  5
D0
100
AcDbEntity
  8
A4
  6
CONTINUOUS
 62
7
100
AcDbLine
 10
462.5003049999998
 20
137.5000150000002
 30
0.0000000000000000
 11
477.5003049999999
 21
137.5000150000002
 31
0.0000000000000000
  0
LINE
  5
D1
100
AcDbEntity
  8
A4
  6
CONTINUOUS
 62
7
100
AcDbLine
 10
476.5003050000000
 20
133.0000150000003
 30
0.0000000000000000
 11
476.5003050000000
 21
132.0000150000001
 31
0.0000000000000000
  0
LINE
  5
D2
100
AcDbEntity
  8
A4
  6
CONTINUOUS
 62
7
100
AcDbLine
 10
463.5003050000000
 20
133.0000150000003
 30
0.0000000000000000
 11
463.5003050000000
 21
132.0000150000001
 31
0.0000000000000000
  0
LINE
  5
D3
100
AcDbEntity
  8
A4
  6
CONTINUOUS
 62
7
100
AcDbLine
 10
463.5003050000000
 20
132.0000150000001
 30
0.0000000000000000
 11
476.5003050000000
 21
132.0000150000001
 31
0.0000000000000000
  0
LINE
  5
D4
100
AcDbEntity
  8
A4
  6
CONTINUOUS
 62
7
100
AcDbLine
 10
462.5003049999998
 20
133.0000150000003
 30
0.0000000000000000
 11
477.5003049999999
 21
133.0000150000003
 31
0.0000000000000000
  0
LINE
  5
D5
100
AcDbEntity
  8
A2
  6
CENTER
 62
4
100
AcDbLine
 10
470.0003049999998
 20
290.0000000000000
 30
0.0000000000000000
 11
470.0003049999998
 21
35.50000000000009
 31
0.0000000000000000
  0
LINE
  5
D6
100
AcDbEntity
  8
A4
  6
CONTINUOUS
 62
7
100
AcDbLine
 10
474.5003049999999
 20
251.0000000000002
 30
0.0000000000000000
 11
477.5003050000000
 21
249.0000000000003
 31
0.0000000000000000
  0
LINE
  5
D7
100
AcDbEntity
  8
A4
  6
CONTINUOUS
 62
7
100
AcDbLine
 10
462.5003049999998
 20
247.5000000000002
 30
0.0000000000000000
 11
477.5003049999999
 21
247.5000000000002
 31
0.0000000000000000
  0
LINE
  5
D8
100
AcDbEntity
  8
A4
  6
CONTINUOUS
 62
7
100
AcDbLine
 10
462.5003049999998
 20
249.0000000000002
 30
0.0000000000000000
 11
477.5003049999999
 21
249.0000000000002
 31
0.0000000000000000
  0
LINE
  5
D9
100
AcDbEntity
  8
A4
  6
CONTINUOUS
 62
7
100
AcDbLine
 10
466.0143860000002
 20
251.4113050000001
 30
0.0000000000000000
 11
462.5003049999999
 21
249.0000000000003
 31
0.0000000000000000
  0
LINE
  5
DA
100
AcDbEntity
  8
A3
  6
PHANTOM
 62
1
100
AcDbLine
 10
464.7094730000001
 20
118.9671790000001
 30
0.0000000000000000
 11
468.7801210000001
 21
122.6541290000003
 31
0.0000000000000000
  0
LINE
  5
DB
100
AcDbEntity
  8
A3
  6
PHANTOM
 62
1
100
AcDbLine
 10
466.2002870000000
 20
91.00001500000020
 30
0.0000000000000000
 11
463.0003049999998
 21
91.00001500000020
 31
0.0000000000000000
  0
LINE
  5
DC
100
AcDbEntity
  8
A2
  6
CENTER
 62
4
100
AcDbLine
 10
407.9002690000000
 20
50.00000000000000
 30
0.0000000000000000
 11
414.4002690000000
 21
50.00000000000000
 31
0.0000000000000000
  0
LINE
  5
DD
100
AcDbEntity
  8
A3
  6
PHANTOM
 62
1
100
AcDbLine
 10
477.5003049999999
 20
124.0000150000003
 30
0.0000000000000000
 11
477.5003049999999
 21
120.8000190000002
 31
0.0000000000000000
  0
LINE
  5
DE
100
AcDbEntity
  8
A3
  6
PHANTOM
 62
1
100
AcDbLine
 10
477.5003049999999
 20
120.8000190000002
 30
0.0000000000000000
 11
472.2709350000000
 21
120.8000190000002
 31
0.0000000000000000
  0
LINE
  5
DF
100
AcDbEntity
  8
A3
  6
PHANTOM
 62
1
100
AcDbLine
 10
477.5003049999999
 20
124.0000150000003
 30
0.0000000000000000
 11
468.0003050000000
 21
124.0000150000003
 31
0.0000000000000000
  0
LINE
  5
E0
100
AcDbEntity
  8
A3
  6
PHANTOM
 62
1
100
AcDbLine
 10
466.8576659999997
 20
116.5954290000003
 30
0.0000000000000000
 11
470.9283139999999
 21
120.2823640000004
 31
0.0000000000000000
  0
LINE
  5
E1
100
AcDbEntity
  8
A4
  6
CONTINUOUS
 62
7
100
AcDbLine
 10
466.8576659999997
 20
258.4046020000004
 30
0.0000000000000000
 11
470.9283139999998
 21
254.7176520000001
 31
0.0000000000000000
  0
LINE
  5
E2
100
AcDbEntity
  8
A4
  6
CONTINUOUS
 62
7
100
AcDbLine
 10
466.2002870000000
 20
284.0000000000002
 30
0.0000000000000000
 11
463.0003049999998
 21
284.0000000000002
 31
0.0000000000000000
  0
LINE
  5
E3
100
AcDbEntity
  8
A4
  6
CONTINUOUS
 62
7
100
AcDbLine
 10
463.0003049999998
 20
256.0000000000002
 30
0.0000000000000000
 11
463.0003049999998
 21
284.0000000000002
 31
0.0000000000000000
  0
LINE
  5
E4
100
AcDbEntity
  8
A4
  6
CONTINUOUS
 62
7
100
AcDbLine
 10
464.7094730000000
 20
256.0328370000001
 30
0.0000000000000000
 11
468.7801210000000
 21
252.3458860000000
 31
0.0000000000000000
  0
LINE
  5
E5
100
AcDbEntity
  8
A4
  6
CONTINUOUS
 62
7
100
AcDbLine
 10
466.2002870000000
 20
259.8869630000002
 30
0.0000000000000000
 11
466.2002870000000
 21
284.0000000000002
 31
0.0000000000000000
  0
LINE
  5
E6
100
AcDbEntity
  8
A4
  6
CONTINUOUS
 62
7
100
AcDbLine
 10
477.5003049999999
 20
251.0000000000002
 30
0.0000000000000000
 11
477.5003049999999
 21
254.2000120000002
 31
0.0000000000000000
  0
LINE
  5
E7
100
AcDbEntity
  8
A4
  6
CONTINUOUS
 62
7
100
AcDbLine
 10
477.5003049999999
 20
254.2000120000002
 30
0.0000000000000000
 11
472.2709350000000
 21
254.2000120000002
 31
0.0000000000000000
  0
LINE
  5
E8
100
AcDbEntity
  8
A4
  6
CONTINUOUS
 62
7
100
AcDbLine
 10
477.5003049999999
 20
251.0000000000002
 30
0.0000000000000000
 11
468.0003050000000
 21
251.0000000000002
 31
0.0000000000000000
  0
LINE
  5
E9
100
AcDbEntity
  8
A3
  6
PHANTOM
 62
1
100
AcDbLine
 10
463.0003049999998
 20
119.0000150000002
 30
0.0000000000000000
 11
463.0003049999998
 21
91.00001500000020
 31
0.0000000000000000
  0
LINE
  5
EA
100
AcDbEntity
  8
A3
  6
PHANTOM
 62
1
100
AcDbLine
 10
466.2002870000000
 20
115.1130680000003
 30
0.0000000000000000
 11
466.2002870000000
 21
91.00001500000020
 31
0.0000000000000000
  0
LINE
  5
EB
100
AcDbEntity
  8
A4
  6
CONTINUOUS
 62
7
100
AcDbLine
 10
40.85555999999997
 20
50.75000000000009
 30
0.0000000000000000
 11
43.94351200000006
 21
50.75000000000009
 31
0.0000000000000000
  0
LINE
  5
EC
100
AcDbEntity
  8
A4
  6
CONTINUOUS
 62
7
100
AcDbLine
 10
56.05645800000002
 20
49.25000000000000
 30
0.0000000000000000
 11
59.14440900000000
 21
49.25000000000000
 31
0.0000000000000000
  0
LINE
  5
ED
100
AcDbEntity
  8
A4
  6
CONTINUOUS
 62
7
100
AcDbLine
 10
321.0001829999999
 20
50.75000000000009
 30
0.0000000000000000
 11
320.8557620000000
 21
50.75000000000009
 31
0.0000000000000000
  0
LINE
  5
EE
100
AcDbEntity
  8
A4
  6
CONTINUOUS
 62
7
100
AcDbLine
 10
321.0314870000000
 20
49.25000000000000
 30
0.0000000000000000
 11
320.8557620000000
 21
49.25000000000000
 31
0.0000000000000000
  0
LINE
  5
EF
100
AcDbEntity
  8
A4
  6
CONTINUOUS
 62
7
100
AcDbLine
 10
339.1446060000001
 20
50.75000000000009
 30
0.0000000000000000
 11
339.0001829999999
 21
50.75000000000009
 31
0.0000000000000000
  0
LINE
  5
F0
100
AcDbEntity
  8
A4
  6
CONTINUOUS
 62
7
100
AcDbLine
 10
339.1446060000001
 20
49.25000000000000
 30
0.0000000000000000
 11
338.9688779999999
 21
49.25000000000000
 31
0.0000000000000000
  0
LINE
  5
F1
100
AcDbEntity
  8
A4
  6
CONTINUOUS
 62
7
100
AcDbLine
 10
335.2219119999997
 20
42.45569700000006
 30
0.0000000000000000
 11
335.1340499999998
 21
42.60787999999999
 31
0.0000000000000000
  0
LINE
  5
F2
100
AcDbEntity
  8
A4
  6
CONTINUOUS
 62
7
100
AcDbLine
 10
333.9228739999999
 20
41.70569700000011
 30
0.0000000000000000
 11
333.8350110000001
 21
41.85787999999998
 31
0.0000000000000000
  0
LINE
  5
F3
100
AcDbEntity
  8
A4
  6
CONTINUOUS
 62
7
100
AcDbLine
 10
324.8663179999999
 20
42.60788000000008
 30
0.0000000000000000
 11
324.7784540000001
 21
42.45569700000016
 31
0.0000000000000000
  0
LINE
  5
F4
100
AcDbEntity
  8
A4
  6
CONTINUOUS
 62
7
100
AcDbLine
 10
326.1653559999998
 20
41.85787999999999
 30
0.0000000000000000
 11
326.0774920000000
 21
41.70569700000010
 31
0.0000000000000000
  0
LINE
  5
F5
100
AcDbEntity
  8
A4
  6
CONTINUOUS
 62
7
100
AcDbLine
 10
56.05645800000002
 20
50.75000000000009
 30
0.0000000000000000
 11
59.14440900000000
 21
50.75000000000009
 31
0.0000000000000000
  0
LINE
  5
F6
100
AcDbEntity
  8
A4
  6
CONTINUOUS
 62
7
100
AcDbLine
 10
40.85555999999997
 20
49.25000000000000
 30
0.0000000000000000
 11
43.94351200000006
 21
49.25000000000000
 31
0.0000000000000000
  0
LINE
  5
F7
100
AcDbEntity
  8
A4
  6
CONTINUOUS
 62
7
100
AcDbLine
 10
44.77825899999999
 20
42.45569700000009
 30
0.0000000000000000
 11
46.32223499999998
 21
45.12992900000000
 31
0.0000000000000000
  0
LINE
  5
F8
100
AcDbEntity
  8
A4
  6
CONTINUOUS
 62
7
100
AcDbLine
 10
46.07730099999998
 20
41.70569700000016
 30
0.0000000000000000
 11
47.62127699999999
 21
44.37992899999987
 31
0.0000000000000000
  0
LINE
  5
F9
100
AcDbEntity
  8
A4
  6
CONTINUOUS
 62
7
100
AcDbLine
 10
52.37869299999996
 20
55.62005700000000
 30
0.0000000000000000
 11
53.92266799999999
 21
58.29429699999996
 31
0.0000000000000000
  0
LINE
  5
FA
100
AcDbEntity
  8
A4
  6
CONTINUOUS
 62
7
100
AcDbLine
 10
53.67773400000000
 20
54.87005700000004
 30
0.0000000000000000
 11
55.22170999999998
 21
57.54429699999996
 31
0.0000000000000000
  0
LINE
  5
FB
100
AcDbEntity
  8
A4
  6
CONTINUOUS
 62
7
100
AcDbLine
 10
53.67773399999997
 20
45.12992900000000
 30
0.0000000000000000
 11
55.22170999999996
 21
42.45569700000008
 31
0.0000000000000000
  0
LINE
  5
FC
100
AcDbEntity
  8
A4
  6
CONTINUOUS
 62
7
100
AcDbLine
 10
52.37869300000001
 20
44.37992899999975
 30
0.0000000000000000
 11
53.92266800000002
 21
41.70569700000006
 31
0.0000000000000000
  0
LINE
  5
FD
100
AcDbEntity
  8
A4
  6
CONTINUOUS
 62
7
100
AcDbLine
 10
46.07730099999998
 20
58.29429700000003
 30
0.0000000000000000
 11
47.62127699999998
 21
55.62005700000012
 31
0.0000000000000000
  0
LINE
  5
FE
100
AcDbEntity
  8
A4
  6
CONTINUOUS
 62
7
100
AcDbLine
 10
44.77825899999998
 20
57.54429699999996
 30
0.0000000000000000
 11
46.32223499999996
 21
54.87005700000003
 31
0.0000000000000000
  0
LINE
  5
FF
100
AcDbEntity
  8
A2
  6
CENTER
 62
4
100
AcDbLine
 10
35.00000000000001
 20
275.0000000000000
 30
0.0000000000000000
 11
65.00000000000000
 21
275.0000000000000
 31
0.0000000000000000
  0
LINE
  5
100
100
AcDbEntity
  8
A2
  6
CENTER
 62
4
100
AcDbLine
 10
345.0001830000000
 20
275.0000000000000
 30
0.0000000000000000
 11
315.0001830000000
 21
275.0000000000000
 31
0.0000000000000000
  0
LINE
  5
101
100
AcDbEntity
  8
A4
  6
CONTINUOUS
 62
7
100
AcDbLine
 10
321.0001829999999
 20
274.2500000000002
 30
0.0000000000000000
 11
320.8557620000000
 21
274.2500000000002
 31
0.0000000000000000
  0
LINE
  5
102
100
AcDbEntity
  8
A4
  6
CONTINUOUS
 62
7
100
AcDbLine
 10
40.85555999999998
 20
274.2500000000002
 30
0.0000000000000000
 11
43.94351200000006
 21
274.2500000000002
 31
0.0000000000000000
  0
LINE
  5
103
100
AcDbEntity
  8
A4
  6
CONTINUOUS
 62
7
100
AcDbLine
 10
56.05645800000003
 20
275.7500000000002
 30
0.0000000000000000
 11
59.14440900000000
 21
275.7500000000002
 31
0.0000000000000000
  0
LINE
  5
104
100
AcDbEntity
  8
A4
  6
CONTINUOUS
 62
7
100
AcDbLine
 10
321.0314870000000
 20
275.7500000000002
 30
0.0000000000000000
 11
320.8557620000000
 21
275.7500000000002
 31
0.0000000000000000
  0
LINE
  5
105
100
AcDbEntity
  8
A4
  6
CONTINUOUS
 62
7
100
AcDbLine
 10
339.1446060000001
 20
274.2500000000002
 30
0.0000000000000000
 11
339.0001829999999
 21
274.2500000000002
 31
0.0000000000000000
  0
LINE
  5
106
100
AcDbEntity
  8
A4
  6
CONTINUOUS
 62
7
100
AcDbLine
 10
339.1446060000001
 20
275.7500000000002
 30
0.0000000000000000
 11
338.9688779999999
 21
275.7500000000002
 31
0.0000000000000000
  0
LINE
  5
107
100
AcDbEntity
  8
A4
  6
CONTINUOUS
 62
7
100
AcDbLine
 10
335.2219119999997
 20
282.5443120000002
 30
0.0000000000000000
 11
335.1340499999999
 21
282.3921210000003
 31
0.0000000000000000
  0
LINE
  5
108
100
AcDbEntity
  8
A4
  6
CONTINUOUS
 62
7
100
AcDbLine
 10
333.9228739999998
 20
283.2943120000000
 30
0.0000000000000000
 11
333.8350110000000
 21
283.1421210000001
 31
0.0000000000000000
  0
LINE
  5
109
100
AcDbEntity
  8
A4
  6
CONTINUOUS
 62
7
100
AcDbLine
 10
324.8663179999998
 20
282.3921210000001
 30
0.0000000000000000
 11
324.7784540000000
 21
282.5443120000002
 31
0.0000000000000000
  0
LINE
  5
10A
100
AcDbEntity
  8
A4
  6
CONTINUOUS
 62
7
100
AcDbLine
 10
326.1653559999996
 20
283.1421210000000
 30
0.0000000000000000
 11
326.0774919999998
 21
283.2943119999999
 31
0.0000000000000000
  0
LINE
  5
10B
100
AcDbEntity
  8
A4
  6
CONTINUOUS
 62
7
100
AcDbLine
 10
56.05645800000003
 20
274.2500000000002
 30
0.0000000000000000
 11
59.14440900000000
 21
274.2500000000002
 31
0.0000000000000000
  0
LINE
  5
10C
100
AcDbEntity
  8
A4
  6
CONTINUOUS
 62
7
100
AcDbLine
 10
40.85555999999998
 20
275.7500000000002
 30
0.0000000000000000
 11
43.94351200000006
 21
275.7500000000002
 31
0.0000000000000000
  0
LINE
  5
10D
100
AcDbEntity
  8
A4
  6
CONTINUOUS
 62
7
100
AcDbLine
 10
44.77825899999992
 20
282.5443120000002
 30
0.0000000000000000
 11
46.32223499999991
 21
279.8700870000002
 31
0.0000000000000000
  0
LINE
  5
10E
100
AcDbEntity
  8
A4
  6
CONTINUOUS
 62
7
100
AcDbLine
 10
46.07730100000002
 20
283.2943120000000
 30
0.0000000000000000
 11
47.62127700000002
 21
280.6200870000001
 31
0.0000000000000000
  0
LINE
  5
10F
100
AcDbEntity
  8
A4
  6
CONTINUOUS
 62
7
100
AcDbLine
 10
52.37869299999998
 20
269.3799440000001
 30
0.0000000000000000
 11
53.92266800000000
 21
266.7057190000000
 31
0.0000000000000000
  0
LINE
  5
110
100
AcDbEntity
  8
A4
  6
CONTINUOUS
 62
7
100
AcDbLine
 10
53.67773400000006
 20
270.1299440000002
 30
0.0000000000000000
 11
55.22171000000002
 21
267.4557190000002
 31
0.0000000000000000
  0
LINE
  5
111
100
AcDbEntity
  8
A4
  6
CONTINUOUS
 62
7
100
AcDbLine
 10
53.67773400000002
 20
279.8700870000003
 30
0.0000000000000000
 11
55.22171000000003
 21
282.5443120000003
 31
0.0000000000000000
  0
LINE
  5
112
100
AcDbEntity
  8
A4
  6
CONTINUOUS
 62
7
100
AcDbLine
 10
52.37869300000000
 20
280.6200870000001
 30
0.0000000000000000
 11
53.92266799999999
 21
283.2943120000000
 31
0.0000000000000000
  0
LINE
  5
113
100
AcDbEntity
  8
A4
  6
CONTINUOUS
 62
7
100
AcDbLine
 10
46.07730100000005
 20
266.7057190000001
 30
0.0000000000000000
 11
47.62127700000002
 21
269.3799440000000
 31
0.0000000000000000
  0
LINE
  5
114
100
AcDbEntity
  8
A4
  6
CONTINUOUS
 62
7
100
AcDbLine
 10
44.77825899999996
 20
267.4557190000000
 30
0.0000000000000000
 11
46.32223499999992
 21
270.1299440000000
 31
0.0000000000000000
  0
LINE
  5
115
100
AcDbEntity
  8
A2
  6
CENTER
 62
4
100
AcDbLine
 10
235.5000759999998
 20
-29.96559899999991
 30
0.0000000000000000
 11
229.0000759999997
 21
-29.96559899999991
 31
0.0000000000000000
  0
LINE
  5
116
100
AcDbEntity
  8
A4
  6
CONTINUOUS
 62
7
100
AcDbLine
 10
232.5000759999998
 20
-21.96559899999991
 30
0.0000000000000000
 11
232.5000759999998
 21
-37.96559899999993
 31
0.0000000000000000
  0
LINE
  5
117
100
AcDbEntity
  8
A4
  6
CONTINUOUS
 62
7
100
AcDbLine
 10
232.0000759999998
 20
-21.96559899999991
 30
0.0000000000000000
 11
232.0000759999998
 21
-37.96559899999993
 31
0.0000000000000000
  0
LINE
  5
118
100
AcDbEntity
  8
A4
  6
CONTINUOUS
 62
7
100
AcDbLine
 10
232.5000759999998
 20
-37.96559899999993
 30
0.0000000000000000
 11
232.0000759999998
 21
-37.96559899999993
 31
0.0000000000000000
  0
LINE
  5
119
100
AcDbEntity
  8
A4
  6
CONTINUOUS
 62
7
100
AcDbLine
 10
232.5000759999998
 20
-21.96559899999991
 30
0.0000000000000000
 11
232.0000759999998
 21
-21.96559899999991
 31
0.0000000000000000
  0
LINE
  5
11A
100
AcDbEntity
  8
A2
  6
CENTER
 62
4
100
AcDbLine
 10
122.0000459999999
 20
-18.46559899999992
 30
0.0000000000000000
 11
122.0000459999999
 21
-41.46559899999991
 31
0.0000000000000000
  0
LINE
  5
11B
100
AcDbEntity
  8
A4
  6
CONTINUOUS
 62
7
100
AcDbLine
 10
410.9002690000000
 20
58.00000000000009
 30
0.0000000000000000
 11
410.9002690000000
 21
42.00000000000009
 31
0.0000000000000000
  0
LINE
  5
11C
100
AcDbEntity
  8
A4
  6
CONTINUOUS
 62
7
100
AcDbLine
 10
411.4002690000000
 20
58.00000000000009
 30
0.0000000000000000
 11
411.4002690000000
 21
42.00000000000009
 31
0.0000000000000000
  0
LINE
  5
11D
100
AcDbEntity
  8
A4
  6
CONTINUOUS
 62
7
100
AcDbLine
 10
410.9002690000000
 20
42.00000000000009
 30
0.0000000000000000
 11
411.4002690000000
 21
42.00000000000009
 31
0.0000000000000000
  0
LINE
  5
11E
100
AcDbEntity
  8
A4
  6
CONTINUOUS
 62
7
100
AcDbLine
 10
410.9002690000000
 20
58.00000000000009
 30
0.0000000000000000
 11
411.4002690000000
 21
58.00000000000009
 31
0.0000000000000000
  0
LINE
  5
11F
100
AcDbEntity
  8
A2
  6
CENTER
 62
4
100
AcDbLine
 10
521.4002990000001
 20
61.50000000000009
 30
0.0000000000000000
 11
521.4002990000001
 21
38.50000000000009
 31
0.0000000000000000
  0
LINE
  5
120
100
AcDbEntity
  8
A4
  6
CONTINUOUS
 62
7
100
AcDbLine
 10
410.9002690000000
 20
283.0000000000002
 30
0.0000000000000000
 11
411.4002690000000
 21
283.0000000000002
 31
0.0000000000000000
  0
LINE
  5
121
100
AcDbEntity
  8
A2
  6
CENTER
 62
4
100
AcDbLine
 10
521.4002990000001
 20
286.5000000000002
 30
0.0000000000000000
 11
521.4002990000001
 21
263.5000000000002
 31
0.0000000000000000
  0
LINE
  5
122
100
AcDbEntity
  8
A4
  6
CONTINUOUS
 62
7
100
AcDbLine
 10
410.9002690000000
 20
267.0000000000001
 30
0.0000000000000000
 11
411.4002690000000
 21
267.0000000000001
 31
0.0000000000000000
  0
LINE
  5
123
100
AcDbEntity
  8
A4
  6
CONTINUOUS
 62
7
100
AcDbLine
 10
411.4002690000000
 20
283.0000000000002
 30
0.0000000000000000
 11
411.4002690000000
 21
267.0000000000001
 31
0.0000000000000000
  0
LINE
  5
124
100
AcDbEntity
  8
A4
  6
CONTINUOUS
 62
7
100
AcDbLine
 10
410.9002690000000
 20
283.0000000000002
 30
0.0000000000000000
 11
410.9002690000000
 21
267.0000000000001
 31
0.0000000000000000
  0
LINE
  5
125
100
AcDbEntity
  8
A2
  6
CENTER
 62
4
100
AcDbLine
 10
407.9002689999998
 20
275.0000000000003
 30
0.0000000000000000
 11
414.4002689999999
 21
274.9999999999995
 31
0.0000000000000000
  0
LINE
  5
126
100
AcDbEntity
  8
A4
  6
CONTINUOUS
 62
7
100
AcDbLine
 10
183.8000949999999
 20
41.00000000000009
 30
0.0000000000000000
 11
187.0000919999999
 21
41.00000000000009
 31
0.0000000000000000
  0
LINE
  5
127
100
AcDbEntity
  8
A4
  6
CONTINUOUS
 62
7
100
AcDbLine
 10
183.8000949999999
 20
65.11305300000009
 30
0.0000000000000000
 11
183.8000949999999
 21
41.00000000000009
 31
0.0000000000000000
  0
LINE
  5
128
100
AcDbEntity
  8
A4
  6
CONTINUOUS
 62
7
100
AcDbLine
 10
187.0000919999999
 20
69.00000000000000
 30
0.0000000000000000
 11
187.0000919999999
 21
41.00000000000009
 31
0.0000000000000000
  0
LINE
  5
129
100
AcDbEntity
  8
A4
  6
CONTINUOUS
 62
7
100
AcDbLine
 10
185.2909239999998
 20
68.96716400000008
 30
0.0000000000000000
 11
181.2202759999999
 21
72.65411399999999
 31
0.0000000000000000
  0
LINE
  5
12A
100
AcDbEntity
  8
A4
  6
CONTINUOUS
 62
7
100
AcDbLine
 10
172.5000919999998
 20
70.80000400000000
 30
0.0000000000000000
 11
177.7294620000000
 21
70.80000400000000
 31
0.0000000000000000
  0
LINE
  5
12B
100
AcDbEntity
  8
A4
  6
CONTINUOUS
 62
7
100
AcDbLine
 10
183.1427149999999
 20
66.59541400000015
 30
0.0000000000000000
 11
179.0720830000000
 21
70.28234900000012
 31
0.0000000000000000
  0
LINE
  5
12C
100
AcDbEntity
  8
A4
  6
CONTINUOUS
 62
7
100
AcDbLine
 10
172.5000919999998
 20
74.00000000000009
 30
0.0000000000000000
 11
172.5000919999998
 21
70.80000400000000
 31
0.0000000000000000
  0
LINE
  5
12D
100
AcDbEntity
  8
A4
  6
CONTINUOUS
 62
7
100
AcDbLine
 10
172.5000919999998
 20
74.00000000000009
 30
0.0000000000000000
 11
182.0000919999999
 21
74.00000000000009
 31
0.0000000000000000
  0
LINE
  5
12E
100
AcDbEntity
  8
A4
  6
CONTINUOUS
 62
7
100
AcDbLine
 10
463.0003049999998
 20
69.00000000000000
 30
0.0000000000000000
 11
463.0003049999998
 21
41.00000000000009
 31
0.0000000000000000
  0
LINE
  5
12F
100
AcDbEntity
  8
A4
  6
CONTINUOUS
 62
7
100
AcDbLine
 10
466.2002870000000
 20
65.11305300000009
 30
0.0000000000000000
 11
466.2002870000000
 21
41.00000000000009
 31
0.0000000000000000
  0
LINE
  5
130
100
AcDbEntity
  8
A4
  6
CONTINUOUS
 62
7
100
AcDbLine
 10
466.2002870000000
 20
41.00000000000009
 30
0.0000000000000000
 11
463.0003049999998
 21
41.00000000000009
 31
0.0000000000000000
  0
LINE
  5
131
100
AcDbEntity
  8
A4
  6
CONTINUOUS
 62
7
100
AcDbLine
 10
464.7094730000000
 20
68.96716400000011
 30
0.0000000000000000
 11
468.7801210000001
 21
72.65411400000008
 31
0.0000000000000000
  0
LINE
  5
132
100
AcDbEntity
  8
A4
  6
CONTINUOUS
 62
7
100
AcDbLine
 10
466.8576659999998
 20
66.59541400000012
 30
0.0000000000000000
 11
470.9283139999998
 21
70.28234900000007
 31
0.0000000000000000
  0
LINE
  5
133
100
AcDbEntity
  8
A4
  6
CONTINUOUS
 62
7
100
AcDbLine
 10
477.5003049999999
 20
70.80000400000000
 30
0.0000000000000000
 11
472.2709350000000
 21
70.80000400000000
 31
0.0000000000000000
  0
LINE
  5
134
100
AcDbEntity
  8
A4
  6
CONTINUOUS
 62
7
100
AcDbLine
 10
477.5003049999999
 20
74.00000000000009
 30
0.0000000000000000
 11
468.0003050000000
 21
74.00000000000009
 31
0.0000000000000000
  0
LINE
  5
135
100
AcDbEntity
  8
A4
  6
CONTINUOUS
 62
7
100
AcDbLine
 10
477.5003049999999
 20
74.00000000000009
 30
0.0000000000000000
 11
477.5003049999999
 21
70.80000400000000
 31
0.0000000000000000
  0
LINE
  5
136
100
AcDbEntity
  8
A2
  6
CENTER
 62
4
100
AcDbLine
 10
172.5310969999999
 20
100.0000150000002
 30
0.0000000000000000
 11
190.1653750000000
 21
100.0000150000002
 31
0.0000000000000000
  0
LINE
  5
137
100
AcDbEntity
  8
A2
  6
CENTER
 62
4
100
AcDbLine
 10
457.0084529999999
 20
100.0000150000002
 30
0.0000000000000000
 11
478.7761540000000
 21
100.0000150000002
 31
0.0000000000000000
  0
LINE
  5
138
100
AcDbEntity
  8
A2
  6
CENTER
 62
4
100
AcDbLine
 10
235.5000759999998
 20
275.0000000000000
 30
0.0000000000000000
 11
229.0000759999997
 21
275.0000000000000
 31
0.0000000000000000
  0
LINE
  5
139
100
AcDbEntity
  8
A4
  6
CONTINUOUS
 62
7
100
AcDbLine
 10
232.5000759999998
 20
283.0000000000002
 30
0.0000000000000000
 11
232.5000759999998
 21
267.0000000000001
 31
0.0000000000000000
  0
LINE
  5
13A
100
AcDbEntity
  8
A4
  6
CONTINUOUS
 62
7
100
AcDbLine
 10
232.0000759999998
 20
283.0000000000002
 30
0.0000000000000000
 11
232.0000759999998
 21
267.0000000000001
 31
0.0000000000000000
  0
LINE
  5
13B
100
AcDbEntity
  8
A4
  6
CONTINUOUS
 62
7
100
AcDbLine
 10
232.5000759999998
 20
267.0000000000001
 30
0.0000000000000000
 11
232.0000759999998
 21
267.0000000000001
 31
0.0000000000000000
  0
LINE
  5
13C
100
AcDbEntity
  8
A4
  6
CONTINUOUS
 62
7
100
AcDbLine
 10
232.5000759999998
 20
283.0000000000002
 30
0.0000000000000000
 11
232.0000759999998
 21
283.0000000000002
 31
0.0000000000000000
  0
LINE
  5
13D
100
AcDbEntity
  8
A2
  6
CENTER
 62
4
100
AcDbLine
 10
122.0000459999999
 20
286.5000000000002
 30
0.0000000000000000
 11
122.0000459999999
 21
263.5000000000002
 31
0.0000000000000000
  0
LINE
  5
13E
100
AcDbEntity
  8
A2
  6
CENTER
 62
4
100
AcDbLine
 10
235.5000759999998
 20
355.9656070000001
 30
0.0000000000000000
 11
229.0000759999997
 21
355.9656070000001
 31
0.0000000000000000
  0
LINE
  5
13F
100
AcDbEntity
  8
A4
  6
CONTINUOUS
 62
7
100
AcDbLine
 10
232.5000759999998
 20
363.9656070000001
 30
0.0000000000000000
 11
232.5000759999998
 21
347.9656070000000
 31
0.0000000000000000
  0
LINE
  5
140
100
AcDbEntity
  8
A4
  6
CONTINUOUS
 62
7
100
AcDbLine
 10
232.0000759999998
 20
363.9656070000001
 30
0.0000000000000000
 11
232.0000759999998
 21
347.9656070000000
 31
0.0000000000000000
  0
LINE
  5
141
100
AcDbEntity
  8
A4
  6
CONTINUOUS
 62
7
100
AcDbLine
 10
232.5000759999998
 20
347.9656070000000
 30
0.0000000000000000
 11
232.0000759999998
 21
347.9656070000000
 31
0.0000000000000000
  0
LINE
  5
142
100
AcDbEntity
  8
A4
  6
CONTINUOUS
 62
7
100
AcDbLine
 10
232.5000759999998
 20
363.9656070000001
 30
0.0000000000000000
 11
232.0000759999998
 21
363.9656070000001
 31
0.0000000000000000
  0
LINE
  5
143
100
AcDbEntity
  8
A2
  6
CENTER
 62
4
100
AcDbLine
 10
122.0000459999999
 20
367.4656070000002
 30
0.0000000000000000
 11
122.0000459999999
 21
344.4656070000000
 31
0.0000000000000000
  0
CIRCLE
  5
144
100
AcDbEntity
  8
A4
  6
CONTINUOUS
 62
7
100
AcDbCircle
 10
330.0001830000000
 20
50.00000000000000
 30
0.0000000000000000
 40
5.000000000000000
  0
ARC
  5
145
100
AcDbEntity
  8
A4
  6
CONTINUOUS
 62
7
100
AcDbCircle
 10
330.0001830000000
 20
50.00000000000000
 30
0.0000000000000000
 40
9.000000000000000
100
AcDbArc
 50
180.0000000000000
 51
360.0000050000000
  0
CIRCLE
  5
146
100
AcDbEntity
  8
A4
  6
CONTINUOUS
 62
7
100
AcDbCircle
 10
330.0001830000000
 20
275.0000000000000
 30
0.0000000000000000
 40
5.000000000000000
  0
ARC
  5
147
100
AcDbEntity
  8
A4
  6
CONTINUOUS
 62
7
100
AcDbCircle
 10
330.0001830000000
 20
275.0000000000000
 30
0.0000000000000000
 40
9.000000000000000
100
AcDbArc
 50
359.9999950000000
 51
540.0000000000000
  0
ARC
  5
148
100
AcDbEntity
  8
A4
  6
CONTINUOUS
 62
7
100
AcDbCircle
 10
42.50000000000001
 20
138.5000150000003
 30
0.0000000000000000
 40
1.000000000000000
100
AcDbArc
 50
269.9999969999999
 51
450.0000030000000
  0
ARC
  5
149
100
AcDbEntity
  8
A4
  6
CONTINUOUS
 62
7
100
AcDbCircle
 10
42.50000000000001
 20
152.0000150000003
 30
0.0000000000000000
 40
1.000000000000000
100
AcDbArc
 50
269.9999969999999
 51
450.0000030000000
  0
ARC
  5
14A
100
AcDbEntity
  8
A4
  6
CONTINUOUS
 62
7
100
AcDbCircle
 10
57.50000000000001
 20
138.5000150000003
 30
0.0000000000000000
 40
1.000000000000000
100
AcDbArc
 50
90.00000300000002
 51
270.0000010000000
  0
ARC
  5
14B
100
AcDbEntity
  8
A4
  6
CONTINUOUS
 62
7
100
AcDbCircle
 10
57.50000000000001
 20
152.0000150000003
 30
0.0000000000000000
 40
1.000000000000000
100
AcDbArc
 50
90.00000300000002
 51
270.0000010000000
  0
ARC
  5
14C
100
AcDbEntity
  8
A4
  6
CONTINUOUS
 62
7
100
AcDbCircle
 10
172.5000919999998
 20
138.5000150000003
 30
0.0000000000000000
 40
1.000000000000000
100
AcDbArc
 50
269.9999969999999
 51
450.0000030000000
  0
ARC
  5
14D
100
AcDbEntity
  8
A4
  6
CONTINUOUS
 62
7
100
AcDbCircle
 10
172.5000919999998
 20
152.0000150000003
 30
0.0000000000000000
 40
1.000000000000000
100
AcDbArc
 50
269.9999969999999
 51
450.0000030000000
  0
ARC
  5
14E
100
AcDbEntity
  8
A4
  6
CONTINUOUS
 62
7
100
AcDbCircle
 10
187.5000920000000
 20
138.5000150000003
 30
0.0000000000000000
 40
1.000000000000000
100
AcDbArc
 50
90.00000300000002
 51
270.0000010000000
  0
ARC
  5
14F
100
AcDbEntity
  8
A4
  6
CONTINUOUS
 62
7
100
AcDbCircle
 10
187.5000920000000
 20
152.0000150000003
 30
0.0000000000000000
 40
1.000000000000000
100
AcDbArc
 50
90.00000300000002
 51
270.0000010000000
  0
CIRCLE
  5
150
100
AcDbEntity
  8
A3
  6
PHANTOM
 62
1
100
AcDbCircle
 10
50.00000000000000
 20
100.0000150000002
 30
0.0000000000000000
 40
5.000000000000000
  0
ARC
  5
151
100
AcDbEntity
  8
A3
  6
PHANTOM
 62
1
100
AcDbCircle
 10
50.00000000000000
 20
100.0000150000002
 30
0.0000000000000000
 40
9.000000000000000
100
AcDbArc
 50
179.9999949999999
 51
360.0000000000000
  0
CIRCLE
  5
152
100
AcDbEntity
  8
A4
  6
CONTINUOUS
 62
7
100
AcDbCircle
 10
50.00000000000001
 20
275.0000000000000
 30
0.0000000000000000
 40
5.000000000000000
  0
ARC
  5
153
100
AcDbEntity
  8
A4
  6
CONTINUOUS
 62
7
100
AcDbCircle
 10
125.5184780000000
 20
42.83493099999978
 30
0.0000000000000000
 40
4.518431999999998
100
AcDbArc
 50
141.1402709999999
 51
218.8597289999999
  0
ARC
  5
154
100
AcDbEntity
  8
A4
  6
CONTINUOUS
 62
7
100
AcDbCircle
 10
130.8750460000000
 20
50.00000000000000
 30
0.0000000000000000
 40
9.875000000000000
100
AcDbArc
 50
153.9921760000000
 51
206.0078240000000
  0
ARC
  5
155
100
AcDbEntity
  8
A4
  6
CONTINUOUS
 62
7
100
AcDbCircle
 10
125.5184780000000
 20
57.16505500000000
 30
0.0000000000000000
 40
4.518431999999998
100
AcDbArc
 50
141.1402709999999
 51
218.8597289999999
  0
ARC
  5
156
100
AcDbEntity
  8
A4
  6
CONTINUOUS
 62
7
100
AcDbCircle
 10
118.4816130000000
 20
42.83493099999978
 30
0.0000000000000000
 40
4.518431999999998
100
AcDbArc
 50
321.1402759999998
 51
398.8597280000000
  0
ARC
  5
157
100
AcDbEntity
  8
A4
  6
CONTINUOUS
 62
7
100
AcDbCircle
 10
113.1250460000000
 20
50.00000000000000
 30
0.0000000000000000
 40
9.875000000000000
100
AcDbArc
 50
333.9921779999999
 51
386.0078250000000
  0
ARC
  5
158
100
AcDbEntity
  8
A4
  6
CONTINUOUS
 62
7
100
AcDbCircle
 10
118.4816130000000
 20
57.16505500000000
 30
0.0000000000000000
 40
4.518431999999998
100
AcDbArc
 50
321.1402759999998
 51
398.8597280000000
  0
ARC
  5
159
100
AcDbEntity
  8
A4
  6
CONTINUOUS
 62
7
100
AcDbCircle
 10
182.0000919999999
 20
256.0000000000002
 30
0.0000000000000000
 40
5.000000000000000
100
AcDbArc
 50
269.9999969999999
 51
360.0000000000000
  0
ARC
  5
15A
100
AcDbEntity
  8
A4
  6
CONTINUOUS
 62
7
100
AcDbCircle
 10
177.7294620000000
 20
256.2000120000002
 30
0.0000000000000000
 40
2.000000000000000
100
AcDbArc
 50
269.9999969999999
 51
312.1455529999999
  0
ARC
  5
15B
100
AcDbEntity
  8
A4
  6
CONTINUOUS
 62
7
100
AcDbCircle
 10
181.8000949999999
 20
259.8869630000002
 30
0.0000000000000000
 40
2.000000000000000
100
AcDbArc
 50
312.1683459999998
 51
360.0000000000000
  0
ARC
  5
15C
100
AcDbEntity
  8
A4
  6
CONTINUOUS
 62
7
100
AcDbCircle
 10
181.8000949999999
 20
259.8869630000002
 30
0.0000000000000000
 40
5.200000000000000
100
AcDbArc
 50
312.1683459999998
 51
360.0000000000000
  0
ARC
  5
15D
100
AcDbEntity
  8
A4
  6
CONTINUOUS
 62
7
100
AcDbCircle
 10
177.7294620000000
 20
256.2000120000002
 30
0.0000000000000000
 40
5.200000000000000
100
AcDbArc
 50
269.9999969999999
 51
312.1455529999999
  0
ARC
  5
15E
100
AcDbEntity
  8
A3
  6
PHANTOM
 62
1
100
AcDbCircle
 10
182.0000919999999
 20
119.0000150000002
 30
0.0000000000000000
 40
5.000000000000000
100
AcDbArc
 50
0.0000000000000000
 51
90.00000300000002
  0
ARC
  5
15F
100
AcDbEntity
  8
A3
  6
PHANTOM
 62
1
100
AcDbCircle
 10
177.7294620000000
 20
118.8000190000002
 30
0.0000000000000000
 40
5.200000000000000
100
AcDbArc
 50
47.85444700000001
 51
90.00000300000002
  0
ARC
  5
160
100
AcDbEntity
  8
A3
  6
PHANTOM
 62
1
100
AcDbCircle
 10
181.8000949999999
 20
115.1130680000003
 30
0.0000000000000000
 40
5.200000000000000
100
AcDbArc
 50
0.0000000000000000
 51
47.83165399999999
  0
ARC
  5
161
100
AcDbEntity
  8
A3
  6
PHANTOM
 62
1
100
AcDbCircle
 10
177.7294620000000
 20
118.8000190000002
 30
0.0000000000000000
 40
2.000000000000000
100
AcDbArc
 50
47.85444700000001
 51
90.00000300000002
  0
ARC
  5
162
100
AcDbEntity
  8
A3
  6
PHANTOM
 62
1
100
AcDbCircle
 10
181.8000949999999
 20
115.1130680000003
 30
0.0000000000000000
 40
2.000000000000000
100
AcDbArc
 50
0.0000000000000000
 51
47.83165399999999
  0
ARC
  5
163
100
AcDbEntity
  8
A4
  6
CONTINUOUS
 62
7
100
AcDbCircle
 10
322.5001829999999
 20
152.0000150000003
 30
0.0000000000000000
 40
1.000000000000000
100
AcDbArc
 50
269.9999969999999
 51
450.0000030000000
  0
ARC
  5
164
100
AcDbEntity
  8
A4
  6
CONTINUOUS
 62
7
100
AcDbCircle
 10
322.5001829999999
 20
138.5000150000003
 30
0.0000000000000000
 40
1.000000000000000
100
AcDbArc
 50
269.9999969999999
 51
450.0000030000000
  0
ARC
  5
165
100
AcDbEntity
  8
A4
  6
CONTINUOUS
 62
7
100
AcDbCircle
 10
337.5001829999999
 20
152.0000150000003
 30
0.0000000000000000
 40
1.000000000000000
100
AcDbArc
 50
90.00000300000002
 51
270.0000010000000
  0
ARC
  5
166
100
AcDbEntity
  8
A4
  6
CONTINUOUS
 62
7
100
AcDbCircle
 10
337.5001829999999
 20
138.5000150000003
 30
0.0000000000000000
 40
1.000000000000000
100
AcDbArc
 50
90.00000300000002
 51
270.0000010000000
  0
CIRCLE
  5
167
100
AcDbEntity
  8
A4
  6
CONTINUOUS
 62
7
100
AcDbCircle
 10
50.00000000000000
 20
50.00000000000000
 30
0.0000000000000000
 40
5.000000000000000
  0
ARC
  5
168
100
AcDbEntity
  8
A3
  6
PHANTOM
 62
1
100
AcDbCircle
 10
330.0001830000000
 20
100.0000150000002
 30
0.0000000000000000
 40
9.000000000000000
100
AcDbArc
 50
180.0000050000000
 51
360.0000100000000
  0
CIRCLE
  5
169
100
AcDbEntity
  8
A3
  6
PHANTOM
 62
1
100
AcDbCircle
 10
330.0001830000000
 20
100.0000150000002
 30
0.0000000000000000
 40
5.000000000000000
  0
ARC
  5
16A
100
AcDbEntity
  8
A3
  6
PHANTOM
 62
1
100
AcDbCircle
 10
472.2709350000000
 20
118.8000190000002
 30
0.0000000000000000
 40
5.200000000000000
100
AcDbArc
 50
90.00000300000002
 51
132.1455550000000
  0
ARC
  5
16B
100
AcDbEntity
  8
A3
  6
PHANTOM
 62
1
100
AcDbCircle
 10
472.2709350000000
 20
118.8000190000002
 30
0.0000000000000000
 40
2.000000000000000
100
AcDbArc
 50
90.00000300000002
 51
132.1455550000000
  0
ARC
  5
16C
100
AcDbEntity
  8
A3
  6
PHANTOM
 62
1
100
AcDbCircle
 10
468.0003050000000
 20
119.0000150000002
 30
0.0000000000000000
 40
5.000000000000000
100
AcDbArc
 50
90.00000300000002
 51
180.0000050000000
  0
ARC
  5
16D
100
AcDbEntity
  8
A4
  6
CONTINUOUS
 62
7
100
AcDbCircle
 10
462.5003049999998
 20
152.0000150000003
 30
0.0000000000000000
 40
1.000000000000000
100
AcDbArc
 50
269.9999969999999
 51
450.0000030000000
  0
ARC
  5
16E
100
AcDbEntity
  8
A4
  6
CONTINUOUS
 62
7
100
AcDbCircle
 10
462.5003049999998
 20
138.5000150000003
 30
0.0000000000000000
 40
1.000000000000000
100
AcDbArc
 50
269.9999969999999
 51
450.0000030000000
  0
ARC
  5
16F
100
AcDbEntity
  8
A4
  6
CONTINUOUS
 62
7
100
AcDbCircle
 10
477.5003049999999
 20
152.0000150000003
 30
0.0000000000000000
 40
1.000000000000000
100
AcDbArc
 50
90.00000300000002
 51
270.0000010000000
  0
ARC
  5
170
100
AcDbEntity
  8
A4
  6
CONTINUOUS
 62
7
100
AcDbCircle
 10
477.5003049999999
 20
138.5000150000003
 30
0.0000000000000000
 40
1.000000000000000
100
AcDbArc
 50
90.00000300000002
 51
270.0000010000000
  0
ARC
  5
171
100
AcDbEntity
  8
A3
  6
PHANTOM
 62
1
100
AcDbCircle
 10
468.2002870000000
 20
115.1130680000003
 30
0.0000000000000000
 40
5.200000000000000
100
AcDbArc
 50
132.1683410000000
 51
180.0000050000000
  0
ARC
  5
172
100
AcDbEntity
  8
A4
  6
CONTINUOUS
 62
7
100
AcDbCircle
 10
468.0003050000000
 20
256.0000000000002
 30
0.0000000000000000
 40
5.000000000000000
100
AcDbArc
 50
180.0000050000000
 51
270.0000010000000
  0
ARC
  5
173
100
AcDbEntity
  8
A4
  6
CONTINUOUS
 62
7
100
AcDbCircle
 10
472.2709350000000
 20
256.2000120000002
 30
0.0000000000000000
 40
5.200000000000000
100
AcDbArc
 50
227.8544450000000
 51
269.9999969999999
  0
ARC
  5
174
100
AcDbEntity
  8
A4
  6
CONTINUOUS
 62
7
100
AcDbCircle
 10
468.2002870000000
 20
259.8869630000002
 30
0.0000000000000000
 40
5.200000000000000
100
AcDbArc
 50
179.9999949999999
 51
227.8316589999998
  0
ARC
  5
175
100
AcDbEntity
  8
A4
  6
CONTINUOUS
 62
7
100
AcDbCircle
 10
472.2709350000000
 20
256.2000120000002
 30
0.0000000000000000
 40
2.000000000000000
100
AcDbArc
 50
227.8544450000000
 51
269.9999969999999
  0
ARC
  5
176
100
AcDbEntity
  8
A4
  6
CONTINUOUS
 62
7
100
AcDbCircle
 10
468.2002870000000
 20
259.8869630000002
 30
0.0000000000000000
 40
2.000000000000000
100
AcDbArc
 50
179.9999949999999
 51
227.8316589999998
  0
ARC
  5
177
100
AcDbEntity
  8
A3
  6
PHANTOM
 62
1
100
AcDbCircle
 10
468.2002870000000
 20
115.1130680000003
 30
0.0000000000000000
 40
2.000000000000000
100
AcDbArc
 50
132.1683410000000
 51
180.0000050000000
  0
CIRCLE
  5
178
100
AcDbEntity
  8
A4
  6
CONTINUOUS
 62
7
100
AcDbCircle
 10
330.0001830000000
 20
50.00000000000000
 30
0.0000000000000000
 40
8.000000000000000
  0
ARC
  5
179
100
AcDbEntity
  8
A4
  6
CONTINUOUS
 62
7
100
AcDbCircle
 10
330.0001830000000
 20
50.00000000000000
 30
0.0000000000000000
 40
10.00000000000000
100
AcDbArc
 50
154.1580789999999
 51
385.8419340000000
  0
CIRCLE
  5
17A
100
AcDbEntity
  8
A4
  6
CONTINUOUS
 62
7
100
AcDbCircle
 10
50.00000000000000
 20
50.00000000000000
 30
0.0000000000000000
 40
10.00000000000000
  0
CIRCLE
  5
17B
100
AcDbEntity
  8
A4
  6
CONTINUOUS
 62
7
100
AcDbCircle
 10
330.0001830000000
 20
275.0000000000000
 30
0.0000000000000000
 40
8.000000000000000
  0
ARC
  5
17C
100
AcDbEntity
  8
A4
  6
CONTINUOUS
 62
7
100
AcDbCircle
 10
330.0001830000000
 20
275.0000000000000
 30
0.0000000000000000
 40
10.00000000000000
100
AcDbArc
 50
334.1580700000000
 51
565.8419320000000
  0
CIRCLE
  5
17D
100
AcDbEntity
  8
A4
  6
CONTINUOUS
 62
7
100
AcDbCircle
 10
50.00000000000001
 20
275.0000000000000
 30
0.0000000000000000
 40
10.00000000000000
  0
ARC
  5
17E
100
AcDbEntity
  8
A4
  6
CONTINUOUS
 62
7
100
AcDbCircle
 10
125.5184780000000
 20
-37.13066399999991
 30
0.0000000000000000
 40
4.518431999999998
100
AcDbArc
 50
141.1402709999999
 51
218.8597289999999
  0
ARC
  5
17F
100
AcDbEntity
  8
A4
  6
CONTINUOUS
 62
7
100
AcDbCircle
 10
130.8750460000000
 20
-29.96559899999991
 30
0.0000000000000000
 40
9.875000000000000
100
AcDbArc
 50
153.9921760000000
 51
206.0078240000000
  0
ARC
  5
180
100
AcDbEntity
  8
A4
  6
CONTINUOUS
 62
7
100
AcDbCircle
 10
125.5184780000000
 20
-22.80053699999991
 30
0.0000000000000000
 40
4.518431999999998
100
AcDbArc
 50
141.1402709999999
 51
218.8597289999999
  0
ARC
  5
181
100
AcDbEntity
  8
A4
  6
CONTINUOUS
 62
7
100
AcDbCircle
 10
118.4816130000000
 20
-37.13066399999991
 30
0.0000000000000000
 40
4.518431999999998
100
AcDbArc
 50
321.1402759999998
 51
398.8597280000000
  0
ARC
  5
182
100
AcDbEntity
  8
A4
  6
CONTINUOUS
 62
7
100
AcDbCircle
 10
113.1250460000000
 20
-29.96559899999991
 30
0.0000000000000000
 40
9.875000000000000
100
AcDbArc
 50
333.9921779999999
 51
386.0078250000000
  0
ARC
  5
183
100
AcDbEntity
  8
A4
  6
CONTINUOUS
 62
7
100
AcDbCircle
 10
118.4816130000000
 20
-22.80053699999991
 30
0.0000000000000000
 40
4.518431999999998
100
AcDbArc
 50
321.1402759999998
 51
398.8597280000000
  0
ARC
  5
184
100
AcDbEntity
  8
A4
  6
CONTINUOUS
 62
7
100
AcDbCircle
 10
517.8818659999999
 20
42.83493099999978
 30
0.0000000000000000
 40
4.518431999999998
100
AcDbArc
 50
321.1402759999998
 51
398.8597280000000
  0
ARC
  5
185
100
AcDbEntity
  8
A4
  6
CONTINUOUS
 62
7
100
AcDbCircle
 10
512.5252990000000
 20
50.00000000000000
 30
0.0000000000000000
 40
9.875000000000000
100
AcDbArc
 50
333.9921779999999
 51
386.0078250000000
  0
ARC
  5
186
100
AcDbEntity
  8
A4
  6
CONTINUOUS
 62
7
100
AcDbCircle
 10
517.8818659999999
 20
57.16505500000000
 30
0.0000000000000000
 40
4.518431999999998
100
AcDbArc
 50
321.1402759999998
 51
398.8597280000000
  0
ARC
  5
187
100
AcDbEntity
  8
A4
  6
CONTINUOUS
 62
7
100
AcDbCircle
 10
524.9187319999999
 20
42.83493099999978
 30
0.0000000000000000
 40
4.518431999999998
100
AcDbArc
 50
141.1402709999999
 51
218.8597289999999
  0
ARC
  5
188
100
AcDbEntity
  8
A4
  6
CONTINUOUS
 62
7
100
AcDbCircle
 10
530.2752990000001
 20
50.00000000000000
 30
0.0000000000000000
 40
9.875000000000000
100
AcDbArc
 50
153.9921760000000
 51
206.0078240000000
  0
ARC
  5
189
100
AcDbEntity
  8
A4
  6
CONTINUOUS
 62
7
100
AcDbCircle
 10
524.9187319999999
 20
57.16505500000000
 30
0.0000000000000000
 40
4.518431999999998
100
AcDbArc
 50
141.1402709999999
 51
218.8597289999999
  0
ARC
  5
18A
100
AcDbEntity
  8
A4
  6
CONTINUOUS
 62
7
100
AcDbCircle
 10
530.2752990000001
 20
275.0000000000000
 30
0.0000000000000000
 40
9.875000000000000
100
AcDbArc
 50
153.9921760000000
 51
206.0078240000000
  0
ARC
  5
18B
100
AcDbEntity
  8
A4
  6
CONTINUOUS
 62
7
100
AcDbCircle
 10
524.9187319999999
 20
282.1650700000002
 30
0.0000000000000000
 40
4.518431999999998
100
AcDbArc
 50
141.1402709999999
 51
218.8597289999999
  0
ARC
  5
18C
100
AcDbEntity
  8
A4
  6
CONTINUOUS
 62
7
100
AcDbCircle
 10
524.9187319999999
 20
267.8349610000001
 30
0.0000000000000000
 40
4.518431999999998
100
AcDbArc
 50
141.1402709999999
 51
218.8597289999999
  0
ARC
  5
18D
100
AcDbEntity
  8
A4
  6
CONTINUOUS
 62
7
100
AcDbCircle
 10
517.8818659999999
 20
282.1650700000002
 30
0.0000000000000000
 40
4.518431999999998
100
AcDbArc
 50
321.1402759999998
 51
398.8597280000000
  0
ARC
  5
18E
100
AcDbEntity
  8
A4
  6
CONTINUOUS
 62
7
100
AcDbCircle
 10
512.5252990000000
 20
275.0000000000000
 30
0.0000000000000000
 40
9.875000000000000
100
AcDbArc
 50
333.9921779999999
 51
386.0078250000000
  0
ARC
  5
18F
100
AcDbEntity
  8
A4
  6
CONTINUOUS
 62
7
100
AcDbCircle
 10
517.8818659999999
 20
267.8349610000001
 30
0.0000000000000000
 40
4.518431999999998
100
AcDbArc
 50
321.1402759999998
 51
398.8597280000000
  0
ARC
  5
190
100
AcDbEntity
  8
A4
  6
CONTINUOUS
 62
7
100
AcDbCircle
 10
177.7294620000000
 20
68.80000400000000
 30
0.0000000000000000
 40
5.200000000000000
100
AcDbArc
 50
47.85444700000001
 51
90.00000300000002
  0
ARC
  5
191
100
AcDbEntity
  8
A4
  6
CONTINUOUS
 62
7
100
AcDbCircle
 10
182.0000919999999
 20
69.00000000000000
 30
0.0000000000000000
 40
5.000000000000000
100
AcDbArc
 50
0.0000000000000000
 51
90.00000300000002
  0
ARC
  5
192
100
AcDbEntity
  8
A4
  6
CONTINUOUS
 62
7
100
AcDbCircle
 10
181.8000949999999
 20
65.11305300000009
 30
0.0000000000000000
 40
5.200000000000000
100
AcDbArc
 50
0.0000000000000000
 51
47.83165399999999
  0
ARC
  5
193
100
AcDbEntity
  8
A4
  6
CONTINUOUS
 62
7
100
AcDbCircle
 10
181.8000949999999
 20
65.11305300000009
 30
0.0000000000000000
 40
2.000000000000000
100
AcDbArc
 50
0.0000000000000000
 51
47.83165399999999
  0
ARC
  5
194
100
AcDbEntity
  8
A4
  6
CONTINUOUS
 62
7
100
AcDbCircle
 10
177.7294620000000
 20
68.80000400000000
 30
0.0000000000000000
 40
2.000000000000000
100
AcDbArc
 50
47.85444700000001
 51
90.00000300000002
  0
ARC
  5
195
100
AcDbEntity
  8
A4
  6
CONTINUOUS
 62
7
100
AcDbCircle
 10
468.2002870000000
 20
65.11305300000009
 30
0.0000000000000000
 40
5.200000000000000
100
AcDbArc
 50
132.1683410000000
 51
180.0000050000000
  0
ARC
  5
196
100
AcDbEntity
  8
A4
  6
CONTINUOUS
 62
7
100
AcDbCircle
 10
468.0003050000000
 20
69.00000000000000
 30
0.0000000000000000
 40
5.000000000000000
100
AcDbArc
 50
90.00000300000002
 51
180.0000050000000
  0
ARC
  5
197
100
AcDbEntity
  8
A4
  6
CONTINUOUS
 62
7
100
AcDbCircle
 10
468.2002870000000
 20
65.11305300000009
 30
0.0000000000000000
 40
2.000000000000000
100
AcDbArc
 50
132.1683410000000
 51
180.0000050000000
  0
ARC
  5
198
100
AcDbEntity
  8
A4
  6
CONTINUOUS
 62
7
100
AcDbCircle
 10
472.2709350000000
 20
68.80000400000000
 30
0.0000000000000000
 40
2.000000000000000
100
AcDbArc
 50
90.00000300000002
 51
132.1455550000000
  0
ARC
  5
199
100
AcDbEntity
  8
A4
  6
CONTINUOUS
 62
7
100
AcDbCircle
 10
472.2709350000000
 20
68.80000400000000
 30
0.0000000000000000
 40
5.200000000000000
100
AcDbArc
 50
90.00000300000002
 51
132.1455550000000
  0
ARC
  5
19A
100
AcDbEntity
  8
A4
  6
CONTINUOUS
 62
7
100
AcDbCircle
 10
125.5184780000000
 20
267.8349610000001
 30
0.0000000000000000
 40
4.518431999999998
100
AcDbArc
 50
141.1402709999999
 51
218.8597289999999
  0
ARC
  5
19B
100
AcDbEntity
  8
A4
  6
CONTINUOUS
 62
7
100
AcDbCircle
 10
130.8750460000000
 20
275.0000000000000
 30
0.0000000000000000
 40
9.875000000000000
100
AcDbArc
 50
153.9921760000000
 51
206.0078240000000
  0
ARC
  5
19C
100
AcDbEntity
  8
A4
  6
CONTINUOUS
 62
7
100
AcDbCircle
 10
125.5184780000000
 20
282.1650700000002
 30
0.0000000000000000
 40
4.518431999999998
100
AcDbArc
 50
141.1402709999999
 51
218.8597289999999
  0
ARC
  5
19D
100
AcDbEntity
  8
A4
  6
CONTINUOUS
 62
7
100
AcDbCircle
 10
118.4816130000000
 20
267.8349610000001
 30
0.0000000000000000
 40
4.518431999999998
100
AcDbArc
 50
321.1402759999998
 51
398.8597280000000
  0
ARC
  5
19E
100
AcDbEntity
  8
A4
  6
CONTINUOUS
 62
7
100
AcDbCircle
 10
113.1250460000000
 20
275.0000000000000
 30
0.0000000000000000
 40
9.875000000000000
100
AcDbArc
 50
333.9921779999999
 51
386.0078250000000
  0
ARC
  5
19F
100
AcDbEntity
  8
A4
  6
CONTINUOUS
 62
7
100
AcDbCircle
 10
118.4816130000000
 20
282.1650700000002
 30
0.0000000000000000
 40
4.518431999999998
100
AcDbArc
 50
321.1402759999998
 51
398.8597280000000
  0
ARC
  5
1A0
100
AcDbEntity
  8
A4
  6
CONTINUOUS
 62
7
100
AcDbCircle
 10
125.5184780000000
 20
348.8005370000000
 30
0.0000000000000000
 40
4.518431999999998
100
AcDbArc
 50
141.1402709999999
 51
218.8597289999999
  0
ARC
  5
1A1
100
AcDbEntity
  8
A4
  6
CONTINUOUS
 62
7
100
AcDbCircle
 10
130.8750460000000
 20
355.9656070000001
 30
0.0000000000000000
 40
9.875000000000000
100
AcDbArc
 50
153.9921760000000
 51
206.0078240000000
  0
ARC
  5
1A2
100
AcDbEntity
  8
A4
  6
CONTINUOUS
 62
7
100
AcDbCircle
 10
125.5184780000000
 20
363.1306770000002
 30
0.0000000000000000
 40
4.518431999999998
100
AcDbArc
 50
141.1402709999999
 51
218.8597289999999
  0
ARC
  5
1A3
100
AcDbEntity
  8
A4
  6
CONTINUOUS
 62
7
100
AcDbCircle
 10
118.4816130000000
 20
348.8005370000000
 30
0.0000000000000000
 40
4.518431999999998
100
AcDbArc
 50
321.1402759999998
 51
398.8597280000000
  0
ARC
  5
1A4
100
AcDbEntity
  8
A4
  6
CONTINUOUS
 62
7
100
AcDbCircle
 10
113.1250460000000
 20
355.9656070000001
 30
0.0000000000000000
 40
9.875000000000000
100
AcDbArc
 50
333.9921779999999
 51
386.0078250000000
  0
ARC
  5
1A5
100
AcDbEntity
  8
A4
  6
CONTINUOUS
 62
7
100
AcDbCircle
 10
118.4816130000000
 20
363.1306770000002
 30
0.0000000000000000
 40
4.518431999999998
100
AcDbArc
 50
321.1402759999998
 51
398.8597280000000
  0
ARC
  5
1A6
100
AcDbEntity
  8
A4
  6
CONTINUOUS
 62
7
100
AcDbCircle
 10
180.0000919999999
 20
-29.96559899999991
 30
0.0000000000000000
 40
7.500000000000000
100
AcDbArc
 50
338.9605299999999
 51
381.0394700000001
  0
LINE
  5
1A7
100
AcDbEntity
  8
A4
  6
CONTINUOUS
 62
7
100
AcDbLine
 10
183.8000949999999
 20
346.9656070000002
 30
0.0000000000000000
 11
183.8000949999999
 21
364.9656070000000
 31
0.0000000000000000
  0
LINE
  5
1A8
100
AcDbEntity
  8
A4
  6
CONTINUOUS
 62
7
100
AcDbLine
 10
187.0000919999999
 20
346.9656070000002
 30
0.0000000000000000
 11
187.0000919999999
 21
364.9656070000000
 31
0.0000000000000000
  0
LINE
  5
1A9
100
AcDbEntity
  8
A4
  6
CONTINUOUS
 62
7
100
AcDbLine
 10
183.8000949999999
 20
346.9656070000002
 30
0.0000000000000000
 11
187.0000919999999
 21
346.9656070000002
 31
0.0000000000000000
  0
ARC
  5
1AA
100
AcDbEntity
  8
A4
  6
CONTINUOUS
 62
7
100
AcDbCircle
 10
180.0000919999999
 20
355.9656070000001
 30
0.0000000000000000
 40
7.500000000000000
100
AcDbArc
 50
338.9605299999999
 51
381.0394700000001
  0
LINE
  5
1AB
100
AcDbEntity
  8
A4
  6
CONTINUOUS
 62
7
100
AcDbLine
 10
183.8000949999999
 20
364.9656070000000
 30
0.0000000000000000
 11
187.0000919999999
 21
364.9656070000000
 31
0.0000000000000000
  0
LINE
  5
1AC
100
AcDbEntity
  8
A4
  6
CONTINUOUS
 62
7
100
AcDbLine
 10
187.0000919999999
 20
-38.96559899999991
 30
0.0000000000000000
 11
176.1705929999999
 21
-40.93892699999991
 31
0.0000000000000000
  0
LINE
  5
1AD
100
AcDbEntity
  8
A4
  6
CONTINUOUS
 62
7
100
AcDbLine
 10
187.0000919999999
 20
-20.96559899999993
 30
0.0000000000000000
 11
176.1705930000000
 21
-18.99221099999993
 31
0.0000000000000000
  0
ARC
  5
1AE
100
AcDbEntity
  8
A4
  6
CONTINUOUS
 62
7
100
AcDbCircle
 10
175.8891300000000
 20
-39.46559899999991
 30
0.0000000000000000
 40
1.500000000000000
100
AcDbArc
 50
202.9087089999999
 51
280.8155130000000
  0
LINE
  5
1AF
100
AcDbEntity
  8
A4
  6
CONTINUOUS
 62
7
100
AcDbLine
 10
176.1705929999999
 20
-40.93892699999995
 30
0.0000000000000000
 11
183.8000949999999
 21
-35.96559899999988
 31
0.0000000000000000
  0
ARC
  5
1B0
100
AcDbEntity
  8
A4
  6
CONTINUOUS
 62
7
100
AcDbCircle
 10
175.8891300000000
 20
-20.46559899999992
 30
0.0000000000000000
 40
1.500000000000000
100
AcDbArc
 50
79.18448700000000
 51
157.0912909999999
  0
ARC
  5
1B1
100
AcDbEntity
  8
A4
  6
CONTINUOUS
 62
7
100
AcDbCircle
 10
198.8325810000000
 20
-29.96559899999991
 30
0.0000000000000000
 40
26.33248299999999
100
AcDbArc
 50
157.5074410000000
 51
202.4925559999998
  0
LINE
  5
1B2
100
AcDbEntity
  8
A4
  6
CONTINUOUS
 62
7
100
AcDbLine
 10
176.1705930000000
 20
-18.99221099999994
 30
0.0000000000000000
 11
183.8000949999999
 21
-23.96559899999990
 31
0.0000000000000000
  0
LINE
  5
1B3
100
AcDbEntity
  8
A4
  6
CONTINUOUS
 62
7
100
AcDbLine
 10
187.0000919999998
 20
346.9656070000001
 30
0.0000000000000000
 11
176.1705930000000
 21
344.9922790000002
 31
0.0000000000000000
  0
LINE
  5
1B4
100
AcDbEntity
  8
A4
  6
CONTINUOUS
 62
7
100
AcDbLine
 10
187.0000919999999
 20
364.9656070000000
 30
0.0000000000000000
 11
176.1705930000000
 21
366.9389950000002
 31
0.0000000000000000
  0
ARC
  5
1B5
100
AcDbEntity
  8
A4
  6
CONTINUOUS
 62
7
100
AcDbCircle
 10
175.8891300000000
 20
346.4656070000002
 30
0.0000000000000000
 40
1.500000000000000
100
AcDbArc
 50
202.9087089999999
 51
280.8155130000000
  0
LINE
  5
1B6
100
AcDbEntity
  8
A4
  6
CONTINUOUS
 62
7
100
AcDbLine
 10
176.1705930000000
 20
344.9922790000002
 30
0.0000000000000000
 11
183.8000949999999
 21
349.9656070000002
 31
0.0000000000000000
  0
ARC
  5
1B7
100
AcDbEntity
  8
A4
  6
CONTINUOUS
 62
7
100
AcDbCircle
 10
175.8891300000000
 20
365.4656070000000
 30
0.0000000000000000
 40
1.500000000000000
100
AcDbArc
 50
79.18448700000000
 51
157.0912909999999
  0
ARC
  5
1B8
100
AcDbEntity
  8
A4
  6
CONTINUOUS
 62
7
100
AcDbCircle
 10
198.8325810000000
 20
355.9656070000001
 30
0.0000000000000000
 40
26.33248299999999
100
AcDbArc
 50
157.5074410000000
 51
202.4925559999998
  0
LINE
  5
1B9
100
AcDbEntity
  8
A4
  6
CONTINUOUS
 62
7
100
AcDbLine
 10
176.1705930000000
 20
366.9389950000002
 30
0.0000000000000000
 11
183.8000949999999
 21
361.9656070000000
 31
0.0000000000000000
  0
LINE
  5
1BA
100
AcDbEntity
  8
A2
  6
CENTER
 62
4
100
AcDbLine
 10
190.0000919999999
 20
275.0000000000000
 30
0.0000000000000000
 11
180.8000949999998
 21
274.9999999999999
 31
0.0000000000000000
  0
LINE
  5
1BB
100
AcDbEntity
  8
A2
  6
CENTER
 62
4
100
AcDbLine
 10
126.0000459999999
 20
275.0000000000000
 30
0.0000000000000000
 11
118.0000459999999
 21
275.0000000000000
 31
0.0000000000000000
  0
LINE
  5
1BC
100
AcDbEntity
  8
A2
  6
CENTER
 62
4
100
AcDbLine
 10
126.0000459999999
 20
355.9656070000001
 30
0.0000000000000000
 11
118.0000459999999
 21
355.9656070000001
 31
0.0000000000000000
  0
LINE
  5
1BD
100
AcDbEntity
  8
A2
  6
CENTER
 62
4
100
AcDbLine
 10
190.5000919999999
 20
355.9656070000001
 30
0.0000000000000000
 11
169.5000980000000
 21
355.9656070000001
 31
0.0000000000000000
  0
LINE
  5
1BE
100
AcDbEntity
  8
A2
  6
CENTER
 62
4
100
AcDbLine
 10
460.0003049999998
 20
274.9999999999999
 30
0.0000000000000000
 11
469.2002869999998
 21
274.9999999999999
 31
0.0000000000000000
  0
LINE
  5
1BF
100
AcDbEntity
  8
A2
  6
CENTER
 62
4
100
AcDbLine
 10
517.4002990000001
 20
275.0000000000000
 30
0.0000000000000000
 11
525.4002990000001
 21
275.0000000000000
 31
0.0000000000000000
  0
LINE
  5
1C0
100
AcDbEntity
  8
A2
  6
CENTER
 62
4
100
AcDbLine
 10
460.0003049999998
 20
50.00000000000000
 30
0.0000000000000000
 11
469.2002869999999
 21
50.00000000000000
 31
0.0000000000000000
  0
LINE
  5
1C1
100
AcDbEntity
  8
A2
  6
CENTER
 62
4
100
AcDbLine
 10
517.4002990000001
 20
50.00000000000000
 30
0.0000000000000000
 11
525.4002990000001
 21
50.00000000000000
 31
0.0000000000000000
  0
LINE
  5
1C2
100
AcDbEntity
  8
A2
  6
CENTER
 62
4
100
AcDbLine
 10
190.5000919999999
 20
-29.96559899999991
 30
0.0000000000000000
 11
169.5000980000000
 21
-29.96559899999991
 31
0.0000000000000000
  0
LINE
  5
1C3
100
AcDbEntity
  8
A2
  6
CENTER
 62
4
100
AcDbLine
 10
126.0000459999999
 20
-29.96559899999991
 30
0.0000000000000000
 11
118.0000459999999
 21
-29.96559899999991
 31
0.0000000000000000
  0
LINE
  5
1C4
100
AcDbEntity
  8
A2
  6
CENTER
 62
4
100
AcDbLine
 10
126.0000459999999
 20
50.00000000000000
 30
0.0000000000000000
 11
118.0000459999999
 21
50.00000000000000
 31
0.0000000000000000
  0
LINE
  5
1C5
100
AcDbEntity
  8
A2
  6
CENTER
 62
4
100
AcDbLine
 10
190.0000919999998
 20
50.00000000000000
 30
0.0000000000000000
 11
180.8000949999998
 21
50.00000000000000
 31
0.0000000000000000
  0
LINE
  5
1C6
100
AcDbEntity
  8
A0
  6
CONTINUOUS
 62
7
100
AcDbLine
 10
41.00000000000007
 20
66.00000000000003
 30
0.0000000000000000
 11
39.00000000000006
 21
70.80000400000006
 31
0.0000000000000000
  0
LINE
  5
1C7
100
AcDbEntity
  8
A0
  6
CONTINUOUS
 62
7
100
AcDbLine
 10
41.00000000000003
 20
61.99999999999999
 30
0.0000000000000000
 11
39.00000000000002
 21
70.80000400000002
 31
0.0000000000000000
  0
LINE
  5
1C8
100
AcDbEntity
  8
A4
  6
CONTINUOUS
 62
7
100
AcDbLine
 10
61.00000000000000
 20
70.80000400000003
 30
0.0000000000000000
 11
61.00000000000000
 21
74.00000000000011
 31
0.0000000000000000
  0
LINE
  5
1C9
100
AcDbEntity
  8
A0
  6
CONTINUOUS
 62
7
100
AcDbLine
 10
58.99999999999999
 20
65.99999999999997
 30
0.0000000000000000
 11
60.99999999999999
 21
70.80000399999997
 31
0.0000000000000000
  0
LINE
  5
1CA
100
AcDbEntity
  8
A0
  6
CONTINUOUS
 62
7
100
AcDbLine
 10
58.99999999999993
 20
61.99999999999996
 30
0.0000000000000000
 11
60.99999999999994
 21
70.80000400000000
 31
0.0000000000000000
  0
LINE
  5
1CB
100
AcDbEntity
  8
A10
  6
PHANTOM
 62
1
100
AcDbLine
 10
38.99999999999994
 20
120.8000190000002
 30
0.0000000000000000
 11
40.99999999999994
 21
116.0000150000002
 31
0.0000000000000000
  0
LINE
  5
1CC
100
AcDbEntity
  8
A10
  6
PHANTOM
 62
1
100
AcDbLine
 10
41.00000000000000
 20
112.0000150000003
 30
0.0000000000000000
 11
39.00000000000001
 21
120.8000190000002
 31
0.0000000000000000
  0
LINE
  5
1CD
100
AcDbEntity
  8
A3
  6
PHANTOM
 62
1
100
AcDbLine
 10
60.99999999999955
 20
120.8000190000002
 30
0.0000000000000000
 11
60.99999999999955
 21
124.0000150000003
 31
0.0000000000000000
  0
LINE
  5
1CE
100
AcDbEntity
  8
A10
  6
PHANTOM
 62
1
100
AcDbLine
 10
60.99999999999951
 20
120.8000190000003
 30
0.0000000000000000
 11
58.99999999999950
 21
116.0000150000003
 31
0.0000000000000000
  0
LINE
  5
1CF
100
AcDbEntity
  8
A10
  6
PHANTOM
 62
1
100
AcDbLine
 10
58.99999999999944
 20
112.0000150000003
 30
0.0000000000000000
 11
60.99999999999943
 21
120.8000190000002
 31
0.0000000000000000
  0
ARC
  5
1D0
100
AcDbEntity
  8
A10
  6
CONTINUOUS
 62
7
100
AcDbCircle
 10
321.0001829999999
 20
72.00000000000007
 30
0.0000000000000000
 40
2.000000000000000
100
AcDbArc
 50
90.00000000000000
 51
180.0000000000000
  0
ARC
  5
1D1
100
AcDbEntity
  8
A4
  6
CONTINUOUS
 62
7
100
AcDbCircle
 10
318.1589890000000
 20
70.10091700000009
 30
0.0000000000000000
 40
4.824449999999997
100
AcDbArc
 50
301.7852160000000
 51
413.9196170000000
  0
LINE
  5
1D2
100
AcDbEntity
  8
A4
  6
CONTINUOUS
 62
7
100
AcDbLine
 10
321.0001829999999
 20
64.00000000000048
 30
0.0000000000000000
 11
319.0001830000000
 21
72.00000000000003
 31
0.0000000000000000
  0
ARC
  5
1D3
100
AcDbEntity
  8
A10
  6
CONTINUOUS
 62
7
100
AcDbCircle
 10
339.0001829999997
 20
72.00000000000007
 30
0.0000000000000000
 40
2.000000000000000
100
AcDbArc
 50
0.0000000000000000
 51
90.00000000000000
  0
ARC
  5
1D4
100
AcDbEntity
  8
A4
  6
CONTINUOUS
 62
7
100
AcDbCircle
 10
341.8413769999995
 20
70.10091700000009
 30
0.0000000000000000
 40
4.824449999999997
100
AcDbArc
 50
126.0803830000000
 51
238.2147840000000
  0
LINE
  5
1D5
100
AcDbEntity
  8
A4
  6
CONTINUOUS
 62
7
100
AcDbLine
 10
339.0001829999997
 20
64.00000000000047
 30
0.0000000000000000
 11
341.0001829999996
 21
72.00000000000001
 31
0.0000000000000000
  0
ARC
  5
1D6
100
AcDbEntity
  8
A10
  6
PHANTOM
 62
1
100
AcDbCircle
 10
321.0001829999999
 20
122.0000150000003
 30
0.0000000000000000
 40
2.000000000000000
100
AcDbArc
 50
90.00000000000000
 51
180.0000000000000
  0
ARC
  5
1D7
100
AcDbEntity
  8
A4
  6
PHANTOM
 62
1
100
AcDbCircle
 10
318.1589890000000
 20
120.1009320000003
 30
0.0000000000000000
 40
4.824449999999997
100
AcDbArc
 50
301.7852160000000
 51
413.9196170000000
  0
LINE
  5
1D8
100
AcDbEntity
  8
A4
  6
PHANTOM
 62
1
100
AcDbLine
 10
321.0001829999997
 20
114.0000150000007
 30
0.0000000000000000
 11
319.0001829999998
 21
122.0000150000002
 31
0.0000000000000000
  0
ARC
  5
1D9
100
AcDbEntity
  8
A4
  6
PHANTOM
 62
1
100
AcDbCircle
 10
341.8413769999995
 20
120.1009320000003
 30
0.0000000000000000
 40
4.824449999999997
100
AcDbArc
 50
126.0803830000000
 51
238.2147840000000
  0
ARC
  5
1DA
100
AcDbEntity
  8
A10
  6
PHANTOM
 62
1
100
AcDbCircle
 10
339.0001829999997
 20
122.0000150000003
 30
0.0000000000000000
 40
2.000000000000000
100
AcDbArc
 50
0.0000000000000000
 51
90.00000000000000
  0
LINE
  5
1DB
100
AcDbEntity
  8
A4
  6
PHANTOM
 62
1
100
AcDbLine
 10
339.0001829999999
 20
114.0000150000007
 30
0.0000000000000000
 11
341.0001829999998
 21
122.0000150000003
 31
0.0000000000000000
  0
LINE
  5
1DC
100
AcDbEntity
  8
A10
  6
CONTINUOUS
 62
7
100
AcDbLine
 10
39.00000000000001
 20
254.2000120000002
 30
0.0000000000000000
 11
39.00000000000001
 21
251.0000000000002
 31
0.0000000000000000
  0
LINE
  5
1DD
100
AcDbEntity
  8
A10
  6
CONTINUOUS
 62
7
100
AcDbLine
 10
38.99999999999995
 20
254.2000120000002
 30
0.0000000000000000
 11
40.99999999999994
 21
259.0000000000002
 31
0.0000000000000000
  0
LINE
  5
1DE
100
AcDbEntity
  8
A10
  6
CONTINUOUS
 62
7
100
AcDbLine
 10
38.99999999999997
 20
254.2000120000002
 30
0.0000000000000000
 11
41.00000000000007
 21
263.0000000000001
 31
0.0000000000000000
  0
LINE
  5
1DF
100
AcDbEntity
  8
A10
  6
CONTINUOUS
 62
7
100
AcDbLine
 10
60.99999999999963
 20
254.2000120000003
 30
0.0000000000000000
 11
58.99999999999964
 21
259.0000000000002
 31
0.0000000000000000
  0
LINE
  5
1E0
100
AcDbEntity
  8
A10
  6
CONTINUOUS
 62
7
100
AcDbLine
 10
60.99999999999967
 20
254.2000120000002
 30
0.0000000000000000
 11
58.99999999999956
 21
263.0000000000002
 31
0.0000000000000000
  0
LINE
  5
1E1
100
AcDbEntity
  8
A10
  6
CONTINUOUS
 62
7
100
AcDbLine
 10
60.99999999999955
 20
254.2000120000002
 30
0.0000000000000000
 11
60.99999999999955
 21
251.0000000000002
 31
0.0000000000000000
  0
ARC
  5
1E2
100
AcDbEntity
  8
A10
  6
CONTINUOUS
 62
7
100
AcDbCircle
 10
321.0001830000004
 20
252.9999999999999
 30
0.0000000000000000
 40
2.000000000000000
100
AcDbArc
 50
180.0000000000000
 51
270.0000000000000
  0
LINE
  5
1E3
100
AcDbEntity
  8
A4
  6
CONTINUOUS
 62
7
100
AcDbLine
 10
321.0001830000001
 20
260.9999999999997
 30
0.0000000000000000
 11
319.0001830000002
 21
253.0000000000001
 31
0.0000000000000000
  0
ARC
  5
1E4
100
AcDbEntity
  8
A4
  6
CONTINUOUS
 62
7
100
AcDbCircle
 10
318.1589890000006
 20
254.8990829999999
 30
0.0000000000000000
 40
4.824449999999997
100
AcDbArc
 50
306.0803829999999
 51
418.2147840000000
  0
ARC
  5
1E5
100
AcDbEntity
  8
A4
  6
CONTINUOUS
 62
7
100
AcDbCircle
 10
341.8413770000001
 20
254.8990829999999
 30
0.0000000000000000
 40
4.824449999999997
100
AcDbArc
 50
121.7852159999999
 51
233.9196170000000
  0
ARC
  5
1E6
100
AcDbEntity
  8
A10
  6
CONTINUOUS
 62
7
100
AcDbCircle
 10
339.0001830000002
 20
252.9999999999999
 30
0.0000000000000000
 40
2.000000000000000
100
AcDbArc
 50
270.0000000000000
 51
360.0000000000000
  0
LINE
  5
1E7
100
AcDbEntity
  8
A4
  6
CONTINUOUS
 62
7
100
AcDbLine
 10
339.0001829999999
 20
260.9999999999994
 30
0.0000000000000000
 11
341.0001829999998
 21
252.9999999999999
 31
0.0000000000000000
  0
ENDSEC
  0
SECTION
  2
OBJECTS
  0
DICTIONARY
  5
216
100
AcDbDictionary
  3
ACAD_GROUP
350
217
  3
ACAD_LAYOUT
350
218
  3
ACAD_MLINESTYLE
350
219
  0
DICTIONARY
  5
217
102
{ACAD_REACTORS
330
216
102
}
330
216
100
AcDbDictionary
  0
DICTIONARY
  5
218
102
{ACAD_REACTORS
330
216
102
}
330
216
100
AcDbDictionary
  3
Model
350
21A
  3
ﾚｲｱｳﾄ1
350
21B
  3
ﾚｲｱｳﾄ2
350
21C
  0
DICTIONARY
  5
219
102
{ACAD_REACTORS
330
216
102
}
330
216
100
AcDbDictionary
  3
STANDARD
350
21D
  0
LAYOUT
  5
21A
102
{ACAD_REACTORS
330
218
102
}
330
218
100
AcDbPlotSettings
 70
11952
  4
A3
 44
297.000000
 45
420.000000
 73
  1
 72
  1
100
AcDbLayout
  1
Model
 71
0
330
20D
  0
LAYOUT
  5
21B
102
{ACAD_REACTORS
330
218
102
}
330
218
100
AcDbPlotSettings
100
AcDbLayout
  1
ﾚｲｱｳﾄ1
 71
1
330
20E
  0
LAYOUT
  5
21C
102
{ACAD_REACTORS
330
218
102
}
330
218
100
AcDbPlotSettings
100
AcDbLayout
  1
ﾚｲｱｳﾄ2
 71
2
330
20F
  0
MLINESTYLE
  5
21D
102
{ACAD_REACTORS
330
219
102
}
330
219
100
AcDbMlineStyle
  2
STANDARD
 70
     0
  3

 62
   256
 51
90.00
 52
90.00
 71
     2
 49
0.50
 62
   256
  6
BYLAYER
 49
-0.50
 62
   256
  6
BYLAYER
  0
ENDSEC
  0
EOF
