  0
SECTION
  2
HEADER
  9
$ACADVER
  1
AC1015
  9
$DWGCODEPAGE
  3
ANSI_932
  9
$LTSCALE
 40
20.0
  9
$FILLMODE
 70
     1
  9
$CLAYER
  8
0
  9
$PDMODE
 70
     0
  9
$SPLFRAME
 70
     0
  9
$SPLINETYPE
 70
     6
  9
$SPLINESEGS
 70
     8
  9
$DIMASZ
 40
2.000000
  9
$DIMEXE
 40
1.500000
  9
$DIMEXO
 40
0.800000
  9
$DIMTAD
 70
     1
  9
$DIMTIH
 70
     0
  9
$DIMTOH
 70
     0
  9
$DIMTVP
 40
0.500000
  9
$DIMTXT
 40
3.100000
  9
$EXTMIN
 10
0.000000
 20
0.000000
 30
0.000000
  9
$EXTMAX
 10
297.000000
 20
420.000000
 30
0.000000
  9
$MEASUREMENT
 70
  1
  9
$LIMMIN
 10
0.000000
 20
0.000000
  9
$LIMMAX
 10
297.000000
 20
420.000000
  9
$HANDSEED
  5
1AE
  9
$LWDISPLAY
290
     0
  9
$DIMBLK
  1
_OPEN
  9
$DIMDEC
 70
     2
  9
$DIMADEC
 70
     2
  9
$DIMAUNIT
 70
     0
  9
$DIMZIN
 70
     8
  9
$DIMAZIN
 70
     2
  9
$DIMTOFL
 70
     1
  0
ENDSEC
  0
SECTION
  2
CLASSES
  0
ENDSEC
  0
SECTION
  2
TABLES
  0
TABLE
  2
VPORT
  5
177
100
AcDbSymbolTable
 70
     1
  0
VPORT
  5
178
100
AcDbSymbolTableRecord
100
AcDbViewportTableRecord
  2
*ACTIVE
 70
     0
 12
259.624999
 22
212.500000
 40
505.500000
 41
0.987636
  0
ENDTAB
  0
TABLE
  2
LTYPE
  5
179
100
AcDbSymbolTable
 70
     3
  0
LTYPE
  5
17A
100
AcDbSymbolTableRecord
100
AcDbLinetypeTableRecord
  2
BYBLOCK
 70
     0
  3

 72
    65
 73
     0
 40
0.0
  0
LTYPE
  5
17B
100
AcDbSymbolTableRecord
100
AcDbLinetypeTableRecord
  2
BYLAYER
 70
     0
  3

 72
    65
 73
     0
 40
0.0
  0
LTYPE
  5
17C
100
AcDbSymbolTableRecord
100
AcDbLinetypeTableRecord
  2
CONTINUOUS
 70
     0
  3
Solid line (NEC CAE2D for Win R15.2 : 2020.05.21)
 72
    65
 73
     0
 40
0.0
  0
LTYPE
  5
17D
100
AcDbSymbolTableRecord
100
AcDbLinetypeTableRecord
  2
CENTER
 70
     0
  3
____ _ ____ _ ____ _ ____ _ ____ _ ____
 72
    65
 73
     4
 40
2.0
 49
1.25
 74
     0
 49
-0.25
 74
     0
 49
0.25
 74
     0
 49
-0.25
 74
     0
  0
LTYPE
  5
17E
100
AcDbSymbolTableRecord
100
AcDbLinetypeTableRecord
  2
PHANTOM
 70
     0
  3
______  __  __  ______  __  __  ______ 
 72
    65
 73
     6
 40
2.5
 49
1.25
 74
     0
 49
-0.25
 74
     0
 49
0.25
 74
     0
 49
-0.25
 74
     0
 49
0.25
 74
     0
 49
-0.25
 74
     0
  0
ENDTAB
  0
TABLE
  2
LAYER
  5
17F
100
AcDbSymbolTable
 70
    16
  0
LAYER
  5
180
100
AcDbSymbolTableRecord
100
AcDbLayerTableRecord
  2
0
 70
     0
 62
     7
  6
CONTINUOUS
370
    -3
390

  0
LAYER
  5
181
100
AcDbSymbolTableRecord
100
AcDbLayerTableRecord
  2
A0
 70
     0
 62
     9
  6
CONTINUOUS
370
    -3
390

  0
LAYER
  5
182
100
AcDbSymbolTableRecord
100
AcDbLayerTableRecord
  2
A2
 70
     0
 62
     9
  6
CONTINUOUS
370
    -3
390

  0
LAYER
  5
183
100
AcDbSymbolTableRecord
100
AcDbLayerTableRecord
  2
A3
 70
     0
 62
    12
  6
CONTINUOUS
370
    -3
390

  0
LAYER
  5
184
100
AcDbSymbolTableRecord
100
AcDbLayerTableRecord
  2
A4
 70
     0
 62
     9
  6
CONTINUOUS
370
    -3
390

  0
LAYER
  5
185
100
AcDbSymbolTableRecord
100
AcDbLayerTableRecord
  2
A5
 70
     0
 62
     8
  6
CONTINUOUS
370
    -3
390

  0
LAYER
  5
186
100
AcDbSymbolTableRecord
100
AcDbLayerTableRecord
  2
A6
 70
     0
 62
    12
  6
CONTINUOUS
370
    -3
390

  0
LAYER
  5
187
100
AcDbSymbolTableRecord
100
AcDbLayerTableRecord
  2
A7
 70
     0
 62
    12
  6
CONTINUOUS
370
    -3
390

  0
LAYER
  5
188
100
AcDbSymbolTableRecord
100
AcDbLayerTableRecord
  2
A8
 70
     0
 62
    10
  6
CONTINUOUS
370
    -3
390

  0
LAYER
  5
189
100
AcDbSymbolTableRecord
100
AcDbLayerTableRecord
  2
A9
 70
     0
 62
     9
  6
CONTINUOUS
370
    -3
390

  0
LAYER
  5
18A
100
AcDbSymbolTableRecord
100
AcDbLayerTableRecord
  2
A10
 70
     0
 62
     6
  6
CONTINUOUS
370
    -3
390

  0
LAYER
  5
18B
100
AcDbSymbolTableRecord
100
AcDbLayerTableRecord
  2
A20
 70
     0
 62
     1
  6
CONTINUOUS
370
    -3
390

  0
LAYER
  5
18C
100
AcDbSymbolTableRecord
100
AcDbLayerTableRecord
  2
A30
 70
     0
 62
     1
  6
CONTINUOUS
370
    -3
390

  0
LAYER
  5
18D
100
AcDbSymbolTableRecord
100
AcDbLayerTableRecord
  2
A40
 70
     0
 62
     9
  6
CONTINUOUS
370
    -3
390

  0
LAYER
  5
18E
100
AcDbSymbolTableRecord
100
AcDbLayerTableRecord
  2
A50
 70
     0
 62
    12
  6
CONTINUOUS
370
    -3
390

  0
LAYER
  5
18F
100
AcDbSymbolTableRecord
100
AcDbLayerTableRecord
  2
A1023
 70
     0
 62
    16
  6
CONTINUOUS
370
    -3
390

  0
ENDTAB
  0
TABLE
  2
STYLE
  5
190
100
AcDbSymbolTable
 70
     4
  0
STYLE
  5
191
100
AcDbSymbolTableRecord
100
AcDbTextStyleTableRecord
  2
STANDARD
 70
    64
 40
0.0
 41
1.0
 50
0.0
 71
     0
 42
3.000000000000000
  3
TXT
  4

  0
STYLE
  5
192
100
AcDbSymbolTableRecord
100
AcDbTextStyleTableRecord
  2
ANKTATE
 70
    68
 40
0.0
 41
1.0
 50
0.0
 71
     0
 42
3.000000000000000
  3
TXT
  4

  0
STYLE
  5
193
100
AcDbSymbolTableRecord
100
AcDbTextStyleTableRecord
  2
KNJYOKO
 70
    64
 40
0.0
 41
1.0
 50
0.0
 71
     0
 42
3.000000000000000
  3
TXT
  4
BIGFONT
  0
STYLE
  5
194
100
AcDbSymbolTableRecord
100
AcDbTextStyleTableRecord
  2
KNJTATE
 70
    68
 40
0.0
 41
1.0
 50
0.0
 71
     0
 42
3.000000000000000
  3
TXT
  4
BIGFONT
  0
ENDTAB
  0
TABLE
  2
VIEW
  5
195
100
AcDbSymbolTable
 70
     0
  0
ENDTAB
  0
TABLE
  2
UCS
  5
196
100
AcDbSymbolTable
 70
     0
  0
ENDTAB
  0
TABLE
  2
APPID
  5
197
100
AcDbSymbolTable
 70
     1
  0
APPID
  5
198
100
AcDbSymbolTableRecord
100
AcDbRegAppTableRecord
  2
ACAD
 70
     0
  0
ENDTAB
  0
TABLE
  2
DIMSTYLE
  5
199
100
AcDbSymbolTable
 70
     2
100
AcDbDimStyleTable
  0
DIMSTYLE
105
19A
100
AcDbSymbolTableRecord
100
AcDbDimStyleTableRecord
  2
STANDARD
 70
     0
 41
2.000000
 44
1.500000
 42
0.800000
145
0.661290
140
3.100000
144
1.000000
146
0.645161
340
191
  0
DIMSTYLE
105
19B
100
AcDbSymbolTableRecord
100
AcDbDimStyleTableRecord
  2
A001
 70
     0
 41
2.000000
 44
1.500000
 42
0.800000
145
0.661290
140
3.100000
144
1.000000
146
0.645161
 77
     1
 73
     0
 74
     0
271
     2
179
     2
275
     0
 78
     8
 79
     2
172
     1
340
191
  0
ENDTAB
  0
TABLE
  2
BLOCK_RECORD
  5
19C
100
AcDbSymbolTable
 70
    12
  0
BLOCK_RECORD
  5
19D
100
AcDbSymbolTableRecord
100
AcDbBlockTableRecord
  2
*MODEL_SPACE
  0
BLOCK_RECORD
  5
19E
100
AcDbSymbolTableRecord
100
AcDbBlockTableRecord
  2
*PAPER_SPACE
  0
BLOCK_RECORD
  5
19F
100
AcDbSymbolTableRecord
100
AcDbBlockTableRecord
  2
*PAPER_SPACE0
  0
BLOCK_RECORD
  5
1
100
AcDbSymbolTableRecord
100
AcDbBlockTableRecord
  2
_NONE
  0
BLOCK_RECORD
  5
4
100
AcDbSymbolTableRecord
100
AcDbBlockTableRecord
  2
_CLOSED
  0
BLOCK_RECORD
  5
B
100
AcDbSymbolTableRecord
100
AcDbBlockTableRecord
  2
_DOT
  0
BLOCK_RECORD
  5
13
100
AcDbSymbolTableRecord
100
AcDbBlockTableRecord
  2
_OPEN
  0
BLOCK_RECORD
  5
19
100
AcDbSymbolTableRecord
100
AcDbBlockTableRecord
  2
_ORIGIN
  0
BLOCK_RECORD
  5
1E
100
AcDbSymbolTableRecord
100
AcDbBlockTableRecord
  2
_OPEN30
  0
BLOCK_RECORD
  5
24
100
AcDbSymbolTableRecord
100
AcDbBlockTableRecord
  2
_BOXFILLED
  0
BLOCK_RECORD
  5
29
100
AcDbSymbolTableRecord
100
AcDbBlockTableRecord
  2
_BOXBLANK
  0
BLOCK_RECORD
  5
31
100
AcDbSymbolTableRecord
100
AcDbBlockTableRecord
  2
_OBLIQUE
  0
BLOCK_RECORD
  5
35
100
AcDbSymbolTableRecord
100
AcDbBlockTableRecord
  2
_OPEN90
  0
BLOCK_RECORD
  5
3B
100
AcDbSymbolTableRecord
100
AcDbBlockTableRecord
  2
_CLOSEDBLANK
  0
BLOCK_RECORD
  5
41
100
AcDbSymbolTableRecord
100
AcDbBlockTableRecord
  2
_DOTBLANK
  0
ENDTAB
  0
ENDSEC
  0
SECTION
  2
BLOCKS
  0
BLOCK
  5
1A0
100
AcDbEntity
  8
0
100
AcDbBlockBegin
  2
*MODEL_SPACE
 70
     0
 10
0.0
 20
0.0
 30
0.0
  3
*MODEL_SPACE
  1

  0
ENDBLK
  5
1A1
100
AcDbEntity
  8
0
100
AcDbBlockEnd
  0
BLOCK
  5
1A2
100
AcDbEntity
  8
0
100
AcDbBlockBegin
  2
*PAPER_SPACE
 70
     0
 10
0.0
 20
0.0
 30
0.0
  3
*PAPER_SPACE
  1

  0
ENDBLK
  5
1A3
100
AcDbEntity
  8
0
100
AcDbBlockEnd
  0
BLOCK
  5
1A4
100
AcDbEntity
  8
0
100
AcDbBlockBegin
  2
*PAPER_SPACE0
 70
     0
 10
0.0
 20
0.0
 30
0.0
  3
*PAPER_SPACE0
  1

  0
ENDBLK
  5
1A5
100
AcDbEntity
  8
0
100
AcDbBlockEnd
  0
BLOCK
  5
2
330
1
100
AcDbEntity
  8
0
100
AcDbBlockBegin
  2
_NONE
 70
     0
 10
0.0
 20
0.0
 30
0.0
  3
_NONE
  1

  0
ENDBLK
  5
3
330
1
100
AcDbEntity
  8
0
100
AcDbBlockEnd
  0
BLOCK
  5
5
330
4
100
AcDbEntity
  8
0
100
AcDbBlockBegin
  2
_CLOSED
 70
     0
 10
0.0
 20
0.0
 30
0.0
  3
_CLOSED
  1

  0
LINE
  5
6
330
4
100
AcDbEntity
  8
0
  6
BYBLOCK
 62
     0
370
    -2
100
AcDbLine
 10
-1.0
 20
0.166667
 30
0.0
 11
0.0
 21
0.0
 31
0.0
  0
LINE
  5
7
330
4
100
AcDbEntity
  8
0
  6
BYBLOCK
 62
     0
370
    -2
100
AcDbLine
 10
0.0
 20
0.0
 30
0.0
 11
-1.0
 21
-0.166667
 31
0.0
  0
LINE
  5
8
330
4
100
AcDbEntity
  8
0
  6
BYBLOCK
 62
     0
370
    -2
100
AcDbLine
 10
-1.0
 20
0.166667
 30
0.0
 11
-1.0
 21
-0.166667
 31
0.0
  0
LINE
  5
9
330
4
100
AcDbEntity
  8
0
  6
BYBLOCK
 62
     0
370
    -2
100
AcDbLine
 10
0.0
 20
0.0
 30
0.0
 11
-1.0
 21
0.0
 31
0.0
  0
ENDBLK
  5
A
330
4
100
AcDbEntity
  8
0
100
AcDbBlockEnd
  0
BLOCK
  5
C
330
B
100
AcDbEntity
  8
0
100
AcDbBlockBegin
  2
_DOT
 70
     0
 10
0.0
 20
0.0
 30
0.0
  3
_DOT
  1

  0
POLYLINE
  5
D
330
B
100
AcDbEntity
  8
0
  6
BYBLOCK
 62
     0
370
    -2
100
AcDb2dPolyline
 66
     1
 10
0.0
 20
0.0
 30
0.0
 70
     1
 40
0.5
 41
0.5
  0
VERTEX
  5
E
330
B
100
AcDbEntity
  8
0
  6
BYBLOCK
 62
     0
370
    -2
100
AcDbVertex
100
AcDb2dVertex
 10
-0.25
 20
0.0
 30
0.0
 42
1.0
  0
VERTEX
  5
F
330
B
100
AcDbEntity
  8
0
  6
BYBLOCK
 62
     0
370
    -2
100
AcDbVertex
100
AcDb2dVertex
 10
0.25
 20
0.0
 30
0.0
 42
1.0
  0
SEQEND
  5
10
330
B
100
AcDbEntity
  8
0
  6
BYBLOCK
 62
     0
370
    -2
  0
LINE
  5
11
330
B
100
AcDbEntity
  8
0
  6
BYBLOCK
 62
     0
370
    -2
100
AcDbLine
 10
-0.5
 20
0.0
 30
0.0
 11
-1.0
 21
0.0
 31
0.0
  0
ENDBLK
  5
12
330
B
100
AcDbEntity
  8
0
100
AcDbBlockEnd
  0
BLOCK
  5
14
330
13
100
AcDbEntity
  8
0
100
AcDbBlockBegin
  2
_OPEN
 70
     0
 10
0.0
 20
0.0
 30
0.0
  3
_OPEN
  1

  0
LINE
  5
15
330
13
100
AcDbEntity
  8
0
  6
BYBLOCK
 62
     0
370
    -2
100
AcDbLine
 10
-1.0
 20
0.166667
 30
0.0
 11
0.0
 21
0.0
 31
0.0
  0
LINE
  5
16
330
13
100
AcDbEntity
  8
0
  6
BYBLOCK
 62
     0
370
    -2
100
AcDbLine
 10
0.0
 20
0.0
 30
0.0
 11
-1.0
 21
-0.166667
 31
0.0
  0
LINE
  5
17
330
13
100
AcDbEntity
  8
0
  6
BYBLOCK
 62
     0
370
    -2
100
AcDbLine
 10
0.0
 20
0.0
 30
0.0
 11
-1.0
 21
0.0
 31
0.0
  0
ENDBLK
  5
18
330
13
100
AcDbEntity
  8
0
100
AcDbBlockEnd
  0
BLOCK
  5
1A
330
19
100
AcDbEntity
  8
0
100
AcDbBlockBegin
  2
_ORIGIN
 70
     0
 10
0.0
 20
0.0
 30
0.0
  3
_ORIGIN
  1

  0
CIRCLE
  5
1B
330
19
100
AcDbEntity
  8
0
  6
BYBLOCK
 62
     0
370
    -2
100
AcDbCircle
 10
0.0
 20
0.0
 30
0.0
 40
0.5
  0
LINE
  5
1C
330
19
100
AcDbEntity
  8
0
  6
BYBLOCK
 62
     0
370
    -2
100
AcDbLine
 10
0.0
 20
0.0
 30
0.0
 11
-1.0
 21
0.0
 31
0.0
  0
ENDBLK
  5
1D
330
19
100
AcDbEntity
  8
0
100
AcDbBlockEnd
  0
BLOCK
  5
1F
330
1E
100
AcDbEntity
  8
0
100
AcDbBlockBegin
  2
_OPEN30
 70
     0
 10
0.0
 20
0.0
 30
0.0
  3
_OPEN30
  1

  0
LINE
  5
20
330
1E
100
AcDbEntity
  8
0
  6
BYBLOCK
 62
     0
370
    -2
100
AcDbLine
 10
-1.0
 20
0.267949
 30
0.0
 11
0.0
 21
0.0
 31
0.0
  0
LINE
  5
21
330
1E
100
AcDbEntity
  8
0
  6
BYBLOCK
 62
     0
370
    -2
100
AcDbLine
 10
0.0
 20
0.0
 30
0.0
 11
-1.0
 21
-0.267949
 31
0.0
  0
LINE
  5
22
330
1E
100
AcDbEntity
  8
0
  6
BYBLOCK
 62
     0
370
    -2
100
AcDbLine
 10
0.0
 20
0.0
 30
0.0
 11
-1.0
 21
0.0
 31
0.0
  0
ENDBLK
  5
23
330
1E
100
AcDbEntity
  8
0
100
AcDbBlockEnd
  0
BLOCK
  5
25
330
24
100
AcDbEntity
  8
0
100
AcDbBlockBegin
  2
_BOXFILLED
 70
     0
 10
0.0
 20
0.0
 30
0.0
  3
_BOXFILLED
  1

  0
SOLID
  5
26
330
24
100
AcDbEntity
  8
0
  6
BYBLOCK
 62
     0
370
    -2
100
AcDbTrace
 10
-0.5
 20
0.5
 30
0.0
 11
0.5
 21
0.5
 31
0.0
 12
-0.5
 22
-0.5
 32
0.0
 13
0.5
 23
-0.5
 33
0.0
  0
LINE
  5
27
330
24
100
AcDbEntity
  8
0
  6
BYBLOCK
 62
     0
370
    -2
100
AcDbLine
 10
-0.5
 20
0.0
 30
0.0
 11
-1.0
 21
0.0
 31
0.0
  0
ENDBLK
  5
28
330
24
100
AcDbEntity
  8
0
100
AcDbBlockEnd
  0
BLOCK
  5
2A
330
29
100
AcDbEntity
  8
0
100
AcDbBlockBegin
  2
_BOXBLANK
 70
     0
 10
0.0
 20
0.0
 30
0.0
  3
_BOXBLANK
  1

  0
LINE
  5
2B
330
29
100
AcDbEntity
  8
0
  6
BYBLOCK
 62
     0
370
    -2
100
AcDbLine
 10
-0.5
 20
-0.5
 30
0.0
 11
0.5
 21
-0.5
 31
0.0
  0
LINE
  5
2C
330
29
100
AcDbEntity
  8
0
  6
BYBLOCK
 62
     0
370
    -2
100
AcDbLine
 10
0.5
 20
-0.5
 30
0.0
 11
0.5
 21
0.5
 31
0.0
  0
LINE
  5
2D
330
29
100
AcDbEntity
  8
0
  6
BYBLOCK
 62
     0
370
    -2
100
AcDbLine
 10
0.5
 20
0.5
 30
0.0
 11
-0.5
 21
0.5
 31
0.0
  0
LINE
  5
2E
330
29
100
AcDbEntity
  8
0
  6
BYBLOCK
 62
     0
370
    -2
100
AcDbLine
 10
-0.5
 20
0.5
 30
0.0
 11
-0.5
 21
-0.5
 31
0.0
  0
LINE
  5
2F
330
29
100
AcDbEntity
  8
0
  6
BYBLOCK
 62
     0
370
    -2
100
AcDbLine
 10
-0.5
 20
0.0
 30
0.0
 11
-1.0
 21
0.0
 31
0.0
  0
ENDBLK
  5
30
330
29
100
AcDbEntity
  8
0
100
AcDbBlockEnd
  0
BLOCK
  5
32
330
31
100
AcDbEntity
  8
0
100
AcDbBlockBegin
  2
_OBLIQUE
 70
     0
 10
0.0
 20
0.0
 30
0.0
  3
_OBLIQUE
  1

  0
LINE
  5
33
330
31
100
AcDbEntity
  8
0
  6
BYBLOCK
 62
     0
370
    -2
100
AcDbLine
 10
-0.5
 20
-0.5
 30
0.0
 11
0.5
 21
0.5
 31
0.0
  0
ENDBLK
  5
34
330
31
100
AcDbEntity
  8
0
100
AcDbBlockEnd
  0
BLOCK
  5
36
330
35
100
AcDbEntity
  8
0
100
AcDbBlockBegin
  2
_OPEN90
 70
     0
 10
0.0
 20
0.0
 30
0.0
  3
_OPEN90
  1

  0
LINE
  5
37
330
35
100
AcDbEntity
  8
0
  6
BYBLOCK
 62
     0
370
    -2
100
AcDbLine
 10
-0.5
 20
0.5
 30
0.0
 11
0.0
 21
0.0
 31
0.0
  0
LINE
  5
38
330
35
100
AcDbEntity
  8
0
  6
BYBLOCK
 62
     0
370
    -2
100
AcDbLine
 10
0.0
 20
0.0
 30
0.0
 11
-0.5
 21
-0.5
 31
0.0
  0
LINE
  5
39
330
35
100
AcDbEntity
  8
0
  6
BYBLOCK
 62
     0
370
    -2
100
AcDbLine
 10
0.0
 20
0.0
 30
0.0
 11
-1.0
 21
0.0
 31
0.0
  0
ENDBLK
  5
3A
330
35
100
AcDbEntity
  8
0
100
AcDbBlockEnd
  0
BLOCK
  5
3C
330
3B
100
AcDbEntity
  8
0
100
AcDbBlockBegin
  2
_CLOSEDBLANK
 70
     0
 10
0.0
 20
0.0
 30
0.0
  3
_CLOSEDBLANK
  1

  0
LINE
  5
3D
330
3B
100
AcDbEntity
  8
0
  6
BYBLOCK
 62
     0
370
    -2
100
AcDbLine
 10
-1.0
 20
0.1666666666666666
 30
0.0
 11
0.0
 21
0.0
 31
0.0
  0
LINE
  5
3E
330
3B
100
AcDbEntity
  8
0
  6
BYBLOCK
 62
     0
370
    -2
100
AcDbLine
 10
0.0
 20
0.0
 30
0.0
 11
-1.0
 21
-0.1666666666666666
 31
0.0
  0
LINE
  5
3F
330
3B
100
AcDbEntity
  8
0
  6
BYBLOCK
 62
     0
370
    -2
100
AcDbLine
 10
-1.0
 20
0.1666666666666666
 30
0.0
 11
-1.0
 21
-0.1666666666666666
 31
0.0
  0
ENDBLK
  5
40
330
3B
100
AcDbEntity
  8
0
100
AcDbBlockEnd
  0
BLOCK
  5
42
330
41
100
AcDbEntity
  8
0
100
AcDbBlockBegin
  2
_DOTBLANK
 70
     0
 10
0.0
 20
0.0
 30
0.0
  3
_DOTBLANK
  1

  0
CIRCLE
  5
43
330
41
100
AcDbEntity
  8
0
  6
BYBLOCK
 62
     0
370
    -2
100
AcDbCircle
 10
0.0
 20
0.0
 30
0.0
 40
0.5
  0
LINE
  5
44
330
41
100
AcDbEntity
  8
0
  6
BYBLOCK
 62
     0
370
    -2
100
AcDbLine
 10
-0.5
 20
0.0
 30
0.0
 11
-1.0
 21
0.0
 31
0.0
  0
ENDBLK
  5
45
330
41
100
AcDbEntity
  8
0
100
AcDbBlockEnd
  0
ENDSEC
  0
SECTION
  2
ENTITIES
  0
MTEXT
  5
46
100
AcDbEntity
  8
A8
  6
CONTINUOUS
 62
7
100
AcDbMText
 10
9.999997526638502
 20
18.00000076076889
 30
0.0000000000000000
 40
3.000000000000000
 41
0.0000000000000000
 44
0.6739999771118164
 71
     7
 72
     1
  1
{\H0.94x;{TYPE No.TM-366-100-20}}
 11
1.000000000000000
 21
0.0000000000000000
 31
0.0000000000000000
  7
STANDARD
  0
POINT
  5
47
100
AcDbEntity
  8
A0
  6
CONTINUOUS
 62
5
100
AcDbPoint
 10
9.999997526638502
 20
18.00000076076889
 30
0.0000000000000000
  0
CIRCLE
  5
48
100
AcDbEntity
  8
A4
  6
CONTINUOUS
 62
7
100
AcDbCircle
 10
50.00000000000000
 20
50.00000000000000
 30
0.0000000000000000
 40
4.500000000000000
  0
CIRCLE
  5
49
100
AcDbEntity
  8
A4
  6
CONTINUOUS
 62
7
100
AcDbCircle
 10
50.00000000000000
 20
375.0000000000000
 30
0.0000000000000000
 40
4.500000000000000
  0
SPLINE
  5
4A
100
AcDbEntity
  8
A4
  6
CONTINUOUS
 62
7
100
AcDbSpline
210
0.0000000000000000
220
0.0000000000000000
230
1.000000000000000
 70
     8
 71
     3
 72
    15
 73
    11
 74
     0
 42
1.000000000000000e-07
 43
1.000000000000000e-07
 12
-0.9791153627193694
 22
-0.2033054512021408
 32
0.0000000000000000
 13
-0.9999702177019572
 23
-0.007717755281191785
 33
0.0000000000000000
 40
0.0000000000000000
 40
0.0000000000000000
 40
0.0000000000000000
 40
0.0000000000000000
 40
0.3951112350109537
 40
0.7883217744682320
 40
1.122037209436692
 40
1.449499252258267
 40
1.758834612153513
 40
1.853255129960945
 40
1.940114431743382
 40
1.964439213711132
 40
1.964439213711132
 40
1.964439213711132
 40
1.964439213711132
 10
48.39899691266601
 20
360.4047219143904
 30
0.0000000000000000
 10
48.27004375260526
 20
360.3779458250874
 30
0.0000000000000000
 10
48.01314397009423
 20
360.3226242943540
 30
0.0000000000000000
 10
47.64889642995990
 20
360.2376704204066
 30
0.0000000000000000
 10
47.30736645314801
 20
360.1546830323348
 30
0.0000000000000000
 10
46.99248247499531
 20
360.0805587821851
 30
0.0000000000000000
 10
46.75343337280947
 20
360.0322063017959
 30
0.0000000000000000
 10
46.59175816652260
 20
360.0075884699700
 30
0.0000000000000000
 10
46.52345349139364
 20
360.0008158636906
 30
0.0000000000000000
 10
46.48639111943203
 20
360.0000625775715
 30
0.0000000000000000
 10
46.47828310025875
 20
360.0000000000000
 30
0.0000000000000000
  0
SPLINE
  5
4B
100
AcDbEntity
  8
A4
  6
CONTINUOUS
 62
7
100
AcDbSpline
210
0.0000000000000000
220
0.0000000000000000
230
1.000000000000000
 70
     8
 71
     3
 72
    14
 73
    10
 74
     0
 42
1.000000000000000e-07
 43
1.000000000000000e-07
 12
-0.9992324656384426
 22
0.03917243430441886
 32
0.0000000000000000
 13
-0.9792244280139926
 23
0.2027794851132967
 33
0.0000000000000000
 40
0.0000000000000000
 40
0.0000000000000000
 40
0.0000000000000000
 40
0.0000000000000000
 40
0.1026130928231937
 40
0.3126606459023353
 40
0.5427511127661856
 40
0.8878356554170450
 40
1.239605680265837
 40
1.601243084576364
 40
1.964349319443579
 40
1.964349319443579
 40
1.964349319443579
 40
1.964349319443579
 10
53.52171689972738
 20
360.0000000000000
 30
0.0000000000000000
 10
53.48753878847788
 20
360.0013398682124
 30
0.0000000000000000
 10
53.38341180779798
 20
360.0080868597242
 30
0.0000000000000000
 10
53.20520998779830
 20
360.0412482050692
 30
0.0000000000000000
 10
52.94922293602099
 20
360.0953285681962
 30
0.0000000000000000
 10
52.64839535470151
 20
360.1661313768716
 30
0.0000000000000000
 10
52.30528091203860
 20
360.2482726308326
 30
0.0000000000000000
 10
51.95575401551628
 20
360.3295537041363
 30
0.0000000000000000
 10
51.71952391904915
 20
360.3801784159411
 30
0.0000000000000000
 10
51.60100308733377
 20
360.4047219143904
 30
0.0000000000000000
  0
ARC
  5
4C
100
AcDbEntity
  8
A4
  6
CONTINUOUS
 62
7
100
AcDbCircle
 10
56.00000000000000
 20
61.76393202250028
 30
0.0000000000000000
 40
1.999999999999997
100
AcDbArc
 50
0.0000000000000000
 51
63.43494882292241
  0
ARC
  5
4D
100
AcDbEntity
  8
A4
  6
CONTINUOUS
 62
7
100
AcDbCircle
 10
44.00000000000000
 20
61.76393202250028
 30
0.0000000000000000
 40
2.000000000000000
100
AcDbArc
 50
116.5650511770782
 51
180.0000000000000
  0
ARC
  5
4E
100
AcDbEntity
  8
A4
  6
CONTINUOUS
 62
7
100
AcDbCircle
 10
50.00000000000000
 20
50.00000000000000
 30
0.0000000000000000
 40
8.000000000000000
100
AcDbArc
 50
180.0000000000000
 51
360.0000000000000
  0
ARC
  5
4F
100
AcDbEntity
  8
A4
  6
CONTINUOUS
 62
7
100
AcDbCircle
 10
56.00000000000000
 20
364.4860679774999
 30
0.0000000000000000
 40
2.000000000000009
100
AcDbArc
 50
296.5650511770751
 51
360.0000000000000
  0
ARC
  5
50
100
AcDbEntity
  8
A4
  6
CONTINUOUS
 62
7
100
AcDbCircle
 10
50.00000000000000
 20
375.0000000000000
 30
0.0000000000000000
 40
8.000000000000000
100
AcDbArc
 50
2.391777120460565e-12
 51
180.0000000000000
  0
ARC
  5
51
100
AcDbEntity
  8
A4
  6
CONTINUOUS
 62
7
100
AcDbCircle
 10
44.00000000000000
 20
364.4860679774999
 30
0.0000000000000000
 40
2.000000000000000
100
AcDbArc
 50
180.0000000000000
 51
243.4349488229220
  0
ARC
  5
52
100
AcDbEntity
  8
A4
  6
CONTINUOUS
 62
7
100
AcDbCircle
 10
54.00000000000000
 20
362.7000000000000
 30
0.0000000000000000
 40
0.3000000000000000
100
AcDbArc
 50
0.0000000000000000
 51
90.00000000000544
  0
ARC
  5
53
100
AcDbEntity
  8
A4
  6
CONTINUOUS
 62
7
100
AcDbCircle
 10
54.00000000000000
 20
360.3000000000002
 30
0.0000000000000000
 40
0.3000000000000000
100
AcDbArc
 50
269.9999999999946
 51
360.0000000000000
  0
ARC
  5
54
100
AcDbEntity
  8
A4
  6
CONTINUOUS
 62
7
100
AcDbCircle
 10
45.99999999999977
 20
362.7000000000000
 30
0.0000000000000000
 40
0.3000000000000000
100
AcDbArc
 50
89.99999999998906
 51
180.0000000000000
  0
ARC
  5
55
100
AcDbEntity
  8
A4
  6
CONTINUOUS
 62
7
100
AcDbCircle
 10
45.99999999999977
 20
360.3000000000002
 30
0.0000000000000000
 40
0.3000000000000000
100
AcDbArc
 50
180.0000000000000
 51
270.0000000000000
  0
ARC
  5
56
100
AcDbEntity
  8
A4
  6
CONTINUOUS
 62
7
100
AcDbCircle
 10
41.19999999999976
 20
179.9999999999999
 30
0.0000000000000000
 40
0.9000000000000000
100
AcDbArc
 50
270.0000000000000
 51
450.0000000000000
  0
ARC
  5
57
100
AcDbEntity
  8
A4
  6
CONTINUOUS
 62
7
100
AcDbCircle
 10
58.79999999999990
 20
179.9999999999999
 30
0.0000000000000000
 40
0.9000000000000000
100
AcDbArc
 50
90.00000000000000
 51
270.0000000000000
  0
ARC
  5
58
100
AcDbEntity
  8
A4
  6
CONTINUOUS
 62
7
100
AcDbCircle
 10
41.19999999999976
 20
193.5000000000001
 30
0.0000000000000000
 40
0.9000000000000000
100
AcDbArc
 50
270.0000000000000
 51
450.0000000000000
  0
ARC
  5
59
100
AcDbEntity
  8
A4
  6
CONTINUOUS
 62
7
100
AcDbCircle
 10
58.79999999999990
 20
193.5000000000001
 30
0.0000000000000000
 40
0.9000000000000000
100
AcDbArc
 50
90.00000000000000
 51
270.0000000000000
  0
LINE
  5
5A
100
AcDbEntity
  8
A4
  6
CONTINUOUS
 62
7
100
AcDbLine
 10
57.99999999999999
 20
61.76393202250040
 30
0.0000000000000000
 11
57.99999999999999
 21
50.00000000000011
 31
0.0000000000000000
  0
LINE
  5
5B
100
AcDbEntity
  8
A4
  6
CONTINUOUS
 62
7
100
AcDbLine
 10
54.30000000000021
 20
65.00000000000071
 30
0.0000000000000000
 11
56.89442719100020
 21
63.55278640450081
 31
0.0000000000000000
  0
LINE
  5
5C
100
AcDbEntity
  8
A4
  6
CONTINUOUS
 62
7
100
AcDbLine
 10
45.70000000000054
 20
65.00000000000037
 30
0.0000000000000000
 11
54.29999999999590
 21
65.00000000000307
 31
0.0000000000000000
  0
LINE
  5
5D
100
AcDbEntity
  8
A4
  6
CONTINUOUS
 62
7
100
AcDbLine
 10
43.10557280899969
 20
63.55278640450005
 30
0.0000000000000000
 11
45.70000000000012
 21
65.00000000000010
 31
0.0000000000000000
  0
LINE
  5
5E
100
AcDbEntity
  8
A4
  6
CONTINUOUS
 62
7
100
AcDbLine
 10
41.99999999999999
 20
50.00000000000011
 30
0.0000000000000000
 11
41.99999999999999
 21
61.76393202250040
 31
0.0000000000000000
  0
LINE
  5
5F
100
AcDbEntity
  8
A4
  6
CONTINUOUS
 62
7
100
AcDbLine
 10
58.00000000000000
 20
364.4860679775001
 30
0.0000000000000000
 11
58.00000000000000
 21
375.0000000000006
 31
0.0000000000000000
  0
LINE
  5
60
100
AcDbEntity
  8
A4
  6
CONTINUOUS
 62
7
100
AcDbLine
 10
54.29999999999993
 20
361.2499999999996
 30
0.0000000000000000
 11
56.89442719099983
 21
362.6972135954996
 31
0.0000000000000000
  0
LINE
  5
61
100
AcDbEntity
  8
A4
  6
CONTINUOUS
 62
7
100
AcDbLine
 10
42.00000000000000
 20
375.0000000000001
 30
0.0000000000000000
 11
42.00000000000000
 21
364.4860679775001
 31
0.0000000000000000
  0
LINE
  5
62
100
AcDbEntity
  8
A4
  6
CONTINUOUS
 62
7
100
AcDbLine
 10
43.10557280900024
 20
362.6972135955001
 30
0.0000000000000000
 11
45.69999999999997
 21
361.2499999999998
 31
0.0000000000000000
  0
LINE
  5
63
100
AcDbEntity
  8
A4
  6
CONTINUOUS
 62
7
100
AcDbLine
 10
54.29999999999995
 20
361.8500000000005
 30
0.0000000000000000
 11
54.29999999999995
 21
360.5000000000001
 31
0.0000000000000000
  0
LINE
  5
64
100
AcDbEntity
  8
A4
  6
CONTINUOUS
 62
7
100
AcDbLine
 10
54.29999999999995
 20
362.7000000000004
 30
0.0000000000000000
 11
54.29999999999995
 21
361.8500000000005
 31
0.0000000000000000
  0
LINE
  5
65
100
AcDbEntity
  8
A4
  6
CONTINUOUS
 62
7
100
AcDbLine
 10
54.29999999999995
 20
360.5000000000001
 30
0.0000000000000000
 11
54.29999999999995
 21
360.3000000000003
 31
0.0000000000000000
  0
LINE
  5
66
100
AcDbEntity
  8
A4
  6
CONTINUOUS
 62
7
100
AcDbLine
 10
46.00000000000000
 20
363.0000000000006
 30
0.0000000000000000
 11
54.00000000000000
 21
363.0000000000006
 31
0.0000000000000000
  0
LINE
  5
67
100
AcDbEntity
  8
A4
  6
CONTINUOUS
 62
7
100
AcDbLine
 10
45.70000000000005
 20
361.8500000000005
 30
0.0000000000000000
 11
45.70000000000005
 21
362.7000000000004
 31
0.0000000000000000
  0
LINE
  5
68
100
AcDbEntity
  8
A4
  6
CONTINUOUS
 62
7
100
AcDbLine
 10
46.00000000000000
 20
360.0000000000001
 30
0.0000000000000000
 11
46.47828310025898
 21
360.0000000000001
 31
0.0000000000000000
  0
LINE
  5
69
100
AcDbEntity
  8
A4
  6
CONTINUOUS
 62
7
100
AcDbLine
 10
53.52171689972761
 20
360.0000000000001
 30
0.0000000000000000
 11
54.00000000000000
 21
360.0000000000001
 31
0.0000000000000000
  0
LINE
  5
6A
100
AcDbEntity
  8
A4
  6
CONTINUOUS
 62
7
100
AcDbLine
 10
45.70000000000005
 20
360.5000000000001
 30
0.0000000000000000
 11
45.70000000000005
 21
361.8500000000005
 31
0.0000000000000000
  0
LINE
  5
6B
100
AcDbEntity
  8
A4
  6
CONTINUOUS
 62
7
100
AcDbLine
 10
45.70000000000005
 20
360.3000000000003
 30
0.0000000000000000
 11
45.70000000000005
 21
360.5000000000001
 31
0.0000000000000000
  0
LINE
  5
6C
100
AcDbEntity
  8
A4
  6
CONTINUOUS
 62
7
100
AcDbLine
 10
45.99999999999999
 20
173.0000000000000
 30
0.0000000000000000
 11
45.99999999999999
 21
65.00000000000057
 31
0.0000000000000000
  0
LINE
  5
6D
100
AcDbEntity
  8
A4
  6
CONTINUOUS
 62
7
100
AcDbLine
 10
53.99999999999999
 20
65.00000000000057
 30
0.0000000000000000
 11
53.99999999999999
 21
173.0000000000000
 31
0.0000000000000000
  0
LINE
  5
6E
100
AcDbEntity
  8
A4
  6
CONTINUOUS
 62
7
100
AcDbLine
 10
42.10000000000007
 20
174.7000000000003
 30
0.0000000000000000
 11
42.10000000000007
 21
173.0000000000000
 31
0.0000000000000000
  0
LINE
  5
6F
100
AcDbEntity
  8
A4
  6
CONTINUOUS
 62
7
100
AcDbLine
 10
57.90000000000002
 20
173.0000000000000
 30
0.0000000000000000
 11
57.90000000000003
 21
174.7000000000003
 31
0.0000000000000000
  0
LINE
  5
70
100
AcDbEntity
  8
A4
  6
CONTINUOUS
 62
7
100
AcDbLine
 10
57.90000000000002
 20
173.0000000000000
 30
0.0000000000000000
 11
42.10000000000007
 21
173.0000000000000
 31
0.0000000000000000
  0
LINE
  5
71
100
AcDbEntity
  8
A4
  6
CONTINUOUS
 62
7
100
AcDbLine
 10
40.99999999999994
 20
179.1000000000004
 30
0.0000000000000000
 11
40.99999999999994
 21
174.7000000000003
 31
0.0000000000000000
  0
LINE
  5
72
100
AcDbEntity
  8
A4
  6
CONTINUOUS
 62
7
100
AcDbLine
 10
58.99999999999994
 20
174.7000000000003
 30
0.0000000000000000
 11
58.99999999999994
 21
179.1000000000004
 31
0.0000000000000000
  0
LINE
  5
73
100
AcDbEntity
  8
A4
  6
CONTINUOUS
 62
7
100
AcDbLine
 10
58.99999999999994
 20
174.7000000000003
 30
0.0000000000000000
 11
40.99999999999994
 21
174.7000000000003
 31
0.0000000000000000
  0
LINE
  5
74
100
AcDbEntity
  8
A4
  6
CONTINUOUS
 62
7
100
AcDbLine
 10
58.99999999999994
 20
179.1000000000004
 30
0.0000000000000000
 11
40.99999999999994
 21
179.1000000000004
 31
0.0000000000000000
  0
LINE
  5
75
100
AcDbEntity
  8
A4
  6
CONTINUOUS
 62
7
100
AcDbLine
 10
40.99999999999994
 20
192.6000000000004
 30
0.0000000000000000
 11
40.99999999999994
 21
180.9000000000001
 31
0.0000000000000000
  0
LINE
  5
76
100
AcDbEntity
  8
A4
  6
CONTINUOUS
 62
7
100
AcDbLine
 10
58.99999999999994
 20
180.9000000000001
 30
0.0000000000000000
 11
58.99999999999994
 21
192.6000000000004
 31
0.0000000000000000
  0
LINE
  5
77
100
AcDbEntity
  8
A4
  6
CONTINUOUS
 62
7
100
AcDbLine
 10
58.99999999999994
 20
180.9000000000001
 30
0.0000000000000000
 11
40.99999999999994
 21
180.9000000000001
 31
0.0000000000000000
  0
LINE
  5
78
100
AcDbEntity
  8
A4
  6
CONTINUOUS
 62
7
100
AcDbLine
 10
58.99999999999994
 20
192.6000000000004
 30
0.0000000000000000
 11
40.99999999999994
 21
192.6000000000004
 31
0.0000000000000000
  0
LINE
  5
79
100
AcDbEntity
  8
A4
  6
CONTINUOUS
 62
7
100
AcDbLine
 10
41.00000000000023
 20
356.2499999999999
 30
0.0000000000000000
 11
41.00000000000022
 21
194.4000000000001
 31
0.0000000000000000
  0
LINE
  5
7A
100
AcDbEntity
  8
A4
  6
CONTINUOUS
 62
7
100
AcDbLine
 10
58.99999999999977
 20
194.4000000000001
 30
0.0000000000000000
 11
58.99999999999977
 21
356.2499999999999
 31
0.0000000000000000
  0
LINE
  5
7B
100
AcDbEntity
  8
A4
  6
CONTINUOUS
 62
7
100
AcDbLine
 10
58.99999999999994
 20
194.4000000000001
 30
0.0000000000000000
 11
40.99999999999994
 21
194.4000000000001
 31
0.0000000000000000
  0
LINE
  5
7C
100
AcDbEntity
  8
A4
  6
CONTINUOUS
 62
7
100
AcDbLine
 10
51.60100308733399
 20
360.4047219143905
 30
0.0000000000000000
 11
48.39899691266601
 21
360.4047219143905
 31
0.0000000000000000
  0
LINE
  5
7D
100
AcDbEntity
  8
A4
  6
CONTINUOUS
 62
7
100
AcDbLine
 10
45.69795029397537
 20
360.4034746932289
 30
0.0000000000000000
 11
40.92632698070852
 21
357.5000000000007
 31
0.0000000000000000
  0
LINE
  5
7E
100
AcDbEntity
  8
A4
  6
CONTINUOUS
 62
7
100
AcDbLine
 10
59.07367301929175
 20
357.5000000000004
 30
0.0000000000000000
 11
54.30204970602468
 21
360.4034746932286
 31
0.0000000000000000
  0
LINE
  5
7F
100
AcDbEntity
  8
A4
  6
CONTINUOUS
 62
7
100
AcDbLine
 10
40.92632698070823
 20
357.5000000000001
 30
0.0000000000000000
 11
40.74999999999974
 21
356.5000000000002
 31
0.0000000000000000
  0
LINE
  5
80
100
AcDbEntity
  8
A4
  6
CONTINUOUS
 62
7
100
AcDbLine
 10
59.25000000000012
 20
356.5000000000008
 30
0.0000000000000000
 11
59.07367301929163
 21
357.5000000000007
 31
0.0000000000000000
  0
LINE
  5
81
100
AcDbEntity
  8
A4
  6
CONTINUOUS
 62
7
100
AcDbLine
 10
59.07367301929185
 20
357.5000000000006
 30
0.0000000000000000
 11
40.92632698070815
 21
357.5000000000006
 31
0.0000000000000000
  0
LINE
  5
82
100
AcDbEntity
  8
A4
  6
CONTINUOUS
 62
7
100
AcDbLine
 10
58.99999999999901
 20
356.2499999999993
 30
0.0000000000000000
 11
59.25000000000040
 21
356.5000000000006
 31
0.0000000000000000
  0
LINE
  5
83
100
AcDbEntity
  8
A4
  6
CONTINUOUS
 62
7
100
AcDbLine
 10
40.74999999999943
 20
356.5000000000006
 30
0.0000000000000000
 11
41.00000000000048
 21
356.2499999999997
 31
0.0000000000000000
  0
LINE
  5
84
100
AcDbEntity
  8
A4
  6
CONTINUOUS
 62
7
100
AcDbLine
 10
58.99999999999932
 20
356.2499999999999
 30
0.0000000000000000
 11
41.00000000000068
 21
356.2499999999999
 31
0.0000000000000000
  0
LINE
  5
85
100
AcDbEntity
  8
A4
  6
CONTINUOUS
 62
7
100
AcDbLine
 10
59.25000000000023
 20
356.5000000000006
 30
0.0000000000000000
 11
40.74999999999977
 21
356.5000000000006
 31
0.0000000000000000
  0
CIRCLE
  5
86
100
AcDbEntity
  8
A5
  6
CONTINUOUS
 62
7
100
AcDbCircle
 10
200.0000000000000
 20
449.9999999999999
 30
0.0000000000000000
 40
9.250000000000313
  0
CIRCLE
  5
87
100
AcDbEntity
  8
A5
  6
CONTINUOUS
 62
7
100
AcDbCircle
 10
200.0000000000000
 20
449.9999999999999
 30
0.0000000000000000
 40
9.073673019291823
  0
ARC
  5
88
100
AcDbEntity
  8
A5
  6
CONTINUOUS
 62
7
100
AcDbCircle
 10
200.0000000000000
 20
449.9999999999999
 30
0.0000000000000000
 40
4.300000000000109
100
AcDbArc
 50
338.4710955944244
 51
381.5289044055755
  0
ARC
  5
89
100
AcDbEntity
  8
A5
  6
CONTINUOUS
 62
7
100
AcDbCircle
 10
200.0000000000000
 20
449.9999999999999
 30
0.0000000000000000
 40
4.300000000000109
100
AcDbArc
 50
158.4710955944245
 51
201.5289044055755
  0
ARC
  5
8A
100
AcDbEntity
  8
A5
  6
CONTINUOUS
 62
7
100
AcDbCircle
 10
203.7000000000000
 20
445.9999999999997
 30
0.0000000000000000
 40
0.3000000000000000
100
AcDbArc
 50
270.0000000000000
 51
360.0000000000000
  0
ARC
  5
8B
100
AcDbEntity
  8
A5
  6
CONTINUOUS
 62
7
100
AcDbCircle
 10
196.3000000000000
 20
445.9999999999997
 30
0.0000000000000000
 40
0.3000000000000000
100
AcDbArc
 50
179.9999999999890
 51
270.0000000000000
  0
ARC
  5
8C
100
AcDbEntity
  8
A5
  6
CONTINUOUS
 62
7
100
AcDbCircle
 10
203.7000000000000
 20
453.9999999999999
 30
0.0000000000000000
 40
0.3000000000000000
100
AcDbArc
 50
359.9999999999946
 51
450.0000000000000
  0
ARC
  5
8D
100
AcDbEntity
  8
A5
  6
CONTINUOUS
 62
7
100
AcDbCircle
 10
196.3000000000000
 20
453.9999999999999
 30
0.0000000000000000
 40
0.3000000000000000
100
AcDbArc
 50
90.00000000000000
 51
180.0000000000054
  0
LINE
  5
8E
100
AcDbEntity
  8
A5
  6
CONTINUOUS
 62
7
100
AcDbLine
 10
203.6999999999998
 20
445.6999999999999
 30
0.0000000000000000
 11
201.5999999999999
 21
445.6999999999999
 31
0.0000000000000000
  0
LINE
  5
8F
100
AcDbEntity
  8
A5
  6
CONTINUOUS
 62
7
100
AcDbLine
 10
198.3999999999996
 20
445.6999999999999
 30
0.0000000000000000
 11
196.2999999999997
 21
445.6999999999999
 31
0.0000000000000000
  0
LINE
  5
90
100
AcDbEntity
  8
A5
  6
CONTINUOUS
 62
7
100
AcDbLine
 10
203.9999999999998
 20
445.9999999999999
 30
0.0000000000000000
 11
203.9999999999998
 21
453.9999999999999
 31
0.0000000000000000
  0
LINE
  5
91
100
AcDbEntity
  8
A5
  6
CONTINUOUS
 62
7
100
AcDbLine
 10
195.9999999999998
 20
445.9999999999999
 30
0.0000000000000000
 11
195.9999999999998
 21
453.9999999999999
 31
0.0000000000000000
  0
LINE
  5
92
100
AcDbEntity
  8
A5
  6
CONTINUOUS
 62
7
100
AcDbLine
 10
201.5999999999999
 20
454.2999999999998
 30
0.0000000000000000
 11
203.6999999999998
 21
454.2999999999998
 31
0.0000000000000000
  0
LINE
  5
93
100
AcDbEntity
  8
A5
  6
CONTINUOUS
 62
7
100
AcDbLine
 10
196.2999999999997
 20
454.2999999999998
 30
0.0000000000000000
 11
198.3999999999996
 21
454.2999999999998
 31
0.0000000000000000
  0
LINE
  5
94
100
AcDbEntity
  8
A5
  6
CONTINUOUS
 62
7
100
AcDbLine
 10
201.5999999999999
 20
457.9999999999999
 30
0.0000000000000000
 11
201.5999999999999
 21
441.9999999999999
 31
0.0000000000000000
  0
LINE
  5
95
100
AcDbEntity
  8
A5
  6
CONTINUOUS
 62
7
100
AcDbLine
 10
198.3999999999997
 20
457.9999999999999
 30
0.0000000000000000
 11
201.5999999999999
 21
457.9999999999999
 31
0.0000000000000000
  0
LINE
  5
96
100
AcDbEntity
  8
A5
  6
CONTINUOUS
 62
7
100
AcDbLine
 10
198.3999999999997
 20
457.9999999999999
 30
0.0000000000000000
 11
198.3999999999997
 21
441.9999999999999
 31
0.0000000000000000
  0
LINE
  5
97
100
AcDbEntity
  8
A5
  6
CONTINUOUS
 62
7
100
AcDbLine
 10
198.3999999999997
 20
441.9999999999999
 30
0.0000000000000000
 11
201.5999999999999
 21
441.9999999999999
 31
0.0000000000000000
  0
CIRCLE
  5
98
100
AcDbEntity
  8
A7
  6
CONTINUOUS
 62
7
100
AcDbCircle
 10
199.9999999999998
 20
-25.00000000000009
 30
0.0000000000000000
 40
9.250000000000313
  0
CIRCLE
  5
99
100
AcDbEntity
  8
A7
  6
CONTINUOUS
 62
7
100
AcDbCircle
 10
199.9999999999998
 20
-25.00000000000009
 30
0.0000000000000000
 40
9.000000000000007
  0
ARC
  5
9A
100
AcDbEntity
  8
A7
  6
CONTINUOUS
 62
7
100
AcDbCircle
 10
199.9999999999998
 20
-25.00000000000009
 30
0.0000000000000000
 40
7.900000000000018
100
AcDbArc
 50
101.6850419558431
 51
258.3149580441570
  0
ARC
  5
9B
100
AcDbEntity
  8
A7
  6
CONTINUOUS
 62
7
100
AcDbCircle
 10
199.9999999999998
 20
-25.00000000000009
 30
0.0000000000000000
 40
7.900000000000018
100
AcDbArc
 50
281.6850419558430
 51
438.3149580441569
  0
ARC
  5
9C
100
AcDbEntity
  8
A7
  6
CONTINUOUS
 62
7
100
AcDbCircle
 10
199.9999999999998
 20
-25.00000000000009
 30
0.0000000000000000
 40
4.000000000000004
100
AcDbArc
 50
113.5781784782022
 51
246.4218215217979
  0
ARC
  5
9D
100
AcDbEntity
  8
A7
  6
CONTINUOUS
 62
7
100
AcDbCircle
 10
199.9999999999998
 20
-25.00000000000009
 30
0.0000000000000000
 40
4.000000000000004
100
AcDbArc
 50
293.5781784782022
 51
426.4218215217979
  0
LINE
  5
9E
100
AcDbEntity
  8
A7
  6
CONTINUOUS
 62
7
100
AcDbLine
 10
198.3999999999994
 20
-33.00000000000014
 30
0.0000000000000000
 11
198.3999999999994
 21
-17.00000000000014
 31
0.0000000000000000
  0
LINE
  5
9F
100
AcDbEntity
  8
A7
  6
CONTINUOUS
 62
7
100
AcDbLine
 10
201.5999999999994
 20
-33.00000000000014
 30
0.0000000000000000
 11
198.3999999999994
 21
-33.00000000000014
 31
0.0000000000000000
  0
LINE
  5
A0
100
AcDbEntity
  8
A7
  6
CONTINUOUS
 62
7
100
AcDbLine
 10
201.5999999999994
 20
-33.00000000000014
 30
0.0000000000000000
 11
201.5999999999994
 21
-17.00000000000014
 31
0.0000000000000000
  0
LINE
  5
A1
100
AcDbEntity
  8
A7
  6
CONTINUOUS
 62
7
100
AcDbLine
 10
201.5999999999994
 20
-17.00000000000014
 30
0.0000000000000000
 11
198.3999999999994
 21
-17.00000000000014
 31
0.0000000000000000
  0
SPLINE
  5
A2
100
AcDbEntity
  8
A8
  6
CONTINUOUS
 62
7
100
AcDbSpline
210
0.0000000000000000
220
0.0000000000000000
230
1.000000000000000
 70
     8
 71
     3
 72
    14
 73
    10
 74
     0
 42
1.000000000000000e-07
 43
1.000000000000000e-07
 12
-0.9996474559666240
 22
0.02655115399647912
 32
0.0000000000000000
 13
-0.9857129467420691
 23
0.1684339236189771
 33
0.0000000000000000
 40
0.0000000000000000
 40
0.0000000000000000
 40
0.0000000000000000
 40
0.0000000000000000
 40
0.09315528448461950
 40
0.1950874593141719
 40
0.3839940351856702
 40
0.5777820545091477
 40
0.9792705164082899
 40
1.358548394653505
 40
1.739850674386990
 40
1.739850674386990
 40
1.739850674386990
 40
1.739850674386990
 10
202.9415115029226
 20
360.0000000000000
 30
0.0000000000000000
 10
202.9104706885410
 20
360.0008244601013
 30
0.0000000000000000
 10
202.8454709636585
 20
360.0043272790854
 30
0.0000000000000000
 10
202.7184941334854
 20
360.0209405760484
 30
0.0000000000000000
 10
202.5590539570555
 20
360.0469880934234
 30
0.0000000000000000
 10
202.3022003809422
 20
360.0955834495987
 30
0.0000000000000000
 10
201.9836669954632
 20
360.1593152478815
 30
0.0000000000000000
 10
201.6036098354446
 20
360.2342113482025
 30
0.0000000000000000
 10
201.3539815137872
 20
360.2785919203134
 30
0.0000000000000000
 10
201.2286966492020
 20
360.3000000000002
 30
0.0000000000000000
  0
SPLINE
  5
A3
100
AcDbEntity
  8
A8
  6
CONTINUOUS
 62
7
100
AcDbSpline
210
0.0000000000000000
220
0.0000000000000000
230
1.000000000000000
 70
     8
 71
     3
 72
    11
 73
     7
 74
     0
 42
1.000000000000000e-07
 43
1.000000000000000e-07
 12
-0.9858379091391498
 22
0.1677009746667864
 32
0.0000000000000000
 13
-0.9859461246865067
 23
-0.1670635783616490
 33
0.0000000000000000
 40
0.0000000000000000
 40
0.0000000000000000
 40
0.0000000000000000
 40
0.0000000000000000
 40
0.6726855748206242
 40
1.350872410333460
 40
1.908044232911144
 40
2.468422506518329
 40
2.468422506518329
 40
2.468422506518329
 40
2.468422506518329
 10
201.2286966492020
 20
360.3000000000002
 30
0.0000000000000000
 10
201.0076436690056
 20
360.3376033421807
 30
0.0000000000000000
 10
200.5600490673869
 20
360.3928235832605
 30
0.0000000000000000
 10
199.9234127620468
 20
360.4135217629719
 30
0.0000000000000000
 10
199.3252340707195
 20
360.3795699137229
 30
0.0000000000000000
 10
198.9554709465383
 20
360.3312062665418
 30
0.0000000000000000
 10
198.7713033507978
 20
360.3000000000002
 30
0.0000000000000000
  0
SPLINE
  5
A4
100
AcDbEntity
  8
A8
  6
CONTINUOUS
 62
7
100
AcDbSpline
210
0.0000000000000000
220
0.0000000000000000
230
1.000000000000000
 70
     8
 71
     3
 72
    13
 73
     9
 74
     0
 42
1.000000000000000e-07
 43
1.000000000000000e-07
 12
-0.9851505400265523
 22
-0.1716927880991079
 32
0.0000000000000000
 13
-0.9995213291240361
 23
-0.03093723680285621
 33
0.0000000000000000
 40
0.0000000000000000
 40
0.0000000000000000
 40
0.0000000000000000
 40
0.0000000000000000
 40
0.6000765615715720
 40
0.9435644288541034
 40
1.282772010802405
 40
1.469548361742791
 40
1.648396977352754
 40
1.739834489491032
 40
1.739834489491032
 40
1.739834489491032
 40
1.739834489491032
 10
198.7713033507978
 20
360.3000000000002
 30
0.0000000000000000
 10
198.5742481012346
 20
360.2656570606905
 30
0.0000000000000000
 10
198.2647754520256
 20
360.2093280357406
 30
0.0000000000000000
 10
197.8456528024878
 20
360.1246987268107
 30
0.0000000000000000
 10
197.5611754016882
 20
360.0690934086226
 30
0.0000000000000000
 10
197.3298969297462
 20
360.0280253986475
 30
0.0000000000000000
 10
197.1789926843269
 20
360.0057056368628
 30
0.0000000000000000
 10
197.0889530782986
 20
360.0009429413219
 30
0.0000000000000000
 10
197.0584884970772
 20
360.0000000000000
 30
0.0000000000000000
  0
ARC
  5
A5
100
AcDbEntity
  8
A8
  6
CONTINUOUS
 62
7
100
AcDbCircle
 10
203.4999999999998
 20
360.5000000238422
 30
0.0000000000000000
 40
0.5000000000000000
100
AcDbArc
 50
270.0000000000000
 51
360.0000000000000
  0
ARC
  5
A6
100
AcDbEntity
  8
A8
  6
CONTINUOUS
 62
7
100
AcDbCircle
 10
196.4999999999998
 20
360.5000000000000
 30
0.0000000000000000
 40
0.5000000000000000
100
AcDbArc
 50
180.0000000000000
 51
270.0000000000000
  0
ARC
  5
A7
100
AcDbEntity
  8
A8
  6
CONTINUOUS
 62
7
100
AcDbCircle
 10
202.8499999999999
 20
361.8500000000004
 30
0.0000000000000000
 40
1.149999999999977
100
AcDbArc
 50
0.0000000000000000
 51
90.00000000000000
  0
ARC
  5
A8
100
AcDbEntity
  8
A8
  6
CONTINUOUS
 62
7
100
AcDbCircle
 10
197.1499999999999
 20
361.8500000000004
 30
0.0000000000000000
 40
1.149999999999977
100
AcDbArc
 50
90.00000000000000
 51
180.0000000000000
  0
ARC
  5
A9
100
AcDbEntity
  8
A8
  6
CONTINUOUS
 62
7
100
AcDbCircle
 10
191.1999999999998
 20
179.9999999999999
 30
0.0000000000000000
 40
0.9000000000000000
100
AcDbArc
 50
270.0000000000000
 51
450.0000000000000
  0
ARC
  5
AA
100
AcDbEntity
  8
A8
  6
CONTINUOUS
 62
7
100
AcDbCircle
 10
208.7999999999999
 20
179.9999999999999
 30
0.0000000000000000
 40
0.9000000000000000
100
AcDbArc
 50
90.00000000000000
 51
270.0000000000000
  0
ARC
  5
AB
100
AcDbEntity
  8
A8
  6
CONTINUOUS
 62
7
100
AcDbCircle
 10
191.1999999999998
 20
193.5000000000001
 30
0.0000000000000000
 40
0.9000000000000000
100
AcDbArc
 50
270.0000000000000
 51
450.0000000000000
  0
ARC
  5
AC
100
AcDbEntity
  8
A8
  6
CONTINUOUS
 62
7
100
AcDbCircle
 10
208.7999999999999
 20
193.5000000000001
 30
0.0000000000000000
 40
0.9000000000000000
100
AcDbArc
 50
90.00000000000000
 51
270.0000000000000
  0
LINE
  5
AD
100
AcDbEntity
  8
A8
  6
CONTINUOUS
 62
7
100
AcDbLine
 10
204.0000000000000
 20
65.00000000000054
 30
0.0000000000000000
 11
196.0000000000000
 21
65.00000000000054
 31
0.0000000000000000
  0
LINE
  5
AE
100
AcDbEntity
  8
A8
  6
CONTINUOUS
 62
7
100
AcDbLine
 10
196.0000000000000
 20
173.0000000000000
 30
0.0000000000000000
 11
196.0000000000000
 21
65.00000000000055
 31
0.0000000000000000
  0
LINE
  5
AF
100
AcDbEntity
  8
A8
  6
CONTINUOUS
 62
7
100
AcDbLine
 10
204.0000000000000
 20
65.00000000000055
 30
0.0000000000000000
 11
204.0000000000000
 21
173.0000000000000
 31
0.0000000000000000
  0
LINE
  5
B0
100
AcDbEntity
  8
A8
  6
CONTINUOUS
 62
7
100
AcDbLine
 10
203.4999999999998
 20
360.0000000238425
 30
0.0000000000000000
 11
202.9415115029226
 21
360.0000000000005
 31
0.0000000000000000
  0
LINE
  5
B1
100
AcDbEntity
  8
A8
  6
CONTINUOUS
 62
7
100
AcDbLine
 10
201.5999999999999
 20
363.0000000000001
 30
0.0000000000000000
 11
202.8499999999999
 21
363.0000000000001
 31
0.0000000000000000
  0
LINE
  5
B2
100
AcDbEntity
  8
A8
  6
CONTINUOUS
 62
7
100
AcDbLine
 10
197.0584884970772
 20
360.0000000000001
 30
0.0000000000000000
 11
196.5000000000000
 21
360.0000000000001
 31
0.0000000000000000
  0
LINE
  5
B3
100
AcDbEntity
  8
A8
  6
CONTINUOUS
 62
7
100
AcDbLine
 10
204.0000000000000
 20
361.8500000000005
 30
0.0000000000000000
 11
204.0000000000000
 21
360.5000000238423
 31
0.0000000000000000
  0
LINE
  5
B4
100
AcDbEntity
  8
A8
  6
CONTINUOUS
 62
7
100
AcDbLine
 10
197.1499999999997
 20
363.0000000000003
 30
0.0000000000000000
 11
198.3999999999997
 21
363.0000000000001
 31
0.0000000000000000
  0
LINE
  5
B5
100
AcDbEntity
  8
A8
  6
CONTINUOUS
 62
7
100
AcDbLine
 10
196.0000000000000
 20
360.5000000000001
 30
0.0000000000000000
 11
196.0000000000000
 21
361.8500000000005
 31
0.0000000000000000
  0
LINE
  5
B6
100
AcDbEntity
  8
A8
  6
CONTINUOUS
 62
7
100
AcDbLine
 10
201.5999999999999
 20
361.2499999999999
 30
0.0000000000000000
 11
201.5999999999999
 21
383.0000000000001
 31
0.0000000000000000
  0
LINE
  5
B7
100
AcDbEntity
  8
A8
  6
CONTINUOUS
 62
7
100
AcDbLine
 10
198.3999999999999
 20
361.2499999999997
 30
0.0000000000000000
 11
198.3999999999999
 21
383.0000000000001
 31
0.0000000000000000
  0
LINE
  5
B8
100
AcDbEntity
  8
A8
  6
CONTINUOUS
 62
7
100
AcDbLine
 10
201.5999999999999
 20
361.2499999999999
 30
0.0000000000000000
 11
198.3999999999999
 21
361.2499999999999
 31
0.0000000000000000
  0
LINE
  5
B9
100
AcDbEntity
  8
A8
  6
CONTINUOUS
 62
7
100
AcDbLine
 10
192.0999999999999
 20
174.7000000000003
 30
0.0000000000000000
 11
192.0999999999999
 21
173.0000000000000
 31
0.0000000000000000
  0
LINE
  5
BA
100
AcDbEntity
  8
A8
  6
CONTINUOUS
 62
7
100
AcDbLine
 10
207.9000000000000
 20
173.0000000000000
 30
0.0000000000000000
 11
207.9000000000000
 21
174.7000000000003
 31
0.0000000000000000
  0
LINE
  5
BB
100
AcDbEntity
  8
A8
  6
CONTINUOUS
 62
7
100
AcDbLine
 10
207.9000000000000
 20
173.0000000000000
 30
0.0000000000000000
 11
192.0999999999999
 21
173.0000000000000
 31
0.0000000000000000
  0
LINE
  5
BC
100
AcDbEntity
  8
A8
  6
CONTINUOUS
 62
7
100
AcDbLine
 10
201.5999999999999
 20
383.0000000000001
 30
0.0000000000000000
 11
198.3999999999999
 21
383.0000000000001
 31
0.0000000000000000
  0
LINE
  5
BD
100
AcDbEntity
  8
A8
  6
CONTINUOUS
 62
7
100
AcDbLine
 10
198.3999999999999
 20
42.00000000000010
 30
0.0000000000000000
 11
201.5999999999999
 21
42.00000000000010
 31
0.0000000000000000
  0
LINE
  5
BE
100
AcDbEntity
  8
A8
  6
CONTINUOUS
 62
7
100
AcDbLine
 10
198.3999999999999
 20
42.00000000000009
 30
0.0000000000000000
 11
198.3999999999999
 21
65.00000000000057
 31
0.0000000000000000
  0
LINE
  5
BF
100
AcDbEntity
  8
A8
  6
CONTINUOUS
 62
7
100
AcDbLine
 10
201.5999999999999
 20
42.00000000000009
 30
0.0000000000000000
 11
201.5999999999999
 21
65.00000000000057
 31
0.0000000000000000
  0
LINE
  5
C0
100
AcDbEntity
  8
A8
  6
CONTINUOUS
 62
7
100
AcDbLine
 10
190.9999999999999
 20
179.1000000000004
 30
0.0000000000000000
 11
190.9999999999999
 21
174.7000000000003
 31
0.0000000000000000
  0
LINE
  5
C1
100
AcDbEntity
  8
A8
  6
CONTINUOUS
 62
7
100
AcDbLine
 10
208.9999999999999
 20
174.7000000000003
 30
0.0000000000000000
 11
208.9999999999999
 21
179.1000000000004
 31
0.0000000000000000
  0
LINE
  5
C2
100
AcDbEntity
  8
A8
  6
CONTINUOUS
 62
7
100
AcDbLine
 10
208.9999999999999
 20
174.7000000000003
 30
0.0000000000000000
 11
190.9999999999999
 21
174.7000000000003
 31
0.0000000000000000
  0
LINE
  5
C3
100
AcDbEntity
  8
A8
  6
CONTINUOUS
 62
7
100
AcDbLine
 10
208.9999999999999
 20
179.1000000000004
 30
0.0000000000000000
 11
190.9999999999999
 21
179.1000000000004
 31
0.0000000000000000
  0
LINE
  5
C4
100
AcDbEntity
  8
A8
  6
CONTINUOUS
 62
7
100
AcDbLine
 10
190.9999999999999
 20
192.6000000000004
 30
0.0000000000000000
 11
190.9999999999999
 21
180.9000000000001
 31
0.0000000000000000
  0
LINE
  5
C5
100
AcDbEntity
  8
A8
  6
CONTINUOUS
 62
7
100
AcDbLine
 10
208.9999999999999
 20
180.9000000000001
 30
0.0000000000000000
 11
208.9999999999999
 21
192.6000000000004
 31
0.0000000000000000
  0
LINE
  5
C6
100
AcDbEntity
  8
A8
  6
CONTINUOUS
 62
7
100
AcDbLine
 10
208.9999999999999
 20
180.9000000000001
 30
0.0000000000000000
 11
190.9999999999999
 21
180.9000000000001
 31
0.0000000000000000
  0
LINE
  5
C7
100
AcDbEntity
  8
A8
  6
CONTINUOUS
 62
7
100
AcDbLine
 10
208.9999999999999
 20
192.6000000000004
 30
0.0000000000000000
 11
190.9999999999999
 21
192.6000000000004
 31
0.0000000000000000
  0
LINE
  5
C8
100
AcDbEntity
  8
A8
  6
CONTINUOUS
 62
7
100
AcDbLine
 10
191.0000000000003
 20
356.2499999999999
 30
0.0000000000000000
 11
191.0000000000003
 21
194.4000000000001
 31
0.0000000000000000
  0
LINE
  5
C9
100
AcDbEntity
  8
A8
  6
CONTINUOUS
 62
7
100
AcDbLine
 10
208.9999999999998
 20
194.4000000000001
 30
0.0000000000000000
 11
208.9999999999998
 21
356.2499999999999
 31
0.0000000000000000
  0
LINE
  5
CA
100
AcDbEntity
  8
A8
  6
CONTINUOUS
 62
7
100
AcDbLine
 10
208.9999999999999
 20
194.4000000000001
 30
0.0000000000000000
 11
190.9999999999999
 21
194.4000000000001
 31
0.0000000000000000
  0
LINE
  5
CB
100
AcDbEntity
  8
A8
  6
CONTINUOUS
 62
7
100
AcDbLine
 10
196.0091618531506
 20
360.4047219143905
 30
0.0000000000000000
 11
195.6999999999998
 21
360.4047219143905
 31
0.0000000000000000
  0
LINE
  5
CC
100
AcDbEntity
  8
A8
  6
CONTINUOUS
 62
7
100
AcDbLine
 10
195.6999999999999
 20
360.4047219143905
 30
0.0000000000000000
 11
190.9263269807079
 21
357.5000000000005
 31
0.0000000000000000
  0
LINE
  5
CD
100
AcDbEntity
  8
A8
  6
CONTINUOUS
 62
7
100
AcDbLine
 10
209.0736730192919
 20
357.5000000000005
 30
0.0000000000000000
 11
204.3000000000003
 21
360.4047219143903
 31
0.0000000000000000
  0
LINE
  5
CE
100
AcDbEntity
  8
A8
  6
CONTINUOUS
 62
7
100
AcDbLine
 10
204.3000000000002
 20
360.4047219143905
 30
0.0000000000000000
 11
203.9908381422213
 21
360.4047219143905
 31
0.0000000000000000
  0
LINE
  5
CF
100
AcDbEntity
  8
A8
  6
CONTINUOUS
 62
7
100
AcDbLine
 10
190.9263269807081
 20
357.5000000000005
 30
0.0000000000000000
 11
190.7499999999996
 21
356.5000000000006
 31
0.0000000000000000
  0
LINE
  5
D0
100
AcDbEntity
  8
A8
  6
CONTINUOUS
 62
7
100
AcDbLine
 10
209.2500000000001
 20
356.5000000000003
 30
0.0000000000000000
 11
209.0736730192916
 21
357.5000000000003
 31
0.0000000000000000
  0
LINE
  5
D1
100
AcDbEntity
  8
A8
  6
CONTINUOUS
 62
7
100
AcDbLine
 10
209.0736730192919
 20
357.5000000000006
 30
0.0000000000000000
 11
190.9263269807082
 21
357.5000000000006
 31
0.0000000000000000
  0
LINE
  5
D2
100
AcDbEntity
  8
A8
  6
CONTINUOUS
 62
7
100
AcDbLine
 10
208.9999999999993
 20
356.2499999999996
 30
0.0000000000000000
 11
209.2500000000001
 21
356.5000000000002
 31
0.0000000000000000
  0
LINE
  5
D3
100
AcDbEntity
  8
A8
  6
CONTINUOUS
 62
7
100
AcDbLine
 10
190.7499999999997
 20
356.5000000000005
 30
0.0000000000000000
 11
191.0000000000007
 21
356.2499999999995
 31
0.0000000000000000
  0
LINE
  5
D4
100
AcDbEntity
  8
A8
  6
CONTINUOUS
 62
7
100
AcDbLine
 10
208.9999999999993
 20
356.2499999999999
 30
0.0000000000000000
 11
191.0000000000005
 21
356.2499999999999
 31
0.0000000000000000
  0
LINE
  5
D5
100
AcDbEntity
  8
A8
  6
CONTINUOUS
 62
7
100
AcDbLine
 10
209.2500000000003
 20
356.5000000000006
 30
0.0000000000000000
 11
190.7499999999996
 21
356.5000000000006
 31
0.0000000000000000
  0
LINE
  5
D6
100
AcDbEntity
  8
A10
  6
CENTER
 62
4
100
AcDbLine
 10
200.0000000000000
 20
36.00000000000040
 30
0.0000000000000000
 11
200.0000000000000
 21
388.9999999999999
 31
0.0000000000000000
  0
LINE
  5
D7
100
AcDbEntity
  8
A5
  6
CENTER
 62
4
100
AcDbLine
 10
200.0000000000000
 20
465.2500000000002
 30
0.0000000000000000
 11
200.0000000000000
 21
434.7499999999995
 31
0.0000000000000000
  0
LINE
  5
D8
100
AcDbEntity
  8
A5
  6
CENTER
 62
4
100
AcDbLine
 10
184.7499999999998
 20
450.0000000000000
 30
0.0000000000000000
 11
215.2500000000002
 21
450.0000000000000
 31
0.0000000000000000
  0
LINE
  5
D9
100
AcDbEntity
  8
A7
  6
CENTER
 62
4
100
AcDbLine
 10
199.9999999999998
 20
-9.749999999999773
 30
0.0000000000000000
 11
199.9999999999998
 21
-40.25000000000040
 31
0.0000000000000000
  0
LINE
  5
DA
100
AcDbEntity
  8
A7
  6
CENTER
 62
4
100
AcDbLine
 10
184.7499999999995
 20
-25.00000000000000
 30
0.0000000000000000
 11
215.2500000000000
 21
-25.00000000000000
 31
0.0000000000000000
  0
LINE
  5
DB
100
AcDbEntity
  8
A4
  6
CENTER
 62
4
100
AcDbLine
 10
64.00000000000000
 20
375.0000000000000
 30
0.0000000000000000
 11
36.00000000000000
 21
375.0000000000000
 31
0.0000000000000000
  0
LINE
  5
DC
100
AcDbEntity
  8
A4
  6
CENTER
 62
4
100
AcDbLine
 10
50.00000000000000
 20
388.9999999999999
 30
0.0000000000000000
 11
50.00000000000000
 21
36.00000000000040
 31
0.0000000000000000
  0
LINE
  5
DD
100
AcDbEntity
  8
A4
  6
CENTER
 62
4
100
AcDbLine
 10
64.00000000000000
 20
50.00000000000000
 30
0.0000000000000000
 11
36.00000000000000
 21
50.00000000000000
 31
0.0000000000000000
  0
LINE
  5
DE
100
AcDbEntity
  8
A10
  6
CENTER
 62
4
100
AcDbLine
 10
192.3999999999996
 20
375.0000000000000
 30
0.0000000000000000
 11
207.5999999999999
 21
375.0000000000000
 31
0.0000000000000000
  0
LINE
  5
DF
100
AcDbEntity
  8
A10
  6
CENTER
 62
4
100
AcDbLine
 10
192.3999999999996
 20
50.00000000000000
 30
0.0000000000000000
 11
207.5999999999999
 21
50.00000000000000
 31
0.0000000000000000
  0
CIRCLE
  5
E0
100
AcDbEntity
  8
A4
  6
CONTINUOUS
 62
7
100
AcDbCircle
 10
350.0000000000000
 20
50.00000000000000
 30
0.0000000000000000
 40
4.500000000000000
  0
CIRCLE
  5
E1
100
AcDbEntity
  8
A4
  6
CONTINUOUS
 62
7
100
AcDbCircle
 10
350.0000000000000
 20
375.0000000000000
 30
0.0000000000000000
 40
4.500000000000000
  0
SPLINE
  5
E2
100
AcDbEntity
  8
A4
  6
CONTINUOUS
 62
7
100
AcDbSpline
210
0.0000000000000000
220
0.0000000000000000
230
1.000000000000000
 70
     8
 71
     3
 72
    15
 73
    11
 74
     0
 42
1.000000000000000e-07
 43
1.000000000000000e-07
 12
0.9791153627197673
 22
-0.2033054512021408
 32
0.0000000000000000
 13
0.9999702177010477
 23
-0.007717755281191785
 33
0.0000000000000000
 40
0.0000000000000000
 40
0.0000000000000000
 40
0.0000000000000000
 40
0.0000000000000000
 40
0.3951112350109537
 40
0.7883217744682320
 40
1.122037209436692
 40
1.449499252258267
 40
1.758834612153513
 40
1.853255129960945
 40
1.940114431743382
 40
1.964439213711132
 40
1.964439213711132
 40
1.964439213711132
 40
1.964439213711132
 10
351.6010030873340
 20
360.4047219143904
 30
0.0000000000000000
 10
351.7299562473947
 20
360.3779458250874
 30
0.0000000000000000
 10
351.9868560299058
 20
360.3226242943540
 30
0.0000000000000000
 10
352.3511035700401
 20
360.2376704204066
 30
0.0000000000000000
 10
352.6926335468520
 20
360.1546830323348
 30
0.0000000000000000
 10
353.0075175250047
 20
360.0805587821851
 30
0.0000000000000000
 10
353.2465666271905
 20
360.0322063017959
 30
0.0000000000000000
 10
353.4082418334774
 20
360.0075884699700
 30
0.0000000000000000
 10
353.4765465086064
 20
360.0008158636906
 30
0.0000000000000000
 10
353.5136088805680
 20
360.0000625775715
 30
0.0000000000000000
 10
353.5217168997413
 20
360.0000000000000
 30
0.0000000000000000
  0
SPLINE
  5
E3
100
AcDbEntity
  8
A4
  6
CONTINUOUS
 62
7
100
AcDbSpline
210
0.0000000000000000
220
0.0000000000000000
230
1.000000000000000
 70
     8
 71
     3
 72
    14
 73
    10
 74
     0
 42
1.000000000000000e-07
 43
1.000000000000000e-07
 12
0.9992324656377605
 22
0.03917243430441886
 32
0.0000000000000000
 13
0.9792244280142768
 23
0.2027794851132967
 33
0.0000000000000000
 40
0.0000000000000000
 40
0.0000000000000000
 40
0.0000000000000000
 40
0.0000000000000000
 40
0.1026130928231937
 40
0.3126606459023353
 40
0.5427511127661856
 40
0.8878356554170450
 40
1.239605680265837
 40
1.601243084576364
 40
1.964349319443579
 40
1.964349319443579
 40
1.964349319443579
 40
1.964349319443579
 10
346.4782831002726
 20
360.0000000000000
 30
0.0000000000000000
 10
346.5124612115221
 20
360.0013398682124
 30
0.0000000000000000
 10
346.6165881922020
 20
360.0080868597242
 30
0.0000000000000000
 10
346.7947900122017
 20
360.0412482050692
 30
0.0000000000000000
 10
347.0507770639790
 20
360.0953285681962
 30
0.0000000000000000
 10
347.3516046452985
 20
360.1661313768716
 30
0.0000000000000000
 10
347.6947190879614
 20
360.2482726308326
 30
0.0000000000000000
 10
348.0442459844837
 20
360.3295537041363
 30
0.0000000000000000
 10
348.2804760809508
 20
360.3801784159411
 30
0.0000000000000000
 10
348.3989969126662
 20
360.4047219143904
 30
0.0000000000000000
  0
ARC
  5
E4
100
AcDbEntity
  8
A4
  6
CONTINUOUS
 62
7
100
AcDbCircle
 10
344.0000000000000
 20
61.76393202250028
 30
0.0000000000000000
 40
1.999999999999997
100
AcDbArc
 50
116.5650511770776
 51
180.0000000000000
  0
ARC
  5
E5
100
AcDbEntity
  8
A4
  6
CONTINUOUS
 62
7
100
AcDbCircle
 10
356.0000000000000
 20
61.76393202250028
 30
0.0000000000000000
 40
2.000000000000000
100
AcDbArc
 50
0.0000000000000000
 51
63.43494882292186
  0
ARC
  5
E6
100
AcDbEntity
  8
A4
  6
CONTINUOUS
 62
7
100
AcDbCircle
 10
350.0000000000000
 20
50.00000000000000
 30
0.0000000000000000
 40
8.000000000000000
100
AcDbArc
 50
180.0000000000000
 51
360.0000000000000
  0
ARC
  5
E7
100
AcDbEntity
  8
A4
  6
CONTINUOUS
 62
7
100
AcDbCircle
 10
344.0000000000000
 20
364.4860679774999
 30
0.0000000000000000
 40
2.000000000000009
100
AcDbArc
 50
180.0000000000000
 51
243.4349488229249
  0
ARC
  5
E8
100
AcDbEntity
  8
A4
  6
CONTINUOUS
 62
7
100
AcDbCircle
 10
350.0000000000000
 20
375.0000000000000
 30
0.0000000000000000
 40
8.000000000000000
100
AcDbArc
 50
0.0000000000000000
 51
179.9999999999976
  0
ARC
  5
E9
100
AcDbEntity
  8
A4
  6
CONTINUOUS
 62
7
100
AcDbCircle
 10
356.0000000000000
 20
364.4860679774999
 30
0.0000000000000000
 40
2.000000000000000
100
AcDbArc
 50
296.5650511770780
 51
360.0000000000000
  0
ARC
  5
EA
100
AcDbEntity
  8
A4
  6
CONTINUOUS
 62
7
100
AcDbCircle
 10
346.0000000000000
 20
362.7000000000000
 30
0.0000000000000000
 40
0.3000000000000000
100
AcDbArc
 50
89.99999999999456
 51
180.0000000000000
  0
ARC
  5
EB
100
AcDbEntity
  8
A4
  6
CONTINUOUS
 62
7
100
AcDbCircle
 10
346.0000000000000
 20
360.3000000000002
 30
0.0000000000000000
 40
0.3000000000000000
100
AcDbArc
 50
180.0000000000000
 51
270.0000000000054
  0
ARC
  5
EC
100
AcDbEntity
  8
A4
  6
CONTINUOUS
 62
7
100
AcDbCircle
 10
354.0000000000002
 20
362.7000000000000
 30
0.0000000000000000
 40
0.3000000000000000
100
AcDbArc
 50
0.0000000000000000
 51
90.00000000001094
  0
ARC
  5
ED
100
AcDbEntity
  8
A4
  6
CONTINUOUS
 62
7
100
AcDbCircle
 10
354.0000000000002
 20
360.3000000000002
 30
0.0000000000000000
 40
0.3000000000000000
100
AcDbArc
 50
270.0000000000000
 51
360.0000000000000
  0
ARC
  5
EE
100
AcDbEntity
  8
A4
  6
CONTINUOUS
 62
7
100
AcDbCircle
 10
358.8000000000001
 20
179.9999999999999
 30
0.0000000000000000
 40
0.9000000000000000
100
AcDbArc
 50
90.00000000000000
 51
270.0000000000000
  0
ARC
  5
EF
100
AcDbEntity
  8
A4
  6
CONTINUOUS
 62
7
100
AcDbCircle
 10
341.2000000000000
 20
179.9999999999999
 30
0.0000000000000000
 40
0.9000000000000000
100
AcDbArc
 50
270.0000000000000
 51
450.0000000000000
  0
ARC
  5
F0
100
AcDbEntity
  8
A4
  6
CONTINUOUS
 62
7
100
AcDbCircle
 10
358.8000000000001
 20
193.5000000000001
 30
0.0000000000000000
 40
0.9000000000000000
100
AcDbArc
 50
90.00000000000000
 51
270.0000000000000
  0
ARC
  5
F1
100
AcDbEntity
  8
A4
  6
CONTINUOUS
 62
7
100
AcDbCircle
 10
341.2000000000000
 20
193.5000000000001
 30
0.0000000000000000
 40
0.9000000000000000
100
AcDbArc
 50
270.0000000000000
 51
450.0000000000000
  0
LINE
  5
F2
100
AcDbEntity
  8
A4
  6
CONTINUOUS
 62
7
100
AcDbLine
 10
342.0000000000000
 20
61.76393202250039
 30
0.0000000000000000
 11
342.0000000000000
 21
50.00000000000011
 31
0.0000000000000000
  0
LINE
  5
F3
100
AcDbEntity
  8
A4
  6
CONTINUOUS
 62
7
100
AcDbLine
 10
345.6999999999998
 20
65.00000000000072
 30
0.0000000000000000
 11
343.1055728089999
 21
63.55278640450082
 31
0.0000000000000000
  0
LINE
  5
F4
100
AcDbEntity
  8
A4
  6
CONTINUOUS
 62
7
100
AcDbLine
 10
354.2999999999994
 20
65.00000000000037
 30
0.0000000000000000
 11
345.7000000000041
 21
65.00000000000307
 31
0.0000000000000000
  0
LINE
  5
F5
100
AcDbEntity
  8
A4
  6
CONTINUOUS
 62
7
100
AcDbLine
 10
356.8944271910001
 20
63.55278640450027
 30
0.0000000000000000
 11
354.2999999999997
 21
65.00000000000031
 31
0.0000000000000000
  0
LINE
  5
F6
100
AcDbEntity
  8
A4
  6
CONTINUOUS
 62
7
100
AcDbLine
 10
358.0000000000000
 20
50.00000000000011
 30
0.0000000000000000
 11
358.0000000000000
 21
61.76393202250039
 31
0.0000000000000000
  0
LINE
  5
F7
100
AcDbEntity
  8
A4
  6
CONTINUOUS
 62
7
100
AcDbLine
 10
342.0000000000000
 20
364.4860679775001
 30
0.0000000000000000
 11
342.0000000000000
 21
375.0000000000006
 31
0.0000000000000000
  0
LINE
  5
F8
100
AcDbEntity
  8
A4
  6
CONTINUOUS
 62
7
100
AcDbLine
 10
345.6999999999999
 20
361.2499999999998
 30
0.0000000000000000
 11
343.1055728090000
 21
362.6972135954999
 31
0.0000000000000000
  0
LINE
  5
F9
100
AcDbEntity
  8
A4
  6
CONTINUOUS
 62
7
100
AcDbLine
 10
358.0000000000000
 20
375.0000000000001
 30
0.0000000000000000
 11
358.0000000000000
 21
364.4860679775001
 31
0.0000000000000000
  0
LINE
  5
FA
100
AcDbEntity
  8
A4
  6
CONTINUOUS
 62
7
100
AcDbLine
 10
356.8944271909999
 20
362.6972135955000
 30
0.0000000000000000
 11
354.3000000000001
 21
361.2499999999996
 31
0.0000000000000000
  0
LINE
  5
FB
100
AcDbEntity
  8
A4
  6
CONTINUOUS
 62
7
100
AcDbLine
 10
345.7000000000000
 20
361.8500000000005
 30
0.0000000000000000
 11
345.7000000000000
 21
360.5000000000001
 31
0.0000000000000000
  0
LINE
  5
FC
100
AcDbEntity
  8
A4
  6
CONTINUOUS
 62
7
100
AcDbLine
 10
345.7000000000000
 20
362.7000000000004
 30
0.0000000000000000
 11
345.7000000000000
 21
361.8500000000005
 31
0.0000000000000000
  0
LINE
  5
FD
100
AcDbEntity
  8
A4
  6
CONTINUOUS
 62
7
100
AcDbLine
 10
345.7000000000000
 20
360.5000000000001
 30
0.0000000000000000
 11
345.7000000000000
 21
360.3000000000003
 31
0.0000000000000000
  0
LINE
  5
FE
100
AcDbEntity
  8
A4
  6
CONTINUOUS
 62
7
100
AcDbLine
 10
354.0000000000000
 20
363.0000000000006
 30
0.0000000000000000
 11
346.0000000000000
 21
363.0000000000006
 31
0.0000000000000000
  0
LINE
  5
FF
100
AcDbEntity
  8
A4
  6
CONTINUOUS
 62
7
100
AcDbLine
 10
354.3000000000000
 20
361.8500000000005
 30
0.0000000000000000
 11
354.3000000000000
 21
362.7000000000004
 31
0.0000000000000000
  0
LINE
  5
100
100
AcDbEntity
  8
A4
  6
CONTINUOUS
 62
7
100
AcDbLine
 10
354.0000000000000
 20
360.0000000000001
 30
0.0000000000000000
 11
353.5217168997410
 21
360.0000000000001
 31
0.0000000000000000
  0
LINE
  5
101
100
AcDbEntity
  8
A4
  6
CONTINUOUS
 62
7
100
AcDbLine
 10
346.4782831002724
 20
360.0000000000001
 30
0.0000000000000000
 11
346.0000000000000
 21
360.0000000000001
 31
0.0000000000000000
  0
LINE
  5
102
100
AcDbEntity
  8
A4
  6
CONTINUOUS
 62
7
100
AcDbLine
 10
354.3000000000000
 20
360.5000000000001
 30
0.0000000000000000
 11
354.3000000000000
 21
361.8500000000005
 31
0.0000000000000000
  0
LINE
  5
103
100
AcDbEntity
  8
A4
  6
CONTINUOUS
 62
7
100
AcDbLine
 10
354.3000000000000
 20
360.3000000000003
 30
0.0000000000000000
 11
354.3000000000000
 21
360.5000000000001
 31
0.0000000000000000
  0
LINE
  5
104
100
AcDbEntity
  8
A4
  6
CONTINUOUS
 62
7
100
AcDbLine
 10
354.0000000000000
 20
173.0000000000000
 30
0.0000000000000000
 11
354.0000000000000
 21
65.00000000000057
 31
0.0000000000000000
  0
LINE
  5
105
100
AcDbEntity
  8
A4
  6
CONTINUOUS
 62
7
100
AcDbLine
 10
346.0000000000000
 20
65.00000000000055
 30
0.0000000000000000
 11
346.0000000000000
 21
173.0000000000000
 31
0.0000000000000000
  0
LINE
  5
106
100
AcDbEntity
  8
A4
  6
CONTINUOUS
 62
7
100
AcDbLine
 10
357.8999999999998
 20
174.7000000000003
 30
0.0000000000000000
 11
357.8999999999998
 21
173.0000000000000
 31
0.0000000000000000
  0
LINE
  5
107
100
AcDbEntity
  8
A4
  6
CONTINUOUS
 62
7
100
AcDbLine
 10
342.0999999999999
 20
173.0000000000000
 30
0.0000000000000000
 11
342.0999999999999
 21
174.7000000000003
 31
0.0000000000000000
  0
LINE
  5
108
100
AcDbEntity
  8
A4
  6
CONTINUOUS
 62
7
100
AcDbLine
 10
342.0999999999999
 20
173.0000000000000
 30
0.0000000000000000
 11
357.8999999999998
 21
173.0000000000000
 31
0.0000000000000000
  0
LINE
  5
109
100
AcDbEntity
  8
A4
  6
CONTINUOUS
 62
7
100
AcDbLine
 10
358.9999999999999
 20
179.1000000000004
 30
0.0000000000000000
 11
358.9999999999999
 21
174.7000000000003
 31
0.0000000000000000
  0
LINE
  5
10A
100
AcDbEntity
  8
A4
  6
CONTINUOUS
 62
7
100
AcDbLine
 10
340.9999999999999
 20
174.7000000000003
 30
0.0000000000000000
 11
340.9999999999999
 21
179.1000000000004
 31
0.0000000000000000
  0
LINE
  5
10B
100
AcDbEntity
  8
A4
  6
CONTINUOUS
 62
7
100
AcDbLine
 10
340.9999999999999
 20
174.7000000000003
 30
0.0000000000000000
 11
358.9999999999999
 21
174.7000000000003
 31
0.0000000000000000
  0
LINE
  5
10C
100
AcDbEntity
  8
A4
  6
CONTINUOUS
 62
7
100
AcDbLine
 10
340.9999999999999
 20
179.1000000000004
 30
0.0000000000000000
 11
358.9999999999999
 21
179.1000000000004
 31
0.0000000000000000
  0
LINE
  5
10D
100
AcDbEntity
  8
A4
  6
CONTINUOUS
 62
7
100
AcDbLine
 10
358.9999999999999
 20
192.6000000000004
 30
0.0000000000000000
 11
358.9999999999999
 21
180.9000000000001
 31
0.0000000000000000
  0
LINE
  5
10E
100
AcDbEntity
  8
A4
  6
CONTINUOUS
 62
7
100
AcDbLine
 10
340.9999999999999
 20
180.9000000000001
 30
0.0000000000000000
 11
340.9999999999999
 21
192.6000000000004
 31
0.0000000000000000
  0
LINE
  5
10F
100
AcDbEntity
  8
A4
  6
CONTINUOUS
 62
7
100
AcDbLine
 10
340.9999999999999
 20
180.9000000000001
 30
0.0000000000000000
 11
358.9999999999999
 21
180.9000000000001
 31
0.0000000000000000
  0
LINE
  5
110
100
AcDbEntity
  8
A4
  6
CONTINUOUS
 62
7
100
AcDbLine
 10
340.9999999999999
 20
192.6000000000004
 30
0.0000000000000000
 11
358.9999999999999
 21
192.6000000000004
 31
0.0000000000000000
  0
LINE
  5
111
100
AcDbEntity
  8
A4
  6
CONTINUOUS
 62
7
100
AcDbLine
 10
358.9999999999998
 20
356.2499999999999
 30
0.0000000000000000
 11
358.9999999999998
 21
194.4000000000001
 31
0.0000000000000000
  0
LINE
  5
112
100
AcDbEntity
  8
A4
  6
CONTINUOUS
 62
7
100
AcDbLine
 10
341.0000000000002
 20
194.4000000000001
 30
0.0000000000000000
 11
341.0000000000002
 21
356.2499999999999
 31
0.0000000000000000
  0
LINE
  5
113
100
AcDbEntity
  8
A4
  6
CONTINUOUS
 62
7
100
AcDbLine
 10
340.9999999999999
 20
194.4000000000001
 30
0.0000000000000000
 11
358.9999999999999
 21
194.4000000000001
 31
0.0000000000000000
  0
LINE
  5
114
100
AcDbEntity
  8
A4
  6
CONTINUOUS
 62
7
100
AcDbLine
 10
348.3989969126660
 20
360.4047219143905
 30
0.0000000000000000
 11
351.6010030873340
 21
360.4047219143905
 31
0.0000000000000000
  0
LINE
  5
115
100
AcDbEntity
  8
A4
  6
CONTINUOUS
 62
7
100
AcDbLine
 10
354.3020497060247
 20
360.4034746932288
 30
0.0000000000000000
 11
359.0736730192916
 21
357.5000000000006
 31
0.0000000000000000
  0
LINE
  5
116
100
AcDbEntity
  8
A4
  6
CONTINUOUS
 62
7
100
AcDbLine
 10
340.9263269807084
 20
357.5000000000006
 30
0.0000000000000000
 11
345.6979502939755
 21
360.4034746932288
 31
0.0000000000000000
  0
LINE
  5
117
100
AcDbEntity
  8
A4
  6
CONTINUOUS
 62
7
100
AcDbLine
 10
359.0736730192921
 20
357.5000000000003
 30
0.0000000000000000
 11
359.2500000000006
 21
356.5000000000003
 31
0.0000000000000000
  0
LINE
  5
118
100
AcDbEntity
  8
A4
  6
CONTINUOUS
 62
7
100
AcDbLine
 10
340.7499999999999
 20
356.5000000000007
 30
0.0000000000000000
 11
340.9263269807084
 21
357.5000000000007
 31
0.0000000000000000
  0
LINE
  5
119
100
AcDbEntity
  8
A4
  6
CONTINUOUS
 62
7
100
AcDbLine
 10
340.9263269807082
 20
357.5000000000006
 30
0.0000000000000000
 11
359.0736730192918
 21
357.5000000000006
 31
0.0000000000000000
  0
LINE
  5
11A
100
AcDbEntity
  8
A4
  6
CONTINUOUS
 62
7
100
AcDbLine
 10
341.0000000000010
 20
356.2499999999994
 30
0.0000000000000000
 11
340.7499999999996
 21
356.5000000000006
 31
0.0000000000000000
  0
LINE
  5
11B
100
AcDbEntity
  8
A4
  6
CONTINUOUS
 62
7
100
AcDbLine
 10
359.2500000000006
 20
356.5000000000005
 30
0.0000000000000000
 11
358.9999999999995
 21
356.2499999999995
 31
0.0000000000000000
  0
LINE
  5
11C
100
AcDbEntity
  8
A4
  6
CONTINUOUS
 62
7
100
AcDbLine
 10
341.0000000000007
 20
356.2499999999999
 30
0.0000000000000000
 11
358.9999999999993
 21
356.2499999999999
 31
0.0000000000000000
  0
LINE
  5
11D
100
AcDbEntity
  8
A4
  6
CONTINUOUS
 62
7
100
AcDbLine
 10
340.7499999999998
 20
356.5000000000006
 30
0.0000000000000000
 11
359.2500000000002
 21
356.5000000000006
 31
0.0000000000000000
  0
LINE
  5
11E
100
AcDbEntity
  8
A4
  6
CENTER
 62
4
100
AcDbLine
 10
336.0000000000000
 20
375.0000000000000
 30
0.0000000000000000
 11
364.0000000000000
 21
375.0000000000000
 31
0.0000000000000000
  0
LINE
  5
11F
100
AcDbEntity
  8
A4
  6
CENTER
 62
4
100
AcDbLine
 10
350.0000000000000
 20
388.9999999999999
 30
0.0000000000000000
 11
350.0000000000000
 21
36.00000000000040
 31
0.0000000000000000
  0
LINE
  5
120
100
AcDbEntity
  8
A4
  6
CENTER
 62
4
100
AcDbLine
 10
336.0000000000000
 20
50.00000000000000
 30
0.0000000000000000
 11
364.0000000000000
 21
50.00000000000000
 31
0.0000000000000000
  0
SPLINE
  5
121
100
AcDbEntity
  8
A8
  6
CONTINUOUS
 62
7
100
AcDbSpline
210
0.0000000000000000
220
0.0000000000000000
230
1.000000000000000
 70
     8
 71
     3
 72
    14
 73
    10
 74
     0
 42
1.000000000000000e-07
 43
1.000000000000000e-07
 12
0.9996474559684430
 22
0.02655115399647912
 32
0.0000000000000000
 13
0.9857129467418417
 23
0.1684339236189771
 33
0.0000000000000000
 40
0.0000000000000000
 40
0.0000000000000000
 40
0.0000000000000000
 40
0.0000000000000000
 40
0.09315528448461950
 40
0.1950874593141719
 40
0.3839940351856702
 40
0.5777820545091477
 40
0.9792705164082899
 40
1.358548394653505
 40
1.739850674386990
 40
1.739850674386990
 40
1.739850674386990
 40
1.739850674386990
 10
497.0584884970770
 20
360.0000000000000
 30
0.0000000000000000
 10
497.0895293114586
 20
360.0008244601013
 30
0.0000000000000000
 10
497.1545290363410
 20
360.0043272790854
 30
0.0000000000000000
 10
497.2815058665142
 20
360.0209405760484
 30
0.0000000000000000
 10
497.4409460429440
 20
360.0469880934234
 30
0.0000000000000000
 10
497.6977996190574
 20
360.0955834495987
 30
0.0000000000000000
 10
498.0163330045364
 20
360.1593152478815
 30
0.0000000000000000
 10
498.3963901645550
 20
360.2342113482025
 30
0.0000000000000000
 10
498.6460184862124
 20
360.2785919203134
 30
0.0000000000000000
 10
498.7713033507976
 20
360.3000000000002
 30
0.0000000000000000
  0
SPLINE
  5
122
100
AcDbEntity
  8
A8
  6
CONTINUOUS
 62
7
100
AcDbSpline
210
0.0000000000000000
220
0.0000000000000000
230
1.000000000000000
 70
     8
 71
     3
 72
    11
 73
     7
 74
     0
 42
1.000000000000000e-07
 43
1.000000000000000e-07
 12
0.9858379091392635
 22
0.1677009746667864
 32
0.0000000000000000
 13
0.9859461246865067
 23
-0.1670635783616490
 33
0.0000000000000000
 40
0.0000000000000000
 40
0.0000000000000000
 40
0.0000000000000000
 40
0.0000000000000000
 40
0.6726855748206242
 40
1.350872410333460
 40
1.908044232911144
 40
2.468422506518329
 40
2.468422506518329
 40
2.468422506518329
 40
2.468422506518329
 10
498.7713033507976
 20
360.3000000000002
 30
0.0000000000000000
 10
498.9923563309940
 20
360.3376033421807
 30
0.0000000000000000
 10
499.4399509326126
 20
360.3928235832605
 30
0.0000000000000000
 10
500.0765872379527
 20
360.4135217629719
 30
0.0000000000000000
 10
500.6747659292801
 20
360.3795699137229
 30
0.0000000000000000
 10
501.0445290534612
 20
360.3312062665418
 30
0.0000000000000000
 10
501.2286966492018
 20
360.3000000000002
 30
0.0000000000000000
  0
SPLINE
  5
123
100
AcDbEntity
  8
A8
  6
CONTINUOUS
 62
7
100
AcDbSpline
210
0.0000000000000000
220
0.0000000000000000
230
1.000000000000000
 70
     8
 71
     3
 72
    13
 73
     9
 74
     0
 42
1.000000000000000e-07
 43
1.000000000000000e-07
 12
0.9851505400265523
 22
-0.1716927880991079
 32
0.0000000000000000
 13
0.9995213291258551
 23
-0.03093723680285621
 33
0.0000000000000000
 40
0.0000000000000000
 40
0.0000000000000000
 40
0.0000000000000000
 40
0.0000000000000000
 40
0.6000765615715720
 40
0.9435644288541034
 40
1.282772010802405
 40
1.469548361742791
 40
1.648396977352754
 40
1.739834489491032
 40
1.739834489491032
 40
1.739834489491032
 40
1.739834489491032
 10
501.2286966492018
 20
360.3000000000002
 30
0.0000000000000000
 10
501.4257518987649
 20
360.2656570606905
 30
0.0000000000000000
 10
501.7352245479740
 20
360.2093280357406
 30
0.0000000000000000
 10
502.1543471975117
 20
360.1246987268107
 30
0.0000000000000000
 10
502.4388245983114
 20
360.0690934086226
 30
0.0000000000000000
 10
502.6701030702534
 20
360.0280253986475
 30
0.0000000000000000
 10
502.8210073156727
 20
360.0057056368628
 30
0.0000000000000000
 10
502.9110469217010
 20
360.0009429413219
 30
0.0000000000000000
 10
502.9415115029224
 20
360.0000000000000
 30
0.0000000000000000
  0
ARC
  5
124
100
AcDbEntity
  8
A8
  6
CONTINUOUS
 62
7
100
AcDbCircle
 10
496.4999999999998
 20
360.5000000238422
 30
0.0000000000000000
 40
0.5000000000000000
100
AcDbArc
 50
180.0000000000000
 51
270.0000000000000
  0
ARC
  5
125
100
AcDbEntity
  8
A8
  6
CONTINUOUS
 62
7
100
AcDbCircle
 10
503.4999999999998
 20
360.5000000000000
 30
0.0000000000000000
 40
0.5000000000000000
100
AcDbArc
 50
270.0000000000000
 51
360.0000000000000
  0
ARC
  5
126
100
AcDbEntity
  8
A8
  6
CONTINUOUS
 62
7
100
AcDbCircle
 10
497.1499999999996
 20
361.8500000000004
 30
0.0000000000000000
 40
1.149999999999977
100
AcDbArc
 50
90.00000000000000
 51
180.0000000000000
  0
ARC
  5
127
100
AcDbEntity
  8
A8
  6
CONTINUOUS
 62
7
100
AcDbCircle
 10
502.8499999999997
 20
361.8500000000004
 30
0.0000000000000000
 40
1.149999999999977
100
AcDbArc
 50
0.0000000000000000
 51
90.00000000000000
  0
ARC
  5
128
100
AcDbEntity
  8
A8
  6
CONTINUOUS
 62
7
100
AcDbCircle
 10
508.7999999999997
 20
179.9999999999999
 30
0.0000000000000000
 40
0.9000000000000000
100
AcDbArc
 50
90.00000000000000
 51
270.0000000000000
  0
ARC
  5
129
100
AcDbEntity
  8
A8
  6
CONTINUOUS
 62
7
100
AcDbCircle
 10
491.1999999999995
 20
179.9999999999999
 30
0.0000000000000000
 40
0.9000000000000000
100
AcDbArc
 50
270.0000000000000
 51
450.0000000000000
  0
ARC
  5
12A
100
AcDbEntity
  8
A8
  6
CONTINUOUS
 62
7
100
AcDbCircle
 10
508.7999999999997
 20
193.5000000000001
 30
0.0000000000000000
 40
0.9000000000000000
100
AcDbArc
 50
90.00000000000000
 51
270.0000000000000
  0
ARC
  5
12B
100
AcDbEntity
  8
A8
  6
CONTINUOUS
 62
7
100
AcDbCircle
 10
491.1999999999995
 20
193.5000000000001
 30
0.0000000000000000
 40
0.9000000000000000
100
AcDbArc
 50
270.0000000000000
 51
450.0000000000000
  0
LINE
  5
12C
100
AcDbEntity
  8
A8
  6
CONTINUOUS
 62
7
100
AcDbLine
 10
495.9999999999995
 20
65.00000000000054
 30
0.0000000000000000
 11
503.9999999999995
 21
65.00000000000054
 31
0.0000000000000000
  0
LINE
  5
12D
100
AcDbEntity
  8
A8
  6
CONTINUOUS
 62
7
100
AcDbLine
 10
503.9999999999995
 20
173.0000000000000
 30
0.0000000000000000
 11
503.9999999999995
 21
65.00000000000054
 31
0.0000000000000000
  0
LINE
  5
12E
100
AcDbEntity
  8
A8
  6
CONTINUOUS
 62
7
100
AcDbLine
 10
495.9999999999995
 20
65.00000000000054
 30
0.0000000000000000
 11
495.9999999999995
 21
173.0000000000000
 31
0.0000000000000000
  0
LINE
  5
12F
100
AcDbEntity
  8
A8
  6
CONTINUOUS
 62
7
100
AcDbLine
 10
496.5000000000000
 20
360.0000000238425
 30
0.0000000000000000
 11
497.0584884970772
 21
360.0000000000005
 31
0.0000000000000000
  0
LINE
  5
130
100
AcDbEntity
  8
A8
  6
CONTINUOUS
 62
7
100
AcDbLine
 10
498.3999999999996
 20
363.0000000000001
 30
0.0000000000000000
 11
497.1499999999996
 21
363.0000000000001
 31
0.0000000000000000
  0
LINE
  5
131
100
AcDbEntity
  8
A8
  6
CONTINUOUS
 62
7
100
AcDbLine
 10
502.9415115029224
 20
360.0000000000001
 30
0.0000000000000000
 11
503.4999999999995
 21
360.0000000000001
 31
0.0000000000000000
  0
LINE
  5
132
100
AcDbEntity
  8
A8
  6
CONTINUOUS
 62
7
100
AcDbLine
 10
495.9999999999995
 20
361.8500000000005
 30
0.0000000000000000
 11
495.9999999999995
 21
360.5000000238423
 31
0.0000000000000000
  0
LINE
  5
133
100
AcDbEntity
  8
A8
  6
CONTINUOUS
 62
7
100
AcDbLine
 10
502.8499999999999
 20
363.0000000000003
 30
0.0000000000000000
 11
501.5999999999999
 21
363.0000000000001
 31
0.0000000000000000
  0
LINE
  5
134
100
AcDbEntity
  8
A8
  6
CONTINUOUS
 62
7
100
AcDbLine
 10
503.9999999999995
 20
360.5000000000001
 30
0.0000000000000000
 11
503.9999999999995
 21
361.8500000000005
 31
0.0000000000000000
  0
LINE
  5
135
100
AcDbEntity
  8
A8
  6
CONTINUOUS
 62
7
100
AcDbLine
 10
498.3999999999996
 20
361.2499999999999
 30
0.0000000000000000
 11
498.3999999999996
 21
383.0000000000001
 31
0.0000000000000000
  0
LINE
  5
136
100
AcDbEntity
  8
A8
  6
CONTINUOUS
 62
7
100
AcDbLine
 10
501.5999999999997
 20
361.2499999999997
 30
0.0000000000000000
 11
501.5999999999997
 21
383.0000000000001
 31
0.0000000000000000
  0
LINE
  5
137
100
AcDbEntity
  8
A8
  6
CONTINUOUS
 62
7
100
AcDbLine
 10
498.3999999999996
 20
361.2499999999999
 30
0.0000000000000000
 11
501.5999999999997
 21
361.2499999999999
 31
0.0000000000000000
  0
LINE
  5
138
100
AcDbEntity
  8
A8
  6
CONTINUOUS
 62
7
100
AcDbLine
 10
507.8999999999996
 20
174.7000000000002
 30
0.0000000000000000
 11
507.8999999999996
 21
173.0000000000000
 31
0.0000000000000000
  0
LINE
  5
139
100
AcDbEntity
  8
A8
  6
CONTINUOUS
 62
7
100
AcDbLine
 10
492.0999999999994
 20
173.0000000000000
 30
0.0000000000000000
 11
492.0999999999994
 21
174.7000000000002
 31
0.0000000000000000
  0
LINE
  5
13A
100
AcDbEntity
  8
A8
  6
CONTINUOUS
 62
7
100
AcDbLine
 10
492.0999999999994
 20
173.0000000000000
 30
0.0000000000000000
 11
507.8999999999996
 21
173.0000000000000
 31
0.0000000000000000
  0
LINE
  5
13B
100
AcDbEntity
  8
A8
  6
CONTINUOUS
 62
7
100
AcDbLine
 10
498.3999999999996
 20
383.0000000000001
 30
0.0000000000000000
 11
501.5999999999997
 21
383.0000000000001
 31
0.0000000000000000
  0
LINE
  5
13C
100
AcDbEntity
  8
A8
  6
CONTINUOUS
 62
7
100
AcDbLine
 10
501.5999999999997
 20
42.00000000000009
 30
0.0000000000000000
 11
498.3999999999996
 21
42.00000000000009
 31
0.0000000000000000
  0
LINE
  5
13D
100
AcDbEntity
  8
A8
  6
CONTINUOUS
 62
7
100
AcDbLine
 10
501.5999999999997
 20
42.00000000000009
 30
0.0000000000000000
 11
501.5999999999997
 21
65.00000000000057
 31
0.0000000000000000
  0
LINE
  5
13E
100
AcDbEntity
  8
A8
  6
CONTINUOUS
 62
7
100
AcDbLine
 10
498.3999999999996
 20
42.00000000000009
 30
0.0000000000000000
 11
498.3999999999996
 21
65.00000000000057
 31
0.0000000000000000
  0
LINE
  5
13F
100
AcDbEntity
  8
A8
  6
CONTINUOUS
 62
7
100
AcDbLine
 10
508.9999999999995
 20
179.1000000000003
 30
0.0000000000000000
 11
508.9999999999995
 21
174.7000000000002
 31
0.0000000000000000
  0
LINE
  5
140
100
AcDbEntity
  8
A8
  6
CONTINUOUS
 62
7
100
AcDbLine
 10
490.9999999999995
 20
174.7000000000002
 30
0.0000000000000000
 11
490.9999999999995
 21
179.1000000000003
 31
0.0000000000000000
  0
LINE
  5
141
100
AcDbEntity
  8
A8
  6
CONTINUOUS
 62
7
100
AcDbLine
 10
490.9999999999995
 20
174.7000000000002
 30
0.0000000000000000
 11
508.9999999999995
 21
174.7000000000002
 31
0.0000000000000000
  0
LINE
  5
142
100
AcDbEntity
  8
A8
  6
CONTINUOUS
 62
7
100
AcDbLine
 10
490.9999999999995
 20
179.1000000000003
 30
0.0000000000000000
 11
508.9999999999995
 21
179.1000000000003
 31
0.0000000000000000
  0
LINE
  5
143
100
AcDbEntity
  8
A8
  6
CONTINUOUS
 62
7
100
AcDbLine
 10
508.9999999999995
 20
192.6000000000003
 30
0.0000000000000000
 11
508.9999999999995
 21
180.9000000000001
 31
0.0000000000000000
  0
LINE
  5
144
100
AcDbEntity
  8
A8
  6
CONTINUOUS
 62
7
100
AcDbLine
 10
490.9999999999995
 20
180.9000000000001
 30
0.0000000000000000
 11
490.9999999999995
 21
192.6000000000003
 31
0.0000000000000000
  0
LINE
  5
145
100
AcDbEntity
  8
A8
  6
CONTINUOUS
 62
7
100
AcDbLine
 10
490.9999999999995
 20
180.9000000000001
 30
0.0000000000000000
 11
508.9999999999995
 21
180.9000000000001
 31
0.0000000000000000
  0
LINE
  5
146
100
AcDbEntity
  8
A8
  6
CONTINUOUS
 62
7
100
AcDbLine
 10
490.9999999999995
 20
192.6000000000003
 30
0.0000000000000000
 11
508.9999999999995
 21
192.6000000000003
 31
0.0000000000000000
  0
LINE
  5
147
100
AcDbEntity
  8
A8
  6
CONTINUOUS
 62
7
100
AcDbLine
 10
508.9999999999993
 20
356.2499999999999
 30
0.0000000000000000
 11
508.9999999999993
 21
194.4000000000001
 31
0.0000000000000000
  0
LINE
  5
148
100
AcDbEntity
  8
A8
  6
CONTINUOUS
 62
7
100
AcDbLine
 10
490.9999999999998
 20
194.4000000000001
 30
0.0000000000000000
 11
490.9999999999998
 21
356.2499999999999
 31
0.0000000000000000
  0
LINE
  5
149
100
AcDbEntity
  8
A8
  6
CONTINUOUS
 62
7
100
AcDbLine
 10
490.9999999999995
 20
194.4000000000001
 30
0.0000000000000000
 11
508.9999999999995
 21
194.4000000000001
 31
0.0000000000000000
  0
LINE
  5
14A
100
AcDbEntity
  8
A8
  6
CONTINUOUS
 62
7
100
AcDbLine
 10
503.9908381468490
 20
360.4047219143905
 30
0.0000000000000000
 11
504.2999999999997
 21
360.4047219143905
 31
0.0000000000000000
  0
LINE
  5
14B
100
AcDbEntity
  8
A8
  6
CONTINUOUS
 62
7
100
AcDbLine
 10
504.2999999999992
 20
360.4047219143906
 30
0.0000000000000000
 11
509.0736730192913
 21
357.5000000000006
 31
0.0000000000000000
  0
LINE
  5
14C
100
AcDbEntity
  8
A8
  6
CONTINUOUS
 62
7
100
AcDbLine
 10
490.9263269807078
 20
357.5000000000005
 30
0.0000000000000000
 11
495.6999999999995
 21
360.4047219143903
 31
0.0000000000000000
  0
LINE
  5
14D
100
AcDbEntity
  8
A8
  6
CONTINUOUS
 62
7
100
AcDbLine
 10
495.6999999999994
 20
360.4047219143905
 30
0.0000000000000000
 11
496.0091618577783
 21
360.4047219143905
 31
0.0000000000000000
  0
LINE
  5
14E
100
AcDbEntity
  8
A8
  6
CONTINUOUS
 62
7
100
AcDbLine
 10
509.0736730192915
 20
357.5000000000005
 30
0.0000000000000000
 11
509.2500000000000
 21
356.5000000000006
 31
0.0000000000000000
  0
LINE
  5
14F
100
AcDbEntity
  8
A8
  6
CONTINUOUS
 62
7
100
AcDbLine
 10
490.7499999999989
 20
356.5000000000005
 30
0.0000000000000000
 11
490.9263269807074
 21
357.5000000000005
 31
0.0000000000000000
  0
LINE
  5
150
100
AcDbEntity
  8
A8
  6
CONTINUOUS
 62
7
100
AcDbLine
 10
490.9263269807077
 20
357.5000000000006
 30
0.0000000000000000
 11
509.0736730192914
 21
357.5000000000006
 31
0.0000000000000000
  0
LINE
  5
151
100
AcDbEntity
  8
A8
  6
CONTINUOUS
 62
7
100
AcDbLine
 10
491.0000000000002
 20
356.2499999999995
 30
0.0000000000000000
 11
490.7499999999994
 21
356.5000000000002
 31
0.0000000000000000
  0
LINE
  5
152
100
AcDbEntity
  8
A8
  6
CONTINUOUS
 62
7
100
AcDbLine
 10
509.2499999999999
 20
356.5000000000003
 30
0.0000000000000000
 11
508.9999999999987
 21
356.2499999999994
 31
0.0000000000000000
  0
LINE
  5
153
100
AcDbEntity
  8
A8
  6
CONTINUOUS
 62
7
100
AcDbLine
 10
491.0000000000002
 20
356.2499999999999
 30
0.0000000000000000
 11
508.9999999999991
 21
356.2499999999999
 31
0.0000000000000000
  0
LINE
  5
154
100
AcDbEntity
  8
A8
  6
CONTINUOUS
 62
7
100
AcDbLine
 10
490.7499999999993
 20
356.5000000000006
 30
0.0000000000000000
 11
509.2500000000000
 21
356.5000000000006
 31
0.0000000000000000
  0
LINE
  5
155
100
AcDbEntity
  8
A10
  6
CENTER
 62
4
100
AcDbLine
 10
499.9999999999995
 20
36.00000000000040
 30
0.0000000000000000
 11
499.9999999999995
 21
388.9999999999999
 31
0.0000000000000000
  0
LINE
  5
156
100
AcDbEntity
  8
A10
  6
CENTER
 62
4
100
AcDbLine
 10
507.5999999999999
 20
375.0000000000000
 30
0.0000000000000000
 11
492.3999999999996
 21
375.0000000000000
 31
0.0000000000000000
  0
LINE
  5
157
100
AcDbEntity
  8
A10
  6
CENTER
 62
4
100
AcDbLine
 10
507.5999999999999
 20
50.00000000000000
 30
0.0000000000000000
 11
492.3999999999996
 21
50.00000000000000
 31
0.0000000000000000
  0
POINT
  5
158
100
AcDbEntity
  8
A10
  6
CONTINUOUS
 62
5
100
AcDbPoint
 10
50.00000000000000
 20
50.00000000000000
 30
0.0000000000000000
  0
CIRCLE
  5
159
100
AcDbEntity
  8
A4
  6
PHANTOM
 62
1
100
AcDbCircle
 10
49.99999999999994
 20
149.9999999999999
 30
0.0000000000000000
 40
4.500000000000000
  0
ARC
  5
15A
100
AcDbEntity
  8
A4
  6
PHANTOM
 62
1
100
AcDbCircle
 10
55.99999999999994
 20
161.7639320225002
 30
0.0000000000000000
 40
1.999999999999997
100
AcDbArc
 50
0.0000000000000000
 51
63.43494882292241
  0
ARC
  5
15B
100
AcDbEntity
  8
A4
  6
PHANTOM
 62
1
100
AcDbCircle
 10
43.99999999999994
 20
161.7639320225002
 30
0.0000000000000000
 40
2.000000000000000
100
AcDbArc
 50
116.5650511770782
 51
180.0000000000000
  0
ARC
  5
15C
100
AcDbEntity
  8
A4
  6
PHANTOM
 62
1
100
AcDbCircle
 10
49.99999999999994
 20
149.9999999999999
 30
0.0000000000000000
 40
8.000000000000000
100
AcDbArc
 50
180.0000000000000
 51
360.0000000000000
  0
LINE
  5
15D
100
AcDbEntity
  8
A4
  6
PHANTOM
 62
1
100
AcDbLine
 10
57.99999999999993
 20
161.7639320225003
 30
0.0000000000000000
 11
57.99999999999993
 21
150.0000000000000
 31
0.0000000000000000
  0
LINE
  5
15E
100
AcDbEntity
  8
A4
  6
PHANTOM
 62
1
100
AcDbLine
 10
54.30000000000016
 20
165.0000000000006
 30
0.0000000000000000
 11
56.89442719100016
 21
163.5527864045007
 31
0.0000000000000000
  0
LINE
  5
15F
100
AcDbEntity
  8
A4
  6
PHANTOM
 62
1
100
AcDbLine
 10
45.70000000000049
 20
165.0000000000003
 30
0.0000000000000000
 11
54.29999999999585
 21
165.0000000000030
 31
0.0000000000000000
  0
LINE
  5
160
100
AcDbEntity
  8
A4
  6
PHANTOM
 62
1
100
AcDbLine
 10
43.10557280899963
 20
163.5527864044999
 30
0.0000000000000000
 11
45.70000000000006
 21
164.9999999999999
 31
0.0000000000000000
  0
LINE
  5
161
100
AcDbEntity
  8
A4
  6
PHANTOM
 62
1
100
AcDbLine
 10
41.99999999999993
 20
150.0000000000000
 30
0.0000000000000000
 11
41.99999999999993
 21
161.7639320225003
 31
0.0000000000000000
  0
LINE
  5
162
100
AcDbEntity
  8
A8
  6
PHANTOM
 62
1
100
AcDbLine
 10
203.9999999999999
 20
165.0000000000004
 30
0.0000000000000000
 11
195.9999999999999
 21
165.0000000000004
 31
0.0000000000000000
  0
LINE
  5
163
100
AcDbEntity
  8
A8
  6
PHANTOM
 62
1
100
AcDbLine
 10
198.3999999999998
 20
142.0000000000000
 30
0.0000000000000000
 11
201.5999999999999
 21
142.0000000000000
 31
0.0000000000000000
  0
LINE
  5
164
100
AcDbEntity
  8
A8
  6
PHANTOM
 62
1
100
AcDbLine
 10
198.3999999999998
 20
142.0000000000000
 30
0.0000000000000000
 11
198.3999999999998
 21
165.0000000000005
 31
0.0000000000000000
  0
LINE
  5
165
100
AcDbEntity
  8
A8
  6
PHANTOM
 62
1
100
AcDbLine
 10
201.5999999999999
 20
142.0000000000000
 30
0.0000000000000000
 11
201.5999999999999
 21
165.0000000000005
 31
0.0000000000000000
  0
LINE
  5
166
100
AcDbEntity
  8
A4
  6
CENTER
 62
4
100
AcDbLine
 10
63.99999999999994
 20
149.9999999999999
 30
0.0000000000000000
 11
35.99999999999994
 21
149.9999999999999
 31
0.0000000000000000
  0
LINE
  5
167
100
AcDbEntity
  8
A10
  6
CENTER
 62
4
100
AcDbLine
 10
192.3999999999996
 20
149.9999999999999
 30
0.0000000000000000
 11
207.5999999999999
 21
149.9999999999999
 31
0.0000000000000000
  0
CIRCLE
  5
168
100
AcDbEntity
  8
A4
  6
PHANTOM
 62
1
100
AcDbCircle
 10
349.9999999999999
 20
149.9999999999999
 30
0.0000000000000000
 40
4.500000000000000
  0
ARC
  5
169
100
AcDbEntity
  8
A4
  6
PHANTOM
 62
1
100
AcDbCircle
 10
343.9999999999999
 20
161.7639320225002
 30
0.0000000000000000
 40
1.999999999999997
100
AcDbArc
 50
116.5650511770776
 51
180.0000000000000
  0
ARC
  5
16A
100
AcDbEntity
  8
A4
  6
PHANTOM
 62
1
100
AcDbCircle
 10
355.9999999999999
 20
161.7639320225002
 30
0.0000000000000000
 40
2.000000000000000
100
AcDbArc
 50
0.0000000000000000
 51
63.43494882292186
  0
ARC
  5
16B
100
AcDbEntity
  8
A4
  6
PHANTOM
 62
1
100
AcDbCircle
 10
349.9999999999999
 20
149.9999999999999
 30
0.0000000000000000
 40
8.000000000000000
100
AcDbArc
 50
180.0000000000000
 51
360.0000000000000
  0
LINE
  5
16C
100
AcDbEntity
  8
A4
  6
PHANTOM
 62
1
100
AcDbLine
 10
341.9999999999999
 20
161.7639320225003
 30
0.0000000000000000
 11
341.9999999999999
 21
150.0000000000000
 31
0.0000000000000000
  0
LINE
  5
16D
100
AcDbEntity
  8
A4
  6
PHANTOM
 62
1
100
AcDbLine
 10
345.6999999999998
 20
165.0000000000006
 30
0.0000000000000000
 11
343.1055728089998
 21
163.5527864045008
 31
0.0000000000000000
  0
LINE
  5
16E
100
AcDbEntity
  8
A4
  6
PHANTOM
 62
1
100
AcDbLine
 10
354.2999999999994
 20
165.0000000000003
 30
0.0000000000000000
 11
345.7000000000040
 21
165.0000000000030
 31
0.0000000000000000
  0
LINE
  5
16F
100
AcDbEntity
  8
A4
  6
PHANTOM
 62
1
100
AcDbLine
 10
356.8944271910001
 20
163.5527864045002
 30
0.0000000000000000
 11
354.2999999999997
 21
165.0000000000002
 31
0.0000000000000000
  0
LINE
  5
170
100
AcDbEntity
  8
A4
  6
PHANTOM
 62
1
100
AcDbLine
 10
357.9999999999999
 20
150.0000000000000
 30
0.0000000000000000
 11
357.9999999999999
 21
161.7639320225003
 31
0.0000000000000000
  0
LINE
  5
171
100
AcDbEntity
  8
A4
  6
CENTER
 62
4
100
AcDbLine
 10
335.9999999999999
 20
149.9999999999999
 30
0.0000000000000000
 11
363.9999999999999
 21
149.9999999999999
 31
0.0000000000000000
  0
LINE
  5
172
100
AcDbEntity
  8
A8
  6
PHANTOM
 62
1
100
AcDbLine
 10
495.9999999999995
 20
165.0000000000004
 30
0.0000000000000000
 11
503.9999999999995
 21
165.0000000000004
 31
0.0000000000000000
  0
LINE
  5
173
100
AcDbEntity
  8
A8
  6
PHANTOM
 62
1
100
AcDbLine
 10
501.5999999999996
 20
142.0000000000000
 30
0.0000000000000000
 11
498.3999999999996
 21
142.0000000000000
 31
0.0000000000000000
  0
LINE
  5
174
100
AcDbEntity
  8
A8
  6
PHANTOM
 62
1
100
AcDbLine
 10
501.5999999999996
 20
142.0000000000000
 30
0.0000000000000000
 11
501.5999999999996
 21
165.0000000000005
 31
0.0000000000000000
  0
LINE
  5
175
100
AcDbEntity
  8
A8
  6
PHANTOM
 62
1
100
AcDbLine
 10
498.3999999999996
 20
142.0000000000000
 30
0.0000000000000000
 11
498.3999999999996
 21
165.0000000000005
 31
0.0000000000000000
  0
LINE
  5
176
100
AcDbEntity
  8
A10
  6
CENTER
 62
4
100
AcDbLine
 10
507.5999999999999
 20
149.9999999999999
 30
0.0000000000000000
 11
492.3999999999996
 21
149.9999999999999
 31
0.0000000000000000
  0
ENDSEC
  0
SECTION
  2
OBJECTS
  0
DICTIONARY
  5
1A6
100
AcDbDictionary
  3
ACAD_GROUP
350
1A7
  3
ACAD_LAYOUT
350
1A8
  3
ACAD_MLINESTYLE
350
1A9
  0
DICTIONARY
  5
1A7
102
{ACAD_REACTORS
330
1A6
102
}
330
1A6
100
AcDbDictionary
  0
DICTIONARY
  5
1A8
102
{ACAD_REACTORS
330
1A6
102
}
330
1A6
100
AcDbDictionary
  3
Model
350
1AA
  3
ﾚｲｱｳﾄ1
350
1AB
  3
ﾚｲｱｳﾄ2
350
1AC
  0
DICTIONARY
  5
1A9
102
{ACAD_REACTORS
330
1A6
102
}
330
1A6
100
AcDbDictionary
  3
STANDARD
350
1AD
  0
LAYOUT
  5
1AA
102
{ACAD_REACTORS
330
1A8
102
}
330
1A8
100
AcDbPlotSettings
 70
11952
  4
A3
 44
297.000000
 45
420.000000
 73
  1
 72
  1
100
AcDbLayout
  1
Model
 71
0
330
19D
  0
LAYOUT
  5
1AB
102
{ACAD_REACTORS
330
1A8
102
}
330
1A8
100
AcDbPlotSettings
100
AcDbLayout
  1
ﾚｲｱｳﾄ1
 71
1
330
19E
  0
LAYOUT
  5
1AC
102
{ACAD_REACTORS
330
1A8
102
}
330
1A8
100
AcDbPlotSettings
100
AcDbLayout
  1
ﾚｲｱｳﾄ2
 71
2
330
19F
  0
MLINESTYLE
  5
1AD
102
{ACAD_REACTORS
330
1A9
102
}
330
1A9
100
AcDbMlineStyle
  2
STANDARD
 70
     0
  3

 62
   256
 51
90.00
 52
90.00
 71
     2
 49
0.50
 62
   256
  6
BYLAYER
 49
-0.50
 62
   256
  6
BYLAYER
  0
ENDSEC
  0
EOF
