  0
SECTION
  2
HEADER
  9
$ACADVER
  1
AC1027
  9
$DWGCODEPAGE
  3
ANSI_932
  9
$LTSCALE
 40
20.0
  9
$FILLMODE
 70
     1
  9
$CLAYER
  8
0
  9
$PDMODE
 70
     0
  9
$SPLFRAME
 70
     0
  9
$SPLINETYPE
 70
     6
  9
$SPLINESEGS
 70
     8
  9
$DIMASZ
 40
2.000000
  9
$DIMEXE
 40
1.500000
  9
$DIMEXO
 40
0.800000
  9
$DIMTAD
 70
     1
  9
$DIMTIH
 70
     0
  9
$DIMTOH
 70
     0
  9
$DIMTVP
 40
0.500000
  9
$DIMTXT
 40
3.100000
  9
$EXTMIN
 10
0.000000
 20
0.000000
 30
0.000000
  9
$EXTMAX
 10
297.000000
 20
420.000000
 30
0.000000
  9
$MEASUREMENT
 70
  1
  9
$LIMMIN
 10
0.000000
 20
0.000000
  9
$LIMMAX
 10
297.000000
 20
420.000000
  9
$HANDSEED
  5
11F
  9
$LWDISPLAY
290
     0
  9
$DIMBLK
  1
_OPEN
  9
$DIMDEC
 70
     2
  9
$DIMADEC
 70
     2
  9
$DIMAUNIT
 70
     0
  9
$DIMZIN
 70
     8
  9
$DIMAZIN
 70
     2
  9
$DIMTOFL
 70
     1
  0
ENDSEC
  0
SECTION
  2
CLASSES
  0
ENDSEC
  0
SECTION
  2
TABLES
  0
TABLE
  2
VPORT
  5
E3
100
AcDbSymbolTable
 70
     1
  0
VPORT
  5
E4
100
AcDbSymbolTableRecord
100
AcDbViewportTableRecord
  2
*ACTIVE
 70
     0
 12
123.749161
 22
184.502353
 40
347.996755
 41
0.653737
  0
ENDTAB
  0
TABLE
  2
LTYPE
  5
E5
100
AcDbSymbolTable
 70
     2
  0
LTYPE
  5
E6
100
AcDbSymbolTableRecord
100
AcDbLinetypeTableRecord
  2
BYBLOCK
 70
     0
  3

 72
    65
 73
     0
 40
0.0
  0
LTYPE
  5
E7
100
AcDbSymbolTableRecord
100
AcDbLinetypeTableRecord
  2
BYLAYER
 70
     0
  3

 72
    65
 73
     0
 40
0.0
  0
LTYPE
  5
E8
100
AcDbSymbolTableRecord
100
AcDbLinetypeTableRecord
  2
CONTINUOUS
 70
     0
  3
Solid line (NEC CAE2D for Win R17.0 : 2022.05.16)
 72
    65
 73
     0
 40
0.0
  0
LTYPE
  5
E9
100
AcDbSymbolTableRecord
100
AcDbLinetypeTableRecord
  2
CENTER
 70
     0
  3
____ _ ____ _ ____ _ ____ _ ____ _ ____
 72
    65
 73
     4
 40
2.0
 49
1.25
 74
     0
 49
-0.25
 74
     0
 49
0.25
 74
     0
 49
-0.25
 74
     0
  0
ENDTAB
  0
TABLE
  2
LAYER
  5
EA
100
AcDbSymbolTable
 70
    22
  0
LAYER
  5
EB
100
AcDbSymbolTableRecord
100
AcDbLayerTableRecord
  2
0
 70
     0
 62
     7
  6
CONTINUOUS
370
    -3
390

  0
LAYER
  5
EC
100
AcDbSymbolTableRecord
100
AcDbLayerTableRecord
  2
DXF0
 70
     0
 62
     7
  6
CONTINUOUS
370
    -3
390

  0
LAYER
  5
ED
100
AcDbSymbolTableRecord
100
AcDbLayerTableRecord
  2
DXF0
 70
     0
 62
     7
  6
CONTINUOUS
370
    -3
390

  0
LAYER
  5
EE
100
AcDbSymbolTableRecord
100
AcDbLayerTableRecord
  2
DXF0
 70
     0
 62
     7
  6
CONTINUOUS
370
    -3
390

  0
LAYER
  5
EF
100
AcDbSymbolTableRecord
100
AcDbLayerTableRecord
  2
DXF0
 70
     0
 62
     7
  6
CONTINUOUS
370
    -3
390

  0
LAYER
  5
F0
100
AcDbSymbolTableRecord
100
AcDbLayerTableRecord
  2
A0
 70
     0
 62
     9
  6
CONTINUOUS
370
    -3
390

  0
LAYER
  5
F1
100
AcDbSymbolTableRecord
100
AcDbLayerTableRecord
  2
A3
 70
     0
 62
    12
  6
CONTINUOUS
370
    -3
390

  0
LAYER
  5
F2
100
AcDbSymbolTableRecord
100
AcDbLayerTableRecord
  2
A4
 70
     0
 62
     9
  6
CONTINUOUS
370
    -3
390

  0
LAYER
  5
F3
100
AcDbSymbolTableRecord
100
AcDbLayerTableRecord
  2
A5
 70
     0
 62
     8
  6
CONTINUOUS
370
    -3
390

  0
LAYER
  5
F4
100
AcDbSymbolTableRecord
100
AcDbLayerTableRecord
  2
A6
 70
     0
 62
    12
  6
CONTINUOUS
370
    -3
390

  0
LAYER
  5
F5
100
AcDbSymbolTableRecord
100
AcDbLayerTableRecord
  2
A8
 70
     0
 62
    10
  6
CONTINUOUS
370
    -3
390

  0
LAYER
  5
F6
100
AcDbSymbolTableRecord
100
AcDbLayerTableRecord
  2
A9
 70
     0
 62
     9
  6
CONTINUOUS
370
    -3
390

  0
LAYER
  5
F7
100
AcDbSymbolTableRecord
100
AcDbLayerTableRecord
  2
A10
 70
     0
 62
     6
  6
CONTINUOUS
370
    -3
390

  0
LAYER
  5
F8
100
AcDbSymbolTableRecord
100
AcDbLayerTableRecord
  2
A20
 70
     0
 62
     1
  6
CONTINUOUS
370
    -3
390

  0
LAYER
  5
F9
100
AcDbSymbolTableRecord
100
AcDbLayerTableRecord
  2
A30
 70
     0
 62
     1
  6
CONTINUOUS
370
    -3
390

  0
LAYER
  5
FA
100
AcDbSymbolTableRecord
100
AcDbLayerTableRecord
  2
A40
 70
     0
 62
     9
  6
CONTINUOUS
370
    -3
390

  0
LAYER
  5
FB
100
AcDbSymbolTableRecord
100
AcDbLayerTableRecord
  2
A50
 70
     0
 62
    12
  6
CONTINUOUS
370
    -3
390

  0
LAYER
  5
FC
100
AcDbSymbolTableRecord
100
AcDbLayerTableRecord
  2
A1023
 70
     0
 62
     8
  6
CONTINUOUS
370
    -3
390

  0
LAYER
  5
FD
100
AcDbSymbolTableRecord
100
AcDbLayerTableRecord
  2
DXF1023
 70
     0
 62
     8
  6
CONTINUOUS
370
    -3
390

  0
LAYER
  5
FE
100
AcDbSymbolTableRecord
100
AcDbLayerTableRecord
  2
DXF1023
 70
     0
 62
     8
  6
CONTINUOUS
370
    -3
390

  0
LAYER
  5
FF
100
AcDbSymbolTableRecord
100
AcDbLayerTableRecord
  2
DXF1023
 70
     0
 62
     8
  6
CONTINUOUS
370
    -3
390

  0
LAYER
  5
100
100
AcDbSymbolTableRecord
100
AcDbLayerTableRecord
  2
DXF1023
 70
     0
 62
    16
  6
CONTINUOUS
370
    -3
390

  0
ENDTAB
  0
TABLE
  2
STYLE
  5
101
100
AcDbSymbolTable
 70
     4
  0
STYLE
  5
102
100
AcDbSymbolTableRecord
100
AcDbTextStyleTableRecord
  2
STANDARD
 70
    64
 40
0.0
 41
1.0
 50
0.0
 71
     0
 42
3.000000000000000
  3
TXT
  4

  0
STYLE
  5
103
100
AcDbSymbolTableRecord
100
AcDbTextStyleTableRecord
  2
ANKTATE
 70
    68
 40
0.0
 41
1.0
 50
0.0
 71
     0
 42
3.000000000000000
  3
TXT
  4

  0
STYLE
  5
104
100
AcDbSymbolTableRecord
100
AcDbTextStyleTableRecord
  2
KNJYOKO
 70
    64
 40
0.0
 41
1.0
 50
0.0
 71
     0
 42
3.000000000000000
  3
TXT
  4
BIGFONT
  0
STYLE
  5
105
100
AcDbSymbolTableRecord
100
AcDbTextStyleTableRecord
  2
KNJTATE
 70
    68
 40
0.0
 41
1.0
 50
0.0
 71
     0
 42
3.000000000000000
  3
TXT
  4
BIGFONT
  0
ENDTAB
  0
TABLE
  2
VIEW
  5
106
100
AcDbSymbolTable
 70
     0
  0
ENDTAB
  0
TABLE
  2
UCS
  5
107
100
AcDbSymbolTable
 70
     0
  0
ENDTAB
  0
TABLE
  2
APPID
  5
108
100
AcDbSymbolTable
 70
     1
  0
APPID
  5
109
100
AcDbSymbolTableRecord
100
AcDbRegAppTableRecord
  2
ACAD
 70
     0
  0
ENDTAB
  0
TABLE
  2
DIMSTYLE
  5
10A
100
AcDbSymbolTable
 70
     1
100
AcDbDimStyleTable
  0
DIMSTYLE
105
10B
100
AcDbSymbolTableRecord
100
AcDbDimStyleTableRecord
  2
STANDARD
 70
     0
 41
2.000000
 44
1.500000
 42
0.800000
145
0.661290
140
3.100000
144
1.000000
146
0.645161
340
102
  0
DIMSTYLE
105
10C
100
AcDbSymbolTableRecord
100
AcDbDimStyleTableRecord
  2
DXF001
 70
     0
 41
2.000000
 44
1.500000
 42
0.800000
145
0.661290
140
3.100000
144
1.000000
146
0.645161
 77
     1
 73
     0
 74
     0
271
     2
179
     2
275
     0
 78
     8
 79
     2
172
     1
340
102
  0
ENDTAB
  0
TABLE
  2
BLOCK_RECORD
  5
10D
100
AcDbSymbolTable
 70
    12
  0
BLOCK_RECORD
  5
10E
100
AcDbSymbolTableRecord
100
AcDbBlockTableRecord
  2
*MODEL_SPACE
  0
BLOCK_RECORD
  5
10F
100
AcDbSymbolTableRecord
100
AcDbBlockTableRecord
  2
*PAPER_SPACE
  0
BLOCK_RECORD
  5
110
100
AcDbSymbolTableRecord
100
AcDbBlockTableRecord
  2
*PAPER_SPACE0
  0
BLOCK_RECORD
  5
1
100
AcDbSymbolTableRecord
100
AcDbBlockTableRecord
  2
_NONE
  0
BLOCK_RECORD
  5
4
100
AcDbSymbolTableRecord
100
AcDbBlockTableRecord
  2
_CLOSED
  0
BLOCK_RECORD
  5
B
100
AcDbSymbolTableRecord
100
AcDbBlockTableRecord
  2
_DOT
  0
BLOCK_RECORD
  5
13
100
AcDbSymbolTableRecord
100
AcDbBlockTableRecord
  2
_OPEN
  0
BLOCK_RECORD
  5
19
100
AcDbSymbolTableRecord
100
AcDbBlockTableRecord
  2
_ORIGIN
  0
BLOCK_RECORD
  5
1E
100
AcDbSymbolTableRecord
100
AcDbBlockTableRecord
  2
_OPEN30
  0
BLOCK_RECORD
  5
24
100
AcDbSymbolTableRecord
100
AcDbBlockTableRecord
  2
_BOXFILLED
  0
BLOCK_RECORD
  5
29
100
AcDbSymbolTableRecord
100
AcDbBlockTableRecord
  2
_BOXBLANK
  0
BLOCK_RECORD
  5
31
100
AcDbSymbolTableRecord
100
AcDbBlockTableRecord
  2
_OBLIQUE
  0
BLOCK_RECORD
  5
35
100
AcDbSymbolTableRecord
100
AcDbBlockTableRecord
  2
_OPEN90
  0
BLOCK_RECORD
  5
3B
100
AcDbSymbolTableRecord
100
AcDbBlockTableRecord
  2
_CLOSEDBLANK
  0
BLOCK_RECORD
  5
41
100
AcDbSymbolTableRecord
100
AcDbBlockTableRecord
  2
_DOTBLANK
  0
ENDTAB
  0
ENDSEC
  0
SECTION
  2
BLOCKS
  0
BLOCK
  5
111
100
AcDbEntity
  8
0
100
AcDbBlockBegin
  2
*MODEL_SPACE
 70
     0
 10
0.0
 20
0.0
 30
0.0
  3
*MODEL_SPACE
  1

  0
ENDBLK
  5
112
100
AcDbEntity
  8
0
100
AcDbBlockEnd
  0
BLOCK
  5
113
100
AcDbEntity
  8
0
100
AcDbBlockBegin
  2
*PAPER_SPACE
 70
     0
 10
0.0
 20
0.0
 30
0.0
  3
*PAPER_SPACE
  1

  0
ENDBLK
  5
114
100
AcDbEntity
  8
0
100
AcDbBlockEnd
  0
BLOCK
  5
115
100
AcDbEntity
  8
0
100
AcDbBlockBegin
  2
*PAPER_SPACE0
 70
     0
 10
0.0
 20
0.0
 30
0.0
  3
*PAPER_SPACE0
  1

  0
ENDBLK
  5
116
100
AcDbEntity
  8
0
100
AcDbBlockEnd
  0
BLOCK
  5
2
330
1
100
AcDbEntity
  8
0
100
AcDbBlockBegin
  2
_NONE
 70
     0
 10
0.0
 20
0.0
 30
0.0
  3
_NONE
  1

  0
ENDBLK
  5
3
330
1
100
AcDbEntity
  8
0
100
AcDbBlockEnd
  0
BLOCK
  5
5
330
4
100
AcDbEntity
  8
0
100
AcDbBlockBegin
  2
_CLOSED
 70
     0
 10
0.0
 20
0.0
 30
0.0
  3
_CLOSED
  1

  0
LINE
  5
6
330
4
100
AcDbEntity
  8
0
  6
BYBLOCK
 62
     0
370
    -2
100
AcDbLine
 10
-1.0
 20
0.166667
 30
0.0
 11
0.0
 21
0.0
 31
0.0
  0
LINE
  5
7
330
4
100
AcDbEntity
  8
0
  6
BYBLOCK
 62
     0
370
    -2
100
AcDbLine
 10
0.0
 20
0.0
 30
0.0
 11
-1.0
 21
-0.166667
 31
0.0
  0
LINE
  5
8
330
4
100
AcDbEntity
  8
0
  6
BYBLOCK
 62
     0
370
    -2
100
AcDbLine
 10
-1.0
 20
0.166667
 30
0.0
 11
-1.0
 21
-0.166667
 31
0.0
  0
LINE
  5
9
330
4
100
AcDbEntity
  8
0
  6
BYBLOCK
 62
     0
370
    -2
100
AcDbLine
 10
0.0
 20
0.0
 30
0.0
 11
-1.0
 21
0.0
 31
0.0
  0
ENDBLK
  5
A
330
4
100
AcDbEntity
  8
0
100
AcDbBlockEnd
  0
BLOCK
  5
C
330
B
100
AcDbEntity
  8
0
100
AcDbBlockBegin
  2
_DOT
 70
     0
 10
0.0
 20
0.0
 30
0.0
  3
_DOT
  1

  0
POLYLINE
  5
D
330
B
100
AcDbEntity
  8
0
  6
BYBLOCK
 62
     0
370
    -2
100
AcDb2dPolyline
 66
     1
 10
0.0
 20
0.0
 30
0.0
 70
     1
 40
0.5
 41
0.5
  0
VERTEX
  5
E
330
B
100
AcDbEntity
  8
0
  6
BYBLOCK
 62
     0
370
    -2
100
AcDbVertex
100
AcDb2dVertex
 10
-0.25
 20
0.0
 30
0.0
 42
1.0
  0
VERTEX
  5
F
330
B
100
AcDbEntity
  8
0
  6
BYBLOCK
 62
     0
370
    -2
100
AcDbVertex
100
AcDb2dVertex
 10
0.25
 20
0.0
 30
0.0
 42
1.0
  0
SEQEND
  5
10
330
B
100
AcDbEntity
  8
0
  6
BYBLOCK
 62
     0
370
    -2
  0
LINE
  5
11
330
B
100
AcDbEntity
  8
0
  6
BYBLOCK
 62
     0
370
    -2
100
AcDbLine
 10
-0.5
 20
0.0
 30
0.0
 11
-1.0
 21
0.0
 31
0.0
  0
ENDBLK
  5
12
330
B
100
AcDbEntity
  8
0
100
AcDbBlockEnd
  0
BLOCK
  5
14
330
13
100
AcDbEntity
  8
0
100
AcDbBlockBegin
  2
_OPEN
 70
     0
 10
0.0
 20
0.0
 30
0.0
  3
_OPEN
  1

  0
LINE
  5
15
330
13
100
AcDbEntity
  8
0
  6
BYBLOCK
 62
     0
370
    -2
100
AcDbLine
 10
-1.0
 20
0.166667
 30
0.0
 11
0.0
 21
0.0
 31
0.0
  0
LINE
  5
16
330
13
100
AcDbEntity
  8
0
  6
BYBLOCK
 62
     0
370
    -2
100
AcDbLine
 10
0.0
 20
0.0
 30
0.0
 11
-1.0
 21
-0.166667
 31
0.0
  0
LINE
  5
17
330
13
100
AcDbEntity
  8
0
  6
BYBLOCK
 62
     0
370
    -2
100
AcDbLine
 10
0.0
 20
0.0
 30
0.0
 11
-1.0
 21
0.0
 31
0.0
  0
ENDBLK
  5
18
330
13
100
AcDbEntity
  8
0
100
AcDbBlockEnd
  0
BLOCK
  5
1A
330
19
100
AcDbEntity
  8
0
100
AcDbBlockBegin
  2
_ORIGIN
 70
     0
 10
0.0
 20
0.0
 30
0.0
  3
_ORIGIN
  1

  0
CIRCLE
  5
1B
330
19
100
AcDbEntity
  8
0
  6
BYBLOCK
 62
     0
370
    -2
100
AcDbCircle
 10
0.0
 20
0.0
 30
0.0
 40
0.5
  0
LINE
  5
1C
330
19
100
AcDbEntity
  8
0
  6
BYBLOCK
 62
     0
370
    -2
100
AcDbLine
 10
0.0
 20
0.0
 30
0.0
 11
-1.0
 21
0.0
 31
0.0
  0
ENDBLK
  5
1D
330
19
100
AcDbEntity
  8
0
100
AcDbBlockEnd
  0
BLOCK
  5
1F
330
1E
100
AcDbEntity
  8
0
100
AcDbBlockBegin
  2
_OPEN30
 70
     0
 10
0.0
 20
0.0
 30
0.0
  3
_OPEN30
  1

  0
LINE
  5
20
330
1E
100
AcDbEntity
  8
0
  6
BYBLOCK
 62
     0
370
    -2
100
AcDbLine
 10
-1.0
 20
0.267949
 30
0.0
 11
0.0
 21
0.0
 31
0.0
  0
LINE
  5
21
330
1E
100
AcDbEntity
  8
0
  6
BYBLOCK
 62
     0
370
    -2
100
AcDbLine
 10
0.0
 20
0.0
 30
0.0
 11
-1.0
 21
-0.267949
 31
0.0
  0
LINE
  5
22
330
1E
100
AcDbEntity
  8
0
  6
BYBLOCK
 62
     0
370
    -2
100
AcDbLine
 10
0.0
 20
0.0
 30
0.0
 11
-1.0
 21
0.0
 31
0.0
  0
ENDBLK
  5
23
330
1E
100
AcDbEntity
  8
0
100
AcDbBlockEnd
  0
BLOCK
  5
25
330
24
100
AcDbEntity
  8
0
100
AcDbBlockBegin
  2
_BOXFILLED
 70
     0
 10
0.0
 20
0.0
 30
0.0
  3
_BOXFILLED
  1

  0
SOLID
  5
26
330
24
100
AcDbEntity
  8
0
  6
BYBLOCK
 62
     0
370
    -2
100
AcDbTrace
 10
-0.5
 20
0.5
 30
0.0
 11
0.5
 21
0.5
 31
0.0
 12
-0.5
 22
-0.5
 32
0.0
 13
0.5
 23
-0.5
 33
0.0
  0
LINE
  5
27
330
24
100
AcDbEntity
  8
0
  6
BYBLOCK
 62
     0
370
    -2
100
AcDbLine
 10
-0.5
 20
0.0
 30
0.0
 11
-1.0
 21
0.0
 31
0.0
  0
ENDBLK
  5
28
330
24
100
AcDbEntity
  8
0
100
AcDbBlockEnd
  0
BLOCK
  5
2A
330
29
100
AcDbEntity
  8
0
100
AcDbBlockBegin
  2
_BOXBLANK
 70
     0
 10
0.0
 20
0.0
 30
0.0
  3
_BOXBLANK
  1

  0
LINE
  5
2B
330
29
100
AcDbEntity
  8
0
  6
BYBLOCK
 62
     0
370
    -2
100
AcDbLine
 10
-0.5
 20
-0.5
 30
0.0
 11
0.5
 21
-0.5
 31
0.0
  0
LINE
  5
2C
330
29
100
AcDbEntity
  8
0
  6
BYBLOCK
 62
     0
370
    -2
100
AcDbLine
 10
0.5
 20
-0.5
 30
0.0
 11
0.5
 21
0.5
 31
0.0
  0
LINE
  5
2D
330
29
100
AcDbEntity
  8
0
  6
BYBLOCK
 62
     0
370
    -2
100
AcDbLine
 10
0.5
 20
0.5
 30
0.0
 11
-0.5
 21
0.5
 31
0.0
  0
LINE
  5
2E
330
29
100
AcDbEntity
  8
0
  6
BYBLOCK
 62
     0
370
    -2
100
AcDbLine
 10
-0.5
 20
0.5
 30
0.0
 11
-0.5
 21
-0.5
 31
0.0
  0
LINE
  5
2F
330
29
100
AcDbEntity
  8
0
  6
BYBLOCK
 62
     0
370
    -2
100
AcDbLine
 10
-0.5
 20
0.0
 30
0.0
 11
-1.0
 21
0.0
 31
0.0
  0
ENDBLK
  5
30
330
29
100
AcDbEntity
  8
0
100
AcDbBlockEnd
  0
BLOCK
  5
32
330
31
100
AcDbEntity
  8
0
100
AcDbBlockBegin
  2
_OBLIQUE
 70
     0
 10
0.0
 20
0.0
 30
0.0
  3
_OBLIQUE
  1

  0
LINE
  5
33
330
31
100
AcDbEntity
  8
0
  6
BYBLOCK
 62
     0
370
    -2
100
AcDbLine
 10
-0.5
 20
-0.5
 30
0.0
 11
0.5
 21
0.5
 31
0.0
  0
ENDBLK
  5
34
330
31
100
AcDbEntity
  8
0
100
AcDbBlockEnd
  0
BLOCK
  5
36
330
35
100
AcDbEntity
  8
0
100
AcDbBlockBegin
  2
_OPEN90
 70
     0
 10
0.0
 20
0.0
 30
0.0
  3
_OPEN90
  1

  0
LINE
  5
37
330
35
100
AcDbEntity
  8
0
  6
BYBLOCK
 62
     0
370
    -2
100
AcDbLine
 10
-0.5
 20
0.5
 30
0.0
 11
0.0
 21
0.0
 31
0.0
  0
LINE
  5
38
330
35
100
AcDbEntity
  8
0
  6
BYBLOCK
 62
     0
370
    -2
100
AcDbLine
 10
0.0
 20
0.0
 30
0.0
 11
-0.5
 21
-0.5
 31
0.0
  0
LINE
  5
39
330
35
100
AcDbEntity
  8
0
  6
BYBLOCK
 62
     0
370
    -2
100
AcDbLine
 10
0.0
 20
0.0
 30
0.0
 11
-1.0
 21
0.0
 31
0.0
  0
ENDBLK
  5
3A
330
35
100
AcDbEntity
  8
0
100
AcDbBlockEnd
  0
BLOCK
  5
3C
330
3B
100
AcDbEntity
  8
0
100
AcDbBlockBegin
  2
_CLOSEDBLANK
 70
     0
 10
0.0
 20
0.0
 30
0.0
  3
_CLOSEDBLANK
  1

  0
LINE
  5
3D
330
3B
100
AcDbEntity
  8
0
  6
BYBLOCK
 62
     0
370
    -2
100
AcDbLine
 10
-1.0
 20
0.1666666666666666
 30
0.0
 11
0.0
 21
0.0
 31
0.0
  0
LINE
  5
3E
330
3B
100
AcDbEntity
  8
0
  6
BYBLOCK
 62
     0
370
    -2
100
AcDbLine
 10
0.0
 20
0.0
 30
0.0
 11
-1.0
 21
-0.1666666666666666
 31
0.0
  0
LINE
  5
3F
330
3B
100
AcDbEntity
  8
0
  6
BYBLOCK
 62
     0
370
    -2
100
AcDbLine
 10
-1.0
 20
0.1666666666666666
 30
0.0
 11
-1.0
 21
-0.1666666666666666
 31
0.0
  0
ENDBLK
  5
40
330
3B
100
AcDbEntity
  8
0
100
AcDbBlockEnd
  0
BLOCK
  5
42
330
41
100
AcDbEntity
  8
0
100
AcDbBlockBegin
  2
_DOTBLANK
 70
     0
 10
0.0
 20
0.0
 30
0.0
  3
_DOTBLANK
  1

  0
CIRCLE
  5
43
330
41
100
AcDbEntity
  8
0
  6
BYBLOCK
 62
     0
370
    -2
100
AcDbCircle
 10
0.0
 20
0.0
 30
0.0
 40
0.5
  0
LINE
  5
44
330
41
100
AcDbEntity
  8
0
  6
BYBLOCK
 62
     0
370
    -2
100
AcDbLine
 10
-0.5
 20
0.0
 30
0.0
 11
-1.0
 21
0.0
 31
0.0
  0
ENDBLK
  5
45
330
41
100
AcDbEntity
  8
0
100
AcDbBlockEnd
  0
ENDSEC
  0
SECTION
  2
ENTITIES
  0
MTEXT
  5
46
100
AcDbEntity
  8
A8
  6
CONTINUOUS
 62
3
100
AcDbMText
 10
9.999997526638502
 20
18.00000076076889
 30
0.000000000000000
 40
3.000000000000000
 41
0.000000000000000
 44
0.6739999771118164
 71
     7
 72
     1
  1
{\H0.94x;{TYPE No.TM-372S-3}}
 11
1.000000000000000
 21
0.000000000000000
 31
0.000000000000000
  7
STANDARD
  0
POINT
  5
47
100
AcDbEntity
  8
A0
  6
CONTINUOUS
 62
3
100
AcDbPoint
 10
9.999997526638502
 20
18.00000076076889
 30
0.000000000000000
  0
LINE
  5
48
100
AcDbEntity
  8
A5
  6
CONTINUOUS
 62
7
100
AcDbLine
 10
137.4983240957484
 20
98.00073046079699
 30
0.000000000000000
 11
137.4983240957429
 21
95.50073046079699
 31
0.000000000000000
  0
LINE
  5
49
100
AcDbEntity
  8
A4
  6
CONTINUOUS
 62
7
100
AcDbLine
 10
82.49832409574299
 20
95.50073046091840
 30
0.000000000000000
 11
137.4983240957429
 21
95.50073046079700
 31
0.000000000000000
  0
LINE
  5
4A
100
AcDbEntity
  8
A5
  6
CONTINUOUS
 62
7
100
AcDbLine
 10
82.49832409574849
 20
98.00073046091839
 30
0.000000000000000
 11
82.49832409574299
 21
95.50073046091839
 31
0.000000000000000
  0
LINE
  5
4B
100
AcDbEntity
  8
A10
  6
CONTINUOUS
 62
7
100
AcDbLine
 10
115.4831518896310
 20
111.5486836363607
 30
0.000000000000000
 11
115.4831523531238
 21
118.5007297780156
 31
0.000000000000000
  0
ARC
  5
4C
100
AcDbEntity
  8
A10
  6
CONTINUOUS
 62
7
100
AcDbCircle
 10
109.9983252543355
 20
125.3780716633293
 30
0.000000000000000
 40
14.87734171213799
100
AcDbArc
 50
269.9999961800914
 51
291.6336039474465
  0
ARC
  5
4D
100
AcDbEntity
  8
A10
  6
CONTINUOUS
 62
7
100
AcDbCircle
 10
118.2255658725832
 20
114.6130475997832
 30
0.000000000000000
 40
4.112318197101935
100
AcDbArc
 50
228.1734480905756
 51
269.9999961806658
  0
LINE
  5
4E
100
AcDbEntity
  8
A10
  6
CONTINUOUS
 62
7
100
AcDbLine
 10
120.9679794528822
 20
111.6379101304715
 30
0.000000000000000
 11
120.9679799104263
 21
118.5007295951730
 31
0.000000000000000
  0
LINE
  5
4F
100
AcDbEntity
  8
A10
  6
CONTINUOUS
 62
7
100
AcDbLine
 10
120.9679794528824
 20
111.6379101304715
 30
0.000000000000000
 11
118.9983242624635
 21
110.5007293511617
 31
0.000000000000000
  0
LINE
  5
50
100
AcDbEntity
  8
A10
  6
CONTINUOUS
 62
7
100
AcDbLine
 10
104.5134963019256
 20
111.5486836363849
 30
0.000000000000000
 11
104.5134958384635
 21
118.5007301437010
 31
0.000000000000000
  0
ARC
  5
51
100
AcDbEntity
  8
A10
  6
CONTINUOUS
 62
7
100
AcDbCircle
 10
109.9983229372823
 20
125.3780716633293
 30
0.000000000000000
 40
14.87734171213799
100
AcDbArc
 50
248.3663960523003
 51
270.0000038196554
  0
ARC
  5
52
100
AcDbEntity
  8
A10
  6
CONTINUOUS
 62
7
100
AcDbCircle
 10
101.7710823189870
 20
114.6130475998196
 30
0.000000000000000
 40
4.112318197101935
100
AcDbArc
 50
270.0000038190810
 51
311.8265519091713
  0
LINE
  5
53
100
AcDbEntity
  8
A10
  6
CONTINUOUS
 62
7
100
AcDbLine
 10
99.02866873867485
 20
111.6379101305200
 30
0.000000000000000
 11
99.02866828116105
 21
118.5007303265437
 31
0.000000000000000
  0
LINE
  5
54
100
AcDbEntity
  8
A10
  6
CONTINUOUS
 62
7
100
AcDbLine
 10
99.02866873867487
 20
111.6379101305199
 30
0.000000000000000
 11
100.9983239290886
 21
110.5007293512014
 31
0.000000000000000
  0
LINE
  5
55
100
AcDbEntity
  8
A10
  6
CONTINUOUS
 62
7
100
AcDbLine
 10
120.9679799104264
 20
118.5007295951730
 30
0.000000000000000
 11
99.02866828116105
 21
118.5007303265438
 31
0.000000000000000
  0
LINE
  5
56
100
AcDbEntity
  8
A10
  6
CONTINUOUS
 62
7
100
AcDbLine
 10
103.9983240960546
 20
236.5007303265395
 30
0.000000000000000
 11
115.9983240960546
 21
236.5007303265129
 31
0.000000000000000
  0
LINE
  5
57
100
AcDbEntity
  8
A10
  6
CONTINUOUS
 62
7
100
AcDbLine
 10
105.9983240960588
 20
238.5007303265285
 30
0.000000000000000
 11
113.9983240960587
 21
238.5007303265107
 31
0.000000000000000
  0
LINE
  5
58
100
AcDbEntity
  8
A10
  6
CONTINUOUS
 62
7
100
AcDbLine
 10
115.4831518897728
 20
264.5515523039352
 30
0.000000000000000
 11
115.4831524866055
 21
273.5035984455901
 31
0.000000000000000
  0
ARC
  5
59
100
AcDbEntity
  8
A10
  6
CONTINUOUS
 62
7
100
AcDbCircle
 10
109.9983252544773
 20
278.3809403309036
 30
0.000000000000000
 40
14.87734171213799
100
AcDbArc
 50
269.9999961800914
 51
291.6336039474465
  0
ARC
  5
5A
100
AcDbEntity
  8
A10
  6
CONTINUOUS
 62
7
100
AcDbCircle
 10
118.2255658727250
 20
267.6159162673575
 30
0.000000000000000
 40
4.112318197101935
100
AcDbArc
 50
228.1734480905756
 51
269.9999961806658
  0
LINE
  5
5B
100
AcDbEntity
  8
A10
  6
CONTINUOUS
 62
7
100
AcDbLine
 10
120.9679794530239
 20
264.6407787980457
 30
0.000000000000000
 11
120.9679800439079
 21
273.5035982627469
 31
0.000000000000000
  0
LINE
  5
5C
100
AcDbEntity
  8
A10
  6
CONTINUOUS
 62
7
100
AcDbLine
 10
120.9679794530242
 20
264.6407787980459
 30
0.000000000000000
 11
118.9983242626054
 21
263.5035980187360
 31
0.000000000000000
  0
LINE
  5
5D
100
AcDbEntity
  8
A10
  6
CONTINUOUS
 62
7
100
AcDbLine
 10
104.5134963020675
 20
264.5515523039593
 30
0.000000000000000
 11
104.5134957052742
 21
273.5035988112754
 31
0.000000000000000
  0
ARC
  5
5E
100
AcDbEntity
  8
A10
  6
CONTINUOUS
 62
7
100
AcDbCircle
 10
109.9983229374241
 20
278.3809403309036
 30
0.000000000000000
 40
14.87734171213799
100
AcDbArc
 50
248.3663960523003
 51
270.0000038196554
  0
ARC
  5
5F
100
AcDbEntity
  8
A10
  6
CONTINUOUS
 62
7
100
AcDbCircle
 10
101.7710823191288
 20
267.6159162673939
 30
0.000000000000000
 40
4.112318197101935
100
AcDbArc
 50
270.0000038190810
 51
311.8265519091713
  0
LINE
  5
60
100
AcDbEntity
  8
A10
  6
CONTINUOUS
 62
7
100
AcDbLine
 10
99.02866873881666
 20
264.6407787980943
 30
0.000000000000000
 11
99.02866814797177
 21
273.5035989941182
 31
0.000000000000000
  0
LINE
  5
61
100
AcDbEntity
  8
A10
  6
CONTINUOUS
 62
7
100
AcDbLine
 10
99.02866873881661
 20
264.6407787980942
 30
0.000000000000000
 11
100.9983239292304
 21
263.5035980187757
 31
0.000000000000000
  0
LINE
  5
62
100
AcDbEntity
  8
A10
  6
CONTINUOUS
 62
7
100
AcDbLine
 10
120.9679799105726
 20
273.5035982627476
 30
0.000000000000000
 11
99.02866828130725
 21
273.5035989941184
 31
0.000000000000000
  0
LINE
  5
63
100
AcDbEntity
  8
A10
  6
CONTINUOUS
 62
7
100
AcDbLine
 10
120.0006202216139
 20
110.5007296177539
 30
0.000000000000000
 11
99.99602877001840
 21
110.5007302846288
 31
0.000000000000000
  0
CIRCLE
  5
64
100
AcDbEntity
  8
A10
  6
CONTINUOUS
 62
7
100
AcDbCircle
 10
109.9983240959816
 20
326.0007304608577
 30
0.000000000000000
 40
27.50000000000000
  0
CIRCLE
  5
65
100
AcDbEntity
  8
A10
  6
CONTINUOUS
 62
7
100
AcDbCircle
 10
109.9983240959816
 20
326.0007304608577
 30
0.000000000000000
 40
6.000000000000000
  0
ARC
  5
66
100
AcDbEntity
  8
A10
  6
CONTINUOUS
 62
7
100
AcDbCircle
 10
109.9983240959816
 20
326.0007304608577
 30
0.000000000000000
 40
20.54543342317204
100
AcDbArc
 50
2.789837770388786
 51
87.21016222961121
  0
ARC
  5
67
100
AcDbEntity
  8
A10
  6
CONTINUOUS
 62
7
100
AcDbCircle
 10
109.9983240959816
 20
326.0007304608577
 30
0.000000000000000
 40
20.54543342317204
100
AcDbArc
 50
92.78983777038879
 51
177.2101622296112
  0
ARC
  5
68
100
AcDbEntity
  8
A10
  6
CONTINUOUS
 62
7
100
AcDbCircle
 10
109.9983240959816
 20
326.0007304608577
 30
0.000000000000000
 40
20.54543342317204
100
AcDbArc
 50
272.7898377703888
 51
357.2101622296112
  0
ARC
  5
69
100
AcDbEntity
  8
A10
  6
CONTINUOUS
 62
7
100
AcDbCircle
 10
109.9983240959816
 20
326.0007304608577
 30
0.000000000000000
 40
20.54543342317204
100
AcDbArc
 50
182.7898377703888
 51
267.2101622296113
  0
LINE
  5
6A
100
AcDbEntity
  8
A5
  6
CONTINUOUS
 62
7
100
AcDbLine
 10
104.5134965386799
 20
335.5007304608575
 30
0.000000000000000
 11
115.4831516532826
 21
335.5007304608579
 31
0.000000000000000
  0
LINE
  5
6B
100
AcDbEntity
  8
A5
  6
CONTINUOUS
 62
7
100
AcDbLine
 10
99.02866898137873
 20
326.0007304608577
 30
0.000000000000000
 11
104.5134965386800
 21
335.5007304608574
 31
0.000000000000000
  0
LINE
  5
6C
100
AcDbEntity
  8
A5
  6
CONTINUOUS
 62
7
100
AcDbLine
 10
104.5134965386810
 20
316.5007304608572
 30
0.000000000000000
 11
99.02866898137871
 21
326.0007304608578
 31
0.000000000000000
  0
LINE
  5
6D
100
AcDbEntity
  8
A5
  6
CONTINUOUS
 62
7
100
AcDbLine
 10
115.4831516532837
 20
316.5007304608581
 30
0.000000000000000
 11
104.5134965386810
 21
316.5007304608570
 31
0.000000000000000
  0
LINE
  5
6E
100
AcDbEntity
  8
A5
  6
CONTINUOUS
 62
7
100
AcDbLine
 10
120.9679792105844
 20
326.0007304608579
 30
0.000000000000000
 11
115.4831516532838
 21
316.5007304608582
 31
0.000000000000000
  0
LINE
  5
6F
100
AcDbEntity
  8
A5
  6
CONTINUOUS
 62
7
100
AcDbLine
 10
115.4831516532825
 20
335.5007304608579
 30
0.000000000000000
 11
120.9679792105843
 21
326.0007304608578
 31
0.000000000000000
  0
LINE
  5
70
100
AcDbEntity
  8
A10
  6
CONTINUOUS
 62
7
100
AcDbLine
 10
105.2483240957672
 20
119.0007301358722
 30
0.000000000000000
 11
105.2483240957711
 21
122.5007301192047
 31
0.000000000000000
  0
ARC
  5
71
100
AcDbEntity
  8
A10
  6
CONTINUOUS
 62
7
100
AcDbCircle
 10
104.7483240957672
 20
119.0007301358727
 30
0.000000000000000
 40
0.5000000000000000
100
AcDbArc
 50
270.0000000000000
 51
360.0000000000000
  0
LINE
  5
72
100
AcDbEntity
  8
A10
  6
CONTINUOUS
 62
7
100
AcDbLine
 10
114.9983240958026
 20
122.5007297941778
 30
0.000000000000000
 11
104.9983240958022
 21
122.5007301275387
 31
0.000000000000000
  0
LINE
  5
73
100
AcDbEntity
  8
A10
  6
CONTINUOUS
 62
7
100
AcDbLine
 10
115.9983240958048
 20
123.5007297608417
 30
0.000000000000000
 11
103.9983240958043
 21
123.5007297608417
 31
0.000000000000000
  0
LINE
  5
74
100
AcDbEntity
  8
A10
  6
CONTINUOUS
 62
7
100
AcDbLine
 10
115.9983240958047
 20
123.5007297608417
 30
0.000000000000000
 11
114.9983240958025
 21
122.5007297941778
 31
0.000000000000000
  0
LINE
  5
75
100
AcDbEntity
  8
A10
  6
CONTINUOUS
 62
7
100
AcDbLine
 10
114.7483240957672
 20
119.0007297858443
 30
0.000000000000000
 11
114.7483240957711
 21
122.5007298025118
 31
0.000000000000000
  0
ARC
  5
76
100
AcDbEntity
  8
A10
  6
CONTINUOUS
 62
7
100
AcDbCircle
 10
115.2483240957672
 20
119.0007297858438
 30
0.000000000000000
 40
0.5000000000000000
100
AcDbArc
 50
180.0000000000000
 51
270.0000000000000
  0
LINE
  5
77
100
AcDbEntity
  8
A10
  6
CONTINUOUS
 62
7
100
AcDbLine
 10
104.9983240958021
 20
122.5007301275387
 30
0.000000000000000
 11
103.9983240958045
 21
123.5007301608747
 31
0.000000000000000
  0
CIRCLE
  5
78
100
AcDbEntity
  8
A10
  6
CONTINUOUS
 62
7
100
AcDbCircle
 10
109.9983240956818
 20
43.00397553777822
 30
0.000000000000000
 40
27.50000000000000
  0
LINE
  5
79
100
AcDbEntity
  8
A5
  6
CONTINUOUS
 62
7
100
AcDbLine
 10
104.5134965383801
 20
52.50397553777801
 30
0.000000000000000
 11
115.4831516529828
 21
52.50397553777841
 31
0.000000000000000
  0
LINE
  5
7A
100
AcDbEntity
  8
A5
  6
CONTINUOUS
 62
7
100
AcDbLine
 10
99.02866898107885
 20
43.00397553777817
 30
0.000000000000000
 11
104.5134965383802
 21
52.50397553777800
 31
0.000000000000000
  0
LINE
  5
7B
100
AcDbEntity
  8
A5
  6
CONTINUOUS
 62
7
100
AcDbLine
 10
104.5134965383811
 20
33.50397553777756
 30
0.000000000000000
 11
99.02866898107875
 21
43.00397553777817
 31
0.000000000000000
  0
LINE
  5
7C
100
AcDbEntity
  8
A5
  6
CONTINUOUS
 62
7
100
AcDbLine
 10
115.4831516529839
 20
33.50397553777860
 30
0.000000000000000
 11
104.5134965383812
 21
33.50397553777761
 31
0.000000000000000
  0
LINE
  5
7D
100
AcDbEntity
  8
A5
  6
CONTINUOUS
 62
7
100
AcDbLine
 10
120.9679792102846
 20
43.00397553777817
 30
0.000000000000000
 11
115.4831516529840
 21
33.50397553777858
 31
0.000000000000000
  0
LINE
  5
7E
100
AcDbEntity
  8
A5
  6
CONTINUOUS
 62
7
100
AcDbLine
 10
115.4831516529826
 20
52.50397553777827
 30
0.000000000000000
 11
120.9679792102844
 21
43.00397553777809
 31
0.000000000000000
  0
CIRCLE
  5
7F
100
AcDbEntity
  8
A10
  6
CONTINUOUS
 62
7
100
AcDbCircle
 10
109.9983240956818
 20
43.00397553777822
 30
0.000000000000000
 40
5.400000000000000
  0
ARC
  5
80
100
AcDbEntity
  8
A10
  6
CONTINUOUS
 62
7
100
AcDbCircle
 10
109.9983240956818
 20
43.00397553777822
 30
0.000000000000000
 40
19.39086030791006
100
AcDbArc
 50
2.956094043377901
 51
87.04390595662211
  0
ARC
  5
81
100
AcDbEntity
  8
A10
  6
CONTINUOUS
 62
7
100
AcDbCircle
 10
109.9983240956818
 20
43.00397553777822
 30
0.000000000000000
 40
19.39086030791006
100
AcDbArc
 50
92.95609404337790
 51
177.0439059566221
  0
ARC
  5
82
100
AcDbEntity
  8
A10
  6
CONTINUOUS
 62
7
100
AcDbCircle
 10
109.9983240956818
 20
43.00397553777822
 30
0.000000000000000
 40
19.39086030791006
100
AcDbArc
 50
182.9560940433779
 51
267.0439059566221
  0
ARC
  5
83
100
AcDbEntity
  8
A10
  6
CONTINUOUS
 62
7
100
AcDbCircle
 10
109.9983240956818
 20
43.00397553777822
 30
0.000000000000000
 40
19.39086030791006
100
AcDbArc
 50
272.9560940433777
 51
357.0439059566221
  0
ARC
  5
84
100
AcDbEntity
  8
A10
  6
CONTINUOUS
 62
7
100
AcDbCircle
 10
109.9983240956818
 20
43.00397553777822
 30
0.000000000000000
 40
11.24577871278825
100
AcDbArc
 50
185.1016082398935
 51
264.8983917601066
  0
ARC
  5
85
100
AcDbEntity
  8
A10
  6
CONTINUOUS
 62
7
100
AcDbCircle
 10
109.9983240956818
 20
43.00397553777822
 30
0.000000000000000
 40
11.24577871278825
100
AcDbArc
 50
95.10160823989345
 51
174.8983917601066
  0
ARC
  5
86
100
AcDbEntity
  8
A10
  6
CONTINUOUS
 62
7
100
AcDbCircle
 10
109.9983240956818
 20
43.00397553777822
 30
0.000000000000000
 40
11.24577871278825
100
AcDbArc
 50
275.1016082398934
 51
354.8983917601065
  0
ARC
  5
87
100
AcDbEntity
  8
A10
  6
CONTINUOUS
 62
7
100
AcDbCircle
 10
109.9983240956818
 20
43.00397553777822
 30
0.000000000000000
 40
11.24577871278825
100
AcDbArc
 50
5.101608239893449
 51
84.89839176010655
  0
LINE
  5
88
100
AcDbEntity
  8
A10
  6
CONTINUOUS
 62
7
100
AcDbLine
 10
110.9786039734752
 20
43.98425541557164
 30
0.000000000000000
 11
111.5003435197130
 21
43.75196200332672
 31
0.000000000000000
  0
LINE
  5
89
100
AcDbEntity
  8
A10
  6
CONTINUOUS
 62
7
100
AcDbLine
 10
110.9786039734752
 20
43.98425541557165
 30
0.000000000000000
 11
110.7463105612300
 21
44.50599496181049
 31
0.000000000000000
  0
LINE
  5
8A
100
AcDbEntity
  8
A10
  6
CONTINUOUS
 62
7
100
AcDbLine
 10
111.5003435197131
 20
43.75196200332672
 30
0.000000000000000
 11
112.4411324689037
 21
43.73554047113484
 31
0.000000000000000
  0
LINE
  5
8B
100
AcDbEntity
  8
A10
  6
CONTINUOUS
 62
7
100
AcDbLine
 10
110.7463105612300
 20
44.50599496181060
 30
0.000000000000000
 11
110.7298890290382
 21
45.44678391100009
 31
0.000000000000000
  0
LINE
  5
8C
100
AcDbEntity
  8
A10
  6
CONTINUOUS
 62
7
100
AcDbLine
 10
111.5003435197133
 20
42.25598907222963
 30
0.000000000000000
 11
112.4411324689037
 21
42.27241060442151
 31
0.000000000000000
  0
LINE
  5
8D
100
AcDbEntity
  8
A10
  6
CONTINUOUS
 62
7
100
AcDbLine
 10
110.9786039734752
 20
42.02369565998481
 30
0.000000000000000
 11
111.5003435197134
 21
42.25598907222961
 31
0.000000000000000
  0
LINE
  5
8E
100
AcDbEntity
  8
A10
  6
CONTINUOUS
 62
7
100
AcDbLine
 10
110.9786039734751
 20
42.02369565998478
 30
0.000000000000000
 11
110.7463105612298
 21
41.50195611374613
 31
0.000000000000000
  0
LINE
  5
8F
100
AcDbEntity
  8
A10
  6
CONTINUOUS
 62
7
100
AcDbLine
 10
110.7463105612300
 20
41.50195611374614
 30
0.000000000000000
 11
110.7298890290382
 21
40.56116716455646
 31
0.000000000000000
  0
LINE
  5
90
100
AcDbEntity
  8
A10
  6
CONTINUOUS
 62
7
100
AcDbLine
 10
109.2503376301332
 20
41.50195611374653
 30
0.000000000000000
 11
109.2667591623251
 21
40.56116716455620
 31
0.000000000000000
  0
LINE
  5
91
100
AcDbEntity
  8
A10
  6
CONTINUOUS
 62
7
100
AcDbLine
 10
109.0180442178882
 20
42.02369565998474
 30
0.000000000000000
 11
109.2503376301332
 21
41.50195611374659
 31
0.000000000000000
  0
LINE
  5
92
100
AcDbEntity
  8
A10
  6
CONTINUOUS
 62
7
100
AcDbLine
 10
109.0180442178880
 20
42.02369565998472
 30
0.000000000000000
 11
108.4963046716492
 21
42.25598907223004
 31
0.000000000000000
  0
LINE
  5
93
100
AcDbEntity
  8
A10
  6
CONTINUOUS
 62
7
100
AcDbLine
 10
108.4963046716493
 20
42.25598907223016
 30
0.000000000000000
 11
107.5555157224596
 21
42.27241060442195
 31
0.000000000000000
  0
LINE
  5
94
100
AcDbEntity
  8
A10
  6
CONTINUOUS
 62
7
100
AcDbLine
 10
108.4963046716503
 20
43.75196200332682
 30
0.000000000000000
 11
107.5555157224599
 21
43.73554047113493
 31
0.000000000000000
  0
LINE
  5
95
100
AcDbEntity
  8
A10
  6
CONTINUOUS
 62
7
100
AcDbLine
 10
109.0180442178883
 20
43.98425541557155
 30
0.000000000000000
 11
108.4963046716503
 21
43.75196200332669
 31
0.000000000000000
  0
LINE
  5
96
100
AcDbEntity
  8
A10
  6
CONTINUOUS
 62
7
100
AcDbLine
 10
109.0180442178882
 20
43.98425541557150
 30
0.000000000000000
 11
109.2503376301336
 21
44.50599496181045
 31
0.000000000000000
  0
LINE
  5
97
100
AcDbEntity
  8
A10
  6
CONTINUOUS
 62
7
100
AcDbLine
 10
109.2503376301336
 20
44.50599496181056
 30
0.000000000000000
 11
109.2667591623253
 21
45.44678391100005
 31
0.000000000000000
  0
ARC
  5
98
100
AcDbEntity
  8
A10
  6
CONTINUOUS
 62
7
100
AcDbCircle
 10
109.9983240956818
 20
43.00397553777822
 30
0.000000000000000
 40
2.550000000000000
100
AcDbArc
 50
253.3282509640041
 51
286.6717490359751
  0
ARC
  5
99
100
AcDbEntity
  8
A10
  6
CONTINUOUS
 62
7
100
AcDbCircle
 10
109.9983240956818
 20
43.00397553777822
 30
0.000000000000000
 40
2.550000000000000
100
AcDbArc
 50
163.3282509640078
 51
196.6717490359734
  0
ARC
  5
9A
100
AcDbEntity
  8
A10
  6
CONTINUOUS
 62
7
100
AcDbCircle
 10
109.9983240956818
 20
43.00397553777822
 30
0.000000000000000
 40
2.550000000000000
100
AcDbArc
 50
343.3282509640145
 51
376.6717490359853
  0
ARC
  5
9B
100
AcDbEntity
  8
A10
  6
CONTINUOUS
 62
7
100
AcDbCircle
 10
109.9983240956818
 20
43.00397553777822
 30
0.000000000000000
 40
2.550000000000000
100
AcDbArc
 50
73.32825096401848
 51
106.6717490359765
  0
LINE
  5
9C
100
AcDbEntity
  8
A10
  6
CONTINUOUS
 62
7
100
AcDbLine
 10
115.9983240960544
 20
236.5007303265063
 30
0.000000000000000
 11
113.9983240960588
 21
238.5007303265108
 31
0.000000000000000
  0
LINE
  5
9D
100
AcDbEntity
  8
A10
  6
CONTINUOUS
 62
7
100
AcDbLine
 10
105.9983240960589
 20
238.5007303265284
 30
0.000000000000000
 11
103.9983240960544
 21
236.5007303265328
 31
0.000000000000000
  0
CIRCLE
  5
9E
100
AcDbEntity
  8
A10
  6
CONTINUOUS
 62
7
100
AcDbCircle
 10
109.9983240959816
 20
326.0007304608577
 30
0.000000000000000
 40
4.000000000000000
  0
ARC
  5
9F
100
AcDbEntity
  8
A10
  6
CONTINUOUS
 62
7
100
AcDbCircle
 10
109.9983240959816
 20
326.0007304608577
 30
0.000000000000000
 40
12.50000000000000
100
AcDbArc
 50
4.588565735785825
 51
85.41143426421418
  0
ARC
  5
A0
100
AcDbEntity
  8
A10
  6
CONTINUOUS
 62
7
100
AcDbCircle
 10
109.9983240959816
 20
326.0007304608577
 30
0.000000000000000
 40
12.50000000000000
100
AcDbArc
 50
274.5885657357858
 51
355.4114342642142
  0
ARC
  5
A1
100
AcDbEntity
  8
A10
  6
CONTINUOUS
 62
7
100
AcDbCircle
 10
109.9983240959816
 20
326.0007304608577
 30
0.000000000000000
 40
12.50000000000000
100
AcDbArc
 50
94.58856573578583
 51
175.4114342642142
  0
ARC
  5
A2
100
AcDbEntity
  8
A10
  6
CONTINUOUS
 62
7
100
AcDbCircle
 10
109.9983240959816
 20
326.0007304608577
 30
0.000000000000000
 40
12.50000000000000
100
AcDbArc
 50
184.5885657357858
 51
265.4114342642142
  0
CIRCLE
  5
A3
100
AcDbEntity
  8
A10
  6
CONTINUOUS
 62
7
100
AcDbCircle
 10
109.9983240956818
 20
43.00397553777822
 30
0.000000000000000
 40
4.900000000000000
  0
LINE
  5
A4
100
AcDbEntity
  8
A10
  6
CONTINUOUS
 62
7
100
AcDbLine
 10
90.64221581488461
 20
100.6919868850160
 30
0.000000000000000
 11
93.78695270441803
 21
106.7329702438365
 31
0.000000000000000
  0
ARC
  5
A5
100
AcDbEntity
  8
A10
  6
CONTINUOUS
 62
7
100
AcDbCircle
 10
99.99602853666568
 20
103.5007299511913
 30
0.000000000000000
 40
7.000000000000000
100
AcDbArc
 50
90.00000000000000
 51
152.5000000000001
  0
ARC
  5
A6
100
AcDbEntity
  8
A10
  6
CONTINUOUS
 62
7
100
AcDbCircle
 10
86.20716164899369
 20
103.0007299511912
 30
0.000000000000000
 40
5.000000000000000
100
AcDbArc
 50
270.0000000000000
 51
332.5000000000000
  0
ARC
  5
A7
100
AcDbEntity
  8
A10
  6
CONTINUOUS
 62
7
100
AcDbCircle
 10
120.0006199882613
 20
103.5007299511913
 30
0.000000000000000
 40
7.000000000000000
100
AcDbArc
 50
27.49999999999991
 51
90.00000000000000
  0
LINE
  5
A8
100
AcDbEntity
  8
A10
  6
CONTINUOUS
 62
7
100
AcDbLine
 10
129.3544327100423
 20
100.6919868850162
 30
0.000000000000000
 11
126.2096958205089
 21
106.7329702438366
 31
0.000000000000000
  0
ARC
  5
A9
100
AcDbEntity
  8
A10
  6
CONTINUOUS
 62
7
100
AcDbCircle
 10
133.7894868759333
 20
103.0007299511912
 30
0.000000000000000
 40
5.000000000000000
100
AcDbArc
 50
207.5000000000000
 51
270.0000000000000
  0
LINE
  5
AA
100
AcDbEntity
  8
A10
  6
CONTINUOUS
 62
7
100
AcDbLine
 10
82.49832409574850
 20
98.00073046091839
 30
0.000000000000000
 11
137.4983240957396
 21
98.00073046085770
 31
0.000000000000000
  0
LINE
  5
AB
100
AcDbEntity
  8
A10
  6
CONTINUOUS
 62
7
100
AcDbLine
 10
103.9983240958044
 20
123.5007297608417
 30
0.000000000000000
 11
103.9983240960544
 21
236.5007303265328
 31
0.000000000000000
  0
LINE
  5
AC
100
AcDbEntity
  8
A10
  6
CONTINUOUS
 62
7
100
AcDbLine
 10
115.9983240958048
 20
123.5007297608417
 30
0.000000000000000
 11
115.9983240960544
 21
236.5007303265063
 31
0.000000000000000
  0
LINE
  5
AD
100
AcDbEntity
  8
A4
  6
CONTINUOUS
 62
7
100
AcDbLine
 10
100.9985714244930
 20
263.5035989284490
 30
0.000000000000000
 11
118.9967528527139
 21
263.5035983187930
 31
0.000000000000000
  0
LINE
  5
AE
100
AcDbEntity
  8
A0
  6
CENTER
 62
1
100
AcDbLine
 10
109.9983240957662
 20
90.50073046085768
 30
0.000000000000000
 11
109.9983240959041
 21
243.5007303265196
 31
0.000000000000000
  0
LINE
  5
AF
100
AcDbEntity
  8
A0
  6
CENTER
 62
1
100
AcDbLine
 10
77.49832409568178
 20
43.00397553777822
 30
0.000000000000000
 11
142.4983240956818
 21
43.00397553777822
 31
0.000000000000000
  0
LINE
  5
B0
100
AcDbEntity
  8
A0
  6
CENTER
 62
1
100
AcDbLine
 10
109.9983240956818
 20
10.50397553777822
 30
0.000000000000000
 11
109.9983240956818
 21
75.50397553777822
 31
0.000000000000000
  0
LINE
  5
B1
100
AcDbEntity
  8
A0
  6
CENTER
 62
1
100
AcDbLine
 10
109.9983240959153
 20
258.6682101551540
 30
0.000000000000000
 11
109.9983240959331
 21
278.5035986284327
 31
0.000000000000000
  0
LINE
  5
B2
100
AcDbEntity
  8
A0
  6
CENTER
 62
1
100
AcDbLine
 10
109.9983240959816
 20
293.5007304608577
 30
0.000000000000000
 11
109.9983240959816
 21
358.5007304608577
 31
0.000000000000000
  0
LINE
  5
B3
100
AcDbEntity
  8
A0
  6
CENTER
 62
1
100
AcDbLine
 10
77.49832409598160
 20
326.0007304608577
 30
0.000000000000000
 11
142.4983240959816
 21
326.0007304608577
 31
0.000000000000000
  0
LINE
  5
B4
100
AcDbEntity
  8
A5
  6
CONTINUOUS
 62
4
100
AcDbLine
 10
104.9453240958027
 20
122.5537301293049
 30
0.000000000000000
 11
104.9453240960565
 21
237.4477303265307
 31
0.000000000000000
  0
LINE
  5
B5
100
AcDbEntity
  8
A5
  6
CONTINUOUS
 62
4
100
AcDbLine
 10
115.0513240957874
 20
122.5537301292958
 30
0.000000000000000
 11
115.0513240957406
 21
237.4477303265216
 31
0.000000000000000
  0
POINT
  5
B6
100
AcDbEntity
  8
DXF0
  6
CONTINUOUS
 62
3
100
AcDbPoint
 10
109.9983240959816
 20
331.0537304608144
 30
0.000000000000000
  0
LINE
  5
B7
100
AcDbEntity
  8
A5
  6
CONTINUOUS
 62
7
100
AcDbLine
 10
237.4983240957484
 20
98.00073046079699
 30
0.000000000000000
 11
237.4983240957429
 21
95.50073046079699
 31
0.000000000000000
  0
LINE
  5
B8
100
AcDbEntity
  8
A4
  6
CONTINUOUS
 62
7
100
AcDbLine
 10
182.4983240957430
 20
95.50073046091840
 30
0.000000000000000
 11
237.4983240957428
 21
95.50073046079700
 31
0.000000000000000
  0
LINE
  5
B9
100
AcDbEntity
  8
A5
  6
CONTINUOUS
 62
7
100
AcDbLine
 10
182.4983240957485
 20
98.00073046091839
 30
0.000000000000000
 11
182.4983240957430
 21
95.50073046091839
 31
0.000000000000000
  0
LINE
  5
BA
100
AcDbEntity
  8
A10
  6
CONTINUOUS
 62
7
100
AcDbLine
 10
203.9983240960546
 20
236.5007303265395
 30
0.000000000000000
 11
215.9983240960546
 21
236.5007303265129
 31
0.000000000000000
  0
LINE
  5
BB
100
AcDbEntity
  8
A10
  6
CONTINUOUS
 62
7
100
AcDbLine
 10
205.9983240960588
 20
238.5007303265286
 30
0.000000000000000
 11
213.9983240960587
 21
238.5007303265108
 31
0.000000000000000
  0
LINE
  5
BC
100
AcDbEntity
  8
A10
  6
CONTINUOUS
 62
7
100
AcDbLine
 10
205.2483240957672
 20
119.0007301358722
 30
0.000000000000000
 11
205.2483240957711
 21
122.5007301192047
 31
0.000000000000000
  0
ARC
  5
BD
100
AcDbEntity
  8
A10
  6
CONTINUOUS
 62
7
100
AcDbCircle
 10
204.7483240957672
 20
119.0007301358727
 30
0.000000000000000
 40
0.5000000000000000
100
AcDbArc
 50
270.0000000000000
 51
360.0000000000000
  0
LINE
  5
BE
100
AcDbEntity
  8
A10
  6
CONTINUOUS
 62
7
100
AcDbLine
 10
214.9983240958026
 20
122.5007297941778
 30
0.000000000000000
 11
204.9983240958022
 21
122.5007301275387
 31
0.000000000000000
  0
LINE
  5
BF
100
AcDbEntity
  8
A10
  6
CONTINUOUS
 62
7
100
AcDbLine
 10
215.9983240958048
 20
123.5007297608417
 30
0.000000000000000
 11
203.9983240958043
 21
123.5007297608417
 31
0.000000000000000
  0
LINE
  5
C0
100
AcDbEntity
  8
A10
  6
CONTINUOUS
 62
7
100
AcDbLine
 10
215.9983240958045
 20
123.5007297608416
 30
0.000000000000000
 11
214.9983240958023
 21
122.5007297941777
 31
0.000000000000000
  0
LINE
  5
C1
100
AcDbEntity
  8
A10
  6
CONTINUOUS
 62
7
100
AcDbLine
 10
214.7483240957671
 20
119.0007297858443
 30
0.000000000000000
 11
214.7483240957710
 21
122.5007298025118
 31
0.000000000000000
  0
ARC
  5
C2
100
AcDbEntity
  8
A10
  6
CONTINUOUS
 62
7
100
AcDbCircle
 10
215.2483240957672
 20
119.0007297858438
 30
0.000000000000000
 40
0.5000000000000000
100
AcDbArc
 50
180.0000000000000
 51
270.0000000000000
  0
LINE
  5
C3
100
AcDbEntity
  8
A10
  6
CONTINUOUS
 62
7
100
AcDbLine
 10
204.9983240958024
 20
122.5007301275386
 30
0.000000000000000
 11
203.9983240958047
 21
123.5007301608747
 31
0.000000000000000
  0
LINE
  5
C4
100
AcDbEntity
  8
A10
  6
CONTINUOUS
 62
7
100
AcDbLine
 10
215.9983240960544
 20
236.5007303265064
 30
0.000000000000000
 11
213.9983240960588
 21
238.5007303265108
 31
0.000000000000000
  0
LINE
  5
C5
100
AcDbEntity
  8
A10
  6
CONTINUOUS
 62
7
100
AcDbLine
 10
205.9983240960589
 20
238.5007303265284
 30
0.000000000000000
 11
203.9983240960544
 21
236.5007303265328
 31
0.000000000000000
  0
LINE
  5
C6
100
AcDbEntity
  8
A10
  6
CONTINUOUS
 62
7
100
AcDbLine
 10
190.6422158148847
 20
100.6919868850160
 30
0.000000000000000
 11
193.7869527044181
 21
106.7329702438365
 31
0.000000000000000
  0
ARC
  5
C7
100
AcDbEntity
  8
A10
  6
CONTINUOUS
 62
7
100
AcDbCircle
 10
199.9960285366657
 20
103.5007299511913
 30
0.000000000000000
 40
7.000000000000000
100
AcDbArc
 50
90.00000000000000
 51
152.5000000000001
  0
ARC
  5
C8
100
AcDbEntity
  8
A10
  6
CONTINUOUS
 62
7
100
AcDbCircle
 10
186.2071616489937
 20
103.0007299511912
 30
0.000000000000000
 40
5.000000000000000
100
AcDbArc
 50
270.0000000000000
 51
332.5000000000000
  0
ARC
  5
C9
100
AcDbEntity
  8
A10
  6
CONTINUOUS
 62
7
100
AcDbCircle
 10
220.0006199882613
 20
103.5007299511913
 30
0.000000000000000
 40
7.000000000000000
100
AcDbArc
 50
27.49999999999991
 51
90.00000000000000
  0
LINE
  5
CA
100
AcDbEntity
  8
A10
  6
CONTINUOUS
 62
7
100
AcDbLine
 10
229.3544327100423
 20
100.6919868850162
 30
0.000000000000000
 11
226.2096958205089
 21
106.7329702438366
 31
0.000000000000000
  0
ARC
  5
CB
100
AcDbEntity
  8
A10
  6
CONTINUOUS
 62
7
100
AcDbCircle
 10
233.7894868759333
 20
103.0007299511912
 30
0.000000000000000
 40
5.000000000000000
100
AcDbArc
 50
207.5000000000000
 51
270.0000000000000
  0
LINE
  5
CC
100
AcDbEntity
  8
A10
  6
CONTINUOUS
 62
7
100
AcDbLine
 10
182.4983240957485
 20
98.00073046091838
 30
0.000000000000000
 11
237.4983240957395
 21
98.00073046085768
 31
0.000000000000000
  0
LINE
  5
CD
100
AcDbEntity
  8
A10
  6
CONTINUOUS
 62
7
100
AcDbLine
 10
203.9983240958044
 20
123.5007297608417
 30
0.000000000000000
 11
203.9983240960544
 21
236.5007303265328
 31
0.000000000000000
  0
LINE
  5
CE
100
AcDbEntity
  8
A10
  6
CONTINUOUS
 62
7
100
AcDbLine
 10
215.9983240958048
 20
123.5007297608417
 30
0.000000000000000
 11
215.9983240960544
 21
236.5007303265063
 31
0.000000000000000
  0
LINE
  5
CF
100
AcDbEntity
  8
A0
  6
CENTER
 62
1
100
AcDbLine
 10
209.9983240957662
 20
90.50073046085768
 30
0.000000000000000
 11
209.9983240959041
 21
243.5007303265196
 31
0.000000000000000
  0
LINE
  5
D0
100
AcDbEntity
  8
A5
  6
CONTINUOUS
 62
4
100
AcDbLine
 10
204.9453240958027
 20
122.5537301293049
 30
0.000000000000000
 11
204.9453240960565
 21
237.4477303265307
 31
0.000000000000000
  0
LINE
  5
D1
100
AcDbEntity
  8
A5
  6
CONTINUOUS
 62
4
100
AcDbLine
 10
215.0513240957874
 20
122.5537301292958
 30
0.000000000000000
 11
215.0513240957407
 21
237.4477303265216
 31
0.000000000000000
  0
LINE
  5
D2
100
AcDbEntity
  8
A10
  6
CONTINUOUS
 62
7
100
AcDbLine
 10
219.4983240957932
 20
110.5007296177539
 30
0.000000000000000
 11
219.4983240957932
 21
118.5007296441654
 31
0.000000000000000
  0
LINE
  5
D3
100
AcDbEntity
  8
A10
  6
CONTINUOUS
 62
7
100
AcDbLine
 10
219.4983240957932
 20
118.5007296441654
 30
0.000000000000000
 11
200.4983240957923
 21
118.5007302775511
 31
0.000000000000000
  0
LINE
  5
D4
100
AcDbEntity
  8
A10
  6
CONTINUOUS
 62
7
100
AcDbLine
 10
209.9983240957932
 20
111.5486835213790
 30
0.000000000000000
 11
209.9983240957932
 21
118.5007299608583
 31
0.000000000000000
  0
LINE
  5
D5
100
AcDbEntity
  8
A10
  6
CONTINUOUS
 62
7
100
AcDbLine
 10
200.4983240957923
 20
110.5007302678843
 30
0.000000000000000
 11
200.4983240957923
 21
118.5007302775512
 31
0.000000000000000
  0
ARC
  5
D6
100
AcDbEntity
  8
DXF0
  6
CONTINUOUS
 62
7
100
AcDbCircle
 10
205.2483240957927
 20
121.7897351283195
 30
0.000000000000000
 40
11.28900518274364
100
AcDbArc
 50
245.1172076328637
 51
294.8827923671368
  0
ARC
  5
D7
100
AcDbEntity
  8
DXF0
  6
CONTINUOUS
 62
7
100
AcDbCircle
 10
214.7483240957937
 20
121.7897351283195
 30
0.000000000000000
 40
11.28900518274364
100
AcDbArc
 50
245.1172076328632
 51
294.8827923671361
  0
LINE
  5
D8
100
AcDbEntity
  8
A10
  6
CONTINUOUS
 62
7
100
AcDbLine
 10
219.4983240959239
 20
263.5035980354803
 30
0.000000000000000
 11
219.4983240959239
 21
273.5035981288972
 31
0.000000000000000
  0
LINE
  5
D9
100
AcDbEntity
  8
A10
  6
CONTINUOUS
 62
7
100
AcDbLine
 10
219.4983240959238
 20
273.5035981288971
 30
0.000000000000000
 11
200.4983240959230
 21
273.5035987622828
 31
0.000000000000000
  0
LINE
  5
DA
100
AcDbEntity
  8
A10
  6
CONTINUOUS
 62
7
100
AcDbLine
 10
209.9983240959239
 20
264.5515519223611
 30
0.000000000000000
 11
209.9983240959239
 21
273.5035984455901
 31
0.000000000000000
  0
LINE
  5
DB
100
AcDbEntity
  8
A10
  6
CONTINUOUS
 62
7
100
AcDbLine
 10
200.4983240959230
 20
263.5035986688661
 30
0.000000000000000
 11
200.4983240959230
 21
273.5035987622830
 31
0.000000000000000
  0
ARC
  5
DC
100
AcDbEntity
  8
DXF0
  6
CONTINUOUS
 62
7
100
AcDbCircle
 10
205.2483240959234
 20
274.7926035293016
 30
0.000000000000000
 40
11.28900518274364
100
AcDbArc
 50
245.1172076328637
 51
294.8827923671368
  0
ARC
  5
DD
100
AcDbEntity
  8
DXF0
  6
CONTINUOUS
 62
7
100
AcDbCircle
 10
214.7483240959244
 20
274.7926035293016
 30
0.000000000000000
 40
11.28900518274364
100
AcDbArc
 50
245.1172076328632
 51
294.8827923671361
  0
LINE
  5
DE
100
AcDbEntity
  8
A0
  6
CENTER
 62
1
100
AcDbLine
 10
209.9983240959104
 20
258.6682068215453
 30
0.000000000000000
 11
209.9983240959283
 21
278.5035952948240
 31
0.000000000000000
  0
POINT
  5
DF
100
AcDbEntity
  8
A20
  6
CONTINUOUS
 62
3
100
AcDbPoint
 10
50.00000000000000
 20
50.00000000000000
 30
0.000000000000000
  0
LINE
  5
E0
100
AcDbEntity
  8
A10
  6
CONTINUOUS
 62
7
100
AcDbLine
 10
199.9960287700183
 20
110.5007302846288
 30
0.000000000000000
 11
220.0006202216139
 21
110.5007296177539
 31
0.000000000000000
  0
LINE
  5
E1
100
AcDbEntity
  8
A10
  6
CONTINUOUS
 62
7
100
AcDbLine
 10
200.4983240959230
 20
263.5035986688661
 30
0.000000000000000
 11
219.4983240959240
 21
263.5035980354804
 31
0.000000000000000
  0
CIRCLE
  5
E2
100
AcDbEntity
  8
DXF0
  6
CONTINUOUS
 62
4
100
AcDbCircle
 10
109.9983240959816
 20
326.0007304608577
 30
0.000000000000000
 40
5.052999999956683
  0
ENDSEC
  0
SECTION
  2
OBJECTS
  0
DICTIONARY
  5
117
100
AcDbDictionary
  3
ACAD_GROUP
350
118
  3
ACAD_LAYOUT
350
119
  3
ACAD_MLINESTYLE
350
11A
  0
DICTIONARY
  5
118
102
{ACAD_REACTORS
330
117
102
}
330
117
100
AcDbDictionary
  0
DICTIONARY
  5
119
102
{ACAD_REACTORS
330
117
102
}
330
117
100
AcDbDictionary
  3
Model
350
11B
  3
ﾚｲｱｳﾄ1
350
11C
  3
ﾚｲｱｳﾄ2
350
11D
  0
DICTIONARY
  5
11A
102
{ACAD_REACTORS
330
117
102
}
330
117
100
AcDbDictionary
  3
STANDARD
350
11E
  0
LAYOUT
  5
11B
102
{ACAD_REACTORS
330
119
102
}
330
119
100
AcDbPlotSettings
 70
11952
  4
A3
 44
297.000000
 45
420.000000
 73
  1
 72
  1
100
AcDbLayout
  1
Model
 71
0
330
10E
  0
LAYOUT
  5
11C
102
{ACAD_REACTORS
330
119
102
}
330
119
100
AcDbPlotSettings
100
AcDbLayout
  1
ﾚｲｱｳﾄ1
 71
1
330
10F
  0
LAYOUT
  5
11D
102
{ACAD_REACTORS
330
119
102
}
330
119
100
AcDbPlotSettings
100
AcDbLayout
  1
ﾚｲｱｳﾄ2
 71
2
330
110
  0
MLINESTYLE
  5
11E
102
{ACAD_REACTORS
330
11A
102
}
330
11A
100
AcDbMlineStyle
  2
STANDARD
 70
     0
  3

 62
   256
 51
90.00
 52
90.00
 71
     2
 49
0.50
 62
   256
  6
BYLAYER
 49
-0.50
 62
   256
  6
BYLAYER
  0
ENDSEC
  0
EOF
